999
DXF file: C:\Users\sesa63760\Dev\_Creo\CAD\MCADPD0005274_3D-CAD\drw0001_1.dxf
999
Pro/ENGINEER 2019471 by Parametric Technology Corporation
  0
SECTION
  2
HEADER
  9
$ACADVER
  1
AC1024
  9
$DWGCODEPAGE
  3
ANSI_1252
  9
$EXTMAX
 10
124.7414210473
 20
176.4200097669
 30
0.0
  9
$EXTMIN
 10
0.0
 20
0.0
 30
0.0
  9
$LIMMIN
 10
0.0
 20
0.0
  9
$LIMMAX
 10
124.7414210473
 20
176.4200097669
  9
$VIEWCTR
 10
62.3707105237
 20
88.2100048835
  9
$VIEWSIZE
 40
176.4200097669
  9
$CLAYER
  8
0
  9
$LTSCALE
 40
11.499971007
  9
$CELTYPE
  6
BYLAYER
  9
$DIMSCALE
 40
1.0
  9
$DIMASZ
 40
1.4850169172
  9
$DIMEXO
 40
1.0
  9
$DIMDLI
 40
7.9454345139
  9
$DIMEXE
 40
1.0
  9
$DIMCEN
 40
1.8818134375
  9
$DIMLFAC
 40
1.0
  9
$DIMBLK
  1
_FILLED
  9
$DIMALT
 70
0
  9
$DIMALTF
 40
0.0393700787
  9
$DIMTXT
 40
2.0790236841
  9
$DIMTOL
 70
1
  9
$DIMLIM
 70
0
  9
$DIMTFAC
 40
1.0
  9
$DIMTP
 40
0.01
  9
$DIMTM
 40
0.01
  9
$DIMGAP
 40
0.625
  9
$DIMDSEP
 70
46
  9
$AUNITS
 70
0
  9
$PDMODE
 70
3
  9
$PDSIZE
 40
0.3125
  9
$HANDSEED
  5
488
  9
$TILEMODE
 70
1
  9
$MEASUREMENT
 70
1
  9
$INSUNITS
 70
4
  0
ENDSEC
  0
SECTION
  2
CLASSES
  0
CLASS
  1
ACDBDICTIONARYWDFLT
  2
AcDbDictionaryWithDefault
  3
AutoCAD 2000
 90
0
 91
1
280
0
281
0
  0
CLASS
  1
ACDBPLACEHOLDER
  2
AcDbPlaceHolder
  3
AutoCAD 2000
 90
0
 91
1
280
0
281
0
  0
CLASS
  1
LAYOUT
  2
AcDbLayout
  3
AutoCAD 2000
 90
0
 91
0
280
0
281
0
  0
ENDSEC
  0
SECTION
  2
TABLES
  0
TABLE
  2
VPORT
  5
8
100
AcDbSymbolTable
 70
2
  0
VPORT
  5
1F4
100
AcDbSymbolTableRecord
100
AcDbViewportTableRecord
  2
*ACTIVE
 70
0
 10
0.0
 20
0.0
 11
1.0
 21
1.0
 12
62.3707105237
 22
88.2100048835
 13
0.0
 23
0.0
 14
1.0
 24
1.0
 15
0.0
 25
0.0
 16
0.0
 26
0.0
 36
1.0
 17
0.0
 27
0.0
 37
0.0
 40
176.4200097669
 41
0.7070707071
 42
50.0
 43
0.0
 44
0.0
 50
0.0
 51
0.0
 71
0
 72
100
 73
1
 74
1
 75
0
 76
0
 77
0
 78
0
  0
ENDTAB
  0
TABLE
  2
LTYPE
  5
5
100
AcDbSymbolTable
 70
6
  0
LTYPE
  5
14
100
AcDbSymbolTableRecord
100
AcDbLinetypeTableRecord
  2
BYBLOCK
 70
0
  3

 72
65
 73
0
 40
0.0
  0
LTYPE
  5
15
100
AcDbSymbolTableRecord
100
AcDbLinetypeTableRecord
  2
BYLAYER
 70
0
  3

 72
65
 73
0
 40
0.0
  0
LTYPE
  5
16
100
AcDbSymbolTableRecord
100
AcDbLinetypeTableRecord
  2
CONTINUOUS
 70
64
  3
Solid line
 72
65
 73
0
 40
0.0
  0
LTYPE
  5
1F5
100
AcDbSymbolTableRecord
100
AcDbLinetypeTableRecord
  2
CENTER
 70
64
  3
____ _ ____ _ ____ _ ____ _ ____ _ ____ _ ____
 72
65
 73
4
 40
0.6
 49
0.375
 74
0
 49
-0.075
 74
0
 49
0.075
 74
0
 49
-0.075
 74
0
  0
LTYPE
  5
1F6
100
AcDbSymbolTableRecord
100
AcDbLinetypeTableRecord
  2
HIDDEN
 70
64
  3
- - - - - - - - - - - - - - - - - - - -
 72
65
 73
2
 40
0.2
 49
0.1
 74
0
 49
-0.1
 74
0
  0
LTYPE
  5
1F7
100
AcDbSymbolTableRecord
100
AcDbLinetypeTableRecord
  2
PHANTOM
 70
64
  3
_____ _ _ _____ _ _ _____ _ _ _____
 72
65
 73
6
 40
0.8
 49
0.45
 74
0
 49
-0.05
 74
0
 49
0.1
 74
0
 49
-0.05
 74
0
 49
0.1
 74
0
 49
-0.05
 74
0
  0
LTYPE
  5
1F8
100
AcDbSymbolTableRecord
100
AcDbLinetypeTableRecord
  2
DOT
 70
64
  3
. . . . . . . . . . . . . . . . . . . .
 72
65
 73
2
 40
0.2
 49
0.1
 74
0
 49
-0.1
 74
0
  0
LTYPE
  5
1F9
100
AcDbSymbolTableRecord
100
AcDbLinetypeTableRecord
  2
DASHED
 70
64
  3
- - - - - - - - - - - - - - - - - - - -
 72
65
 73
2
 40
0.2
 49
0.1
 74
0
 49
-0.1
 74
0
  0
ENDTAB
  0
TABLE
  2
LAYER
  5
2
100
AcDbSymbolTable
 70
36
  0
LAYER
  5
10
100
AcDbSymbolTableRecord
100
AcDbLayerTableRecord
  2
0
 70
0
 62
7
  6
CONTINUOUS
370
-3
390
F
  0
LAYER
  5
1FA
100
AcDbSymbolTableRecord
100
AcDbLayerTableRecord
  2
DEFAULT_1
 70
0
 62
7
  6
CENTER
370
-3
390
F
  0
LAYER
  5
1FB
100
AcDbSymbolTableRecord
100
AcDbLayerTableRecord
  2
DEFAULT_2
 70
0
 62
7
  6
HIDDEN
370
-3
390
F
  0
LAYER
  5
1FC
100
AcDbSymbolTableRecord
100
AcDbLayerTableRecord
  2
DEFAULT_3
 70
0
 62
7
  6
PHANTOM
370
-3
390
F
  0
LAYER
  5
1FD
100
AcDbSymbolTableRecord
100
AcDbLayerTableRecord
  2
00_COMPONENTS
 70
0
 62
7
  6
CONTINUOUS
370
-3
390
F
  0
LAYER
  5
1FE
100
AcDbSymbolTableRecord
100
AcDbLayerTableRecord
  2
01_1_DEFAULT_DATUMS
 70
0
 62
7
  6
CONTINUOUS
370
-3
390
F
  0
LAYER
  5
1FF
100
AcDbSymbolTableRecord
100
AcDbLayerTableRecord
  2
01_PLANES
 70
0
 62
7
  6
CONTINUOUS
370
-3
390
F
  0
LAYER
  5
200
100
AcDbSymbolTableRecord
100
AcDbLayerTableRecord
  2
02_COORD_SYS
 70
0
 62
7
  6
CONTINUOUS
370
-3
390
F
  0
LAYER
  5
201
100
AcDbSymbolTableRecord
100
AcDbLayerTableRecord
  2
03_AXES
 70
0
 62
7
  6
CONTINUOUS
370
-3
390
F
  0
LAYER
  5
202
100
AcDbSymbolTableRecord
100
AcDbLayerTableRecord
  2
04_POINTS
 70
0
 62
7
  6
CONTINUOUS
370
-3
390
F
  0
LAYER
  5
203
100
AcDbSymbolTableRecord
100
AcDbLayerTableRecord
  2
05_CURVES
 70
0
 62
7
  6
CONTINUOUS
370
-3
390
F
  0
LAYER
  5
204
100
AcDbSymbolTableRecord
100
AcDbLayerTableRecord
  2
06_SURFS
 70
0
 62
7
  6
CONTINUOUS
370
-3
390
F
  0
LAYER
  5
205
100
AcDbSymbolTableRecord
100
AcDbLayerTableRecord
  2
07_COSMETICS
 70
0
 62
7
  6
CONTINUOUS
370
-3
390
F
  0
LAYER
  5
206
100
AcDbSymbolTableRecord
100
AcDbLayerTableRecord
  2
10_NOTES
 70
0
 62
7
  6
CONTINUOUS
370
-3
390
F
  0
LAYER
  5
207
100
AcDbSymbolTableRecord
100
AcDbLayerTableRecord
  2
11_NOTES_PUB
 70
0
 62
7
  6
CONTINUOUS
370
-3
390
F
  0
LAYER
  5
208
100
AcDbSymbolTableRecord
100
AcDbLayerTableRecord
  2
13_REF_GTOL
 70
0
 62
7
  6
CONTINUOUS
370
-3
390
F
  0
LAYER
  5
209
100
AcDbSymbolTableRecord
100
AcDbLayerTableRecord
  2
16_MISC
 70
0
 62
7
  6
CONTINUOUS
370
-3
390
F
  0
LAYER
  5
20A
100
AcDbSymbolTableRecord
100
AcDbLayerTableRecord
  2
17_NO_PRINT
 70
0
 62
7
  6
CONTINUOUS
370
-3
390
F
  0
LAYER
  5
20B
100
AcDbSymbolTableRecord
100
AcDbLayerTableRecord
  2
18_DATUM_CAMS_JOINTS
 70
0
 62
7
  6
CONTINUOUS
370
-3
390
F
  0
LAYER
  5
20C
100
AcDbSymbolTableRecord
100
AcDbLayerTableRecord
  2
19_DATUM_FUNCTIONAL
 70
0
 62
7
  6
CONTINUOUS
370
-3
390
F
  0
LAYER
  5
20D
100
AcDbSymbolTableRecord
100
AcDbLayerTableRecord
  2
20_DATUM_KINEMATIC_SCHEME
 70
0
 62
7
  6
CONTINUOUS
370
-3
390
F
  0
ENDTAB
  0
TABLE
  2
STYLE
  5
3
100
AcDbSymbolTable
 70
1
  0
STYLE
  5
11
100
AcDbSymbolTableRecord
100
AcDbTextStyleTableRecord
  2
STANDARD
 70
0
 40
0.0
 41
1.0
 50
0.0
 71
0
 42
0.2
  3
ARIAL.TTF
  4

  0
STYLE
  5
20E
100
AcDbSymbolTableRecord
100
AcDbTextStyleTableRecord
  2
TEXTSTYLE_1
 70
0
 40
0.0
 41
0.8
 50
0.0
 71
0
 42
0.2
  3
gdt
  4

  0
ENDTAB
  0
TABLE
  2
VIEW
  5
6
100
AcDbSymbolTable
 70
0
  0
ENDTAB
  0
TABLE
  2
UCS
  5
7
100
AcDbSymbolTable
 70
0
  0
ENDTAB
  0
TABLE
  2
APPID
  5
9
100
AcDbSymbolTable
 70
1
  0
APPID
  5
20F
100
AcDbSymbolTableRecord
100
AcDbRegAppTableRecord
  2
ACAD
 70
0
  0
ENDTAB
  0
TABLE
  2
BLOCK_RECORD
  5
1
100
AcDbSymbolTable
 70
0
  0
BLOCK_RECORD
  5
210
100
AcDbSymbolTableRecord
100
AcDbBlockTableRecord
  2
*Model_Space
  0
BLOCK_RECORD
  5
211
100
AcDbSymbolTableRecord
100
AcDbBlockTableRecord
  2
*Paper_Space
  0
BLOCK_RECORD
  5
212
100
AcDbSymbolTableRecord
100
AcDbBlockTableRecord
  2
_FILLED
  0
ENDTAB
  0
TABLE
  2
DIMSTYLE
  5
A
100
AcDbSymbolTable
 70
1
100
AcDbDimStyleTable
 71
0
  0
DIMSTYLE
105
213
100
AcDbSymbolTableRecord
100
AcDbDimStyleTableRecord
  2
STANDARD
 70
0
  3

  4

 40
1.0
 41
1.4850169172
 42
1.0
 43
0.38
 44
1.0
 45
0.0
 46
0.0
 47
0.01
 48
0.01
140
2.0790236841
141
0.09
142
0.0
143
25.4
144
1.0
145
0.0
146
1.0
147
0.625
 71
1
 72
0
 73
0
 74
0
 75
0
 76
0
 77
1
 78
8
 79
2
170
0
171
1
172
0
173
0
174
0
175
0
176
0
177
0
178
0
270
2
179
2
271
2
272
2
273
2
274
2
275
0
280
0
281
0
282
0
283
1
284
8
285
0
286
0
287
3
288
0
340
11
278
46
341
212
342
212
343
212
344
212
  0
ENDTAB
  0
ENDSEC
  0
SECTION
  2
BLOCKS
  0
BLOCK
  5
20
100
AcDbEntity
  8
0
100
AcDbBlockBegin
  2
*Model_Space
 70
0
 10
0.0
 20
0.0
 30
0.0
  3
*Model_Space
  1

  0
ENDBLK
  5
21
100
AcDbEntity
  8
0
100
AcDbBlockEnd
  0
BLOCK
  5
1C
100
AcDbEntity
  8
0
100
AcDbBlockBegin
  2
*Paper_Space
 70
0
 10
0.0
 20
0.0
 30
0.0
  3
*Paper_Space
  1

  0
ENDBLK
  5
1D
100
AcDbEntity
  8
0
100
AcDbBlockEnd
  0
BLOCK
  5
214
100
AcDbEntity
  8
0
100
AcDbBlockBegin
  2
_FILLED
 70
64
 10
0.0
 20
0.0
  3
_FILLED
  1

  0
SOLID
  5
215
100
AcDbEntity
  8
0
  6
BYBLOCK
 62
0
100
AcDbTrace
 10
0.0
 20
0.0
 11
-1.0
 21
0.25
 12
-1.0
 22
-0.25
 13
-1.0
 23
-0.25
  0
ENDBLK
  5
216
100
AcDbEntity
  8
0
  6
BYBLOCK
 62
0
100
AcDbBlockEnd
  0
ENDSEC
  0
SECTION
  2
ENTITIES
  0
LINE
  5
217
100
AcDbEntity
  8
0
100
AcDbLine
 62
7
  6
BYLAYER
 10
29.3207442537
 20
14.9218895936
 11
17.2998789262
 21
21.8619824205
  0
LINE
  5
218
100
AcDbEntity
  8
0
100
AcDbLine
 62
7
  6
BYLAYER
 10
56.6500367171
 20
150.6439258152
 11
76.8519933463
 21
162.3074612913
  0
LINE
  5
219
100
AcDbEntity
  8
0
100
AcDbLine
 62
7
  6
BYLAYER
 10
69.7986486147
 20
156.010304481
 11
71.2128562891
 21
156.8267927888
  0
LINE
  5
21A
100
AcDbEntity
  8
0
100
AcDbLine
 62
7
  6
BYLAYER
 10
72.273512045
 20
157.4391590196
 11
73.6877197194
 21
158.2556473273
  0
LINE
  5
21B
100
AcDbEntity
  8
0
100
AcDbLine
 62
7
  6
BYLAYER
 10
74.7483754752
 20
158.8680135581
 11
76.1625831496
 21
159.6845018659
  0
LINE
  5
21C
100
AcDbEntity
  8
0
100
AcDbLine
 62
7
  6
BYLAYER
 10
59.7294914448
 20
149.9927865028
 11
61.1436991192
 21
150.8092748105
  0
LINE
  5
21D
100
AcDbEntity
  8
0
100
AcDbLine
 62
7
  6
BYLAYER
 10
62.204354875
 20
151.4216410413
 11
63.6185625494
 21
152.2381293491
  0
LINE
  5
21E
100
AcDbEntity
  8
0
100
AcDbLine
 62
7
  6
BYLAYER
 10
45.2306041428
 20
34.2729081839
 11
45.3013151153
 21
34.2320841085
  0
LINE
  5
21F
100
AcDbEntity
  8
0
100
AcDbLine
 62
7
  6
BYLAYER
 10
14.4714400256
 20
101.3892760327
 11
14.4714400256
 21
26.7609551071
  0
LINE
  5
220
100
AcDbEntity
  8
0
100
AcDbLine
 62
7
  6
BYLAYER
 10
16.8261154104
 20
58.6984819651
 11
16.8261154104
 21
65.5162771481
  0
LINE
  5
221
100
AcDbEntity
  8
0
100
AcDbLine
 62
7
  6
BYLAYER
 10
60.1502329114
 20
144.9896965604
 11
60.044162809
 21
144.9284573238
  0
LINE
  5
222
100
AcDbEntity
  8
0
100
AcDbLine
 62
7
  6
BYLAYER
 10
75.5864328014
 20
152.4813292095
 11
83.2231542433
 21
156.8903660713
  0
LINE
  5
223
100
AcDbEntity
  8
0
100
AcDbLine
 62
7
  6
BYLAYER
 10
84.0823024805
 20
155.0185764839
 11
82.420608463
 21
154.0592027223
  0
LINE
  5
224
100
AcDbEntity
  8
0
100
AcDbLine
 62
7
  6
BYLAYER
 10
80.4902149875
 20
152.9446961823
 11
78.82852097
 21
151.9853224207
  0
LINE
  5
225
100
AcDbEntity
  8
0
100
AcDbLine
 62
7
  6
BYLAYER
 10
60.8219823291
 20
141.0500788401
 11
60.6805615616
 21
140.9684300093
  0
LINE
  5
226
100
AcDbEntity
  8
0
100
AcDbLine
 62
7
  6
BYLAYER
 10
25.4705318003
 20
53.0545368073
 11
21.1571624769
 21
55.5448054099
  0
LINE
  5
227
100
AcDbEntity
  8
0
100
AcDbLine
 62
7
  6
BYLAYER
 10
29.8015788668
 20
51.2072641196
 11
25.4705318003
 21
53.707738741
  0
LINE
  5
228
100
AcDbEntity
  8
0
100
AcDbLine
 62
7
  6
BYLAYER
 10
21.1571624769
 20
56.1980073436
 11
16.8261154104
 21
58.6984819651
  0
LINE
  5
229
100
AcDbEntity
  8
0
100
AcDbLine
 62
7
  6
BYLAYER
 10
29.6601569218
 20
51.4522127539
 11
16.9675373554
 21
58.7801342976
  0
LINE
  5
22A
100
AcDbEntity
  8
0
100
AcDbLine
 62
7
  6
BYLAYER
 10
16.9675373554
 20
58.7801342976
 11
16.9675373554
 21
65.2713285138
  0
LINE
  5
22B
100
AcDbEntity
  8
0
100
AcDbLine
 62
7
  6
BYLAYER
 10
19.0605821418
 20
85.6594248135
 11
19.0605821418
 21
87.0883040434
  0
LINE
  5
22C
100
AcDbEntity
  8
0
100
AcDbLine
 62
7
  6
BYLAYER
 10
19.0605821418
 20
88.35388279
 11
19.0605821418
 21
89.78276202
  0
LINE
  5
22D
100
AcDbEntity
  8
0
100
AcDbLine
 62
7
  6
BYLAYER
 10
19.0605821418
 20
91.0483407665
 11
19.0605821418
 21
92.4772199965
  0
LINE
  5
22E
100
AcDbEntity
  8
0
100
AcDbLine
 62
7
  6
BYLAYER
 10
19.0605821418
 20
93.742798743
 11
19.0605821418
 21
95.171677973
  0
LINE
  5
22F
100
AcDbEntity
  8
0
100
AcDbLine
 62
7
  6
BYLAYER
 10
19.0605821418
 20
96.4372567196
 11
19.0605821418
 21
97.8661359495
  0
LINE
  5
230
100
AcDbEntity
  8
0
100
AcDbLine
 62
7
  6
BYLAYER
 10
19.0959376281
 20
85.6798378966
 11
19.0959376281
 21
87.0270668849
  0
LINE
  5
231
100
AcDbEntity
  8
0
100
AcDbLine
 62
7
  6
BYLAYER
 10
19.0959376281
 20
88.3742958731
 11
19.0959376281
 21
89.7215248614
  0
LINE
  5
232
100
AcDbEntity
  8
0
100
AcDbLine
 62
7
  6
BYLAYER
 10
19.0959376281
 20
91.0687538496
 11
19.0959376281
 21
92.4159828379
  0
LINE
  5
233
100
AcDbEntity
  8
0
100
AcDbLine
 62
7
  6
BYLAYER
 10
19.0959376281
 20
93.7632118262
 11
19.0959376281
 21
95.1104408144
  0
LINE
  5
234
100
AcDbEntity
  8
0
100
AcDbLine
 62
7
  6
BYLAYER
 10
19.0959376281
 20
96.4576698027
 11
19.0959376281
 21
97.804898791
  0
LINE
  5
235
100
AcDbEntity
  8
0
100
AcDbLine
 62
7
  6
BYLAYER
 10
21.1571624769
 20
55.5448054099
 11
21.1571624769
 21
56.1980073436
  0
LINE
  5
236
100
AcDbEntity
  8
0
100
AcDbLine
 62
7
  6
BYLAYER
 10
21.3233332623
 20
96.5189404142
 11
21.3233332623
 21
95.171711426
  0
LINE
  5
237
100
AcDbEntity
  8
0
100
AcDbLine
 62
7
  6
BYLAYER
 10
21.3233332623
 20
93.8244824377
 11
21.3233332623
 21
92.4772534494
  0
LINE
  5
238
100
AcDbEntity
  8
0
100
AcDbLine
 62
7
  6
BYLAYER
 10
21.3233332623
 20
91.1300244612
 11
21.3233332623
 21
89.7827954729
  0
LINE
  5
239
100
AcDbEntity
  8
0
100
AcDbLine
 62
7
  6
BYLAYER
 10
21.3233332623
 20
88.4355664846
 11
21.3233332623
 21
87.0883374964
  0
LINE
  5
23A
100
AcDbEntity
  8
0
100
AcDbLine
 62
7
  6
BYLAYER
 10
21.3233332623
 20
85.7411085081
 11
21.3233332623
 21
84.3938795198
  0
LINE
  5
23B
100
AcDbEntity
  8
0
100
AcDbLine
 62
7
  6
BYLAYER
 10
21.3586887486
 20
96.5393534974
 11
21.3586887486
 21
95.1104742674
  0
LINE
  5
23C
100
AcDbEntity
  8
0
100
AcDbLine
 62
7
  6
BYLAYER
 10
21.3586887486
 20
93.8448955208
 11
21.3586887486
 21
92.4160162908
  0
LINE
  5
23D
100
AcDbEntity
  8
0
100
AcDbLine
 62
7
  6
BYLAYER
 10
21.3586887486
 20
91.1504375443
 11
21.3586887486
 21
89.7215583143
  0
LINE
  5
23E
100
AcDbEntity
  8
0
100
AcDbLine
 62
7
  6
BYLAYER
 10
21.3586887486
 20
88.4559795678
 11
21.3586887486
 21
87.0271003378
  0
LINE
  5
23F
100
AcDbEntity
  8
0
100
AcDbLine
 62
7
  6
BYLAYER
 10
21.3586887486
 20
85.7615215912
 11
21.3586887486
 21
84.3326423613
  0
LINE
  5
240
100
AcDbEntity
  8
0
100
AcDbLine
 62
7
  6
BYLAYER
 10
21.7829545836
 20
69.7580804879
 11
21.7829545836
 21
73.8299461344
  0
LINE
  5
241
100
AcDbEntity
  8
0
100
AcDbLine
 62
7
  6
BYLAYER
 10
21.9172610953
 20
106.0964325239
 11
21.9172610953
 21
107.729395542
  0
LINE
  5
242
100
AcDbEntity
  8
0
100
AcDbLine
 62
7
  6
BYLAYER
 10
21.9950857348
 20
69.8805537341
 11
21.9950857348
 21
73.9524193806
  0
LINE
  5
243
100
AcDbEntity
  8
0
100
AcDbLine
 62
7
  6
BYLAYER
 10
22.1451863897
 20
73.7376079882
 11
22.1451863897
 21
69.5571156125
  0
LINE
  5
244
100
AcDbEntity
  8
0
100
AcDbLine
 62
7
  6
BYLAYER
 10
22.5292791999
 20
70.58461324
 11
22.5292791999
 21
72.9914410936
  0
LINE
  5
245
100
AcDbEntity
  8
0
100
AcDbLine
 62
7
  6
BYLAYER
 10
22.7414103511
 20
70.7070864862
 11
22.7414103511
 21
73.1139143397
  0
LINE
  5
246
100
AcDbEntity
  8
0
100
AcDbLine
 62
7
  6
BYLAYER
 10
29.4479657431
 20
111.6078519508
 11
27.5387853827
 21
109.4441395931
  0
LINE
  5
247
100
AcDbEntity
  8
0
100
AcDbLine
 62
7
  6
BYLAYER
 10
81.4766523959
 20
151.3832074091
 11
84.4995213
 21
153.1284511669
  0
LINE
  5
248
100
AcDbEntity
  8
0
100
AcDbLine
 62
7
  6
BYLAYER
 10
85.0298491779
 20
153.4346342823
 11
88.052718082
 21
155.1798780401
  0
LINE
  5
249
100
AcDbEntity
  8
0
100
AcDbLine
 62
7
  6
BYLAYER
 10
81.8655627447
 20
151.1586749941
 11
84.8884316488
 21
152.9039187519
  0
LINE
  5
24A
100
AcDbEntity
  8
0
100
AcDbLine
 62
7
  6
BYLAYER
 10
85.4187595267
 20
153.2101018673
 11
88.4416284308
 21
154.9553456251
  0
LINE
  5
24B
100
AcDbEntity
  8
0
100
AcDbLine
 62
7
  6
BYLAYER
 10
62.2362166425
 20
139.7028663605
 11
61.4442400648
 21
139.2456211996
  0
LINE
  5
24C
100
AcDbEntity
  8
0
100
AcDbLine
 62
7
  6
BYLAYER
 10
64.6262686528
 20
140.6500322946
 11
62.6109711113
 21
139.4865066618
  0
LINE
  5
24D
100
AcDbEntity
  8
0
100
AcDbLine
 62
7
  6
BYLAYER
 10
81.8655627447
 20
150.5791127771
 11
84.8884316488
 21
152.3243565349
  0
LINE
  5
24E
100
AcDbEntity
  8
0
100
AcDbLine
 62
7
  6
BYLAYER
 10
85.4187595267
 20
152.6305396503
 11
88.4416284308
 21
154.3757834081
  0
LINE
  5
24F
100
AcDbEntity
  8
0
100
AcDbLine
 62
7
  6
BYLAYER
 10
82.5019614974
 20
150.7912583151
 11
85.5248304014
 21
152.5365020729
  0
LINE
  5
250
100
AcDbEntity
  8
0
100
AcDbLine
 62
7
  6
BYLAYER
 10
86.0551582794
 20
152.8426851883
 11
89.0780271834
 21
154.5879289461
  0
LINE
  5
251
100
AcDbEntity
  8
0
100
AcDbLine
 62
7
  6
BYLAYER
 10
82.8908718462
 20
150.5667259001
 11
85.9137407503
 21
152.3119696579
  0
LINE
  5
252
100
AcDbEntity
  8
0
100
AcDbLine
 62
7
  6
BYLAYER
 10
86.4440686282
 20
152.6181527733
 11
89.4669375323
 21
154.3633965311
  0
LINE
  5
253
100
AcDbEntity
  8
0
100
AcDbLine
 62
7
  6
BYLAYER
 10
66.2526843163
 20
139.7110420162
 11
60.5744951029
 21
136.4327575141
  0
LINE
  5
254
100
AcDbEntity
  8
0
100
AcDbLine
 62
7
  6
BYLAYER
 10
82.8908718462
 20
148.8765658966
 11
85.9137407503
 21
150.6218096544
  0
LINE
  5
255
100
AcDbEntity
  8
0
100
AcDbLine
 62
7
  6
BYLAYER
 10
86.4440686282
 20
150.9279927698
 11
89.4669375323
 21
152.6732365276
  0
LINE
  5
256
100
AcDbEntity
  8
0
100
AcDbLine
 62
7
  6
BYLAYER
 10
67.1224292782
 20
139.2089058882
 11
61.4442400648
 21
135.930621386
  0
LINE
  5
257
100
AcDbEntity
  8
0
100
AcDbLine
 62
7
  6
BYLAYER
 10
67.327392978
 20
138.4127583219
 11
61.4442400648
 21
135.0161386788
  0
LINE
  5
258
100
AcDbEntity
  8
0
100
AcDbLine
 62
7
  6
BYLAYER
 10
16.9675373554
 20
65.2713285138
 11
29.6601569218
 21
57.9434069701
  0
LINE
  5
259
100
AcDbEntity
  8
0
100
AcDbLine
 62
7
  6
BYLAYER
 10
16.8261154104
 20
65.5162771481
 11
29.8015788668
 21
58.0250593026
  0
LINE
  5
25A
100
AcDbEntity
  8
0
100
AcDbLine
 62
7
  6
BYLAYER
 10
22.8899051598
 20
72.7832383088
 11
22.8899051598
 21
70.3764104552
  0
LINE
  5
25B
100
AcDbEntity
  8
0
100
AcDbLine
 62
7
  6
BYLAYER
 10
23.925470143
 20
106.2597727065
 11
23.925470143
 21
104.0885315394
  0
LINE
  5
25C
100
AcDbEntity
  8
0
100
AcDbLine
 62
7
  6
BYLAYER
 10
24.3661586391
 20
71.4937394953
 11
24.3661586391
 21
71.9309422466
  0
LINE
  5
25D
100
AcDbEntity
  8
0
100
AcDbLine
 62
7
  6
BYLAYER
 10
24.3677644853
 20
68.2739385801
 11
24.3677644853
 21
69.7605674559
  0
LINE
  5
25E
100
AcDbEntity
  8
0
100
AcDbLine
 62
7
  6
BYLAYER
 10
24.3921245255
 20
107.5252870624
 11
24.3921245255
 21
109.1582500806
  0
LINE
  5
25F
100
AcDbEntity
  8
0
100
AcDbLine
 62
7
  6
BYLAYER
 10
24.5782897903
 20
71.6162127415
 11
24.5782897903
 21
72.0534154927
  0
LINE
  5
260
100
AcDbEntity
  8
0
100
AcDbLine
 62
7
  6
BYLAYER
 10
24.5798956365
 20
68.3964118262
 11
24.5798956365
 21
69.8873775806
  0
LINE
  5
261
100
AcDbEntity
  8
0
100
AcDbLine
 62
7
  6
BYLAYER
 10
24.7283904451
 20
71.721812347
 11
24.7283904451
 21
71.1112898112
  0
LINE
  5
262
100
AcDbEntity
  8
0
100
AcDbLine
 62
7
  6
BYLAYER
 10
24.7283904451
 20
69.5523646711
 11
24.7283904451
 21
68.0575707711
  0
LINE
  5
263
100
AcDbEntity
  8
0
100
AcDbLine
 62
7
  6
BYLAYER
 10
25.0906222511
 20
67.6524802914
 11
25.0906222511
 21
73.2781819454
  0
LINE
  5
264
100
AcDbEntity
  8
0
100
AcDbLine
 62
7
  6
BYLAYER
 10
25.3027534023
 20
67.7749535376
 11
25.3027534023
 21
73.4006551916
  0
LINE
  5
265
100
AcDbEntity
  8
0
100
AcDbLine
 62
7
  6
BYLAYER
 10
25.4528540572
 20
73.0772170701
 11
25.4528540572
 21
67.4433503919
  0
LINE
  5
266
100
AcDbEntity
  8
0
100
AcDbLine
 62
7
  6
BYLAYER
 10
25.4705318003
 20
53.707738741
 11
25.4705318003
 21
53.0545368073
  0
LINE
  5
267
100
AcDbEntity
  8
0
100
AcDbLine
 62
7
  6
BYLAYER
 10
26.6372241631
 20
106.1638387463
 11
26.6372241631
 21
105.453504015
  0
LINE
  5
268
100
AcDbEntity
  8
0
100
AcDbLine
 62
7
  6
BYLAYER
 10
26.8669879558
 20
108.954141601
 11
26.8669879558
 21
110.5871046191
  0
LINE
  5
269
100
AcDbEntity
  8
0
100
AcDbLine
 62
7
  6
BYLAYER
 10
27.3266948288
 20
63.863014996
 11
27.3266948288
 21
74.7224971438
  0
LINE
  5
26A
100
AcDbEntity
  8
0
100
AcDbLine
 62
7
  6
BYLAYER
 10
27.5387853827
 20
109.4441395931
 11
27.5387853827
 21
106.153634852
  0
LINE
  5
26B
100
AcDbEntity
  8
0
100
AcDbLine
 62
7
  6
BYLAYER
 10
23.4998257242
 20
70.4232931071
 11
23.4056159019
 21
70.0064866911
  0
LINE
  5
26C
100
AcDbEntity
  8
0
100
AcDbLine
 62
7
  6
BYLAYER
 10
23.6185919322
 20
70.1326978817
 11
23.7119568753
 21
70.5457663533
  0
LINE
  5
26D
100
AcDbEntity
  8
0
100
AcDbLine
 62
7
  6
BYLAYER
 10
30.5086462283
 20
107.7295284241
 11
32.4178265888
 21
109.8932407818
  0
LINE
  5
26E
100
AcDbEntity
  8
0
100
AcDbLine
 62
7
  6
BYLAYER
 10
75.9930033473
 20
142.2362189656
 11
74.5787956729
 21
141.4197306579
  0
LINE
  5
26F
100
AcDbEntity
  8
0
100
AcDbLine
 62
7
  6
BYLAYER
 10
67.327392978
 20
137.0655526141
 11
62.6109711113
 21
134.3425414339
  0
LINE
  5
270
100
AcDbEntity
  8
0
100
AcDbLine
 62
7
  6
BYLAYER
 10
18.3605111303
 20
108.1253821732
 11
74.3277798458
 21
140.4379069521
  0
LINE
  5
271
100
AcDbEntity
  8
0
100
AcDbLine
 62
7
  6
BYLAYER
 10
86.1930786786
 20
146.3577178917
 11
93.8298001205
 21
150.7667547535
  0
LINE
  5
272
100
AcDbEntity
  8
0
100
AcDbLine
 62
7
  6
BYLAYER
 10
20.5030534209
 20
106.9129072343
 11
21.9172610953
 21
107.729395542
  0
LINE
  5
273
100
AcDbEntity
  8
0
100
AcDbLine
 62
7
  6
BYLAYER
 10
22.9779168511
 20
108.3417617728
 11
24.3921245255
 21
109.1582500806
  0
LINE
  5
274
100
AcDbEntity
  8
0
100
AcDbLine
 62
7
  6
BYLAYER
 10
25.4527802814
 20
109.7706163114
 11
26.8669879558
 21
110.5871046191
  0
LINE
  5
275
100
AcDbEntity
  8
0
100
AcDbLine
 62
7
  6
BYLAYER
 10
27.9276437116
 20
111.1994708499
 11
29.341851386
 21
112.0159591577
  0
LINE
  5
276
100
AcDbEntity
  8
0
100
AcDbLine
 62
7
  6
BYLAYER
 10
30.4025071419
 20
112.6283253885
 11
31.8167148163
 21
113.4448136962
  0
LINE
  5
277
100
AcDbEntity
  8
0
100
AcDbLine
 62
7
  6
BYLAYER
 10
32.8773705721
 20
114.057179927
 11
34.2915782465
 21
114.8736682348
  0
LINE
  5
278
100
AcDbEntity
  8
0
100
AcDbLine
 62
7
  6
BYLAYER
 10
35.3522340024
 20
115.4860344656
 11
36.7664416768
 21
116.3025227733
  0
LINE
  5
279
100
AcDbEntity
  8
0
100
AcDbLine
 62
7
  6
BYLAYER
 10
37.8270974326
 20
116.9148890041
 11
39.241305107
 21
117.7313773119
  0
LINE
  5
27A
100
AcDbEntity
  8
0
100
AcDbLine
 62
7
  6
BYLAYER
 10
40.3019608628
 20
118.3437435427
 11
41.7161685373
 21
119.1602318504
  0
LINE
  5
27B
100
AcDbEntity
  8
0
100
AcDbLine
 62
7
  6
BYLAYER
 10
42.7768242931
 20
119.7725980812
 11
44.1910319675
 21
120.589086389
  0
LINE
  5
27C
100
AcDbEntity
  8
0
100
AcDbLine
 62
7
  6
BYLAYER
 10
45.2516877233
 20
121.2014526198
 11
46.6658953978
 21
122.0179409275
  0
LINE
  5
27D
100
AcDbEntity
  8
0
100
AcDbLine
 62
7
  6
BYLAYER
 10
47.7265511536
 20
122.6303071583
 11
49.140758828
 21
123.4467954661
  0
LINE
  5
27E
100
AcDbEntity
  8
0
100
AcDbLine
 62
7
  6
BYLAYER
 10
50.2014145838
 20
124.0591616969
 11
51.6156222583
 21
124.8756500046
  0
LINE
  5
27F
100
AcDbEntity
  8
0
100
AcDbLine
 62
7
  6
BYLAYER
 10
52.6762780141
 20
125.4880162354
 11
54.0904856885
 21
126.3045045432
  0
LINE
  5
280
100
AcDbEntity
  8
0
100
AcDbLine
 62
7
  6
BYLAYER
 10
55.1511414443
 20
126.916870774
 11
56.5653491188
 21
127.7333590817
  0
LINE
  5
281
100
AcDbEntity
  8
0
100
AcDbLine
 62
7
  6
BYLAYER
 10
57.6260048746
 20
128.3457253125
 11
59.040212549
 21
129.1622136203
  0
LINE
  5
282
100
AcDbEntity
  8
0
100
AcDbLine
 62
7
  6
BYLAYER
 10
60.1008683048
 20
129.7745798511
 11
61.5150759793
 21
130.5910681588
  0
LINE
  5
283
100
AcDbEntity
  8
0
100
AcDbLine
 62
7
  6
BYLAYER
 10
62.5757317351
 20
131.2034343896
 11
63.9899394095
 21
132.0199226974
  0
LINE
  5
284
100
AcDbEntity
  8
0
100
AcDbLine
 62
7
  6
BYLAYER
 10
65.0505951653
 20
132.6322889282
 11
66.4648028398
 21
133.4487772359
  0
LINE
  5
285
100
AcDbEntity
  8
0
100
AcDbLine
 62
7
  6
BYLAYER
 10
67.5254585956
 20
134.0611434667
 11
68.93966627
 21
134.8776317745
  0
LINE
  5
286
100
AcDbEntity
  8
0
100
AcDbLine
 62
7
  6
BYLAYER
 10
70.0003220258
 20
135.4899980053
 11
71.4145297003
 21
136.306486313
  0
LINE
  5
287
100
AcDbEntity
  8
0
100
AcDbLine
 62
7
  6
BYLAYER
 10
72.4751854561
 20
136.9188525438
 11
73.8893931305
 21
137.7353408516
  0
LINE
  5
288
100
AcDbEntity
  8
0
100
AcDbLine
 62
7
  6
BYLAYER
 10
74.9500488863
 20
138.3477070824
 11
76.3642565608
 21
139.1641953901
  0
LINE
  5
289
100
AcDbEntity
  8
0
100
AcDbLine
 62
7
  6
BYLAYER
 10
29.4479657431
 20
111.6078519508
 11
43.5900424874
 21
119.7727350282
  0
LINE
  5
28A
100
AcDbEntity
  8
0
100
AcDbLine
 62
7
  6
BYLAYER
 10
78.4855857362
 20
137.9394731266
 11
77.0713780618
 21
137.1229848188
  0
LINE
  5
28B
100
AcDbEntity
  8
0
100
AcDbLine
 62
7
  6
BYLAYER
 10
23.925470143
 20
106.2597727065
 11
27.5387853827
 21
108.3459087803
  0
LINE
  5
28C
100
AcDbEntity
  8
0
100
AcDbLine
 62
7
  6
BYLAYER
 10
24.3748355826
 20
67.8534399398
 11
22.1365094462
 21
69.1457089021
  0
LINE
  5
28D
100
AcDbEntity
  8
0
100
AcDbLine
 62
7
  6
BYLAYER
 10
24.5869667337
 20
67.9759131859
 11
22.3486405974
 21
69.2681821483
  0
LINE
  5
28E
100
AcDbEntity
  8
0
100
AcDbLine
 62
7
  6
BYLAYER
 10
22.1451863897
 20
69.5571156125
 11
24.3677644853
 21
68.2739385801
  0
LINE
  5
28F
100
AcDbEntity
  8
0
100
AcDbLine
 62
7
  6
BYLAYER
 10
28.4550579177
 20
63.2113055221
 11
27.3266948288
 21
63.863014996
  0
LINE
  5
290
100
AcDbEntity
  8
0
100
AcDbLine
 62
7
  6
BYLAYER
 10
29.341851386
 20
111.4875904236
 11
29.341851386
 21
112.0159591577
  0
LINE
  5
291
100
AcDbEntity
  8
0
100
AcDbLine
 62
7
  6
BYLAYER
 10
29.6601569218
 20
57.9434069701
 11
29.6601569218
 21
51.4522127539
  0
LINE
  5
292
100
AcDbEntity
  8
0
100
AcDbLine
 62
7
  6
BYLAYER
 10
29.8015788668
 20
58.0250593026
 11
29.8015788668
 21
51.2072641196
  0
LINE
  5
293
100
AcDbEntity
  8
0
100
AcDbLine
 62
7
  6
BYLAYER
 10
30.4096663226
 20
102.5162049876
 11
30.4096663226
 21
100.3449638205
  0
LINE
  5
294
100
AcDbEntity
  8
0
100
AcDbLine
 62
7
  6
BYLAYER
 10
30.5086462283
 20
107.7295284241
 11
30.5086462283
 21
104.439023683
  0
LINE
  5
295
100
AcDbEntity
  8
0
100
AcDbLine
 62
7
  6
BYLAYER
 10
30.5263276514
 20
103.9185145964
 11
30.5263276514
 21
103.3428931613
  0
LINE
  5
296
100
AcDbEntity
  8
0
100
AcDbLine
 62
7
  6
BYLAYER
 10
31.8167148163
 20
112.9754417024
 11
31.8167148163
 21
113.4448136962
  0
LINE
  5
297
100
AcDbEntity
  8
0
100
AcDbLine
 62
7
  6
BYLAYER
 10
32.1491831543
 20
91.1832571697
 11
32.1491831543
 21
16.5549362441
  0
LINE
  5
298
100
AcDbEntity
  8
0
100
AcDbLine
 62
7
  6
BYLAYER
 10
32.8774618351
 20
99.7687008288
 11
32.8774618351
 21
101.4016638469
  0
LINE
  5
299
100
AcDbEntity
  8
0
100
AcDbLine
 62
7
  6
BYLAYER
 10
33.5916749822
 20
34.5751301985
 11
33.5916749822
 21
36.2081350328
  0
LINE
  5
29A
100
AcDbEntity
  8
0
100
AcDbLine
 62
7
  6
BYLAYER
 10
33.5916749822
 20
55.8041930439
 11
33.5916749822
 21
57.4371978782
  0
LINE
  5
29B
100
AcDbEntity
  8
0
100
AcDbLine
 62
7
  6
BYLAYER
 10
33.5916749822
 20
77.0332558893
 11
33.5916749822
 21
78.6662607235
  0
LINE
  5
29C
100
AcDbEntity
  8
0
100
AcDbLine
 62
7
  6
BYLAYER
 10
34.2915782465
 20
114.4042962409
 11
34.2915782465
 21
114.8736682348
  0
LINE
  5
29D
100
AcDbEntity
  8
0
100
AcDbLine
 62
7
  6
BYLAYER
 10
23.7578439209
 20
69.713684804
 11
23.8520537432
 21
70.13049122
  0
LINE
  5
29E
100
AcDbEntity
  8
0
100
AcDbLine
 62
7
  6
BYLAYER
 10
22.8899051598
 20
72.7832383088
 11
23.0763156888
 21
73.1952287482
  0
LINE
  5
29F
100
AcDbEntity
  8
0
100
AcDbLine
 62
7
  6
BYLAYER
 10
25.240688756
 20
106.2597758679
 11
27.5387853827
 21
107.586574654
  0
LINE
  5
2A0
100
AcDbEntity
  8
0
100
AcDbLine
 62
7
  6
BYLAYER
 10
79.2139116971
 20
137.1107426952
 11
80.2887185832
 21
137.7312790361
  0
LINE
  5
2A1
100
AcDbEntity
  8
0
100
AcDbLine
 62
7
  6
BYLAYER
 10
46.559903333
 20
118.0581238592
 11
32.4178265888
 21
109.8932407818
  0
LINE
  5
2A2
100
AcDbEntity
  8
0
100
AcDbLine
 62
7
  6
BYLAYER
 10
79.7088864439
 20
137.110743885
 11
80.536206987
 21
137.5883947721
  0
LINE
  5
2A3
100
AcDbEntity
  8
0
100
AcDbLine
 62
7
  6
BYLAYER
 10
26.6372241631
 20
106.1638387463
 11
27.5387853827
 21
106.6843522521
  0
LINE
  5
2A4
100
AcDbEntity
  8
0
100
AcDbLine
 62
7
  6
BYLAYER
 10
48.4690836935
 20
114.8084251914
 11
30.5086462283
 21
104.439023683
  0
LINE
  5
2A5
100
AcDbEntity
  8
0
100
AcDbLine
 62
7
  6
BYLAYER
 10
19.0959376281
 20
97.804898791
 11
19.1312937253
 21
97.8253115214
  0
LINE
  5
2A6
100
AcDbEntity
  8
0
100
AcDbLine
 62
7
  6
BYLAYER
 10
49.3706449131
 20
114.7982212971
 11
30.5263276514
 21
103.9185145964
  0
LINE
  5
2A7
100
AcDbEntity
  8
0
100
AcDbLine
 62
7
  6
BYLAYER
 10
50.7671803202
 20
115.0288851423
 11
30.4096608468
 21
103.2755359524
  0
LINE
  5
2A8
100
AcDbEntity
  8
0
100
AcDbLine
 62
7
  6
BYLAYER
 10
19.0959379336
 20
96.4576692736
 11
19.0605821418
 21
96.4372567196
  0
LINE
  5
2A9
100
AcDbEntity
  8
0
100
AcDbLine
 62
7
  6
BYLAYER
 10
24.5162575276
 20
70.9888113124
 11
23.2788155086
 21
71.7032326328
  0
LINE
  5
2AA
100
AcDbEntity
  8
0
100
AcDbLine
 62
7
  6
BYLAYER
 10
24.7283886788
 20
71.1112845585
 11
23.4909466598
 21
71.8257058789
  0
LINE
  5
2AB
100
AcDbEntity
  8
0
100
AcDbLine
 62
7
  6
BYLAYER
 10
23.2788155086
 20
72.1215031425
 11
24.3661586391
 21
71.4937394953
  0
LINE
  5
2AC
100
AcDbEntity
  8
0
100
AcDbLine
 62
7
  6
BYLAYER
 10
23.7297598865
 20
73.0332111011
 11
23.5263039124
 21
73.1506738051
  0
LINE
  5
2AD
100
AcDbEntity
  8
0
100
AcDbLine
 62
7
  6
BYLAYER
 10
23.9418910377
 20
73.1556843472
 11
23.7384350636
 21
73.2731470513
  0
LINE
  5
2AE
100
AcDbEntity
  8
0
100
AcDbLine
 62
7
  6
BYLAYER
 10
23.5279097586
 20
73.5680172001
 11
23.7297598865
 21
73.4514816108
  0
LINE
  5
2AF
100
AcDbEntity
  8
0
100
AcDbLine
 62
7
  6
BYLAYER
 10
25.0906222511
 20
73.2781819454
 11
22.8349422279
 21
74.5804699524
  0
LINE
  5
2B0
100
AcDbEntity
  8
0
100
AcDbLine
 62
7
  6
BYLAYER
 10
25.3027534023
 20
73.4006551916
 11
23.0470733791
 21
74.7029431985
  0
LINE
  5
2B1
100
AcDbEntity
  8
0
100
AcDbLine
 62
7
  6
BYLAYER
 10
22.7789370789
 20
75.0292200414
 11
25.0992991946
 21
73.6895886559
  0
LINE
  5
2B2
100
AcDbEntity
  8
0
100
AcDbLine
 62
7
  6
BYLAYER
 10
27.3266948288
 20
74.7224971438
 11
28.455057924
 21
74.0707876663
  0
LINE
  5
2B3
100
AcDbEntity
  8
0
100
AcDbLine
 62
7
  6
BYLAYER
 10
35.3523252653
 20
101.1975553674
 11
35.3523252653
 21
102.8305183855
  0
LINE
  5
2B4
100
AcDbEntity
  8
0
100
AcDbLine
 62
7
  6
BYLAYER
 10
36.7664416768
 20
115.8331507795
 11
36.7664416768
 21
116.3025227733
  0
LINE
  5
2B5
100
AcDbEntity
  8
0
100
AcDbLine
 62
7
  6
BYLAYER
 10
37.8271886956
 20
102.6264099059
 11
37.8271886956
 21
104.259372924
  0
LINE
  5
2B6
100
AcDbEntity
  8
0
100
AcDbLine
 62
7
  6
BYLAYER
 10
39.241305107
 20
117.262005318
 11
39.241305107
 21
117.7313773119
  0
LINE
  5
2B7
100
AcDbEntity
  8
0
100
AcDbLine
 62
7
  6
BYLAYER
 10
40.3020521258
 20
104.0552644445
 11
40.3020521258
 21
105.6882274626
  0
LINE
  5
2B8
100
AcDbEntity
  8
0
100
AcDbLine
 62
7
  6
BYLAYER
 10
24.6662536021
 20
70.9739596647
 11
24.7283904451
 21
71.1112898112
  0
LINE
  5
2B9
100
AcDbEntity
  8
0
100
AcDbLine
 62
7
  6
BYLAYER
 10
24.6248290401
 20
67.8286871936
 11
24.7283904451
 21
68.0575707711
  0
LINE
  5
2BA
100
AcDbEntity
  8
0
100
AcDbLine
 62
7
  6
BYLAYER
 10
25.3996279172
 20
67.3264032063
 11
25.4528540572
 21
67.4433503919
  0
LINE
  5
2BB
100
AcDbEntity
  8
0
100
AcDbLine
 62
7
  6
BYLAYER
 10
23.5486264906
 20
70.0274739029
 11
23.6185919322
 21
70.1326978817
  0
LINE
  5
2BC
100
AcDbEntity
  8
0
100
AcDbLine
 62
7
  6
BYLAYER
 10
23.6663107942
 20
70.6734170255
 11
23.4998257242
 21
70.4232931071
  0
LINE
  5
2BD
100
AcDbEntity
  8
0
100
AcDbLine
 62
7
  6
BYLAYER
 10
22.5587480977
 20
75.0174040273
 11
21.8949589542
 21
74.2062726236
  0
LINE
  5
2BE
100
AcDbEntity
  8
0
100
AcDbLine
 62
7
  6
BYLAYER
 10
22.1070901053
 20
74.3287458697
 11
22.7038570077
 21
75.057978006
  0
LINE
  5
2BF
100
AcDbEntity
  8
0
100
AcDbLine
 62
7
  6
BYLAYER
 10
30.4096663226
 20
102.5162049876
 11
52.0823989332
 21
115.0288883037
  0
LINE
  5
2C0
100
AcDbEntity
  8
0
100
AcDbLine
 62
7
  6
BYLAYER
 10
21.3233332623
 20
96.5189404142
 11
21.358689054
 21
96.5393529682
  0
LINE
  5
2C1
100
AcDbEntity
  8
0
100
AcDbLine
 62
7
  6
BYLAYER
 10
86.1930786786
 20
133.9142210546
 11
93.8298001205
 21
138.3232579165
  0
LINE
  5
2C2
100
AcDbEntity
  8
0
100
AcDbLine
 62
7
  6
BYLAYER
 10
19.0959376281
 20
95.1104408144
 11
19.1312937253
 21
95.1308535448
  0
LINE
  5
2C3
100
AcDbEntity
  8
0
100
AcDbLine
 62
7
  6
BYLAYER
 10
94.3813417023
 20
138.5600398656
 11
85.7900300802
 21
133.5998733961
  0
LINE
  5
2C4
100
AcDbEntity
  8
0
100
AcDbLine
 62
7
  6
BYLAYER
 10
94.8763164491
 20
138.5600410554
 11
85.7900321409
 21
133.3141036782
  0
LINE
  5
2C5
100
AcDbEntity
  8
0
100
AcDbLine
 62
7
  6
BYLAYER
 10
85.344561846
 20
132.3465679909
 11
86.7587695204
 21
133.1630562987
  0
LINE
  5
2C6
100
AcDbEntity
  8
0
100
AcDbLine
 62
7
  6
BYLAYER
 10
87.8194252762
 20
133.7754225295
 11
89.2336329507
 21
134.5919108372
  0
LINE
  5
2C7
100
AcDbEntity
  8
0
100
AcDbLine
 62
7
  6
BYLAYER
 10
90.2942887065
 20
135.204277068
 11
91.7084963809
 21
136.0207653758
  0
LINE
  5
2C8
100
AcDbEntity
  8
0
100
AcDbLine
 62
7
  6
BYLAYER
 10
21.3233332623
 20
95.171711426
 11
21.3586887486
 21
95.1921238036
  0
LINE
  5
2C9
100
AcDbEntity
  8
0
100
AcDbLine
 62
7
  6
BYLAYER
 10
52.0823989332
 20
112.9223120675
 11
31.0672728912
 21
100.7892958145
  0
LINE
  5
2CA
100
AcDbEntity
  8
0
100
AcDbLine
 62
7
  6
BYLAYER
 10
19.0959379336
 20
93.7632112971
 11
19.0605821418
 21
93.742798743
  0
LINE
  5
2CB
100
AcDbEntity
  8
0
100
AcDbLine
 62
7
  6
BYLAYER
 10
31.4632541606
 20
100.5851755392
 11
32.8774618351
 21
101.4016638469
  0
LINE
  5
2CC
100
AcDbEntity
  8
0
100
AcDbLine
 62
7
  6
BYLAYER
 10
33.9381175909
 20
102.0140300778
 11
35.3523252653
 21
102.8305183855
  0
LINE
  5
2CD
100
AcDbEntity
  8
0
100
AcDbLine
 62
7
  6
BYLAYER
 10
36.4129810211
 20
103.4428846163
 11
37.8271886956
 21
104.259372924
  0
LINE
  5
2CE
100
AcDbEntity
  8
0
100
AcDbLine
 62
7
  6
BYLAYER
 10
38.8878444514
 20
104.8717391549
 11
40.3020521258
 21
105.6882274626
  0
LINE
  5
2CF
100
AcDbEntity
  8
0
100
AcDbLine
 62
7
  6
BYLAYER
 10
41.3627078816
 20
106.3005936934
 11
42.7769155561
 21
107.1170820011
  0
LINE
  5
2D0
100
AcDbEntity
  8
0
100
AcDbLine
 62
7
  6
BYLAYER
 10
43.8375713119
 20
107.729448232
 11
45.2517789863
 21
108.5459365397
  0
LINE
  5
2D1
100
AcDbEntity
  8
0
100
AcDbLine
 62
7
  6
BYLAYER
 10
46.3124347421
 20
109.1583027705
 11
47.7266424166
 21
109.9747910782
  0
LINE
  5
2D2
100
AcDbEntity
  8
0
100
AcDbLine
 62
7
  6
BYLAYER
 10
48.7872981724
 20
110.5871573091
 11
50.2015058468
 21
111.4036456168
  0
LINE
  5
2D3
100
AcDbEntity
  8
0
100
AcDbLine
 62
7
  6
BYLAYER
 10
51.2621616026
 20
112.0160118476
 11
52.6763692771
 21
112.8325001553
  0
LINE
  5
2D4
100
AcDbEntity
  8
0
100
AcDbLine
 62
7
  6
BYLAYER
 10
21.3233332623
 20
93.8244824377
 11
21.358689054
 21
93.8448949917
  0
LINE
  5
2D5
100
AcDbEntity
  8
0
100
AcDbLine
 62
7
  6
BYLAYER
 10
19.0959376281
 20
92.4159828379
 11
19.1312937253
 21
92.4363955683
  0
LINE
  5
2D6
100
AcDbEntity
  8
0
100
AcDbLine
 62
7
  6
BYLAYER
 10
21.3233332623
 20
92.4772534494
 11
21.3586887486
 21
92.4976658271
  0
LINE
  5
2D7
100
AcDbEntity
  8
0
100
AcDbLine
 62
7
  6
BYLAYER
 10
19.0959379336
 20
91.0687533205
 11
19.0605821418
 21
91.0483407665
  0
LINE
  5
2D8
100
AcDbEntity
  8
0
100
AcDbLine
 62
7
  6
BYLAYER
 10
94.749068199
 20
134.2653301313
 11
93.3348605246
 21
133.4488418236
  0
LINE
  5
2D9
100
AcDbEntity
  8
0
100
AcDbLine
 62
7
  6
BYLAYER
 10
92.2742047688
 20
132.8364755928
 11
90.8599970944
 21
132.019987285
  0
LINE
  5
2DA
100
AcDbEntity
  8
0
100
AcDbLine
 62
7
  6
BYLAYER
 10
89.7993413385
 20
131.4076210542
 11
88.3851336641
 21
130.5911327465
  0
LINE
  5
2DB
100
AcDbEntity
  8
0
100
AcDbLine
 62
7
  6
BYLAYER
 10
87.3244779083
 20
129.9787665157
 11
85.9102702339
 21
129.1622782079
  0
LINE
  5
2DC
100
AcDbEntity
  8
0
100
AcDbLine
 62
7
  6
BYLAYER
 10
84.849614478
 20
128.5499119771
 11
83.4354068036
 21
127.7334236694
  0
LINE
  5
2DD
100
AcDbEntity
  8
0
100
AcDbLine
 62
7
  6
BYLAYER
 10
82.3747510478
 20
127.1210574386
 11
80.9605433734
 21
126.3045691308
  0
LINE
  5
2DE
100
AcDbEntity
  8
0
100
AcDbLine
 62
7
  6
BYLAYER
 10
79.8998876176
 20
125.6922029
 11
78.4856799431
 21
124.8757145923
  0
LINE
  5
2DF
100
AcDbEntity
  8
0
100
AcDbLine
 62
7
  6
BYLAYER
 10
77.4250241873
 20
124.2633483615
 11
76.0108165129
 21
123.4468600537
  0
LINE
  5
2E0
100
AcDbEntity
  8
0
100
AcDbLine
 62
7
  6
BYLAYER
 10
74.9501607571
 20
122.8344938229
 11
73.5359530826
 21
122.0180055152
  0
LINE
  5
2E1
100
AcDbEntity
  8
0
100
AcDbLine
 62
7
  6
BYLAYER
 10
72.4752973268
 20
121.4056392844
 11
71.0610896524
 21
120.5891509766
  0
LINE
  5
2E2
100
AcDbEntity
  8
0
100
AcDbLine
 62
7
  6
BYLAYER
 10
70.0004338966
 20
119.9767847458
 11
68.5862262221
 21
119.1602964381
  0
LINE
  5
2E3
100
AcDbEntity
  8
0
100
AcDbLine
 62
7
  6
BYLAYER
 10
67.5255704663
 20
118.5479302073
 11
66.1113627919
 21
117.7314418995
  0
LINE
  5
2E4
100
AcDbEntity
  8
0
100
AcDbLine
 62
7
  6
BYLAYER
 10
65.0507070361
 20
117.1190756687
 11
63.6364993616
 21
116.302587361
  0
LINE
  5
2E5
100
AcDbEntity
  8
0
100
AcDbLine
 62
7
  6
BYLAYER
 10
62.5758436058
 20
115.6902211302
 11
61.1616359314
 21
114.8737328224
  0
LINE
  5
2E6
100
AcDbEntity
  8
0
100
AcDbLine
 62
7
  6
BYLAYER
 10
60.1009801756
 20
114.2613665916
 11
58.6867725011
 21
113.4448782839
  0
LINE
  5
2E7
100
AcDbEntity
  8
0
100
AcDbLine
 62
7
  6
BYLAYER
 10
57.6261167453
 20
112.8325120531
 11
56.2119090709
 21
112.0160237453
  0
LINE
  5
2E8
100
AcDbEntity
  8
0
100
AcDbLine
 62
7
  6
BYLAYER
 10
55.1512533151
 20
111.4036575145
 11
53.7370456406
 21
110.5871692068
  0
LINE
  5
2E9
100
AcDbEntity
  8
0
100
AcDbLine
 62
7
  6
BYLAYER
 10
52.6763898848
 20
109.974802976
 11
51.2621822104
 21
109.1583146682
  0
LINE
  5
2EA
100
AcDbEntity
  8
0
100
AcDbLine
 62
7
  6
BYLAYER
 10
50.2015264546
 20
108.5459484374
 11
48.7873187801
 21
107.7294601297
  0
LINE
  5
2EB
100
AcDbEntity
  8
0
100
AcDbLine
 62
7
  6
BYLAYER
 10
47.7266630243
 20
107.1170938989
 11
46.3124553499
 21
106.3006055911
  0
LINE
  5
2EC
100
AcDbEntity
  8
0
100
AcDbLine
 62
7
  6
BYLAYER
 10
45.2517995941
 20
105.6882393603
 11
43.8375919196
 21
104.8717510526
  0
LINE
  5
2ED
100
AcDbEntity
  8
0
100
AcDbLine
 62
7
  6
BYLAYER
 10
42.7769361638
 20
104.2593848218
 11
41.3627284894
 21
103.442896514
  0
LINE
  5
2EE
100
AcDbEntity
  8
0
100
AcDbLine
 62
7
  6
BYLAYER
 10
40.3020727336
 20
102.8305302832
 11
38.8878650591
 21
102.0140419755
  0
LINE
  5
2EF
100
AcDbEntity
  8
0
100
AcDbLine
 62
7
  6
BYLAYER
 10
37.8272093033
 20
101.4016757447
 11
36.4130016289
 21
100.5851874369
  0
LINE
  5
2F0
100
AcDbEntity
  8
0
100
AcDbLine
 62
7
  6
BYLAYER
 10
35.3523458731
 20
99.9728212061
 11
33.9381381987
 21
99.1563328984
  0
LINE
  5
2F1
100
AcDbEntity
  8
0
100
AcDbLine
 62
7
  6
BYLAYER
 10
107.6643214049
 20
141.497376252
 11
106.2501137305
 21
140.6808879442
  0
LINE
  5
2F2
100
AcDbEntity
  8
0
100
AcDbLine
 62
7
  6
BYLAYER
 10
105.1894579747
 20
140.0685217134
 11
103.7752503003
 21
139.2520334057
  0
LINE
  5
2F3
100
AcDbEntity
  8
0
100
AcDbLine
 62
7
  6
BYLAYER
 10
102.7145945444
 20
138.6396671749
 11
101.30038687
 21
137.8231788671
  0
LINE
  5
2F4
100
AcDbEntity
  8
0
100
AcDbLine
 62
7
  6
BYLAYER
 10
21.3233332623
 20
91.1300244612
 11
21.358689054
 21
91.1504370152
  0
LINE
  5
2F5
100
AcDbEntity
  8
0
100
AcDbLine
 62
7
  6
BYLAYER
 10
19.0959376281
 20
89.7215248614
 11
19.1312937253
 21
89.7419375918
  0
LINE
  5
2F6
100
AcDbEntity
  8
0
100
AcDbLine
 62
7
  6
BYLAYER
 10
24.3748355826
 20
67.8534399398
 11
24.6248290401
 21
67.8286871936
  0
LINE
  5
2F7
100
AcDbEntity
  8
0
100
AcDbLine
 62
7
  6
BYLAYER
 10
21.3586887486
 20
84.3326423613
 11
19.0605821418
 21
85.6594248135
  0
LINE
  5
2F8
100
AcDbEntity
  8
0
100
AcDbLine
 62
7
  6
BYLAYER
 10
21.3233332623
 20
84.3938795198
 11
19.0959376281
 21
85.6798378966
  0
LINE
  5
2F9
100
AcDbEntity
  8
0
100
AcDbLine
 62
7
  6
BYLAYER
 10
19.0959376281
 20
87.0270668849
 11
21.3233332623
 21
85.7411085081
  0
LINE
  5
2FA
100
AcDbEntity
  8
0
100
AcDbLine
 62
7
  6
BYLAYER
 10
19.0605821418
 20
87.0883040434
 11
21.3586887486
 21
85.7615215912
  0
LINE
  5
2FB
100
AcDbEntity
  8
0
100
AcDbLine
 62
7
  6
BYLAYER
 10
41.7161685373
 20
118.6908598566
 11
41.7161685373
 21
119.1602318504
  0
LINE
  5
2FC
100
AcDbEntity
  8
0
100
AcDbLine
 62
7
  6
BYLAYER
 10
42.7769155561
 20
105.484118983
 11
42.7769155561
 21
107.1170820011
  0
LINE
  5
2FD
100
AcDbEntity
  8
0
100
AcDbLine
 62
7
  6
BYLAYER
 10
44.1910319675
 20
119.785580342
 11
44.1910319675
 21
120.589086389
  0
LINE
  5
2FE
100
AcDbEntity
  8
0
100
AcDbLine
 62
7
  6
BYLAYER
 10
45.2306041428
 20
89.7950725488
 11
45.2306041428
 21
34.2729081839
  0
LINE
  5
2FF
100
AcDbEntity
  8
0
100
AcDbLine
 62
7
  6
BYLAYER
 10
45.2517789863
 20
106.9129735216
 11
45.2517789863
 21
108.5459365397
  0
LINE
  5
300
100
AcDbEntity
  8
0
100
AcDbLine
 62
7
  6
BYLAYER
 10
45.3013151153
 20
89.7542484733
 11
45.3013151153
 21
34.2320841085
  0
LINE
  5
301
100
AcDbEntity
  8
0
100
AcDbLine
 62
7
  6
BYLAYER
 10
23.5913588508
 20
69.4635608857
 11
23.7578439209
 21
69.713684804
  0
LINE
  5
302
100
AcDbEntity
  8
0
100
AcDbLine
 62
7
  6
BYLAYER
 10
23.4056159019
 20
70.0064866911
 11
23.3365120775
 21
69.9049713571
  0
LINE
  5
303
100
AcDbEntity
  8
0
100
AcDbLine
 62
7
  6
BYLAYER
 10
23.8520537432
 20
70.13049122
 11
23.9211575676
 21
70.232006554
  0
LINE
  5
304
100
AcDbEntity
  8
0
100
AcDbLine
 62
7
  6
BYLAYER
 10
22.1451863897
 20
73.7376079882
 11
22.8349422279
 21
74.5804699524
  0
LINE
  5
305
100
AcDbEntity
  8
0
100
AcDbLine
 62
7
  6
BYLAYER
 10
21.3233332623
 20
89.7827954729
 11
21.3586887486
 21
89.8032078506
  0
LINE
  5
306
100
AcDbEntity
  8
0
100
AcDbLine
 62
7
  6
BYLAYER
 10
19.0959379336
 20
88.374295344
 11
19.0605821418
 21
88.35388279
  0
LINE
  5
307
100
AcDbEntity
  8
0
100
AcDbLine
 62
7
  6
BYLAYER
 10
112.2074796037
 20
141.8954235652
 11
36.038254259
 21
97.9193633102
  0
LINE
  5
308
100
AcDbEntity
  8
0
100
AcDbLine
 62
7
  6
BYLAYER
 10
21.3233332623
 20
88.4355664846
 11
21.358689054
 21
88.4559790387
  0
LINE
  5
309
100
AcDbEntity
  8
0
100
AcDbLine
 62
7
  6
BYLAYER
 10
19.0959376281
 20
87.0270668849
 11
19.1312937253
 21
87.0474796152
  0
LINE
  5
30A
100
AcDbEntity
  8
0
100
AcDbLine
 62
7
  6
BYLAYER
 10
21.3233332623
 20
87.0883374964
 11
21.3586887486
 21
87.108749874
  0
LINE
  5
30B
100
AcDbEntity
  8
0
100
AcDbLine
 62
7
  6
BYLAYER
 10
19.0959379336
 20
85.6798373675
 11
19.0605821418
 21
85.6594248135
  0
LINE
  5
30C
100
AcDbEntity
  8
0
100
AcDbLine
 62
7
  6
BYLAYER
 10
21.3233332623
 20
85.7411085081
 11
21.358689054
 21
85.7615210621
  0
LINE
  5
30D
100
AcDbEntity
  8
0
100
AcDbLine
 62
7
  6
BYLAYER
 10
21.3233332623
 20
84.3938795198
 11
21.3586887486
 21
84.4142918975
  0
LINE
  5
30E
100
AcDbEntity
  8
0
100
AcDbLine
 62
7
  6
BYLAYER
 10
24.5162575276
 20
70.9888113124
 11
24.6662536021
 21
70.9739596647
  0
LINE
  5
30F
100
AcDbEntity
  8
0
100
AcDbLine
 62
7
  6
BYLAYER
 10
23.0763156888
 20
73.1952287482
 11
23.5263039124
 21
73.1506738051
  0
LINE
  5
310
100
AcDbEntity
  8
0
100
AcDbLine
 62
7
  6
BYLAYER
 10
21.3586887486
 20
87.0271003378
 11
19.0605821418
 21
88.35388279
  0
LINE
  5
311
100
AcDbEntity
  8
0
100
AcDbLine
 62
7
  6
BYLAYER
 10
21.3233332623
 20
87.0883374964
 11
19.0959376281
 21
88.3742958731
  0
LINE
  5
312
100
AcDbEntity
  8
0
100
AcDbLine
 62
7
  6
BYLAYER
 10
19.0959376281
 20
89.7215248614
 11
21.3233332623
 21
88.4355664846
  0
LINE
  5
313
100
AcDbEntity
  8
0
100
AcDbLine
 62
7
  6
BYLAYER
 10
19.0605821418
 20
89.78276202
 11
21.3586887486
 21
88.4559795678
  0
LINE
  5
314
100
AcDbEntity
  8
0
100
AcDbLine
 62
7
  6
BYLAYER
 10
90.3486475113
 20
48.8033700548
 11
92.0055229745
 21
47.8467942008
  0
LINE
  5
315
100
AcDbEntity
  8
0
100
AcDbLine
 62
7
  6
BYLAYER
 10
21.3586887486
 20
89.7215583143
 11
19.0605821418
 21
91.0483407665
  0
LINE
  5
316
100
AcDbEntity
  8
0
100
AcDbLine
 62
7
  6
BYLAYER
 10
21.3233332623
 20
89.7827954729
 11
19.0959376281
 21
91.0687538496
  0
LINE
  5
317
100
AcDbEntity
  8
0
100
AcDbLine
 62
7
  6
BYLAYER
 10
19.0959376281
 20
92.4159828379
 11
21.3233332623
 21
91.1300244612
  0
LINE
  5
318
100
AcDbEntity
  8
0
100
AcDbLine
 62
7
  6
BYLAYER
 10
19.0605821418
 20
92.4772199965
 11
21.3586887486
 21
91.1504375443
  0
LINE
  5
319
100
AcDbEntity
  8
0
100
AcDbLine
 62
7
  6
BYLAYER
 10
21.3586887486
 20
92.4160162908
 11
19.0605821418
 21
93.742798743
  0
LINE
  5
31A
100
AcDbEntity
  8
0
100
AcDbLine
 62
7
  6
BYLAYER
 10
21.3233332623
 20
92.4772534494
 11
19.0959376281
 21
93.7632118262
  0
LINE
  5
31B
100
AcDbEntity
  8
0
100
AcDbLine
 62
7
  6
BYLAYER
 10
46.6658953978
 20
120.3849779094
 11
46.6658953978
 21
122.0179409275
  0
LINE
  5
31C
100
AcDbEntity
  8
0
100
AcDbLine
 62
7
  6
BYLAYER
 10
47.7266424166
 20
108.3418280601
 11
47.7266424166
 21
109.9747910782
  0
LINE
  5
31D
100
AcDbEntity
  8
0
100
AcDbLine
 62
7
  6
BYLAYER
 10
48.4690836935
 20
118.0989299324
 11
48.4690836935
 21
114.8084251914
  0
LINE
  5
31E
100
AcDbEntity
  8
0
100
AcDbLine
 62
7
  6
BYLAYER
 10
49.140758828
 20
121.8138324479
 11
49.140758828
 21
123.4467954661
  0
LINE
  5
31F
100
AcDbEntity
  8
0
100
AcDbLine
 62
7
  6
BYLAYER
 10
49.3706449131
 20
114.7982212971
 11
49.3706449131
 21
114.222599862
  0
LINE
  5
320
100
AcDbEntity
  8
0
100
AcDbLine
 62
7
  6
BYLAYER
 10
50.2015058468
 20
109.7706825987
 11
50.2015058468
 21
111.4036456168
  0
LINE
  5
321
100
AcDbEntity
  8
0
100
AcDbLine
 62
7
  6
BYLAYER
 10
51.6156222583
 20
123.2426869865
 11
51.6156222583
 21
124.8756500046
  0
LINE
  5
322
100
AcDbEntity
  8
0
100
AcDbLine
 62
7
  6
BYLAYER
 10
52.0823989332
 20
115.0288883037
 11
52.0823989332
 21
112.9223120675
  0
LINE
  5
323
100
AcDbEntity
  8
0
100
AcDbLine
 62
7
  6
BYLAYER
 10
22.5939698778
 20
75.0474888266
 11
22.5587480977
 21
75.0174040273
  0
LINE
  5
324
100
AcDbEntity
  8
0
100
AcDbLine
 62
7
  6
BYLAYER
 10
19.0959376281
 20
95.1104408144
 11
21.3233332623
 21
93.8244824377
  0
LINE
  5
325
100
AcDbEntity
  8
0
100
AcDbLine
 62
7
  6
BYLAYER
 10
19.0605821418
 20
95.171677973
 11
21.3586887486
 21
93.8448955208
  0
LINE
  5
326
100
AcDbEntity
  8
0
100
AcDbLine
 62
7
  6
BYLAYER
 10
21.3586887486
 20
95.1104742674
 11
19.0605821418
 21
96.4372567196
  0
LINE
  5
327
100
AcDbEntity
  8
0
100
AcDbLine
 62
7
  6
BYLAYER
 10
21.3233332623
 20
95.171711426
 11
19.0959376281
 21
96.4576698027
  0
LINE
  5
328
100
AcDbEntity
  8
0
100
AcDbLine
 62
7
  6
BYLAYER
 10
19.0959376281
 20
97.804898791
 11
21.3233332623
 21
96.5189404142
  0
LINE
  5
329
100
AcDbEntity
  8
0
100
AcDbLine
 62
7
  6
BYLAYER
 10
19.0605821418
 20
97.8661359495
 11
21.3586887486
 21
96.5393534974
  0
LINE
  5
32A
100
AcDbEntity
  8
0
100
AcDbLine
 62
7
  6
BYLAYER
 10
32.1491831543
 20
91.1832571697
 11
14.4714400256
 21
101.3892760327
  0
LINE
  5
32B
100
AcDbEntity
  8
0
100
AcDbLine
 62
7
  6
BYLAYER
 10
52.6763692771
 20
111.1995371372
 11
52.6763692771
 21
112.8325001553
  0
LINE
  5
32C
100
AcDbEntity
  8
0
100
AcDbLine
 62
7
  6
BYLAYER
 10
54.0904856885
 20
124.671541525
 11
54.0904856885
 21
126.3045045432
  0
LINE
  5
32D
100
AcDbEntity
  8
0
100
AcDbLine
 62
7
  6
BYLAYER
 10
56.5653491188
 20
126.1003960636
 11
56.5653491188
 21
127.7333590817
  0
LINE
  5
32E
100
AcDbEntity
  8
0
100
AcDbLine
 62
7
  6
BYLAYER
 10
56.6500367171
 20
150.6439258152
 11
56.6500367171
 21
130.2317181209
  0
LINE
  5
32F
100
AcDbEntity
  8
0
100
AcDbLine
 62
7
  6
BYLAYER
 10
72.1005499569
 20
106.124852813
 11
45.93770798
 21
91.0198191198
  0
LINE
  5
330
100
AcDbEntity
  8
0
100
AcDbLine
 62
7
  6
BYLAYER
 10
72.1712609294
 20
106.0840287375
 11
46.0084189525
 21
90.9789950443
  0
LINE
  5
331
100
AcDbEntity
  8
0
100
AcDbLine
 62
7
  6
BYLAYER
 10
22.598191573
 20
75.0401765924
 11
22.5587480977
 21
75.0174040273
  0
LINE
  5
332
100
AcDbEntity
  8
0
100
AcDbLine
 62
7
  6
BYLAYER
 10
21.8949589542
 20
74.2062726236
 11
22.1070901053
 21
74.3287458697
  0
LINE
  5
333
100
AcDbEntity
  8
0
100
AcDbLine
 62
7
  6
BYLAYER
 10
23.0470733791
 20
74.7029431985
 11
22.8349422279
 21
74.5804699524
  0
LINE
  5
334
100
AcDbEntity
  8
0
100
AcDbLine
 62
7
  6
BYLAYER
 10
21.9950857348
 20
73.9524193806
 11
21.7829545836
 21
73.8299461344
  0
LINE
  5
335
100
AcDbEntity
  8
0
100
AcDbLine
 62
7
  6
BYLAYER
 10
22.7414103511
 20
73.1139143397
 11
22.5292791999
 21
72.9914410936
  0
LINE
  5
336
100
AcDbEntity
  8
0
100
AcDbLine
 62
7
  6
BYLAYER
 10
23.2884370781
 20
73.3177189024
 11
23.076305927
 21
73.1952456562
  0
LINE
  5
337
100
AcDbEntity
  8
0
100
AcDbLine
 62
7
  6
BYLAYER
 10
23.7384350636
 20
73.2731470513
 11
23.5263039124
 21
73.1506738051
  0
LINE
  5
338
100
AcDbEntity
  8
0
100
AcDbLine
 62
7
  6
BYLAYER
 10
23.7297598865
 20
73.0332111011
 11
23.9418910377
 21
73.1556843472
  0
LINE
  5
339
100
AcDbEntity
  8
0
100
AcDbLine
 62
7
  6
BYLAYER
 10
33.5916749822
 20
78.6662607235
 11
45.2306041428
 21
85.3859594963
  0
LINE
  5
33A
100
AcDbEntity
  8
0
100
AcDbLine
 62
7
  6
BYLAYER
 10
72.8783647666
 20
101.3483062526
 11
97.5421460198
 21
115.5878619997
  0
LINE
  5
33B
100
AcDbEntity
  8
0
100
AcDbLine
 62
7
  6
BYLAYER
 10
25.3027534023
 20
73.4006551916
 11
25.0906222511
 21
73.2781819454
  0
LINE
  5
33C
100
AcDbEntity
  8
0
100
AcDbLine
 62
7
  6
BYLAYER
 10
23.4909466597
 20
71.8257058789
 11
23.2788155086
 21
71.7032326328
  0
LINE
  5
33D
100
AcDbEntity
  8
0
100
AcDbLine
 62
7
  6
BYLAYER
 10
24.5782897903
 20
72.0534154927
 11
24.3661586391
 21
71.9309422466
  0
LINE
  5
33E
100
AcDbEntity
  8
0
100
AcDbLine
 62
7
  6
BYLAYER
 10
45.3013151153
 20
89.7542484733
 11
45.2306041428
 21
89.7950725488
  0
LINE
  5
33F
100
AcDbEntity
  8
0
100
AcDbLine
 62
7
  6
BYLAYER
 10
45.93770798
 20
91.0198191198
 11
46.0084189525
 21
90.9789950443
  0
LINE
  5
340
100
AcDbEntity
  8
0
100
AcDbLine
 62
7
  6
BYLAYER
 10
23.925470143
 20
104.0885315394
 11
30.4096663226
 21
100.3449638205
  0
LINE
  5
341
100
AcDbEntity
  8
0
100
AcDbLine
 62
7
  6
BYLAYER
 10
18.3605111303
 20
108.1253821732
 11
23.925470143
 21
104.9125242738
  0
LINE
  5
342
100
AcDbEntity
  8
0
100
AcDbLine
 62
7
  6
BYLAYER
 10
31.0672728912
 20
100.7892958145
 11
36.038254259
 21
97.9193633102
  0
LINE
  5
343
100
AcDbEntity
  8
0
100
AcDbLine
 62
7
  6
BYLAYER
 10
33.9381381987
 20
99.1563328984
 11
31.4632541606
 21
100.5851755392
  0
LINE
  5
344
100
AcDbEntity
  8
0
100
AcDbLine
 62
7
  6
BYLAYER
 10
23.925470143
 20
104.937018719
 11
20.5030534209
 21
106.9129072343
  0
LINE
  5
345
100
AcDbEntity
  8
0
100
AcDbLine
 62
7
  6
BYLAYER
 10
59.040212549
 20
127.5292506021
 11
59.040212549
 21
129.1622136203
  0
LINE
  5
346
100
AcDbEntity
  8
0
100
AcDbLine
 62
7
  6
BYLAYER
 10
59.8320304803
 20
132.0688321105
 11
59.8320304803
 21
145.1734066636
  0
LINE
  5
347
100
AcDbEntity
  8
0
100
AcDbLine
 62
7
  6
BYLAYER
 10
60.044162809
 20
144.9284573238
 11
60.044162809
 21
132.1913060365
  0
LINE
  5
348
100
AcDbEntity
  8
0
100
AcDbLine
 62
7
  6
BYLAYER
 10
60.5744951029
 20
136.4327575141
 11
60.5744951029
 21
139.7477573276
  0
LINE
  5
349
100
AcDbEntity
  8
0
100
AcDbLine
 62
7
  6
BYLAYER
 10
60.6805615616
 20
132.5584551129
 11
60.6805615616
 21
135.089612606
  0
LINE
  5
34A
100
AcDbEntity
  8
0
100
AcDbLine
 62
7
  6
BYLAYER
 10
60.6805615616
 20
140.9684300093
 11
60.6805615616
 21
143.4995875024
  0
LINE
  5
34B
100
AcDbEntity
  8
0
100
AcDbLine
 62
7
  6
BYLAYER
 10
60.8219823291
 20
132.6401039437
 11
60.8219823291
 21
135.007965135
  0
LINE
  5
34C
100
AcDbEntity
  8
0
100
AcDbLine
 62
7
  6
BYLAYER
 10
60.8219823291
 20
141.0500788401
 11
60.8219823291
 21
143.4179400314
  0
LINE
  5
34D
100
AcDbEntity
  8
0
100
AcDbLine
 62
7
  6
BYLAYER
 10
61.1436991192
 20
149.1763117924
 11
61.1436991192
 21
150.8092748105
  0
LINE
  5
34E
100
AcDbEntity
  8
0
100
AcDbLine
 62
7
  6
BYLAYER
 10
61.4442400648
 20
135.0161386788
 11
61.4442400648
 21
135.930621386
  0
LINE
  5
34F
100
AcDbEntity
  8
0
100
AcDbLine
 62
7
  6
BYLAYER
 10
61.4442400648
 20
139.2456211996
 11
61.4442400648
 21
140.1601039068
  0
LINE
  5
350
100
AcDbEntity
  8
0
100
AcDbLine
 62
7
  6
BYLAYER
 10
61.5150759793
 20
128.9581051407
 11
61.5150759793
 21
130.5910681588
  0
LINE
  5
351
100
AcDbEntity
  8
0
100
AcDbLine
 62
7
  6
BYLAYER
 10
62.0240700394
 20
142.7239300689
 11
62.0240700394
 21
140.1927725758
  0
LINE
  5
352
100
AcDbEntity
  8
0
100
AcDbLine
 62
7
  6
BYLAYER
 10
62.0240700394
 20
134.3139551724
 11
62.0240700394
 21
133.3343991856
  0
LINE
  5
353
100
AcDbEntity
  8
0
100
AcDbLine
 62
7
  6
BYLAYER
 10
62.6109711113
 20
133.6732446548
 11
62.6109711113
 21
134.3425414339
  0
LINE
  5
354
100
AcDbEntity
  8
0
100
AcDbLine
 62
7
  6
BYLAYER
 10
62.6109711113
 20
139.4865066618
 11
62.6109711113
 21
141.8135385506
  0
LINE
  5
355
100
AcDbEntity
  8
0
100
AcDbLine
 62
7
  6
BYLAYER
 10
63.6185625494
 20
150.605166331
 11
63.6185625494
 21
152.2381293491
  0
LINE
  5
356
100
AcDbEntity
  8
0
100
AcDbLine
 62
7
  6
BYLAYER
 10
63.9899394095
 20
130.3869596792
 11
63.9899394095
 21
132.0199226974
  0
LINE
  5
357
100
AcDbEntity
  8
0
100
AcDbLine
 62
7
  6
BYLAYER
 10
97.5421460198
 20
113.9548571654
 11
72.8783647666
 21
99.7153014183
  0
LINE
  5
358
100
AcDbEntity
  8
0
100
AcDbLine
 62
7
  6
BYLAYER
 10
45.2306041428
 20
83.752954662
 11
33.5916749822
 21
77.0332558893
  0
LINE
  5
359
100
AcDbEntity
  8
0
100
AcDbLine
 62
7
  6
BYLAYER
 10
22.5292791999
 20
70.58461324
 11
22.7414103511
 21
70.7070864862
  0
LINE
  5
35A
100
AcDbEntity
  8
0
100
AcDbLine
 62
7
  6
BYLAYER
 10
24.5782897903
 20
71.6162127415
 11
24.3661586391
 21
71.4937394953
  0
LINE
  5
35B
100
AcDbEntity
  8
0
100
AcDbLine
 62
7
  6
BYLAYER
 10
21.7829545836
 20
69.7580804879
 11
21.9950857348
 21
69.8805537341
  0
LINE
  5
35C
100
AcDbEntity
  8
0
100
AcDbLine
 62
7
  6
BYLAYER
 10
23.7119568753
 20
70.5457663533
 11
23.4998257242
 21
70.4232931071
  0
LINE
  5
35D
100
AcDbEntity
  8
0
100
AcDbLine
 62
7
  6
BYLAYER
 10
24.5162575276
 20
70.9888113124
 11
24.7283886788
 21
71.1112845585
  0
LINE
  5
35E
100
AcDbEntity
  8
0
100
AcDbLine
 62
7
  6
BYLAYER
 10
23.4064607811
 20
70.0102246355
 11
23.6185919322
 21
70.1326978817
  0
LINE
  5
35F
100
AcDbEntity
  8
0
100
AcDbLine
 62
7
  6
BYLAYER
 10
23.548666081
 20
70.0274047446
 11
23.3365349298
 21
69.9049314985
  0
LINE
  5
360
100
AcDbEntity
  8
0
100
AcDbLine
 62
7
  6
BYLAYER
 10
24.1332658664
 20
70.3545196588
 11
23.9211347152
 21
70.2320464127
  0
LINE
  5
361
100
AcDbEntity
  8
0
100
AcDbLine
 62
7
  6
BYLAYER
 10
22.3486405974
 20
69.2681821483
 11
22.1365094462
 21
69.1457089021
  0
LINE
  5
362
100
AcDbEntity
  8
0
100
AcDbLine
 62
7
  6
BYLAYER
 10
24.5798956365
 20
69.8830407021
 11
24.3677644853
 21
69.7605674559
  0
LINE
  5
363
100
AcDbEntity
  8
0
100
AcDbLine
 62
7
  6
BYLAYER
 10
16.9675373554
 20
65.2713285138
 11
17.1089617443
 21
65.3529794354
  0
LINE
  5
364
100
AcDbEntity
  8
0
100
AcDbLine
 62
7
  6
BYLAYER
 10
24.5798956365
 20
68.3964118262
 11
24.3677644853
 21
68.2739385801
  0
LINE
  5
365
100
AcDbEntity
  8
0
100
AcDbLine
 62
7
  6
BYLAYER
 10
24.3748355826
 20
67.8534399398
 11
24.5869667337
 21
67.9759131859
  0
LINE
  5
366
100
AcDbEntity
  8
0
100
AcDbLine
 62
7
  6
BYLAYER
 10
25.0906222511
 20
67.6524802914
 11
25.3027534023
 21
67.7749535376
  0
LINE
  5
367
100
AcDbEntity
  8
0
100
AcDbLine
 62
7
  6
BYLAYER
 10
23.925470143
 20
106.2597727065
 11
30.4096663226
 21
102.5162049876
  0
LINE
  5
368
100
AcDbEntity
  8
0
100
AcDbLine
 62
7
  6
BYLAYER
 10
21.9172610953
 20
107.729395542
 11
24.1941228846
 21
106.4148785134
  0
LINE
  5
369
100
AcDbEntity
  8
0
100
AcDbLine
 62
7
  6
BYLAYER
 10
32.8774618351
 20
101.4016638469
 11
35.3523458731
 21
99.9728212061
  0
LINE
  5
36A
100
AcDbEntity
  8
0
100
AcDbLine
 62
7
  6
BYLAYER
 10
30.4096608468
 20
103.2755359524
 11
25.240688756
 21
106.2597758679
  0
LINE
  5
36B
100
AcDbEntity
  8
0
100
AcDbLine
 62
7
  6
BYLAYER
 10
30.5263276514
 20
103.9185145964
 11
26.6372241631
 21
106.1638387463
  0
LINE
  5
36C
100
AcDbEntity
  8
0
100
AcDbLine
 62
7
  6
BYLAYER
 10
36.4130016289
 20
100.5851874369
 11
33.9381175909
 21
102.0140300778
  0
LINE
  5
36D
100
AcDbEntity
  8
0
100
AcDbLine
 62
7
  6
BYLAYER
 10
25.2547786404
 20
107.0272447442
 11
22.9779168511
 21
108.3417617728
  0
LINE
  5
36E
100
AcDbEntity
  8
0
100
AcDbLine
 62
7
  6
BYLAYER
 10
30.5086462283
 20
104.439023683
 11
27.5387853827
 21
106.153634852
  0
LINE
  5
36F
100
AcDbEntity
  8
0
100
AcDbLine
 62
7
  6
BYLAYER
 10
24.3921245255
 20
109.1582500806
 11
26.6689863149
 21
107.8437330519
  0
LINE
  5
370
100
AcDbEntity
  8
0
100
AcDbLine
 62
7
  6
BYLAYER
 10
35.3523252653
 20
102.8305183855
 11
37.8272093033
 21
101.4016757447
  0
LINE
  5
371
100
AcDbEntity
  8
0
100
AcDbLine
 62
7
  6
BYLAYER
 10
38.8878650591
 20
102.0140419755
 11
36.4129810211
 21
103.4428846163
  0
LINE
  5
372
100
AcDbEntity
  8
0
100
AcDbLine
 62
7
  6
BYLAYER
 10
27.5387853827
 20
108.5662879501
 11
25.4527802814
 21
109.7706163114
  0
LINE
  5
373
100
AcDbEntity
  8
0
100
AcDbLine
 62
7
  6
BYLAYER
 10
30.5086462283
 20
107.7295284241
 11
27.5387853827
 21
109.4441395931
  0
LINE
  5
374
100
AcDbEntity
  8
0
100
AcDbLine
 62
7
  6
BYLAYER
 10
66.4648028398
 20
131.8158142178
 11
66.4648028398
 21
133.4487772359
  0
LINE
  5
375
100
AcDbEntity
  8
0
100
AcDbLine
 62
7
  6
BYLAYER
 10
67.327392978
 20
139.090572718
 11
67.327392978
 21
136.396255835
  0
LINE
  5
376
100
AcDbEntity
  8
0
100
AcDbLine
 62
7
  6
BYLAYER
 10
68.93966627
 20
133.2446687563
 11
68.93966627
 21
134.8776317745
  0
LINE
  5
377
100
AcDbEntity
  8
0
100
AcDbLine
 62
7
  6
BYLAYER
 10
16.9675385773
 20
58.7801321812
 11
16.8261154104
 21
58.6984819651
  0
LINE
  5
378
100
AcDbEntity
  8
0
100
AcDbLine
 62
7
  6
BYLAYER
 10
28.6613860563
 20
64.6335947357
 11
27.3266948288
 21
63.863014996
  0
LINE
  5
379
100
AcDbEntity
  8
0
100
AcDbLine
 62
7
  6
BYLAYER
 10
26.8669879558
 20
110.5871046191
 11
27.9802013222
 21
109.9444051222
  0
LINE
  5
37A
100
AcDbEntity
  8
0
100
AcDbLine
 62
7
  6
BYLAYER
 10
37.8271886956
 20
104.259372924
 11
40.3020727336
 21
102.8305302832
  0
LINE
  5
37B
100
AcDbEntity
  8
0
100
AcDbLine
 62
7
  6
BYLAYER
 10
41.3627284894
 20
103.442896514
 11
38.8878444514
 21
104.8717391549
  0
LINE
  5
37C
100
AcDbEntity
  8
0
100
AcDbLine
 62
7
  6
BYLAYER
 10
28.696137999
 20
110.7557905036
 11
27.9276437116
 21
111.1994708499
  0
LINE
  5
37D
100
AcDbEntity
  8
0
100
AcDbLine
 62
7
  6
BYLAYER
 10
96.1279021311
 20
72.313227093
 11
97.5421460198
 21
71.4967314747
  0
LINE
  5
37E
100
AcDbEntity
  8
0
100
AcDbLine
 62
7
  6
BYLAYER
 10
32.4178265888
 20
109.8932407818
 11
29.4479657431
 21
111.6078519508
  0
LINE
  5
37F
100
AcDbEntity
  8
0
100
AcDbLine
 62
7
  6
BYLAYER
 10
29.341851386
 20
112.0159591577
 11
29.7483452677
 21
111.7812751149
  0
LINE
  5
380
100
AcDbEntity
  8
0
100
AcDbLine
 62
7
  6
BYLAYER
 10
40.3020521258
 20
105.6882274626
 11
42.7769361638
 21
104.2593848218
  0
LINE
  5
381
100
AcDbEntity
  8
0
100
AcDbLine
 62
7
  6
BYLAYER
 10
43.8375919196
 20
104.8717510526
 11
41.3627078816
 21
106.3005936934
  0
LINE
  5
382
100
AcDbEntity
  8
0
100
AcDbLine
 62
7
  6
BYLAYER
 10
30.8090010235
 20
112.3936413457
 11
30.4025071419
 21
112.6283253885
  0
LINE
  5
383
100
AcDbEntity
  8
0
100
AcDbLine
 62
7
  6
BYLAYER
 10
31.8167148163
 20
113.4448136962
 11
32.2232086979
 21
113.2101296535
  0
LINE
  5
384
100
AcDbEntity
  8
0
100
AcDbLine
 62
7
  6
BYLAYER
 10
42.7769155561
 20
107.1170820011
 11
45.2517995941
 21
105.6882393603
  0
LINE
  5
385
100
AcDbEntity
  8
0
100
AcDbLine
 62
7
  6
BYLAYER
 10
71.2128562891
 20
155.1938297706
 11
71.2128562891
 21
156.8267927888
  0
LINE
  5
386
100
AcDbEntity
  8
0
100
AcDbLine
 62
7
  6
BYLAYER
 10
71.4145297003
 20
134.6735232949
 11
71.4145297003
 21
136.306486313
  0
LINE
  5
387
100
AcDbEntity
  8
0
100
AcDbLine
 62
7
  6
BYLAYER
 10
72.8783647666
 20
50.1536061095
 11
72.8783647666
 21
105.6757704743
  0
LINE
  5
388
100
AcDbEntity
  8
0
100
AcDbLine
 62
7
  6
BYLAYER
 10
73.6877197194
 20
156.6226843092
 11
73.6877197194
 21
158.2556473273
  0
LINE
  5
389
100
AcDbEntity
  8
0
100
AcDbLine
 62
7
  6
BYLAYER
 10
73.8893931305
 20
136.1023778334
 11
73.8893931305
 21
137.7353408516
  0
LINE
  5
38A
100
AcDbEntity
  8
0
100
AcDbLine
 62
7
  6
BYLAYER
 10
75.5864328014
 20
145.1246424312
 11
75.5864328014
 21
152.4813292095
  0
LINE
  5
38B
100
AcDbEntity
  8
0
100
AcDbLine
 62
7
  6
BYLAYER
 10
21.2985868658
 20
56.2796582652
 11
21.1571624769
 21
56.1980073436
  0
LINE
  5
38C
100
AcDbEntity
  8
0
100
AcDbLine
 62
7
  6
BYLAYER
 10
21.8642844213
 20
55.9530600179
 11
21.1571624769
 21
55.5448054099
  0
LINE
  5
38D
100
AcDbEntity
  8
0
100
AcDbLine
 62
7
  6
BYLAYER
 10
109.3790642548
 20
105.0548627231
 11
110.2125884619
 21
105.5360952759
  0
LINE
  5
38E
100
AcDbEntity
  8
0
100
AcDbLine
 62
7
  6
BYLAYER
 10
29.6601569218
 20
57.9434069701
 11
29.8015800887
 21
58.0250571862
  0
LINE
  5
38F
100
AcDbEntity
  8
0
100
AcDbLine
 62
7
  6
BYLAYER
 10
111.2033921548
 20
104.0668765973
 11
112.2074796037
 21
104.6465832958
  0
LINE
  5
390
100
AcDbEntity
  8
0
100
AcDbLine
 62
7
  6
BYLAYER
 10
25.6119561892
 20
53.7893896626
 11
25.4705318003
 21
53.707738741
  0
LINE
  5
391
100
AcDbEntity
  8
0
100
AcDbLine
 62
7
  6
BYLAYER
 10
33.5916749822
 20
57.4371978782
 11
45.2306041428
 21
64.1568966509
  0
LINE
  5
392
100
AcDbEntity
  8
0
100
AcDbLine
 62
7
  6
BYLAYER
 10
72.8783647666
 20
80.1192434072
 11
97.5421460198
 21
94.3587991543
  0
LINE
  5
393
100
AcDbEntity
  8
0
100
AcDbLine
 62
7
  6
BYLAYER
 10
46.3124553499
 20
106.3006055911
 11
43.8375713119
 21
107.729448232
  0
LINE
  5
394
100
AcDbEntity
  8
0
100
AcDbLine
 62
7
  6
BYLAYER
 10
33.2838644537
 20
113.8224958843
 11
32.8773705721
 21
114.057179927
  0
LINE
  5
395
100
AcDbEntity
  8
0
100
AcDbLine
 62
7
  6
BYLAYER
 10
34.2915782465
 20
114.8736682348
 11
34.6980721282
 21
114.638984192
  0
LINE
  5
396
100
AcDbEntity
  8
0
100
AcDbLine
 62
7
  6
BYLAYER
 10
45.2517789863
 20
108.5459365397
 11
47.7266630243
 21
107.1170938989
  0
LINE
  5
397
100
AcDbEntity
  8
0
100
AcDbLine
 62
7
  6
BYLAYER
 10
48.7873187801
 20
107.7294601297
 11
46.3124347421
 21
109.1583027705
  0
LINE
  5
398
100
AcDbEntity
  8
0
100
AcDbLine
 62
7
  6
BYLAYER
 10
35.758727884
 20
115.2513504228
 11
35.3522340024
 21
115.4860344656
  0
LINE
  5
399
100
AcDbEntity
  8
0
100
AcDbLine
 62
7
  6
BYLAYER
 10
36.7664416768
 20
116.3025227733
 11
37.1729355584
 21
116.0678387306
  0
LINE
  5
39A
100
AcDbEntity
  8
0
100
AcDbLine
 62
7
  6
BYLAYER
 10
47.7266424166
 20
109.9747910782
 11
50.2015264546
 21
108.5459484374
  0
LINE
  5
39B
100
AcDbEntity
  8
0
100
AcDbLine
 62
7
  6
BYLAYER
 10
51.2621822104
 20
109.1583146682
 11
48.7872981724
 21
110.5871573091
  0
LINE
  5
39C
100
AcDbEntity
  8
0
100
AcDbLine
 62
7
  6
BYLAYER
 10
38.2335913142
 20
116.6802049614
 11
37.8270974326
 21
116.9148890041
  0
LINE
  5
39D
100
AcDbEntity
  8
0
100
AcDbLine
 62
7
  6
BYLAYER
 10
76.1625831496
 20
158.0515388477
 11
76.1625831496
 21
159.6845018659
  0
LINE
  5
39E
100
AcDbEntity
  8
0
100
AcDbLine
 62
7
  6
BYLAYER
 10
76.3642565608
 20
137.531232372
 11
76.3642565608
 21
139.1641953901
  0
LINE
  5
39F
100
AcDbEntity
  8
0
100
AcDbLine
 62
7
  6
BYLAYER
 10
76.6470973891
 20
139.8337224492
 11
76.6470973891
 21
143.2875276737
  0
LINE
  5
3A0
100
AcDbEntity
  8
0
100
AcDbLine
 62
7
  6
BYLAYER
 10
79.6593610604
 20
153.4243790688
 11
79.6593610604
 21
152.4650053072
  0
LINE
  5
3A1
100
AcDbEntity
  8
0
100
AcDbLine
 62
7
  6
BYLAYER
 10
79.7088864439
 20
137.110743885
 11
79.7088864439
 21
136.8249753568
  0
LINE
  5
3A2
100
AcDbEntity
  8
0
100
AcDbLine
 62
7
  6
BYLAYER
 10
81.4766523959
 20
149.6930474056
 11
81.4766523959
 21
151.3832074091
  0
LINE
  5
3A3
100
AcDbEntity
  8
0
100
AcDbLine
 62
7
  6
BYLAYER
 10
97.5421460198
 20
92.72579432
 11
72.8783647666
 21
78.4862385729
  0
LINE
  5
3A4
100
AcDbEntity
  8
0
100
AcDbLine
 62
7
  6
BYLAYER
 10
45.2306041428
 20
62.5238918166
 11
33.5916749822
 21
55.8041930439
  0
LINE
  5
3A5
100
AcDbEntity
  8
0
100
AcDbLine
 62
7
  6
BYLAYER
 10
29.6601569218
 20
51.4522127539
 11
29.8015788668
 21
51.5338622646
  0
LINE
  5
3A6
100
AcDbEntity
  8
0
100
AcDbLine
 62
7
  6
BYLAYER
 10
39.241305107
 20
117.7313773119
 11
39.6477989887
 21
117.4966932691
  0
LINE
  5
3A7
100
AcDbEntity
  8
0
100
AcDbLine
 62
7
  6
BYLAYER
 10
50.2015058468
 20
111.4036456168
 11
52.6763898848
 21
109.974802976
  0
LINE
  5
3A8
100
AcDbEntity
  8
0
100
AcDbLine
 62
7
  6
BYLAYER
 10
53.7370456406
 20
110.5871692068
 11
51.2621616026
 21
112.0160118476
  0
LINE
  5
3A9
100
AcDbEntity
  8
0
100
AcDbLine
 62
7
  6
BYLAYER
 10
40.7084547445
 20
118.1090594999
 11
40.3019608628
 21
118.3437435427
  0
LINE
  5
3AA
100
AcDbEntity
  8
0
100
AcDbLine
 62
7
  6
BYLAYER
 10
109.3790642548
 20
79.4329332414
 11
112.2074796037
 21
77.7999838206
  0
LINE
  5
3AB
100
AcDbEntity
  8
0
100
AcDbLine
 62
7
  6
BYLAYER
 10
41.7161685373
 20
119.1602318504
 11
42.1226624189
 21
118.9255478077
  0
LINE
  5
3AC
100
AcDbEntity
  8
0
100
AcDbLine
 62
7
  6
BYLAYER
 10
52.6763692771
 20
112.8325001553
 11
55.1512533151
 21
111.4036575145
  0
LINE
  5
3AD
100
AcDbEntity
  8
0
100
AcDbLine
 62
7
  6
BYLAYER
 10
48.4690836935
 20
115.3187261346
 11
49.3706449131
 21
114.7982212971
  0
LINE
  5
3AE
100
AcDbEntity
  8
0
100
AcDbLine
 62
7
  6
BYLAYER
 10
48.4690836935
 20
116.3556618327
 11
50.7671803202
 21
115.0288851423
  0
LINE
  5
3AF
100
AcDbEntity
  8
0
100
AcDbLine
 62
7
  6
BYLAYER
 10
56.2119090709
 20
112.0160237453
 11
52.0823989332
 21
114.400143599
  0
LINE
  5
3B0
100
AcDbEntity
  8
0
100
AcDbLine
 62
7
  6
BYLAYER
 10
43.1833181747
 20
119.5379140385
 11
42.7768242931
 21
119.7725980812
  0
LINE
  5
3B1
100
AcDbEntity
  8
0
100
AcDbLine
 62
7
  6
BYLAYER
 10
43.5900424874
 20
119.7727350282
 11
46.559903333
 21
118.0581238592
  0
LINE
  5
3B2
100
AcDbEntity
  8
0
100
AcDbLine
 62
7
  6
BYLAYER
 10
48.4690836935
 20
117.1149896361
 11
52.0823989332
 21
115.0288883037
  0
LINE
  5
3B3
100
AcDbEntity
  8
0
100
AcDbLine
 62
7
  6
BYLAYER
 10
45.4992228479
 20
119.8135411014
 11
48.4690836935
 21
118.0989299324
  0
LINE
  5
3B4
100
AcDbEntity
  8
0
100
AcDbLine
 62
7
  6
BYLAYER
 10
44.1910319675
 20
120.589086389
 11
57.6261167453
 21
112.8325120531
  0
LINE
  5
3B5
100
AcDbEntity
  8
0
100
AcDbLine
 62
7
  6
BYLAYER
 10
81.8655627447
 20
151.1586749941
 11
81.8655627447
 21
150.5791127771
  0
LINE
  5
3B6
100
AcDbEntity
  8
0
100
AcDbLine
 62
7
  6
BYLAYER
 10
82.5019614974
 20
150.211696098
 11
82.5019614974
 21
150.7912583151
  0
LINE
  5
3B7
100
AcDbEntity
  8
0
100
AcDbLine
 62
7
  6
BYLAYER
 10
82.8908718462
 20
150.5667259001
 11
82.8908718462
 21
148.8765658966
  0
LINE
  5
3B8
100
AcDbEntity
  8
0
100
AcDbLine
 62
7
  6
BYLAYER
 10
83.2514485534
 20
155.4982593705
 11
83.2514485534
 21
154.5388856089
  0
LINE
  5
3B9
100
AcDbEntity
  8
0
100
AcDbLine
 62
7
  6
BYLAYER
 10
84.8884316488
 20
152.9039187519
 11
84.8884316488
 21
152.3243565349
  0
LINE
  5
3BA
100
AcDbEntity
  8
0
100
AcDbLine
 62
7
  6
BYLAYER
 10
85.0298491779
 20
152.250726236
 11
85.0298491779
 21
153.4346342823
  0
LINE
  5
3BB
100
AcDbEntity
  8
0
100
AcDbLine
 62
7
  6
BYLAYER
 10
85.4187595267
 20
153.2101018673
 11
85.4187595267
 21
152.6305396503
  0
LINE
  5
3BC
100
AcDbEntity
  8
0
100
AcDbLine
 62
7
  6
BYLAYER
 10
85.7900300802
 20
133.5998733961
 11
85.7900300802
 21
133.3141036782
  0
LINE
  5
3BD
100
AcDbEntity
  8
0
100
AcDbLine
 62
7
  6
BYLAYER
 10
85.9137407503
 20
152.3119696579
 11
85.9137407503
 21
150.6218096544
  0
LINE
  5
3BE
100
AcDbEntity
  8
0
100
AcDbLine
 62
7
  6
BYLAYER
 10
86.0551582794
 20
152.2631229713
 11
86.0551582794
 21
152.8426851883
  0
LINE
  5
3BF
100
AcDbEntity
  8
0
100
AcDbLine
 62
7
  6
BYLAYER
 10
86.1930786786
 20
146.3577178917
 11
86.1930786786
 21
133.9142210546
  0
LINE
  5
3C0
100
AcDbEntity
  8
0
100
AcDbLine
 62
7
  6
BYLAYER
 10
86.4440686282
 20
152.6181527733
 11
86.4440686282
 21
150.9279927698
  0
LINE
  5
3C1
100
AcDbEntity
  8
0
100
AcDbLine
 62
7
  6
BYLAYER
 10
86.7587695204
 20
131.5300932805
 11
86.7587695204
 21
133.1630562987
  0
LINE
  5
3C2
100
AcDbEntity
  8
0
100
AcDbLine
 62
7
  6
BYLAYER
 10
58.6867725011
 20
113.4448782839
 11
45.2516877233
 21
121.2014526198
  0
LINE
  5
3C3
100
AcDbEntity
  8
0
100
AcDbLine
 62
7
  6
BYLAYER
 10
72.1712609294
 20
106.0840287375
 11
72.1005499569
 21
106.124852813
  0
LINE
  5
3C4
100
AcDbEntity
  8
0
100
AcDbLine
 62
7
  6
BYLAYER
 10
46.6658953978
 20
122.0179409275
 11
60.1009801756
 21
114.2613665916
  0
LINE
  5
3C5
100
AcDbEntity
  8
0
100
AcDbLine
 62
7
  6
BYLAYER
 10
96.1279021311
 20
93.5422899383
 11
97.5421460198
 21
92.72579432
  0
LINE
  5
3C6
100
AcDbEntity
  8
0
100
AcDbLine
 62
7
  6
BYLAYER
 10
61.1616359314
 20
114.8737328224
 11
47.7265511536
 21
122.6303071583
  0
LINE
  5
3C7
100
AcDbEntity
  8
0
100
AcDbLine
 62
7
  6
BYLAYER
 10
49.140758828
 20
123.4467954661
 11
62.5758436058
 21
115.6902211302
  0
LINE
  5
3C8
100
AcDbEntity
  8
0
100
AcDbLine
 62
7
  6
BYLAYER
 10
63.6364993616
 20
116.302587361
 11
50.2014145838
 21
124.0591616969
  0
LINE
  5
3C9
100
AcDbEntity
  8
0
100
AcDbLine
 62
7
  6
BYLAYER
 10
88.4416284308
 20
154.9553456251
 11
88.4416284308
 21
154.3757834081
  0
LINE
  5
3CA
100
AcDbEntity
  8
0
100
AcDbLine
 62
7
  6
BYLAYER
 10
89.2336329507
 20
132.9589478191
 11
89.2336329507
 21
134.5919108372
  0
LINE
  5
3CB
100
AcDbEntity
  8
0
100
AcDbLine
 62
7
  6
BYLAYER
 10
89.4669375323
 20
154.3633965311
 11
89.4669375323
 21
152.6732365276
  0
LINE
  5
3CC
100
AcDbEntity
  8
0
100
AcDbLine
 62
7
  6
BYLAYER
 10
91.7084963809
 20
134.3878023576
 11
91.7084963809
 21
136.0207653758
  0
LINE
  5
3CD
100
AcDbEntity
  8
0
100
AcDbLine
 62
7
  6
BYLAYER
 10
92.0055229745
 20
51.1128038693
 11
92.0055229745
 21
47.8467942008
  0
LINE
  5
3CE
100
AcDbEntity
  8
0
100
AcDbLine
 62
7
  6
BYLAYER
 10
46.559903333
 20
118.0581238592
 11
48.4690836935
 21
118.0989299324
  0
LINE
  5
3CF
100
AcDbEntity
  8
0
100
AcDbLine
 62
7
  6
BYLAYER
 10
51.6156222583
 20
124.8756500046
 11
65.0507070361
 21
117.1190756687
  0
LINE
  5
3D0
100
AcDbEntity
  8
0
100
AcDbLine
 62
7
  6
BYLAYER
 10
66.1113627919
 20
117.7314418995
 11
52.6762780141
 21
125.4880162354
  0
LINE
  5
3D1
100
AcDbEntity
  8
0
100
AcDbLine
 62
7
  6
BYLAYER
 10
54.0904856885
 20
126.3045045432
 11
67.5255704663
 21
118.5479302073
  0
LINE
  5
3D2
100
AcDbEntity
  8
0
100
AcDbLine
 62
7
  6
BYLAYER
 10
68.5862262221
 20
119.1602964381
 11
55.1511414443
 21
126.916870774
  0
LINE
  5
3D3
100
AcDbEntity
  8
0
100
AcDbLine
 62
7
  6
BYLAYER
 10
93.8298001205
 20
150.7667547535
 11
93.8298001205
 21
138.3232579165
  0
LINE
  5
3D4
100
AcDbEntity
  8
0
100
AcDbLine
 62
7
  6
BYLAYER
 10
94.3813417023
 20
138.5600398656
 11
94.3813417023
 21
138.2742689579
  0
LINE
  5
3D5
100
AcDbEntity
  8
0
100
AcDbLine
 62
7
  6
BYLAYER
 10
97.5421460198
 20
115.5878619997
 11
97.5421460198
 21
113.9548571654
  0
LINE
  5
3D6
100
AcDbEntity
  8
0
100
AcDbLine
 62
7
  6
BYLAYER
 10
97.5421460198
 20
94.3587991543
 11
97.5421460198
 21
92.72579432
  0
LINE
  5
3D7
100
AcDbEntity
  8
0
100
AcDbLine
 62
7
  6
BYLAYER
 10
97.5421460198
 20
73.1297363089
 11
97.5421460198
 21
71.4967314747
  0
LINE
  5
3D8
100
AcDbEntity
  8
0
100
AcDbLine
 62
7
  6
BYLAYER
 10
33.5916749822
 20
36.2081350328
 11
45.2306041428
 21
42.9278338055
  0
LINE
  5
3D9
100
AcDbEntity
  8
0
100
AcDbLine
 62
7
  6
BYLAYER
 10
72.8783647666
 20
58.8901805618
 11
97.5421460198
 21
73.1297363089
  0
LINE
  5
3DA
100
AcDbEntity
  8
0
100
AcDbLine
 62
7
  6
BYLAYER
 10
97.5421460198
 20
71.4967314747
 11
72.8783647666
 21
57.2571757276
  0
LINE
  5
3DB
100
AcDbEntity
  8
0
100
AcDbLine
 62
7
  6
BYLAYER
 10
45.2306041428
 20
41.2948289713
 11
33.5916749822
 21
34.5751301985
  0
LINE
  5
3DC
100
AcDbEntity
  8
0
100
AcDbLine
 62
7
  6
BYLAYER
 10
109.3790642548
 20
76.1670072051
 11
112.2074796037
 21
77.7999838206
  0
LINE
  5
3DD
100
AcDbEntity
  8
0
100
AcDbLine
 62
7
  6
BYLAYER
 10
45.4992228479
 20
119.8135411014
 11
43.5900424874
 21
119.7727350282
  0
LINE
  5
3DE
100
AcDbEntity
  8
0
100
AcDbLine
 62
7
  6
BYLAYER
 10
56.5653491188
 20
127.7333590817
 11
70.0004338966
 21
119.9767847458
  0
LINE
  5
3DF
100
AcDbEntity
  8
0
100
AcDbLine
 62
7
  6
BYLAYER
 10
71.0610896524
 20
120.5891509766
 11
57.6260048746
 21
128.3457253125
  0
LINE
  5
3E0
100
AcDbEntity
  8
0
100
AcDbLine
 62
7
  6
BYLAYER
 10
59.040212549
 20
129.1622136203
 11
72.4752973268
 21
121.4056392844
  0
LINE
  5
3E1
100
AcDbEntity
  8
0
100
AcDbLine
 62
7
  6
BYLAYER
 10
73.5359530826
 20
122.0180055152
 11
60.1008683048
 21
129.7745798511
  0
LINE
  5
3E2
100
AcDbEntity
  8
0
100
AcDbLine
 62
7
  6
BYLAYER
 10
61.5150759793
 20
130.5910681588
 11
74.9501607571
 21
122.8344938229
  0
LINE
  5
3E3
100
AcDbEntity
  8
0
100
AcDbLine
 62
7
  6
BYLAYER
 10
46.0084189525
 20
33.8238258452
 11
72.1712609294
 21
48.9288595385
  0
LINE
  5
3E4
100
AcDbEntity
  8
0
100
AcDbLine
 62
7
  6
BYLAYER
 10
76.0108165129
 20
123.4468600537
 11
62.5757317351
 21
131.2034343896
  0
LINE
  5
3E5
100
AcDbEntity
  8
0
100
AcDbLine
 62
7
  6
BYLAYER
 10
109.4355872938
 20
105.0874961201
 11
111.2033921548
 21
104.0668765973
  0
LINE
  5
3E6
100
AcDbEntity
  8
0
100
AcDbLine
 62
7
  6
BYLAYER
 10
63.9899394095
 20
132.0199226974
 11
77.4250241873
 21
124.2633483615
  0
LINE
  5
3E7
100
AcDbEntity
  8
0
100
AcDbLine
 62
7
  6
BYLAYER
 10
60.6805615616
 20
135.089612606
 11
62.0240700394
 21
134.3139551724
  0
LINE
  5
3E8
100
AcDbEntity
  8
0
100
AcDbLine
 62
7
  6
BYLAYER
 10
78.4856799431
 20
124.8757145923
 11
65.0505951653
 21
132.6322889282
  0
LINE
  5
3E9
100
AcDbEntity
  8
0
100
AcDbLine
 62
7
  6
BYLAYER
 10
96.1279021311
 20
114.7713527837
 11
97.5421460198
 21
113.9548571654
  0
LINE
  5
3EA
100
AcDbEntity
  8
0
100
AcDbLine
 62
7
  6
BYLAYER
 10
62.6109711113
 20
134.3425414339
 11
61.4442400648
 21
135.0161386788
  0
LINE
  5
3EB
100
AcDbEntity
  8
0
100
AcDbLine
 62
7
  6
BYLAYER
 10
61.4442400648
 20
135.930621386
 11
60.5744951029
 21
136.4327575141
  0
LINE
  5
3EC
100
AcDbEntity
  8
0
100
AcDbLine
 62
7
  6
BYLAYER
 10
66.4648028398
 20
133.4487772359
 11
79.8998876176
 21
125.6922029
  0
LINE
  5
3ED
100
AcDbEntity
  8
0
100
AcDbLine
 62
7
  6
BYLAYER
 10
80.9605433734
 20
126.3045691308
 11
67.5254585956
 21
134.0611434667
  0
LINE
  5
3EE
100
AcDbEntity
  8
0
100
AcDbLine
 62
7
  6
BYLAYER
 10
76.6470973891
 20
143.2875276737
 11
75.5864328014
 21
145.1246424312
  0
LINE
  5
3EF
100
AcDbEntity
  8
0
100
AcDbLine
 62
7
  6
BYLAYER
 10
109.3790642548
 20
76.1670072051
 11
109.3790642548
 21
105.0548627231
  0
LINE
  5
3F0
100
AcDbEntity
  8
0
100
AcDbLine
 62
7
  6
BYLAYER
 10
32.1491831543
 20
16.5549362441
 11
92.0055229745
 21
51.1128038693
  0
LINE
  5
3F1
100
AcDbEntity
  8
0
100
AcDbLine
 62
7
  6
BYLAYER
 10
91.1770751201
 20
49.2816601028
 11
31.3207353
 21
14.7237924776
  0
LINE
  5
3F2
100
AcDbEntity
  8
0
100
AcDbLine
 62
7
  6
BYLAYER
 10
68.93966627
 20
134.8776317745
 11
82.3747510478
 21
127.1210574386
  0
LINE
  5
3F3
100
AcDbEntity
  8
0
100
AcDbLine
 62
7
  6
BYLAYER
 10
60.5744951029
 20
139.7477573276
 11
61.4442400648
 21
139.2456211996
  0
LINE
  5
3F4
100
AcDbEntity
  8
0
100
AcDbLine
 62
7
  6
BYLAYER
 10
61.4442400648
 20
140.1601039068
 11
62.6109711113
 21
139.4865066618
  0
LINE
  5
3F5
100
AcDbEntity
  8
0
100
AcDbLine
 62
7
  6
BYLAYER
 10
83.4354068036
 20
127.7334236694
 11
70.0003220258
 21
135.4899980053
  0
LINE
  5
3F6
100
AcDbEntity
  8
0
100
AcDbLine
 62
7
  6
BYLAYER
 10
62.0240700394
 20
140.1927725758
 11
60.6805615616
 21
140.9684300093
  0
LINE
  5
3F7
100
AcDbEntity
  8
0
100
AcDbLine
 62
7
  6
BYLAYER
 10
62.0240700394
 20
140.3560688776
 11
60.8219823291
 21
141.0500788401
  0
LINE
  5
3F8
100
AcDbEntity
  8
0
100
AcDbLine
 62
7
  6
BYLAYER
 10
71.4145297003
 20
136.306486313
 11
84.849614478
 21
128.5499119771
  0
LINE
  5
3F9
100
AcDbEntity
  8
0
100
AcDbLine
 62
7
  6
BYLAYER
 10
62.6109711113
 20
141.8135385506
 11
67.327392978
 21
139.090572718
  0
LINE
  5
3FA
100
AcDbEntity
  8
0
100
AcDbLine
 62
7
  6
BYLAYER
 10
60.6805615616
 20
143.4995875024
 11
62.0240700394
 21
142.7239300689
  0
LINE
  5
3FB
100
AcDbEntity
  8
0
100
AcDbLine
 62
7
  6
BYLAYER
 10
85.9102702339
 20
129.1622782079
 11
72.4751854561
 21
136.9188525438
  0
LINE
  5
3FC
100
AcDbEntity
  8
0
100
AcDbLine
 62
7
  6
BYLAYER
 10
71.0750170909
 20
138.55993471
 11
60.044162809
 21
144.9284573238
  0
LINE
  5
3FD
100
AcDbEntity
  8
0
100
AcDbLine
 62
7
  6
BYLAYER
 10
59.8320304803
 20
145.1734066636
 11
71.1810871933
 21
138.6211739466
  0
LINE
  5
3FE
100
AcDbEntity
  8
0
100
AcDbLine
 62
7
  6
BYLAYER
 10
73.8893931305
 20
137.7353408516
 11
87.3244779083
 21
129.9787665157
  0
LINE
  5
3FF
100
AcDbEntity
  8
0
100
AcDbLine
 62
7
  6
BYLAYER
 10
81.4314197527
 20
136.6633039247
 11
80.8190447675
 21
137.4251019976
  0
LINE
  5
400
100
AcDbEntity
  8
0
100
AcDbLine
 62
7
  6
BYLAYER
 10
112.2074796037
 20
141.8954235652
 11
112.2074796037
 21
104.6465832958
  0
LINE
  5
401
100
AcDbEntity
  8
0
100
AcDbLine
 62
7
  6
BYLAYER
 10
112.2074796037
 20
77.7999838206
 11
112.2074796037
 21
59.5103296769
  0
LINE
  5
402
100
AcDbEntity
  8
0
100
AcDbLine
 62
7
  6
BYLAYER
 10
112.2074796037
 20
59.5103296769
 11
92.0055229745
 21
47.8467942008
  0
LINE
  5
403
100
AcDbEntity
  8
0
100
AcDbLine
 62
7
  6
BYLAYER
 10
88.3851336641
 20
130.5911327465
 11
85.344561846
 21
132.3465679909
  0
LINE
  5
404
100
AcDbEntity
  8
0
100
AcDbLine
 62
7
  6
BYLAYER
 10
77.0713780618
 20
137.1229848188
 11
74.9500488863
 21
138.3477070824
  0
LINE
  5
405
100
AcDbEntity
  8
0
100
AcDbLine
 62
7
  6
BYLAYER
 10
85.7900321409
 20
133.3141036782
 11
79.2139116971
 21
137.1107426952
  0
LINE
  5
406
100
AcDbEntity
  8
0
100
AcDbLine
 62
7
  6
BYLAYER
 10
85.7900300802
 20
133.5998733961
 11
79.7088864439
 21
137.110743885
  0
LINE
  5
407
100
AcDbEntity
  8
0
100
AcDbLine
 62
7
  6
BYLAYER
 10
76.3642565608
 20
139.1641953901
 11
78.4855857362
 21
137.9394731266
  0
LINE
  5
408
100
AcDbEntity
  8
0
100
AcDbLine
 62
7
  6
BYLAYER
 10
86.7587695204
 20
133.1630562987
 11
89.7993413385
 21
131.4076210542
  0
LINE
  5
409
100
AcDbEntity
  8
0
100
AcDbLine
 62
7
  6
BYLAYER
 10
74.3277798458
 20
140.4379069521
 11
56.6500367171
 21
150.6439258152
  0
LINE
  5
40A
100
AcDbEntity
  8
0
100
AcDbLine
 62
7
  6
BYLAYER
 10
86.1930786786
 20
133.9142210546
 11
81.4314197527
 21
136.6633039247
  0
LINE
  5
40B
100
AcDbEntity
  8
0
100
AcDbLine
 62
7
  6
BYLAYER
 10
80.8190447675
 20
137.4251019976
 11
76.6470973891
 21
139.8337224492
  0
LINE
  5
40C
100
AcDbEntity
  8
0
100
AcDbLine
 62
7
  6
BYLAYER
 10
90.8599970944
 20
132.019987285
 11
87.8194252762
 21
133.7754225295
  0
LINE
  5
40D
100
AcDbEntity
  8
0
100
AcDbLine
 62
7
  6
BYLAYER
 10
74.5787956729
 20
141.4197306579
 11
59.7294914448
 21
149.9927865028
  0
LINE
  5
40E
100
AcDbEntity
  8
0
100
AcDbLine
 62
7
  6
BYLAYER
 10
61.1436991192
 20
150.8092748105
 11
75.9930033473
 21
142.2362189656
  0
LINE
  5
40F
100
AcDbEntity
  8
0
100
AcDbLine
 62
7
  6
BYLAYER
 10
89.2336329507
 20
134.5919108372
 11
92.2742047688
 21
132.8364755928
  0
LINE
  5
410
100
AcDbEntity
  8
0
100
AcDbLine
 62
7
  6
BYLAYER
 10
111.2033921548
 20
104.0668765973
 11
110.2125884619
 21
105.5360952759
  0
LINE
  5
411
100
AcDbEntity
  8
0
100
AcDbLine
 62
7
  6
BYLAYER
 10
93.3348605246
 20
133.4488418236
 11
90.2942887065
 21
135.204277068
  0
LINE
  5
412
100
AcDbEntity
  8
0
100
AcDbLine
 62
7
  6
BYLAYER
 10
76.6470973891
 20
143.0833084013
 11
62.204354875
 21
151.4216410413
  0
LINE
  5
413
100
AcDbEntity
  8
0
100
AcDbLine
 62
7
  6
BYLAYER
 10
63.6185625494
 20
152.2381293491
 11
75.5864328014
 21
145.3286325512
  0
LINE
  5
414
100
AcDbEntity
  8
0
100
AcDbLine
 62
7
  6
BYLAYER
 10
91.7084963809
 20
136.0207653758
 11
94.749068199
 21
134.2653301313
  0
LINE
  5
415
100
AcDbEntity
  8
0
100
AcDbLine
 62
7
  6
BYLAYER
 10
93.8298001205
 20
138.8784653426
 11
94.3813417023
 21
138.5600398656
  0
LINE
  5
416
100
AcDbEntity
  8
0
100
AcDbLine
 62
7
  6
BYLAYER
 10
93.8298001205
 20
139.1642338708
 11
94.8763164491
 21
138.5600410554
  0
LINE
  5
417
100
AcDbEntity
  8
0
100
AcDbLine
 62
7
  6
BYLAYER
 10
75.5864328014
 20
152.4813292095
 11
86.1930786786
 21
146.3577178917
  0
LINE
  5
418
100
AcDbEntity
  8
0
100
AcDbLine
 62
7
  6
BYLAYER
 10
101.30038687
 20
137.8231788671
 11
93.8298001205
 21
142.1362265638
  0
LINE
  5
419
100
AcDbEntity
  8
0
100
AcDbLine
 62
7
  6
BYLAYER
 10
75.7487907306
 20
152.5750660441
 11
69.7986486147
 21
156.010304481
  0
LINE
  5
41A
100
AcDbEntity
  8
0
100
AcDbLine
 62
7
  6
BYLAYER
 10
81.4766523959
 20
149.6930474056
 11
82.8908718462
 21
148.8765658966
  0
LINE
  5
41B
100
AcDbEntity
  8
0
100
AcDbLine
 62
7
  6
BYLAYER
 10
78.82852097
 20
151.9853224207
 11
77.997667043
 21
152.4650053072
  0
LINE
  5
41C
100
AcDbEntity
  8
0
100
AcDbLine
 62
7
  6
BYLAYER
 10
81.8655627447
 20
150.5791127771
 11
82.5019614974
 21
150.211696098
  0
LINE
  5
41D
100
AcDbEntity
  8
0
100
AcDbLine
 62
7
  6
BYLAYER
 10
71.2128562891
 20
156.8267927888
 11
77.1629984051
 21
153.3915543519
  0
LINE
  5
41E
100
AcDbEntity
  8
0
100
AcDbLine
 62
7
  6
BYLAYER
 10
93.8298001205
 20
143.769189582
 11
102.7145945444
 21
138.6396671749
  0
LINE
  5
41F
100
AcDbEntity
  8
0
100
AcDbLine
 62
7
  6
BYLAYER
 10
81.4766523959
 20
151.3832074091
 11
81.8655627447
 21
151.1586749941
  0
LINE
  5
420
100
AcDbEntity
  8
0
100
AcDbLine
 62
7
  6
BYLAYER
 10
82.5019614974
 20
150.7912583151
 11
82.8908718462
 21
150.5667259001
  0
LINE
  5
421
100
AcDbEntity
  8
0
100
AcDbLine
 62
7
  6
BYLAYER
 10
103.7752503003
 20
139.2520334057
 11
93.8298001205
 21
144.9939118456
  0
LINE
  5
422
100
AcDbEntity
  8
0
100
AcDbLine
 62
7
  6
BYLAYER
 10
78.2236541609
 20
154.0039205827
 11
72.273512045
 21
157.4391590196
  0
LINE
  5
423
100
AcDbEntity
  8
0
100
AcDbLine
 62
7
  6
BYLAYER
 10
79.6593610604
 20
153.4243790688
 11
80.4902149875
 21
152.9446961823
  0
LINE
  5
424
100
AcDbEntity
  8
0
100
AcDbLine
 62
7
  6
BYLAYER
 10
73.6877197194
 20
158.2556473273
 11
79.6378618353
 21
154.8204088904
  0
LINE
  5
425
100
AcDbEntity
  8
0
100
AcDbLine
 62
7
  6
BYLAYER
 10
93.8298001205
 20
146.6268748637
 11
105.1894579747
 21
140.0685217134
  0
LINE
  5
426
100
AcDbEntity
  8
0
100
AcDbLine
 62
7
  6
BYLAYER
 10
85.9137407503
 20
151.2341707862
 11
86.4440686282
 21
150.9279927698
  0
LINE
  5
427
100
AcDbEntity
  8
0
100
AcDbLine
 62
7
  6
BYLAYER
 10
84.8884316488
 20
152.3243565349
 11
85.022907623
 21
152.2467185514
  0
LINE
  5
428
100
AcDbEntity
  8
0
100
AcDbLine
 62
7
  6
BYLAYER
 10
82.420608463
 20
154.0592027223
 11
81.589754536
 21
154.5388856089
  0
LINE
  5
429
100
AcDbEntity
  8
0
100
AcDbLine
 62
7
  6
BYLAYER
 10
84.4995213
 20
153.1284511669
 11
84.8884316488
 21
152.9039187519
  0
LINE
  5
42A
100
AcDbEntity
  8
0
100
AcDbLine
 62
7
  6
BYLAYER
 10
85.5248304014
 20
152.5365020729
 11
85.9137407503
 21
152.3119696579
  0
LINE
  5
42B
100
AcDbEntity
  8
0
100
AcDbLine
 62
7
  6
BYLAYER
 10
85.4187595267
 20
152.6305396503
 11
86.0551582794
 21
152.2631229713
  0
LINE
  5
42C
100
AcDbEntity
  8
0
100
AcDbLine
 62
7
  6
BYLAYER
 10
106.2501137305
 20
140.6808879442
 11
93.8298001205
 21
147.8515971273
  0
LINE
  5
42D
100
AcDbEntity
  8
0
100
AcDbLine
 62
7
  6
BYLAYER
 10
80.6985175911
 20
155.4327751213
 11
74.7483754752
 21
158.8680135581
  0
LINE
  5
42E
100
AcDbEntity
  8
0
100
AcDbLine
 62
7
  6
BYLAYER
 10
85.0298491779
 20
153.4346342823
 11
85.4187595267
 21
153.2101018673
  0
LINE
  5
42F
100
AcDbEntity
  8
0
100
AcDbLine
 62
7
  6
BYLAYER
 10
86.0551582794
 20
152.8426851883
 11
86.4440686282
 21
152.6181527733
  0
LINE
  5
430
100
AcDbEntity
  8
0
100
AcDbLine
 62
7
  6
BYLAYER
 10
83.2514485534
 20
155.4982593705
 11
84.0823024805
 21
155.0185764839
  0
LINE
  5
431
100
AcDbEntity
  8
0
100
AcDbLine
 62
7
  6
BYLAYER
 10
76.1625831496
 20
159.6845018659
 11
82.1127252656
 21
156.249263429
  0
LINE
  5
432
100
AcDbEntity
  8
0
100
AcDbLine
 62
7
  6
BYLAYER
 10
93.8298001205
 20
149.4845601454
 11
107.6643214049
 21
141.497376252
  0
LINE
  5
433
100
AcDbEntity
  8
0
100
AcDbLine
 62
7
  6
BYLAYER
 10
93.8298001205
 20
150.7667547535
 11
89.4669375323
 21
153.2855976594
  0
LINE
  5
434
100
AcDbEntity
  8
0
100
AcDbLine
 62
7
  6
BYLAYER
 10
87.119303535
 20
154.640974117
 11
83.2231542433
 21
156.8903660713
  0
LINE
  5
435
100
AcDbEntity
  8
0
100
AcDbLine
 62
7
  6
BYLAYER
 10
88.4416284308
 20
154.3757834081
 11
88.576104405
 21
154.2981454246
  0
LINE
  5
436
100
AcDbEntity
  8
0
100
AcDbLine
 62
7
  6
BYLAYER
 10
88.052718082
 20
155.1798780401
 11
88.4416284308
 21
154.9553456251
  0
LINE
  5
437
100
AcDbEntity
  8
0
100
AcDbLine
 62
7
  6
BYLAYER
 10
89.0780271834
 20
154.5879289461
 11
89.4669375323
 21
154.3633965311
  0
LINE
  5
438
100
AcDbEntity
  8
0
100
AcDbLine
 62
7
  6
BYLAYER
 10
76.8519933463
 20
162.3074612913
 11
112.2074796037
 21
141.8954235652
  0
ARC
  5
439
100
AcDbEntity
  8
0
100
AcDbCircle
 62
7
  6
BYLAYER
 10
23.9718813899
 20
70.614283797
 40
1.1594233784
100
AcDbArc
 50
227.5567211039
 51
229.6611536957
  0
ARC
  5
43A
100
AcDbEntity
  8
0
100
AcDbCircle
 62
7
  6
BYLAYER
 10
23.4979639041
 20
69.6452175375
 40
1.1593563019
100
AcDbArc
 50
47.5596791092
 51
49.662755563
  0
ARC
  5
43B
100
AcDbEntity
  8
0
100
AcDbCircle
 62
7
  6
BYLAYER
 10
46.2482945387
 20
89.7541795521
 40
0.9469794259
100
AcDbArc
 50
178.8151920345
 51
179.9958300092
  0
ARC
  5
43C
100
AcDbEntity
  8
0
100
AcDbCircle
 62
7
  6
BYLAYER
 10
46.4819518793
 20
90.158944942
 40
0.9469506867
100
AcDbArc
 50
120.0040231947
 51
121.184862028
  0
ARC
  5
43D
100
AcDbEntity
  8
0
100
AcDbCircle
 62
7
  6
BYLAYER
 10
23.3353007604
 20
72.5751377542
 40
0.8060609438
100
AcDbArc
 50
59.9914774282
 51
62.1448547503
  0
ARC
  5
43E
100
AcDbEntity
  8
0
100
AcDbCircle
 62
7
  6
BYLAYER
 10
23.6420922953
 20
69.9201243926
 40
0.3755579305
100
AcDbArc
 50
269.2037152297
 51
274.5154747436
  0
SPLINE
  5
43F
100
AcDbEntity
  8
0
100
AcDbSpline
 62
7
  6
BYLAYER
 70
0
 71
3
 72
11
 73
7
 74
0
 42
0.0000001
 43
0.0000001
 44
0.0000000001
 40
0.0
 40
0.0
 40
0.0
 40
0.0
 40
0.2372518718
 40
0.4999985497
 40
0.7627460178
 40
1.0
 40
1.0
 40
1.0
 40
1.0
 10
45.93770798
 20
91.0198191198
 30
0.0
 10
45.8373140134
 20
90.9618569821
 30
0.0
 10
45.6473274798
 20
90.8019800724
 30
0.0
 10
45.4256722352
 20
90.4989481544
 30
0.0
 10
45.2740679795
 20
90.1554713445
 30
0.0
 10
45.2306041428
 20
89.9109983741
 30
0.0
 10
45.2306041428
 20
89.7950725488
 30
0.0
  0
SPLINE
  5
440
100
AcDbEntity
  8
0
100
AcDbSpline
 62
7
  6
BYLAYER
 70
0
 71
3
 72
11
 73
7
 74
0
 42
0.0000001
 43
0.0000001
 44
0.0000000001
 40
0.0
 40
0.0
 40
0.0
 40
0.0
 40
0.2895411595
 40
0.5491183966
 40
0.7822559144
 40
1.0
 40
1.0
 40
1.0
 40
1.0
 10
45.2306041428
 20
34.2729081839
 30
0.0
 10
45.2306041428
 20
34.222269332
 30
0.0
 10
45.2383361842
 20
34.1259124797
 30
0.0
 10
45.2772892924
 20
33.9935013165
 30
0.0
 10
45.3429958569
 20
33.8860201796
 30
0.0
 10
45.4047642586
 20
33.8342111729
 30
0.0
 10
45.4377444392
 20
33.8151704933
 30
0.0
  0
SPLINE
  5
441
100
AcDbEntity
  8
0
100
AcDbSpline
 62
7
  6
BYLAYER
 70
0
 71
3
 72
11
 73
7
 74
0
 42
0.0000001
 43
0.0000001
 44
0.0000000001
 40
0.0
 40
0.0
 40
0.0
 40
0.0
 40
0.2177456295
 40
0.4508837762
 40
0.7104602913
 40
1.0
 40
1.0
 40
1.0
 40
1.0
 10
72.6005134977
 20
106.1743322404
 30
0.0
 10
72.5675343892
 20
106.1933723011
 30
0.0
 10
72.4917846436
 20
106.2209587989
 30
0.0
 10
72.3658547602
 20
106.2241210791
 30
0.0
 10
72.231712361
 20
106.1916513276
 30
0.0
 10
72.1444025982
 20
106.1501709961
 30
0.0
 10
72.1005499569
 20
106.124852813
 30
0.0
  0
SPLINE
  5
442
100
AcDbEntity
  8
0
100
AcDbSpline
 62
7
  6
BYLAYER
 70
0
 71
3
 72
11
 73
7
 74
0
 42
0.0000001
 43
0.0000001
 44
0.0000000001
 40
0.0
 40
0.0
 40
0.0
 40
0.0
 40
0.2177442246
 40
0.4508817658
 40
0.7104588047
 40
1.0
 40
1.0
 40
1.0
 40
1.0
 10
72.6712244695
 20
106.1335081654
 30
0.0
 10
72.7042046616
 20
106.1144674557
 30
0.0
 10
72.7659731057
 20
106.0626584536
 30
0.0
 10
72.8316796156
 20
105.9551772861
 30
0.0
 10
72.8706327855
 20
105.8227661687
 30
0.0
 10
72.8783647666
 20
105.7264093333
 30
0.0
 10
72.8783647666
 20
105.6757704743
 30
0.0
  0
SPLINE
  5
443
100
AcDbEntity
  8
0
100
AcDbSpline
 62
7
  6
BYLAYER
 70
0
 71
3
 72
11
 73
7
 74
0
 42
0.0000001
 43
0.0000001
 44
0.0000000001
 40
0.0
 40
0.0
 40
0.0
 40
0.0
 40
0.2372542275
 40
0.5000017852
 40
0.7627483734
 40
1.0
 40
1.0
 40
1.0
 40
1.0
 10
72.8783647666
 20
50.1536061095
 30
0.0
 10
72.8783647666
 20
50.0376801642
 30
0.0
 10
72.8349008587
 20
49.7932070304
 30
0.0
 10
72.6832964691
 20
49.4497301487
 30
0.0
 10
72.4616412197
 20
49.1466983826
 30
0.0
 10
72.2716547922
 20
48.9868216162
 30
0.0
 10
72.1712609294
 20
48.9288595385
 30
0.0
  0
SPLINE
  5
444
100
AcDbEntity
  8
0
100
AcDbSpline
 62
7
  6
BYLAYER
 70
0
 71
3
 72
11
 73
7
 74
0
 42
0.0000001
 43
0.0000001
 44
0.0000000001
 40
0.0
 40
0.0
 40
0.0
 40
0.0
 40
0.2895396729
 40
0.5491163863
 40
0.7822545095
 40
1.0
 40
1.0
 40
1.0
 40
1.0
 10
46.0084189525
 20
33.8238258452
 30
0.0
 10
45.9645663173
 20
33.7985076656
 30
0.0
 10
45.8772565097
 20
33.757027378
 30
0.0
 10
45.7431141016
 20
33.7245575501
 30
0.0
 10
45.6171842174
 20
33.7277198929
 30
0.0
 10
45.5414344892
 20
33.7553063516
 30
0.0
 10
45.5084554124
 20
33.7743464174
 30
0.0
  0
SPLINE
  5
445
100
AcDbEntity
  8
0
100
AcDbSpline
 62
7
  6
BYLAYER
 70
0
 71
3
 72
9
 73
5
 74
0
 42
0.0000001
 43
0.0000001
 44
0.0000000001
 40
0.0
 40
0.0
 40
0.0
 40
0.0
 40
0.7471510379
 40
1.0
 40
1.0
 40
1.0
 40
1.0
 10
45.5084554124
 20
33.7743464174
 30
0.0
 10
45.4888216844
 20
33.7856817096
 30
0.0
 10
45.4640013817
 20
33.8036184711
 30
0.0
 10
45.4419596647
 20
33.8244824783
 30
0.0
 10
45.4365605233
 20
33.8299334085
 30
0.0
  0
SPLINE
  5
446
100
AcDbEntity
  8
0
100
AcDbSpline
 62
7
  6
BYLAYER
 70
0
 71
3
 72
10
 73
6
 74
0
 42
0.0000001
 43
0.0000001
 44
0.0000000001
 40
0.0
 40
0.0
 40
0.0
 40
0.0
 40
0.4554616116
 40
0.7161496173
 40
1.0
 40
1.0
 40
1.0
 40
1.0
 10
45.4365605233
 20
33.8299334085
 30
0.0
 10
45.3902933867
 20
33.8766443413
 30
0.0
 10
45.338267268
 20
33.9713200733
 30
0.0
 10
45.3065676565
 20
34.1122531773
 30
0.0
 10
45.3013151153
 20
34.1911101258
 30
0.0
 10
45.3013151153
 20
34.2320841085
 30
0.0
  0
SPLINE
  5
447
100
AcDbEntity
  8
0
100
AcDbSpline
 62
7
  6
BYLAYER
 70
0
 71
3
 72
11
 73
7
 74
0
 42
0.0000001
 43
0.0000001
 44
0.0000000001
 40
0.0
 40
0.0
 40
0.0
 40
0.0
 40
0.2380381205
 40
0.5000015192
 40
0.7619641036
 40
1.0
 40
1.0
 40
1.0
 40
1.0
 10
45.3015175758
 20
89.7737605546
 30
0.0
 10
45.3038509974
 20
89.8869813201
 30
0.0
 10
45.348650562
 20
90.1242109643
 30
0.0
 10
45.4970670179
 20
90.4577277554
 30
0.0
 10
45.7116901221
 20
90.7530192069
 30
0.0
 10
45.8947354799
 20
90.9104315667
 30
0.0
 10
45.9916198689
 20
90.9690622932
 30
0.0
  0
SPLINE
  5
448
100
AcDbEntity
  8
0
100
AcDbSpline
 62
7
  6
BYLAYER
 70
0
 71
3
 72
10
 73
6
 74
0
 42
0.0000001
 43
0.0000001
 44
0.0000000001
 40
0.0
 40
0.0
 40
0.0
 40
0.0
 40
0.2838532722
 40
0.5445415835
 40
1.0
 40
1.0
 40
1.0
 40
1.0
 10
72.1712609294
 20
106.0840287375
 30
0.0
 10
72.2067481426
 20
106.1045171673
 30
0.0
 10
72.2776719927
 20
106.1393985421
 30
0.0
 10
72.4155836846
 20
106.1824110832
 30
0.0
 10
72.5235964822
 20
106.184684801
 30
0.0
 10
72.5871845722
 20
106.1679632266
 30
0.0
  0
SPLINE
  5
449
100
AcDbEntity
  8
0
100
AcDbSpline
 62
7
  6
BYLAYER
 70
0
 71
3
 72
9
 73
5
 74
0
 42
0.0000001
 43
0.0000001
 44
0.0000000001
 40
0.0
 40
0.0
 40
0.0
 40
0.0
 40
0.252845973
 40
1.0
 40
1.0
 40
1.0
 40
1.0
 10
72.5871845722
 20
106.1679632266
 30
0.0
 10
72.5946004405
 20
106.1660130974
 30
0.0
 10
72.6236733703
 20
106.1573581
 30
0.0
 10
72.651601318
 20
106.1448373514
 30
0.0
 10
72.6712244695
 20
106.1335081654
 30
0.0
  0
SPLINE
  5
44A
100
AcDbEntity
  8
0
100
AcDbSpline
 62
7
  6
BYLAYER
 70
0
 71
3
 72
13
 73
9
 74
0
 42
0.0000001
 43
0.0000001
 44
0.0000000001
 40
0.0
 40
0.0
 40
0.0
 40
0.0
 40
0.1142250362
 40
0.2375584228
 40
0.4999988469
 40
0.762439898
 40
0.8857740437
 40
1.0
 40
1.0
 40
1.0
 40
1.0
 10
17.2998789262
 20
21.8619824205
 30
0.0
 10
17.1063036995
 20
21.9737406014
 30
0.0
 10
16.7238206903
 20
22.2419147503
 30
0.0
 10
16.0076975484
 20
22.9120354156
 30
0.0
 10
15.2513501528
 20
23.9452412716
 30
0.0
 10
14.7347353331
 20
25.1168590901
 30
0.0
 10
14.5124483222
 20
26.0721031978
 30
0.0
 10
14.4714400256
 20
26.5374331522
 30
0.0
 10
14.4714400256
 20
26.7609551071
 30
0.0
  0
SPLINE
  5
44B
100
AcDbEntity
  8
0
100
AcDbSpline
 62
7
  6
BYLAYER
 70
0
 71
3
 72
11
 73
7
 74
0
 42
0.0000001
 43
0.0000001
 44
0.0000000001
 40
0.0
 40
0.0
 40
0.0
 40
0.0
 40
0.2372444228
 40
0.5000010918
 40
0.7627571666
 40
1.0
 40
1.0
 40
1.0
 40
1.0
 10
25.4528540572
 20
73.0772170701
 30
0.0
 10
25.4528540572
 20
73.1351776488
 30
0.0
 10
25.4311086267
 20
73.257409661
 30
0.0
 10
25.355339174
 20
73.4291661753
 30
0.0
 10
25.2444779403
 20
73.5806618865
 30
0.0
 10
25.1494944758
 20
73.6606090524
 30
0.0
 10
25.0992991946
 20
73.6895886559
 30
0.0
  0
SPLINE
  5
44C
100
AcDbEntity
  8
0
100
AcDbSpline
 62
7
  6
BYLAYER
 70
0
 71
3
 72
9
 73
5
 74
0
 42
0.0000001
 43
0.0000001
 44
0.0000000001
 40
0.0
 40
0.0
 40
0.0
 40
0.0
 40
0.5507126865
 40
1.0
 40
1.0
 40
1.0
 40
1.0
 10
22.7789370789
 20
75.0292200414
 30
0.0
 10
22.7483409978
 20
75.0468842975
 30
0.0
 10
22.6871997368
 20
75.0723038443
 30
0.0
 10
22.6189063259
 20
75.0619426301
 30
0.0
 10
22.5939530982
 20
75.0475178777
 30
0.0
  0
SPLINE
  5
44D
100
AcDbEntity
  8
0
100
AcDbSpline
 62
7
  6
BYLAYER
 70
0
 71
3
 72
11
 73
7
 74
0
 42
0.0000001
 43
0.0000001
 44
0.0000000001
 40
0.0
 40
0.0
 40
0.0
 40
0.0
 40
0.2305691837
 40
0.4851914016
 40
0.7475430387
 40
1.0
 40
1.0
 40
1.0
 40
1.0
 10
24.7283904451
 20
69.5523646711
 30
0.0
 10
24.7283904451
 20
69.6349298774
 30
0.0
 10
24.7030441941
 20
69.8088504129
 30
0.0
 10
24.6103865847
 20
70.0615510152
 30
0.0
 10
24.4693476815
 20
70.2999225276
 30
0.0
 10
24.3470492106
 20
70.4398056327
 30
0.0
 10
24.2803229212
 20
70.5008000308
 30
0.0
  0
SPLINE
  5
44E
100
AcDbEntity
  8
0
100
AcDbSpline
 62
7
  6
BYLAYER
 70
0
 71
3
 72
11
 73
7
 74
0
 42
0.0000001
 43
0.0000001
 44
0.0000000001
 40
0.0
 40
0.0
 40
0.0
 40
0.0
 40
0.3008708362
 40
0.5653350006
 40
0.7942394684
 40
1.0
 40
1.0
 40
1.0
 40
1.0
 10
24.248398319
 20
70.5289342475
 30
0.0
 10
24.1998218518
 20
70.57016965
 30
0.0
 10
24.1016685728
 20
70.6402496801
 30
0.0
 10
23.9452358779
 20
70.7065806021
 30
0.0
 10
23.7952506372
 20
70.7229547918
 30
0.0
 10
23.7038817097
 20
70.695494183
 30
0.0
 10
23.6661412319
 20
70.6737107444
 30
0.0
  0
SPLINE
  5
44F
100
AcDbEntity
  8
0
100
AcDbSpline
 62
7
  6
BYLAYER
 70
0
 71
3
 72
9
 73
5
 74
0
 42
0.0000001
 43
0.0000001
 44
0.0000000001
 40
0.0
 40
0.0
 40
0.0
 40
0.0
 40
0.5500375009
 40
1.0
 40
1.0
 40
1.0
 40
1.0
 10
23.2788155086
 20
72.1215031425
 30
0.0
 10
23.2576666825
 20
72.1337131467
 30
0.0
 10
23.2153332659
 20
72.1511150121
 30
0.0
 10
23.1680374039
 20
72.1441971438
 30
0.0
 10
23.1507365075
 20
72.1342085379
 30
0.0
  0
SPLINE
  5
450
100
AcDbEntity
  8
0
100
AcDbSpline
 62
7
  6
BYLAYER
 70
0
 71
3
 72
11
 73
7
 74
0
 42
0.0000001
 43
0.0000001
 44
0.0000000001
 40
0.0
 40
0.0
 40
0.0
 40
0.0
 40
0.2372539654
 40
0.5000012591
 40
0.7627478695
 40
1.0
 40
1.0
 40
1.0
 40
1.0
 10
24.7283904451
 20
71.721812347
 30
0.0
 10
24.7283904451
 20
71.8855311099
 30
0.0
 10
24.6670071232
 20
72.2307932727
 30
0.0
 10
24.4528987117
 20
72.7158748882
 30
0.0
 10
24.1398586223
 20
73.1438364983
 30
0.0
 10
23.8715441996
 20
73.3696242513
 30
0.0
 10
23.7297598865
 20
73.4514816108
 30
0.0
  0
SPLINE
  5
451
100
AcDbEntity
  8
0
100
AcDbSpline
 62
7
  6
BYLAYER
 70
0
 71
3
 72
11
 73
7
 74
0
 42
0.0000001
 43
0.0000001
 44
0.0000000001
 40
0.0
 40
0.0
 40
0.0
 40
0.0
 40
0.2895391946
 40
0.5491157945
 40
0.7822541179
 40
1.0
 40
1.0
 40
1.0
 40
1.0
 10
23.5279097586
 20
73.5680172001
 30
0.0
 10
23.4659770743
 20
73.6037732431
 30
0.0
 10
23.3426701989
 20
73.6623543274
 30
0.0
 10
23.1532222558
 20
73.7082094496
 30
0.0
 10
22.9753729758
 20
73.7037417941
 30
0.0
 10
22.8683927596
 20
73.6647808985
 30
0.0
 10
22.8218169306
 20
73.6378904694
 30
0.0
  0
SPLINE
  5
452
100
AcDbEntity
  8
0
100
AcDbSpline
 62
7
  6
BYLAYER
 70
0
 71
3
 72
13
 73
9
 74
0
 42
0.0000001
 43
0.0000001
 44
0.0000000001
 40
0.0
 40
0.0
 40
0.0
 40
0.0
 40
0.0871682856
 40
0.1867564998
 40
0.3044397713
 40
0.4386143839
 40
0.7299783077
 40
1.0
 40
1.0
 40
1.0
 40
1.0
 10
23.3365089026
 20
69.9049768703
 30
0.0
 10
23.3179885408
 20
69.8943660923
 30
0.0
 10
23.2716305926
 20
69.8823631341
 30
0.0
 10
23.1969112283
 20
69.8973626623
 30
0.0
 10
23.1205302563
 20
69.9389649661
 30
0.0
 10
23.0204354629
 20
70.0278960955
 30
0.0
 10
22.9262303729
 20
70.1732504988
 30
0.0
 10
22.8899051598
 20
70.3102911332
 30
0.0
 10
22.8899051598
 20
70.3764104552
 30
0.0
  0
SPLINE
  5
453
100
AcDbEntity
  8
0
100
AcDbSpline
 62
7
  6
BYLAYER
 70
0
 71
3
 72
15
 73
11
 74
0
 42
0.0000001
 43
0.0000001
 44
0.0000000001
 40
0.0
 40
0.0
 40
0.0
 40
0.0
 40
0.1141462769
 40
0.2373347432
 40
0.3669750849
 40
0.4999983967
 40
0.6330219315
 40
0.7626629244
 40
0.8858524171
 40
1.0
 40
1.0
 40
1.0
 40
1.0
 10
18.3605111303
 20
108.1253821732
 30
0.0
 10
18.0942922023
 20
107.9716815209
 30
0.0
 10
17.5684263322
 20
107.6030108639
 30
0.0
 10
16.8448201805
 20
106.9260986144
 30
0.0
 10
16.1780613164
 20
106.1258230349
 30
0.0
 10
15.5931058149
 20
105.2324257245
 30
0.0
 10
15.1118826879
 20
104.279136828
 30
0.0
 10
14.7522054386
 20
103.3015626649
 30
0.0
 10
14.5277859403
 20
102.3364368933
 30
0.0
 10
14.4714400256
 20
101.6966822305
 30
0.0
 10
14.4714400256
 20
101.3892760327
 30
0.0
  0
SPLINE
  5
454
100
AcDbEntity
  8
0
100
AcDbSpline
 62
7
  6
BYLAYER
 70
0
 71
3
 72
16
 73
12
 74
0
 42
0.0000001
 43
0.0000001
 44
0.0000000001
 40
0.0
 40
0.0
 40
0.0
 40
0.0
 40
0.0428749215
 40
0.0875218052
 40
0.1869210508
 40
0.3042319763
 40
0.4379526978
 40
0.5823548967
 40
0.7295670544
 40
0.8712583699
 40
1.0
 40
1.0
 40
1.0
 40
1.0
 10
84.2284993328
 20
148.7051121374
 30
0.0
 10
84.2284982951
 20
148.6481825283
 30
0.0
 10
84.2436163868
 20
148.5314590225
 30
0.0
 10
84.3361550188
 20
148.2988146976
 30
0.0
 10
84.5700752645
 20
148.0300793567
 30
0.0
 10
84.9717684561
 20
147.7862989837
 30
0.0
 10
85.4730818911
 20
147.6184628272
 30
0.0
 10
86.0351107245
 20
147.539629142
 30
0.0
 10
86.6130065108
 20
147.5555070302
 30
0.0
 10
87.1593366176
 20
147.6648708682
 30
0.0
 10
87.4945944704
 20
147.8031589607
 30
0.0
 10
87.6426365401
 20
147.8886305793
 30
0.0
  0
SPLINE
  5
455
100
AcDbEntity
  8
0
100
AcDbSpline
 62
7
  6
BYLAYER
 70
0
 71
3
 72
16
 73
12
 74
0
 42
0.0000001
 43
0.0000001
 44
0.0000000001
 40
0.0
 40
0.0
 40
0.0
 40
0.0
 40
0.0428749215
 40
0.0875218052
 40
0.1869210508
 40
0.3042319763
 40
0.4379526978
 40
0.5823548967
 40
0.7295670544
 40
0.8712583699
 40
1.0
 40
1.0
 40
1.0
 40
1.0
 10
87.7640185189
 20
150.7463329068
 30
0.0
 10
87.7640174812
 20
150.6894032977
 30
0.0
 10
87.7791355729
 20
150.5726797918
 30
0.0
 10
87.8716742049
 20
150.3400354669
 30
0.0
 10
88.1055944506
 20
150.071300126
 30
0.0
 10
88.5072876421
 20
149.8275197531
 30
0.0
 10
89.0086010772
 20
149.6596835966
 30
0.0
 10
89.5706299106
 20
149.5808499114
 30
0.0
 10
90.1485256969
 20
149.5967277995
 30
0.0
 10
90.6948558037
 20
149.7060916375
 30
0.0
 10
91.0301136565
 20
149.84437973
 30
0.0
 10
91.1781557262
 20
149.9298513486
 30
0.0
  0
SPLINE
  5
456
100
AcDbEntity
  8
0
100
AcDbSpline
 62
7
  6
BYLAYER
 70
0
 71
3
 72
11
 73
7
 74
0
 42
0.0000001
 43
0.0000001
 44
0.0000000001
 40
0.0
 40
0.0
 40
0.0
 40
0.0
 40
0.2177434119
 40
0.4508805377
 40
0.710457812
 40
1.0
 40
1.0
 40
1.0
 40
1.0
 10
81.2456672894
 20
155.0185724902
 30
0.0
 10
81.2456673033
 20
154.9738273465
 30
0.0
 10
81.2620987351
 20
154.8805379079
 30
0.0
 10
81.3328666454
 20
154.7505353163
 30
0.0
 10
81.4447193749
 20
154.6331099269
 30
0.0
 10
81.5382262351
 20
154.5686348143
 30
0.0
 10
81.589754536
 20
154.5388856089
 30
0.0
  0
SPLINE
  5
457
100
AcDbEntity
  8
0
100
AcDbSpline
 62
7
  6
BYLAYER
 70
0
 71
3
 72
11
 73
7
 74
0
 42
0.0000001
 43
0.0000001
 44
0.0000000001
 40
0.0
 40
0.0
 40
0.0
 40
0.0
 40
0.2177434119
 40
0.4508805377
 40
0.710457812
 40
1.0
 40
1.0
 40
1.0
 40
1.0
 10
77.6535797964
 20
152.9446921885
 30
0.0
 10
77.6535798103
 20
152.8999470449
 30
0.0
 10
77.6700112421
 20
152.8066576063
 30
0.0
 10
77.7407791523
 20
152.6766550147
 30
0.0
 10
77.8526318819
 20
152.5592296252
 30
0.0
 10
77.946138742
 20
152.4947545126
 30
0.0
 10
77.997667043
 20
152.4650053072
 30
0.0
  0
SPLINE
  5
458
100
AcDbEntity
  8
0
100
AcDbSpline
 62
7
  6
BYLAYER
 70
0
 71
3
 72
11
 73
7
 74
0
 42
0.0000001
 43
0.0000001
 44
0.0000000001
 40
0.0
 40
0.0
 40
0.0
 40
0.0
 40
0.2177843137
 40
0.4509117637
 40
0.7102976701
 40
1.0
 40
1.0
 40
1.0
 40
1.0
 10
31.3207253203
 20
14.723809763
 30
0.0
 10
31.1887818647
 20
14.6476326864
 30
0.0
 10
30.8856212624
 20
14.537613221
 30
0.0
 10
30.3820766683
 20
14.5248635689
 30
0.0
 10
29.8454161421
 20
14.6544575189
 30
0.0
 10
29.49625955
 20
14.8205580825
 30
0.0
 10
29.3207442537
 20
14.9218895936
 30
0.0
  0
SPLINE
  5
459
100
AcDbEntity
  8
0
100
AcDbSpline
 62
7
  6
BYLAYER
 70
0
 71
3
 72
11
 73
7
 74
0
 42
0.0000001
 43
0.0000001
 44
0.0000000001
 40
0.0
 40
0.0
 40
0.0
 40
0.0
 40
0.2167289316
 40
0.4564749364
 40
0.7185702918
 40
1.0
 40
1.0
 40
1.0
 40
1.0
 10
28.4572372827
 20
74.0676312939
 30
0.0
 10
28.7516096933
 20
73.3275072855
 30
0.0
 10
29.1843277293
 20
71.6915966277
 30
0.0
 10
29.376900003
 20
69.0465402527
 30
0.0
 10
29.1468890481
 20
66.1676241262
 30
0.0
 10
28.7291114935
 20
64.2083848802
 30
0.0
 10
28.4571251054
 20
63.2104838187
 30
0.0
  0
SPLINE
  5
45A
100
AcDbEntity
  8
0
100
AcDbSpline
 62
7
  6
BYLAYER
 70
0
 71
3
 72
11
 73
7
 74
0
 42
0.0000001
 43
0.0000001
 44
0.0000000001
 40
0.0
 40
0.0
 40
0.0
 40
0.0
 40
0.2895468475
 40
0.5491384346
 40
0.782278826
 40
1.0
 40
1.0
 40
1.0
 40
1.0
 10
87.6426365401
 20
147.8886305793
 30
0.0
 10
87.7303447162
 20
147.9392686161
 30
0.0
 10
87.8895079962
 20
148.0490172989
 30
0.0
 10
88.079901982
 20
148.2488971416
 30
0.0
 10
88.2003321323
 20
148.4701827147
 30
0.0
 10
88.2283334587
 20
148.6289584062
 30
0.0
 10
88.2283348468
 20
148.7051120392
 30
0.0
  0
SPLINE
  5
45B
100
AcDbEntity
  8
0
100
AcDbSpline
 62
7
  6
BYLAYER
 70
0
 71
3
 72
11
 73
7
 74
0
 42
0.0000001
 43
0.0000001
 44
0.0000000001
 40
0.0
 40
0.0
 40
0.0
 40
0.0
 40
0.2895468475
 40
0.5491384346
 40
0.782278826
 40
1.0
 40
1.0
 40
1.0
 40
1.0
 10
91.1781557262
 20
149.9298513486
 30
0.0
 10
91.2658639023
 20
149.9804893854
 30
0.0
 10
91.4250271822
 20
150.0902380683
 30
0.0
 10
91.6154211681
 20
150.290117911
 30
0.0
 10
91.7358513184
 20
150.511403484
 30
0.0
 10
91.7638526447
 20
150.6701791756
 30
0.0
 10
91.7638540329
 20
150.7463328085
 30
0.0
  0
SPLINE
  5
45C
100
AcDbEntity
  8
0
100
AcDbSpline
 62
7
  6
BYLAYER
 70
0
 71
3
 72
11
 73
7
 74
0
 42
0.0000001
 43
0.0000001
 44
0.0000000001
 40
0.0
 40
0.0
 40
0.0
 40
0.0
 40
0.2177833598
 40
0.4509104088
 40
0.7102966711
 40
1.0
 40
1.0
 40
1.0
 40
1.0
 10
91.1770651404
 20
49.2816773882
 30
0.0
 10
91.3090115098
 20
49.357856229
 30
0.0
 10
91.5558777437
 20
49.5653961793
 30
0.0
 10
91.8186961081
 20
49.9951161721
 30
0.0
 10
91.9747947608
 20
50.5246909605
 30
0.0
 10
92.0055229745
 20
50.9101312918
 30
0.0
 10
92.0055229745
 20
51.1128038693
 30
0.0
  0
SPLINE
  5
45D
100
AcDbEntity
  8
0
100
AcDbSpline
 62
7
  6
BYLAYER
 70
0
 71
3
 72
13
 73
9
 74
0
 42
0.0000001
 43
0.0000001
 44
0.0000000001
 40
0.0
 40
0.0
 40
0.0
 40
0.0
 40
0.2700154021
 40
0.561344274
 40
0.6955315228
 40
0.8131518095
 40
0.9129048833
 40
1.0
 40
1.0
 40
1.0
 40
1.0
 10
25.0906222511
 20
67.6524802914
 30
0.0
 10
25.0906222511
 20
67.6067095973
 30
0.0
 10
25.1157627769
 20
67.5118483575
 30
0.0
 10
25.1809714211
 20
67.4112265146
 30
0.0
 10
25.2502639432
 20
67.3496812556
 30
0.0
 10
25.3031626216
 20
67.3208914941
 30
0.0
 10
25.3548713856
 20
67.3104522919
 30
0.0
 10
25.3870060894
 20
67.3187374859
 30
0.0
 10
25.3997962948
 20
67.3261114285
 30
0.0
  0
SPLINE
  5
45E
100
AcDbEntity
  8
0
100
AcDbSpline
 62
7
  6
BYLAYER
 70
0
 71
3
 72
15
 73
11
 74
0
 42
0.0000001
 43
0.0000001
 44
0.0000000001
 40
0.0
 40
0.0
 40
0.0
 40
0.0
 40
0.1141475829
 40
0.2373370756
 40
0.3669780685
 40
0.5000016033
 40
0.6330249151
 40
0.7626652568
 40
0.8858537231
 40
1.0
 40
1.0
 40
1.0
 40
1.0
 10
32.1491831543
 20
91.1832571697
 30
0.0
 10
32.1491831543
 20
91.4906633675
 30
0.0
 10
32.205529069
 20
92.1304180303
 30
0.0
 10
32.4299485673
 20
93.0955438019
 30
0.0
 10
32.7896258166
 20
94.0731179649
 30
0.0
 10
33.2708489436
 20
95.0264068615
 30
0.0
 10
33.8558044451
 20
95.9198041718
 30
0.0
 10
34.5225633092
 20
96.7200797514
 30
0.0
 10
35.2461694608
 20
97.3969920009
 30
0.0
 10
35.772035331
 20
97.7656626579
 30
0.0
 10
36.038254259
 20
97.9193633102
 30
0.0
  0
SPLINE
  5
45F
100
AcDbEntity
  8
0
100
AcDbSpline
 62
7
  6
BYLAYER
 70
0
 71
3
 72
13
 73
9
 74
0
 42
0.0000001
 43
0.0000001
 44
0.0000000001
 40
0.0
 40
0.0
 40
0.0
 40
0.0
 40
0.0871682856
 40
0.1867564998
 40
0.3044397713
 40
0.4386143839
 40
0.7299783077
 40
1.0
 40
1.0
 40
1.0
 40
1.0
 10
23.9211607424
 20
70.2320010408
 30
0.0
 10
23.9396811042
 20
70.2426118189
 30
0.0
 10
23.9860390525
 20
70.254614777
 30
0.0
 10
24.0607584167
 20
70.2396152488
 30
0.0
 10
24.1371393888
 20
70.198012945
 30
0.0
 10
24.2372341821
 20
70.1090818156
 30
0.0
 10
24.3314392722
 20
69.9637274123
 30
0.0
 10
24.3677644853
 20
69.8266867779
 30
0.0
 10
24.3677644853
 20
69.7605674559
 30
0.0
  0
SPLINE
  5
460
100
AcDbEntity
  8
0
100
AcDbSpline
 62
7
  6
BYLAYER
 70
0
 71
3
 72
9
 73
5
 74
0
 42
0.0000001
 43
0.0000001
 44
0.0000000001
 40
0.0
 40
0.0
 40
0.0
 40
0.0
 40
0.2427567018
 40
1.0
 40
1.0
 40
1.0
 40
1.0
 10
31.0672728912
 20
100.7892958145
 30
0.0
 10
31.0116311784
 20
100.7571712484
 30
0.0
 10
30.7848928115
 20
100.6205824548
 30
0.0
 10
30.5680439303
 20
100.4677778955
 30
0.0
 10
30.4096663226
 20
100.3449638205
 30
0.0
  0
SPLINE
  5
461
100
AcDbEntity
  8
0
100
AcDbSpline
 62
7
  6
BYLAYER
 70
0
 71
3
 72
11
 73
7
 74
0
 42
0.0000001
 43
0.0000001
 44
0.0000000001
 40
0.0
 40
0.0
 40
0.0
 40
0.0
 40
0.2372444228
 40
0.5000010918
 40
0.7627571666
 40
1.0
 40
1.0
 40
1.0
 40
1.0
 10
21.7829545836
 20
69.7580804879
 30
0.0
 10
21.7829545836
 20
69.7001199092
 30
0.0
 10
21.8047000141
 20
69.577887897
 30
0.0
 10
21.8804694668
 20
69.4061313827
 30
0.0
 10
21.9913307005
 20
69.2546356715
 30
0.0
 10
22.086314165
 20
69.1746885056
 30
0.0
 10
22.1365094462
 20
69.1457089021
 30
0.0
  0
SPLINE
  5
462
100
AcDbEntity
  8
0
100
AcDbSpline
 62
7
  6
BYLAYER
 70
0
 71
3
 72
9
 73
5
 74
0
 42
0.0000001
 43
0.0000001
 44
0.0000000001
 40
0.0
 40
0.0
 40
0.0
 40
0.0
 40
0.2412576229
 40
1.0
 40
1.0
 40
1.0
 40
1.0
 10
25.4487897285
 20
67.485529121
 30
0.0
 10
25.4439424195
 20
67.4894384873
 30
0.0
 10
25.4243304098
 20
67.5062329874
 30
0.0
 10
25.4065924053
 20
67.5251807311
 30
0.0
 10
25.3942601426
 20
67.5403949286
 30
0.0
  0
SPLINE
  5
463
100
AcDbEntity
  8
0
100
AcDbSpline
 62
7
  6
BYLAYER
 70
0
 71
3
 72
9
 73
5
 74
0
 42
0.0000001
 43
0.0000001
 44
0.0000000001
 40
0.0
 40
0.0
 40
0.0
 40
0.0
 40
0.5225463463
 40
1.0
 40
1.0
 40
1.0
 40
1.0
 10
25.3942601426
 20
67.5403949286
 30
0.0
 10
25.36628108
 20
67.5749124367
 30
0.0
 10
25.3229327345
 20
67.6494816125
 30
0.0
 10
25.3027534023
 20
67.7343548988
 30
0.0
 10
25.3027534023
 20
67.7749535376
 30
0.0
  0
SPLINE
  5
464
100
AcDbEntity
  8
0
100
AcDbSpline
 62
7
  6
BYLAYER
 70
0
 71
3
 72
16
 73
12
 74
0
 42
0.0000001
 43
0.0000001
 44
0.0000000001
 40
0.0
 40
0.0
 40
0.0
 40
0.0
 40
0.0428749215
 40
0.0875218052
 40
0.1869210508
 40
0.3042319763
 40
0.4379526978
 40
0.5823548967
 40
0.7295670544
 40
0.8712583699
 40
1.0
 40
1.0
 40
1.0
 40
1.0
 10
88.2283348468
 20
148.7051120392
 30
0.0
 10
88.2283358845
 20
148.7620416483
 30
0.0
 10
88.2132177928
 20
148.8787651542
 30
0.0
 10
88.1206791608
 20
149.111409479
 30
0.0
 10
87.8867589151
 20
149.3801448199
 30
0.0
 10
87.4850657236
 20
149.6239251929
 30
0.0
 10
86.9837522885
 20
149.7917613494
 30
0.0
 10
86.4217234551
 20
149.8705950346
 30
0.0
 10
85.8438276688
 20
149.8547171465
 30
0.0
 10
85.2974975621
 20
149.7453533085
 30
0.0
 10
84.9622397092
 20
149.6070652159
 30
0.0
 10
84.8141976395
 20
149.5215935974
 30
0.0
  0
SPLINE
  5
465
100
AcDbEntity
  8
0
100
AcDbSpline
 62
7
  6
BYLAYER
 70
0
 71
3
 72
11
 73
7
 74
0
 42
0.0000001
 43
0.0000001
 44
0.0000000001
 40
0.0
 40
0.0
 40
0.0
 40
0.0
 40
0.2897033281
 40
0.5490895198
 40
0.7822165953
 40
1.0
 40
1.0
 40
1.0
 40
1.0
 10
32.1491831543
 20
16.5549362441
 30
0.0
 10
32.1491831543
 20
16.3522636665
 30
0.0
 10
32.1184550097
 20
15.9668233784
 30
0.0
 10
31.9623563174
 20
15.4372486212
 30
0.0
 10
31.699537962
 20
15.0075286539
 30
0.0
 10
31.4526717527
 20
14.7999885583
 30
0.0
 10
31.3207253203
 20
14.723809763
 30
0.0
  0
SPLINE
  5
466
100
AcDbEntity
  8
0
100
AcDbSpline
 62
7
  6
BYLAYER
 70
0
 71
3
 72
18
 73
14
 74
0
 42
0.0000001
 43
0.0000001
 44
0.0000000001
 40
0.0
 40
0.0
 40
0.0
 40
0.0
 40
0.0284290853
 40
0.0582021608
 40
0.089055324
 40
0.1209205866
 40
0.1866920965
 40
0.2539448254
 40
0.3886749222
 40
0.5203927333
 40
0.7697245395
 40
0.8872905677
 40
1.0
 40
1.0
 40
1.0
 40
1.0
 10
28.4552861063
 20
74.0697199604
 30
0.0
 10
28.519505198
 20
74.0326438893
 30
0.0
 10
28.6465399211
 20
73.9490262864
 30
0.0
 10
28.8305612141
 20
73.8070395453
 30
0.0
 10
29.0112709818
 20
73.6468854707
 30
0.0
 10
29.2459976053
 20
73.4073625972
 30
0.0
 10
29.519331254
 20
73.0741114037
 30
0.0
 10
29.9090722333
 20
72.4936615051
 30
0.0
 10
30.3076706148
 20
71.716391428
 30
0.0
 10
30.7799452559
 20
70.4547297001
 30
0.0
 10
31.0673426582
 20
69.1791506728
 30
0.0
 10
31.2067624506
 20
67.935316269
 30
0.0
 10
31.2280672077
 20
67.3343358632
 30
0.0
 10
31.2280672077
 20
67.0403486466
 30
0.0
  0
SPLINE
  5
467
100
AcDbEntity
  8
0
100
AcDbSpline
 62
7
  6
BYLAYER
 70
0
 71
3
 72
11
 73
7
 74
0
 42
0.0000001
 43
0.0000001
 44
0.0000000001
 40
0.0
 40
0.0
 40
0.0
 40
0.0
 40
0.2372428334
 40
0.4999989082
 40
0.7627555772
 40
1.0
 40
1.0
 40
1.0
 40
1.0
 10
23.7297598865
 20
73.0332111011
 30
0.0
 10
23.8201113927
 20
72.9810478147
 30
0.0
 10
23.9910816288
 20
72.8371429161
 30
0.0
 10
24.1906318495
 20
72.564450636
 30
0.0
 10
24.3270168643
 20
72.2552889103
 30
0.0
 10
24.3661586391
 20
72.0352712883
 30
0.0
 10
24.3661586391
 20
71.9309422466
 30
0.0
  0
SPLINE
  5
468
100
AcDbEntity
  8
0
100
AcDbSpline
 62
7
  6
BYLAYER
 70
0
 71
3
 72
9
 73
5
 74
0
 42
0.0000001
 43
0.0000001
 44
0.0000000001
 40
0.0
 40
0.0
 40
0.0
 40
0.0
 40
0.2420497365
 40
1.0
 40
1.0
 40
1.0
 40
1.0
 10
24.6947974405
 20
67.933149043
 30
0.0
 10
24.6904030621
 20
67.9340664621
 30
0.0
 10
24.6723392253
 20
67.9382878802
 30
0.0
 10
24.6546733316
 20
67.944152311
 30
0.0
 10
24.6416031163
 20
67.9493265907
 30
0.0
  0
SPLINE
  5
469
100
AcDbEntity
  8
0
100
AcDbSpline
 62
7
  6
BYLAYER
 70
0
 71
3
 72
9
 73
5
 74
0
 42
0.0000001
 43
0.0000001
 44
0.0000000001
 40
0.0
 40
0.0
 40
0.0
 40
0.0
 40
0.2428618835
 40
1.0
 40
1.0
 40
1.0
 40
1.0
 10
24.6416031163
 20
67.9493265907
 30
0.0
 10
24.6370272347
 20
67.9511381057
 30
0.0
 10
24.6183350769
 20
67.9589716801
 30
0.0
 10
24.6002540846
 20
67.9682419039
 30
0.0
 10
24.5869667337
 20
67.9759131859
 30
0.0
  0
SPLINE
  5
46A
100
AcDbEntity
  8
0
100
AcDbSpline
 62
7
  6
BYLAYER
 70
0
 71
3
 72
11
 73
7
 74
0
 42
0.0000001
 43
0.0000001
 44
0.0000000001
 40
0.0
 40
0.0
 40
0.0
 40
0.0
 40
0.2370465658
 40
0.4999992558
 40
0.762953138
 40
1.0
 40
1.0
 40
1.0
 40
1.0
 10
23.0976996056
 20
72.0169328374
 30
0.0
 10
23.0976996056
 20
71.9872681639
 30
0.0
 10
23.1089519166
 20
71.9246880305
 30
0.0
 10
23.1475700643
 20
71.8365918136
 30
0.0
 10
23.204554928
 20
71.7590997023
 30
0.0
 10
23.2531249703
 20
71.7180647364
 30
0.0
 10
23.2788155086
 20
71.7032326328
 30
0.0
  0
SPLINE
  5
46B
100
AcDbEntity
  8
0
100
AcDbSpline
 62
7
  6
BYLAYER
 70
0
 71
3
 72
21
 73
17
 74
0
 42
0.0000001
 43
0.0000001
 44
0.0000000001
 40
0.0
 40
0.0
 40
0.0
 40
0.0
 40
0.036111125
 40
0.0702622313
 40
0.1025366052
 40
0.1330052902
 40
0.1896759103
 40
0.2431316404
 40
0.2958347863
 40
0.3494527983
 40
0.4048908203
 40
0.4625437825
 40
0.5846593512
 40
0.7155211898
 40
0.8541740902
 40
1.0
 40
1.0
 40
1.0
 40
1.0
 10
28.4552861
 20
63.2126368055
 30
0.0
 10
28.5157115072
 20
63.1777509696
 30
0.0
 10
28.6372232818
 20
63.1165274731
 30
0.0
 10
28.822168688
 20
63.0447789003
 30
0.0
 10
29.0031710797
 20
62.9951471263
 30
0.0
 10
29.2321536405
 20
62.9630117294
 30
0.0
 10
29.5068805432
 20
62.9765734474
 30
0.0
 10
29.8090949514
 20
63.0756936911
 30
0.0
 10
30.0730802095
 20
63.24056688
 30
0.0
 10
30.3010162829
 20
63.4568430563
 30
0.0
 10
30.4968550582
 20
63.7139673204
 30
0.0
 10
30.7240663824
 20
64.1086503863
 30
0.0
 10
30.9403026459
 20
64.6721566557
 30
0.0
 10
31.1108059676
 20
65.4109125269
 30
0.0
 10
31.2097249349
 20
66.2085641299
 30
0.0
 10
31.2280672077
 20
66.7585881041
 30
0.0
 10
31.2280672077
 20
67.0403486466
 30
0.0
  0
SPLINE
  5
46C
100
AcDbEntity
  8
0
100
AcDbSpline
 62
7
  6
BYLAYER
 70
0
 71
3
 72
9
 73
5
 74
0
 42
0.0000001
 43
0.0000001
 44
0.0000000001
 40
0.0
 40
0.0
 40
0.0
 40
0.0
 40
0.4499616491
 40
1.0
 40
1.0
 40
1.0
 40
1.0
 10
23.1507365075
 20
72.1342085379
 30
0.0
 10
23.1334352025
 20
72.1242196962
 30
0.0
 10
23.1037959341
 20
72.0867177358
 30
0.0
 10
23.0976996056
 20
72.0413539208
 30
0.0
 10
23.0976996056
 20
72.0169328374
 30
0.0
  0
SPLINE
  5
46D
100
AcDbEntity
  8
0
100
AcDbSpline
 62
7
  6
BYLAYER
 70
0
 71
3
 72
15
 73
11
 74
0
 42
0.0000001
 43
0.0000001
 44
0.0000000001
 40
0.0
 40
0.0
 40
0.0
 40
0.0
 40
0.1287902878
 40
0.2706272726
 40
0.41790633
 40
0.5624154506
 40
0.6962315162
 40
0.8136212669
 40
0.9130861101
 40
1.0
 40
1.0
 40
1.0
 40
1.0
 10
22.5292791999
 20
70.58461324
 30
0.0
 10
22.5292791999
 20
70.5094192167
 30
0.0
 10
22.5503850835
 20
70.3512446502
 30
0.0
 10
22.6288380829
 20
70.1189926292
 30
0.0
 10
22.7499812468
 20
69.8952968081
 30
0.0
 10
22.903660787
 20
69.6984841298
 30
0.0
 10
23.0778038776
 20
69.5442959753
 30
0.0
 10
23.2594052791
 20
69.4450865612
 30
0.0
 10
23.4371514287
 20
69.409589538
 30
0.0
 10
23.5475793012
 20
69.4379001645
 30
0.0
 10
23.5915284132
 20
69.4632671668
 30
0.0
  0
SPLINE
  5
46E
100
AcDbEntity
  8
0
100
AcDbSpline
 62
7
  6
BYLAYER
 70
0
 71
3
 72
11
 73
7
 74
0
 42
0.0000001
 43
0.0000001
 44
0.0000000001
 40
0.0
 40
0.0
 40
0.0
 40
0.0
 40
0.217745073
 40
0.4508830113
 40
0.7104597664
 40
1.0
 40
1.0
 40
1.0
 40
1.0
 10
22.8218169306
 20
73.6378904694
 30
0.0
 10
22.7752400287
 20
73.6109994208
 30
0.0
 10
22.6880065
 20
73.5378305899
 30
0.0
 10
22.5952112416
 20
73.3860379831
 30
0.0
 10
22.5401988644
 20
73.1990380554
 30
0.0
 10
22.5292791999
 20
73.0629565625
 30
0.0
 10
22.5292791999
 20
72.9914410936
 30
0.0
  0
SPLINE
  5
46F
100
AcDbEntity
  8
0
100
AcDbSpline
 62
7
  6
BYLAYER
 70
0
 71
3
 72
9
 73
5
 74
0
 42
0.0000001
 43
0.0000001
 44
0.0000000001
 40
0.0
 40
0.0
 40
0.0
 40
0.0
 40
0.4538845861
 40
1.0
 40
1.0
 40
1.0
 40
1.0
 10
23.6368730377
 20
69.5446027307
 30
0.0
 10
23.5670293271
 20
69.5455245619
 30
0.0
 10
23.4140118614
 20
69.5884725124
 30
0.0
 10
23.2854489086
 20
69.6761463403
 30
0.0
 10
23.2213788494
 20
69.73053694
 30
0.0
  0
SPLINE
  5
470
100
AcDbEntity
  8
0
100
AcDbSpline
 62
7
  6
BYLAYER
 70
0
 71
3
 72
9
 73
5
 74
0
 42
0.0000001
 43
0.0000001
 44
0.0000000001
 40
0.0
 40
0.0
 40
0.0
 40
0.0
 40
0.2411338001
 40
1.0
 40
1.0
 40
1.0
 40
1.0
 10
23.1894329354
 20
69.7586921966
 30
0.0
 10
23.1611966825
 20
69.7845055764
 30
0.0
 10
23.0492767492
 20
69.8971465229
 30
0.0
 10
22.9574638405
 20
70.0292668174
 30
0.0
 10
22.9005333378
 20
70.1353549724
 30
0.0
  0
SPLINE
  5
471
100
AcDbEntity
  8
0
100
AcDbSpline
 62
7
  6
BYLAYER
 70
0
 71
3
 72
9
 73
5
 74
0
 42
0.0000001
 43
0.0000001
 44
0.0000000001
 40
0.0
 40
0.0
 40
0.0
 40
0.0
 40
0.2531569778
 40
1.0
 40
1.0
 40
1.0
 40
1.0
 10
22.9005333378
 20
70.1353549724
 30
0.0
 10
22.8906379351
 20
70.1537947361
 30
0.0
 10
22.8530760931
 20
70.2274387382
 30
0.0
 10
22.8215608217
 20
70.3041981972
 30
0.0
 10
22.8020229097
 20
70.3627625396
 30
0.0
  0
SPLINE
  5
472
100
AcDbEntity
  8
0
100
AcDbSpline
 62
7
  6
BYLAYER
 70
0
 71
3
 72
9
 73
5
 74
0
 42
0.0000001
 43
0.0000001
 44
0.0000000001
 40
0.0
 40
0.0
 40
0.0
 40
0.0
 40
0.2652592065
 40
1.0
 40
1.0
 40
1.0
 40
1.0
 10
22.8020229097
 20
70.3627625396
 30
0.0
 10
22.7922176147
 20
70.3921536362
 30
0.0
 10
22.759145421
 20
70.5041327797
 30
0.0
 10
22.7414103511
 20
70.6212652307
 30
0.0
 10
22.7414103511
 20
70.7070864862
 30
0.0
  0
SPLINE
  5
473
100
AcDbEntity
  8
0
100
AcDbSpline
 62
7
  6
BYLAYER
 70
0
 71
3
 72
11
 73
7
 74
0
 42
0.0000001
 43
0.0000001
 44
0.0000000001
 40
0.0
 40
0.0
 40
0.0
 40
0.0
 40
0.2895468475
 40
0.5491384346
 40
0.782278826
 40
1.0
 40
1.0
 40
1.0
 40
1.0
 10
84.8141976395
 20
149.5215935974
 30
0.0
 10
84.7264894634
 20
149.4709555605
 30
0.0
 10
84.5673261835
 20
149.3612068777
 30
0.0
 10
84.3769321976
 20
149.161327035
 30
0.0
 10
84.2565020473
 20
148.9400414619
 30
0.0
 10
84.228500721
 20
148.7812657704
 30
0.0
 10
84.2284993328
 20
148.7051121374
 30
0.0
  0
SPLINE
  5
474
100
AcDbEntity
  8
0
100
AcDbSpline
 62
7
  6
BYLAYER
 70
0
 71
3
 72
11
 73
7
 74
0
 42
0.0000001
 43
0.0000001
 44
0.0000000001
 40
0.0
 40
0.0
 40
0.0
 40
0.0
 40
0.2895468475
 40
0.5491384346
 40
0.782278826
 40
1.0
 40
1.0
 40
1.0
 40
1.0
 10
88.3497168256
 20
151.5628143667
 30
0.0
 10
88.2620086495
 20
151.5121763299
 30
0.0
 10
88.1028453696
 20
151.4024276471
 30
0.0
 10
87.9124513837
 20
151.2025478043
 30
0.0
 10
87.7920212334
 20
150.9812622313
 30
0.0
 10
87.764019907
 20
150.8224865398
 30
0.0
 10
87.7640185189
 20
150.7463329068
 30
0.0
  0
SPLINE
  5
475
100
AcDbEntity
  8
0
100
AcDbSpline
 62
7
  6
BYLAYER
 70
0
 71
3
 72
11
 73
7
 74
0
 42
0.0000001
 43
0.0000001
 44
0.0000000001
 40
0.0
 40
0.0
 40
0.0
 40
0.0
 40
0.2895416688
 40
0.549118971
 40
0.7822562702
 40
1.0
 40
1.0
 40
1.0
 40
1.0
 10
81.5897476177
 20
155.4982553763
 30
0.0
 10
81.5382202883
 20
155.4685062363
 30
0.0
 10
81.4447152229
 20
155.4040312984
 30
0.0
 10
81.3328646781
 20
155.2866068155
 30
0.0
 10
81.2620983623
 20
155.1566054441
 30
0.0
 10
81.2456672755
 20
155.063317122
 30
0.0
 10
81.2456672894
 20
155.0185724902
 30
0.0
  0
SPLINE
  5
476
100
AcDbEntity
  8
0
100
AcDbSpline
 62
7
  6
BYLAYER
 70
0
 71
3
 72
11
 73
7
 74
0
 42
0.0000001
 43
0.0000001
 44
0.0000000001
 40
0.0
 40
0.0
 40
0.0
 40
0.0
 40
0.2372531816
 40
0.5000006935
 40
0.7627478297
 40
1.0
 40
1.0
 40
1.0
 40
1.0
 10
83.2514485534
 20
155.4982593705
 30
0.0
 10
83.1334846396
 20
155.5663643272
 30
0.0
 10
82.8591786421
 20
155.6657612197
 30
0.0
 10
82.4205965385
 20
155.7132812047
 30
0.0
 10
81.9820152481
 20
155.6657591241
 30
0.0
 10
81.7077105376
 20
155.5663608933
 30
0.0
 10
81.5897476177
 20
155.4982553763
 30
0.0
  0
SPLINE
  5
477
100
AcDbEntity
  8
0
100
AcDbSpline
 62
7
  6
BYLAYER
 70
0
 71
3
 72
11
 73
7
 74
0
 42
0.0000001
 43
0.0000001
 44
0.0000000001
 40
0.0
 40
0.0
 40
0.0
 40
0.0
 40
0.2895416688
 40
0.549118971
 40
0.7822562702
 40
1.0
 40
1.0
 40
1.0
 40
1.0
 10
77.9976601246
 20
153.4243750746
 30
0.0
 10
77.9461327952
 20
153.3946259347
 30
0.0
 10
77.8526277299
 20
153.3301509967
 30
0.0
 10
77.7407771851
 20
153.2127265138
 30
0.0
 10
77.6700108693
 20
153.0827251424
 30
0.0
 10
77.6535797825
 20
152.9894368204
 30
0.0
 10
77.6535797964
 20
152.9446921885
 30
0.0
  0
SPLINE
  5
478
100
AcDbEntity
  8
0
100
AcDbSpline
 62
7
  6
BYLAYER
 70
0
 71
3
 72
11
 73
7
 74
0
 42
0.0000001
 43
0.0000001
 44
0.0000000001
 40
0.0
 40
0.0
 40
0.0
 40
0.0
 40
0.2372531816
 40
0.5000006935
 40
0.7627478297
 40
1.0
 40
1.0
 40
1.0
 40
1.0
 10
79.6593610604
 20
153.4243790688
 30
0.0
 10
79.5413971466
 20
153.4924840255
 30
0.0
 10
79.267091149
 20
153.591880918
 30
0.0
 10
78.8285090455
 20
153.639400903
 30
0.0
 10
78.3899277551
 20
153.5918788225
 30
0.0
 10
78.1156230445
 20
153.4924805916
 30
0.0
 10
77.9976601246
 20
153.4243750746
 30
0.0
  0
SPLINE
  5
479
100
AcDbEntity
  8
0
100
AcDbSpline
 62
7
  6
BYLAYER
 70
0
 71
3
 72
16
 73
12
 74
0
 42
0.0000001
 43
0.0000001
 44
0.0000000001
 40
0.0
 40
0.0
 40
0.0
 40
0.0
 40
0.0428749215
 40
0.0875218052
 40
0.1869210508
 40
0.3042319763
 40
0.4379526978
 40
0.5823548967
 40
0.7295670544
 40
0.8712583699
 40
1.0
 40
1.0
 40
1.0
 40
1.0
 10
91.7638540329
 20
150.7463328085
 30
0.0
 10
91.7638550706
 20
150.8032624177
 30
0.0
 10
91.7487369789
 20
150.9199859235
 30
0.0
 10
91.6561983469
 20
151.1526302484
 30
0.0
 10
91.4222781012
 20
151.4213655893
 30
0.0
 10
91.0205849096
 20
151.6651459623
 30
0.0
 10
90.5192714746
 20
151.8329821188
 30
0.0
 10
89.9572426412
 20
151.9118158039
 30
0.0
 10
89.3793468549
 20
151.8959379158
 30
0.0
 10
88.8330167481
 20
151.7865740778
 30
0.0
 10
88.4977588953
 20
151.6482859853
 30
0.0
 10
88.3497168256
 20
151.5628143667
 30
0.0
  0
SPLINE
  5
47A
100
AcDbEntity
  8
0
100
AcDbSpline
 62
7
  6
BYLAYER
 70
0
 71
3
 72
9
 73
5
 74
0
 42
0.0000001
 43
0.0000001
 44
0.0000000001
 40
0.0
 40
0.0
 40
0.0
 40
0.0
 40
0.2827578306
 40
1.0
 40
1.0
 40
1.0
 40
1.0
 10
21.9950857348
 20
73.9524193806
 30
0.0
 10
21.9950857348
 20
73.9897976289
 30
0.0
 10
22.0025554403
 20
74.1211870327
 30
0.0
 10
22.0470432435
 20
74.255370317
 30
0.0
 10
22.1070901053
 20
74.3287458697
 30
0.0
  0
SPLINE
  5
47B
100
AcDbEntity
  8
0
100
AcDbSpline
 62
7
  6
BYLAYER
 70
0
 71
3
 72
9
 73
5
 74
0
 42
0.0000001
 43
0.0000001
 44
0.0000000001
 40
0.0
 40
0.0
 40
0.0
 40
0.0
 40
0.4745272136
 40
1.0
 40
1.0
 40
1.0
 40
1.0
 10
22.3486405974
 20
69.2681821483
 30
0.0
 10
22.2970105135
 20
69.2979901168
 30
0.0
 10
22.1996529161
 20
69.3806853094
 30
0.0
 10
22.1257472887
 20
69.483665711
 30
0.0
 10
22.0934401644
 20
69.5412378874
 30
0.0
  0
SPLINE
  5
47C
100
AcDbEntity
  8
0
100
AcDbSpline
 62
7
  6
BYLAYER
 70
0
 71
3
 72
9
 73
5
 74
0
 42
0.0000001
 43
0.0000001
 44
0.0000000001
 40
0.0
 40
0.0
 40
0.0
 40
0.0
 40
0.5255185491
 40
1.0
 40
1.0
 40
1.0
 40
1.0
 10
22.0934401644
 20
69.5412378874
 30
0.0
 10
22.0629208552
 20
69.5956241286
 30
0.0
 10
22.0156266247
 20
69.7055237979
 30
0.0
 10
21.9950857348
 20
69.8242462096
 30
0.0
 10
21.9950857348
 20
69.8805537341
 30
0.0
  0
SPLINE
  5
47D
100
AcDbEntity
  8
0
100
AcDbSpline
 62
7
  6
BYLAYER
 70
0
 71
3
 72
9
 73
5
 74
0
 42
0.0000001
 43
0.0000001
 44
0.0000000001
 40
0.0
 40
0.0
 40
0.0
 40
0.0
 40
0.257599981
 40
1.0
 40
1.0
 40
1.0
 40
1.0
 10
23.7119568753
 20
70.5457663533
 30
0.0
 10
23.7136581286
 20
70.5532930981
 30
0.0
 10
23.7208646836
 20
70.5823698124
 30
0.0
 10
23.73054088
 20
70.6108547124
 30
0.0
 10
23.7392348903
 20
70.6313241
 30
0.0
  0
SPLINE
  5
47E
100
AcDbEntity
  8
0
100
AcDbSpline
 62
7
  6
BYLAYER
 70
0
 71
3
 72
9
 73
5
 74
0
 42
0.0000001
 43
0.0000001
 44
0.0000000001
 40
0.0
 40
0.0
 40
0.0
 40
0.0
 40
0.258364836
 40
1.0
 40
1.0
 40
1.0
 40
1.0
 10
23.7392348903
 20
70.6313241
 30
0.0
 10
23.7424941977
 20
70.6389978921
 30
0.0
 10
23.7559302256
 20
70.6683370467
 30
0.0
 10
23.7727988337
 20
70.6961573215
 30
0.0
 10
23.7872748164
 20
70.71521492
 30
0.0
  0
SPLINE
  5
47F
100
AcDbEntity
  8
0
100
AcDbSpline
 62
7
  6
BYLAYER
 70
0
 71
3
 72
11
 73
7
 74
0
 42
0.0000001
 43
0.0000001
 44
0.0000000001
 40
0.0
 40
0.0
 40
0.0
 40
0.0
 40
0.2870161536
 40
0.5459542016
 40
0.7801096865
 40
1.0
 40
1.0
 40
1.0
 40
1.0
 10
23.7119229053
 20
73.287801774
 30
0.0
 10
23.6745275638
 20
73.3075563784
 30
0.0
 10
23.6001795718
 20
73.3395690811
 30
0.0
 10
23.4866900056
 20
73.3632769035
 30
0.0
 10
23.3804323324
 20
73.3577902486
 30
0.0
 10
23.3165072798
 20
73.3339025957
 30
0.0
 10
23.2884468399
 20
73.3177019944
 30
0.0
  0
SPLINE
  5
480
100
AcDbEntity
  8
0
100
AcDbSpline
 62
7
  6
BYLAYER
 70
0
 71
3
 72
11
 73
7
 74
0
 42
0.0000001
 43
0.0000001
 44
0.0000000001
 40
0.0
 40
0.0
 40
0.0
 40
0.0
 40
0.2372444228
 40
0.5000010918
 40
0.7627571666
 40
1.0
 40
1.0
 40
1.0
 40
1.0
 10
24.5782897903
 20
72.0534154927
 30
0.0
 10
24.5782897903
 20
72.1577445345
 30
0.0
 10
24.5391480154
 20
72.3777621564
 30
0.0
 10
24.4027630007
 20
72.6869238822
 30
0.0
 10
24.20321278
 20
72.9596161623
 30
0.0
 10
24.0322425438
 20
73.1035210609
 30
0.0
 10
23.9418910377
 20
73.1556843472
 30
0.0
  0
SPLINE
  5
481
100
AcDbEntity
  8
0
100
AcDbSpline
 62
7
  6
BYLAYER
 70
0
 71
3
 72
9
 73
5
 74
0
 42
0.0000001
 43
0.0000001
 44
0.0000000001
 40
0.0
 40
0.0
 40
0.0
 40
0.0
 40
0.4894670026
 40
1.0
 40
1.0
 40
1.0
 40
1.0
 10
23.4909466598
 20
71.8257058789
 30
0.0
 10
23.4436177586
 20
71.8530306146
 30
0.0
 10
23.3647308586
 20
71.9381605153
 30
0.0
 10
23.3209053116
 20
72.0443534616
 30
0.0
 10
23.3127515217
 20
72.1007697549
 30
0.0
  0
SPLINE
  5
482
100
AcDbEntity
  8
0
100
AcDbSpline
 62
7
  6
BYLAYER
 70
0
 71
3
 72
9
 73
5
 74
0
 42
0.0000001
 43
0.0000001
 44
0.0000000001
 40
0.0
 40
0.0
 40
0.0
 40
0.0
 40
0.2591451247
 40
1.0
 40
1.0
 40
1.0
 40
1.0
 10
22.7414103511
 20
73.1139143397
 30
0.0
 10
22.7414103511
 20
73.131853102
 30
0.0
 10
22.7428334825
 20
73.2010606907
 30
0.0
 10
22.7500739071
 20
73.2702098761
 30
0.0
 10
22.7593265849
 20
73.3206523671
 30
0.0
  0
SPLINE
  5
483
100
AcDbEntity
  8
0
100
AcDbSpline
 62
7
  6
BYLAYER
 70
0
 71
3
 72
9
 73
5
 74
0
 42
0.0000001
 43
0.0000001
 44
0.0000000001
 40
0.0
 40
0.0
 40
0.0
 40
0.0
 40
0.2704890075
 40
1.0
 40
1.0
 40
1.0
 40
1.0
 10
22.7593265849
 20
73.3206523671
 30
0.0
 10
22.7648516357
 20
73.3507730882
 30
0.0
 10
22.7902754585
 20
73.4609802418
 30
0.0
 10
22.8390650082
 20
73.5670845374
 30
0.0
 10
22.8894147649
 20
73.632553644
 30
0.0
  0
SPLINE
  5
484
100
AcDbEntity
  8
0
100
AcDbSpline
 62
7
  6
BYLAYER
 70
0
 71
3
 72
15
 73
11
 74
0
 42
0.0000001
 43
0.0000001
 44
0.0000000001
 40
0.0
 40
0.0
 40
0.0
 40
0.0
 40
0.1290934238
 40
0.2718649446
 40
0.4191270024
 40
0.563241529
 40
0.6967760506
 40
0.8138304648
 40
0.9130962692
 40
1.0
 40
1.0
 40
1.0
 40
1.0
 10
24.5798956365
 20
69.8873775806
 30
0.0
 10
24.5798956365
 20
69.9188827828
 30
0.0
 10
24.5700989208
 20
69.9852368587
 30
0.0
 10
24.5363857939
 20
70.0822450666
 30
0.0
 10
24.4852654303
 20
70.1756413801
 30
0.0
 10
24.4206665468
 20
70.2573970467
 30
0.0
 10
24.3478405909
 20
70.321444763
 30
0.0
 10
24.271886196
 20
70.3623895058
 30
0.0
 10
24.1977030647
 20
70.3770409421
 30
0.0
 10
24.1516328029
 20
70.3651242613
 30
0.0
 10
24.1332636983
 20
70.3545228378
 30
0.0
  0
SPLINE
  5
485
100
AcDbEntity
  8
0
100
AcDbSpline
 62
7
  6
BYLAYER
 70
0
 71
3
 72
9
 73
5
 74
0
 42
0.0000001
 43
0.0000001
 44
0.0000000001
 40
0.0
 40
0.0
 40
0.0
 40
0.0
 40
0.2229864158
 40
1.0
 40
1.0
 40
1.0
 40
1.0
 10
21.8949589542
 20
74.2062726236
 30
0.0
 10
21.8762580709
 20
74.1834206775
 30
0.0
 10
21.8044150735
 20
74.0709040375
 30
0.0
 10
21.7829545836
 20
73.9328406268
 30
0.0
 10
21.7829545836
 20
73.8299461344
 30
0.0
  0
ENDSEC
  0
SECTION
  2
OBJECTS
  0
DICTIONARY
  5
C
100
AcDbDictionary
280
0
281
1
  3
ACAD_GROUP
350
D
  3
ACAD_MLINESTYLE
350
17
  3
ACAD_LAYOUT
350
1A
  3
ACAD_PLOTSETTINGS
350
19
  3
ACAD_PLOTSTYLENAME
350
E
  0
DICTIONARY
  5
D
102
{ACAD_REACTORS
330
C
102
}
100
AcDbDictionary
280
0
281
1
  0
ACDBDICTIONARYWDFLT
  5
E
102
{ACAD_REACTORS
330
C
102
}
100
AcDbDictionary
281
1
  3
Normal
350
F
100
AcDbDictionaryWithDefault
340
F
  0
DICTIONARY
  5
17
102
{ACAD_REACTORS
330
C
102
}
100
AcDbDictionary
280
0
281
1
  3
Standard
350
18
  0
DICTIONARY
  5
19
102
{ACAD_REACTORS
330
C
102
}
100
AcDbDictionary
281
1
  0
DICTIONARY
  5
1A
102
{ACAD_REACTORS
330
C
102
}
100
AcDbDictionary
281
1
  3
Model
350
486
  3
Layout1
350
487
  0
ACDBPLACEHOLDER
  5
F
102
{ACAD_REACTORS
330
E
102
}
  0
MLINESTYLE
  5
18
102
{ACAD_REACTORS
330
17
102
}
100
AcDbMlineStyle
  2
STANDARD
 70
0
  3

 62
256
 51
90.0
 52
90.0
 71
2
 49
0.5
 62
256
  6
BYLAYER
 49
-0.5
 62
256
  6
BYLAYER
  0
LAYOUT
  5
486
102
{ACAD_REACTORS
330
1A
102
}
100
AcDbPlotSettings
  1

  2
none_device
  4

  6

 40
0.0
 41
0.0
 42
0.0
 43
0.0
 44
210.0
 45
297.0
 46
0.0
 47
0.0
 48
0.0
 49
0.0
140
0.0
141
0.0
142
1.0
143
1.0
 70
1024
 72
1
 73
0
 74
0
  7

 75
0
147
1.0
148
0.0
149
0.0
100
AcDbLayout
  1
Model
 70
0
 71
0
 10
0.0
 20
0.0
 11
210.0
 21
297.0
 12
0.0
 22
0.0
 32
0.0
 14
0.0
 24
0.0
 34
0.0
 15
0.0
 25
0.0
 35
0.0
146
0.0
 13
0.0
 23
0.0
 33
0.0
 16
1.0
 26
0.0
 36
0.0
 17
0.0
 27
1.0
 37
0.0
 76
0
330
210
345
0
346
0
  0
LAYOUT
  5
487
102
{ACAD_REACTORS
330
1A
102
}
100
AcDbPlotSettings
  1

  2
none_device
  4

  6

 40
0.0
 41
0.0
 42
0.0
 43
0.0
 44
210.0
 45
297.0
 46
0.0
 47
0.0
 48
0.0
 49
0.0
140
0.0
141
0.0
142
1.0
143
1.0
 70
0
 72
1
 73
0
 74
0
  7

 75
0
147
1.0
148
0.0
149
0.0
100
AcDbLayout
  1
Layout1
 70
0
 71
1
 10
0.0
 20
0.0
 11
210.0
 21
297.0
 12
0.0
 22
0.0
 32
0.0
 14
0.0
 24
0.0
 34
0.0
 15
0.0
 25
0.0
 35
0.0
146
0.0
 13
0.0
 23
0.0
 33
0.0
 16
1.0
 26
0.0
 36
0.0
 17
0.0
 27
1.0
 37
0.0
 76
0
330
211
345
0
346
0
  0
ENDSEC
  0
EOF
