999
DXF file: C:\Users\sesa63760\Dev\_Creo\CAD\MCADID0002170_3D-CAD\drw0001_3.dxf
999
Pro/ENGINEER 2019471 by Parametric Technology Corporation
  0
SECTION
  2
HEADER
  9
$ACADVER
  1
AC1024
  9
$DWGCODEPAGE
  3
ANSI_1252
  9
$EXTMAX
 10
75.6616198027
 20
107.0071480067
 30
0.0
  9
$EXTMIN
 10
0.0
 20
0.0
 30
0.0
  9
$LIMMIN
 10
0.0
 20
0.0
  9
$LIMMAX
 10
75.6616198027
 20
107.0071480067
  9
$VIEWCTR
 10
37.8308099014
 20
53.5035740034
  9
$VIEWSIZE
 40
107.0071480067
  9
$CLAYER
  8
0
  9
$LTSCALE
 40
6.975280759
  9
$CELTYPE
  6
BYLAYER
  9
$DIMSCALE
 40
1.0
  9
$DIMASZ
 40
0.9007335691
  9
$DIMEXO
 40
1.0
  9
$DIMDLI
 40
4.819284888
  9
$DIMEXE
 40
1.0
  9
$DIMCEN
 40
1.1414095787
  9
$DIMLFAC
 40
1.0
  9
$DIMBLK
  1
_FILLED
  9
$DIMALT
 70
0
  9
$DIMALTF
 40
0.0393700787
  9
$DIMTXT
 40
1.2610269967
  9
$DIMTOL
 70
1
  9
$DIMLIM
 70
0
  9
$DIMTFAC
 40
1.0
  9
$DIMTP
 40
0.01
  9
$DIMTM
 40
0.01
  9
$DIMGAP
 40
0.625
  9
$DIMDSEP
 70
46
  9
$AUNITS
 70
0
  9
$PDMODE
 70
3
  9
$PDSIZE
 40
0.3125
  9
$HANDSEED
  5
364
  9
$TILEMODE
 70
1
  9
$MEASUREMENT
 70
1
  9
$INSUNITS
 70
4
  0
ENDSEC
  0
SECTION
  2
CLASSES
  0
CLASS
  1
ACDBDICTIONARYWDFLT
  2
AcDbDictionaryWithDefault
  3
AutoCAD 2000
 90
0
 91
1
280
0
281
0
  0
CLASS
  1
ACDBPLACEHOLDER
  2
AcDbPlaceHolder
  3
AutoCAD 2000
 90
0
 91
1
280
0
281
0
  0
CLASS
  1
LAYOUT
  2
AcDbLayout
  3
AutoCAD 2000
 90
0
 91
0
280
0
281
0
  0
ENDSEC
  0
SECTION
  2
TABLES
  0
TABLE
  2
VPORT
  5
8
100
AcDbSymbolTable
 70
2
  0
VPORT
  5
1F4
100
AcDbSymbolTableRecord
100
AcDbViewportTableRecord
  2
*ACTIVE
 70
0
 10
0.0
 20
0.0
 11
1.0
 21
1.0
 12
37.8308099014
 22
53.5035740034
 13
0.0
 23
0.0
 14
1.0
 24
1.0
 15
0.0
 25
0.0
 16
0.0
 26
0.0
 36
1.0
 17
0.0
 27
0.0
 37
0.0
 40
107.0071480067
 41
0.7070707071
 42
50.0
 43
0.0
 44
0.0
 50
0.0
 51
0.0
 71
0
 72
100
 73
1
 74
1
 75
0
 76
0
 77
0
 78
0
  0
ENDTAB
  0
TABLE
  2
LTYPE
  5
5
100
AcDbSymbolTable
 70
6
  0
LTYPE
  5
14
100
AcDbSymbolTableRecord
100
AcDbLinetypeTableRecord
  2
BYBLOCK
 70
0
  3

 72
65
 73
0
 40
0.0
  0
LTYPE
  5
15
100
AcDbSymbolTableRecord
100
AcDbLinetypeTableRecord
  2
BYLAYER
 70
0
  3

 72
65
 73
0
 40
0.0
  0
LTYPE
  5
16
100
AcDbSymbolTableRecord
100
AcDbLinetypeTableRecord
  2
CONTINUOUS
 70
64
  3
Solid line
 72
65
 73
0
 40
0.0
  0
LTYPE
  5
1F5
100
AcDbSymbolTableRecord
100
AcDbLinetypeTableRecord
  2
CENTER
 70
64
  3
____ _ ____ _ ____ _ ____ _ ____ _ ____ _ ____
 72
65
 73
4
 40
0.6
 49
0.375
 74
0
 49
-0.075
 74
0
 49
0.075
 74
0
 49
-0.075
 74
0
  0
LTYPE
  5
1F6
100
AcDbSymbolTableRecord
100
AcDbLinetypeTableRecord
  2
HIDDEN
 70
64
  3
- - - - - - - - - - - - - - - - - - - -
 72
65
 73
2
 40
0.2
 49
0.1
 74
0
 49
-0.1
 74
0
  0
LTYPE
  5
1F7
100
AcDbSymbolTableRecord
100
AcDbLinetypeTableRecord
  2
PHANTOM
 70
64
  3
_____ _ _ _____ _ _ _____ _ _ _____
 72
65
 73
6
 40
0.8
 49
0.45
 74
0
 49
-0.05
 74
0
 49
0.1
 74
0
 49
-0.05
 74
0
 49
0.1
 74
0
 49
-0.05
 74
0
  0
LTYPE
  5
1F8
100
AcDbSymbolTableRecord
100
AcDbLinetypeTableRecord
  2
DOT
 70
64
  3
. . . . . . . . . . . . . . . . . . . .
 72
65
 73
2
 40
0.2
 49
0.1
 74
0
 49
-0.1
 74
0
  0
LTYPE
  5
1F9
100
AcDbSymbolTableRecord
100
AcDbLinetypeTableRecord
  2
DASHED
 70
64
  3
- - - - - - - - - - - - - - - - - - - -
 72
65
 73
2
 40
0.2
 49
0.1
 74
0
 49
-0.1
 74
0
  0
ENDTAB
  0
TABLE
  2
LAYER
  5
2
100
AcDbSymbolTable
 70
36
  0
LAYER
  5
10
100
AcDbSymbolTableRecord
100
AcDbLayerTableRecord
  2
0
 70
0
 62
7
  6
CONTINUOUS
370
-3
390
F
  0
LAYER
  5
1FA
100
AcDbSymbolTableRecord
100
AcDbLayerTableRecord
  2
DEFAULT_1
 70
0
 62
7
  6
CENTER
370
-3
390
F
  0
LAYER
  5
1FB
100
AcDbSymbolTableRecord
100
AcDbLayerTableRecord
  2
DEFAULT_2
 70
0
 62
8
  6
HIDDEN
370
-3
390
F
  0
LAYER
  5
1FC
100
AcDbSymbolTableRecord
100
AcDbLayerTableRecord
  2
DEFAULT_3
 70
0
 62
7
  6
PHANTOM
370
-3
390
F
  0
LAYER
  5
1FD
100
AcDbSymbolTableRecord
100
AcDbLayerTableRecord
  2
00_COMPONENTS
 70
0
 62
7
  6
CONTINUOUS
370
-3
390
F
  0
LAYER
  5
1FE
100
AcDbSymbolTableRecord
100
AcDbLayerTableRecord
  2
01_1_DEFAULT_DATUMS
 70
0
 62
7
  6
CONTINUOUS
370
-3
390
F
  0
LAYER
  5
1FF
100
AcDbSymbolTableRecord
100
AcDbLayerTableRecord
  2
01_PLANES
 70
0
 62
7
  6
CONTINUOUS
370
-3
390
F
  0
LAYER
  5
200
100
AcDbSymbolTableRecord
100
AcDbLayerTableRecord
  2
02_COORD_SYS
 70
0
 62
7
  6
CONTINUOUS
370
-3
390
F
  0
LAYER
  5
201
100
AcDbSymbolTableRecord
100
AcDbLayerTableRecord
  2
03_AXES
 70
0
 62
7
  6
CONTINUOUS
370
-3
390
F
  0
LAYER
  5
202
100
AcDbSymbolTableRecord
100
AcDbLayerTableRecord
  2
04_POINTS
 70
0
 62
7
  6
CONTINUOUS
370
-3
390
F
  0
LAYER
  5
203
100
AcDbSymbolTableRecord
100
AcDbLayerTableRecord
  2
05_CURVES
 70
0
 62
7
  6
CONTINUOUS
370
-3
390
F
  0
LAYER
  5
204
100
AcDbSymbolTableRecord
100
AcDbLayerTableRecord
  2
06_SURFS
 70
0
 62
7
  6
CONTINUOUS
370
-3
390
F
  0
LAYER
  5
205
100
AcDbSymbolTableRecord
100
AcDbLayerTableRecord
  2
07_COSMETICS
 70
0
 62
7
  6
CONTINUOUS
370
-3
390
F
  0
LAYER
  5
206
100
AcDbSymbolTableRecord
100
AcDbLayerTableRecord
  2
10_NOTES
 70
0
 62
7
  6
CONTINUOUS
370
-3
390
F
  0
LAYER
  5
207
100
AcDbSymbolTableRecord
100
AcDbLayerTableRecord
  2
11_NOTES_PUB
 70
0
 62
7
  6
CONTINUOUS
370
-3
390
F
  0
LAYER
  5
208
100
AcDbSymbolTableRecord
100
AcDbLayerTableRecord
  2
13_REF_GTOL
 70
0
 62
7
  6
CONTINUOUS
370
-3
390
F
  0
LAYER
  5
209
100
AcDbSymbolTableRecord
100
AcDbLayerTableRecord
  2
16_MISC
 70
0
 62
7
  6
CONTINUOUS
370
-3
390
F
  0
LAYER
  5
20A
100
AcDbSymbolTableRecord
100
AcDbLayerTableRecord
  2
17_NO_PRINT
 70
0
 62
7
  6
CONTINUOUS
370
-3
390
F
  0
LAYER
  5
20B
100
AcDbSymbolTableRecord
100
AcDbLayerTableRecord
  2
18_DATUM_CAMS_JOINTS
 70
0
 62
7
  6
CONTINUOUS
370
-3
390
F
  0
LAYER
  5
20C
100
AcDbSymbolTableRecord
100
AcDbLayerTableRecord
  2
19_DATUM_FUNCTIONAL
 70
0
 62
7
  6
CONTINUOUS
370
-3
390
F
  0
LAYER
  5
20D
100
AcDbSymbolTableRecord
100
AcDbLayerTableRecord
  2
20_DATUM_KINEMATIC_SCHEME
 70
0
 62
7
  6
CONTINUOUS
370
-3
390
F
  0
ENDTAB
  0
TABLE
  2
STYLE
  5
3
100
AcDbSymbolTable
 70
1
  0
STYLE
  5
11
100
AcDbSymbolTableRecord
100
AcDbTextStyleTableRecord
  2
STANDARD
 70
0
 40
0.0
 41
0.8
 50
0.0
 71
0
 42
0.2
  3
txt
  4

  0
STYLE
  5
20E
100
AcDbSymbolTableRecord
100
AcDbTextStyleTableRecord
  2
TEXTSTYLE_1
 70
0
 40
0.0
 41
0.8
 50
0.0
 71
0
 42
0.2
  3
gdt
  4

  0
ENDTAB
  0
TABLE
  2
VIEW
  5
6
100
AcDbSymbolTable
 70
0
  0
ENDTAB
  0
TABLE
  2
UCS
  5
7
100
AcDbSymbolTable
 70
0
  0
ENDTAB
  0
TABLE
  2
APPID
  5
9
100
AcDbSymbolTable
 70
1
  0
APPID
  5
20F
100
AcDbSymbolTableRecord
100
AcDbRegAppTableRecord
  2
ACAD
 70
0
  0
ENDTAB
  0
TABLE
  2
BLOCK_RECORD
  5
1
100
AcDbSymbolTable
 70
0
  0
BLOCK_RECORD
  5
210
100
AcDbSymbolTableRecord
100
AcDbBlockTableRecord
  2
*Model_Space
  0
BLOCK_RECORD
  5
211
100
AcDbSymbolTableRecord
100
AcDbBlockTableRecord
  2
*Paper_Space
  0
BLOCK_RECORD
  5
212
100
AcDbSymbolTableRecord
100
AcDbBlockTableRecord
  2
_FILLED
  0
ENDTAB
  0
TABLE
  2
DIMSTYLE
  5
A
100
AcDbSymbolTable
 70
1
100
AcDbDimStyleTable
 71
0
  0
DIMSTYLE
105
213
100
AcDbSymbolTableRecord
100
AcDbDimStyleTableRecord
  2
STANDARD
 70
0
  3

  4

 40
1.0
 41
0.9007335691
 42
1.0
 43
0.38
 44
1.0
 45
0.0
 46
0.0
 47
0.01
 48
0.01
140
1.2610269967
141
0.09
142
0.0
143
25.4
144
1.0
145
0.0
146
1.0
147
0.625
 71
1
 72
0
 73
0
 74
0
 75
0
 76
0
 77
1
 78
8
 79
2
170
0
171
1
172
0
173
0
174
0
175
0
176
0
177
0
178
0
270
2
179
2
271
2
272
2
273
2
274
2
275
0
280
0
281
0
282
0
283
1
284
8
285
0
286
0
287
3
288
0
340
11
278
46
341
212
342
212
343
212
344
212
  0
ENDTAB
  0
ENDSEC
  0
SECTION
  2
BLOCKS
  0
BLOCK
  5
20
100
AcDbEntity
  8
0
100
AcDbBlockBegin
  2
*Model_Space
 70
0
 10
0.0
 20
0.0
 30
0.0
  3
*Model_Space
  1

  0
ENDBLK
  5
21
100
AcDbEntity
  8
0
100
AcDbBlockEnd
  0
BLOCK
  5
1C
100
AcDbEntity
  8
0
100
AcDbBlockBegin
  2
*Paper_Space
 70
0
 10
0.0
 20
0.0
 30
0.0
  3
*Paper_Space
  1

  0
ENDBLK
  5
1D
100
AcDbEntity
  8
0
100
AcDbBlockEnd
  0
BLOCK
  5
214
100
AcDbEntity
  8
0
100
AcDbBlockBegin
  2
_FILLED
 70
64
 10
0.0
 20
0.0
  3
_FILLED
  1

  0
SOLID
  5
215
100
AcDbEntity
  8
0
  6
BYBLOCK
 62
0
100
AcDbTrace
 10
0.0
 20
0.0
 11
-1.0
 21
0.25
 12
-1.0
 22
-0.25
 13
-1.0
 23
-0.25
  0
ENDBLK
  5
216
100
AcDbEntity
  8
0
  6
BYBLOCK
 62
0
100
AcDbBlockEnd
  0
ENDSEC
  0
SECTION
  2
ENTITIES
  0
LINE
  5
217
100
AcDbEntity
  8
0
100
AcDbLine
 62
7
  6
CONTINUOUS
 10
27.838311857
 20
75.1574960958
 11
25.4609218405
 21
73.7659531514
  0
LINE
  5
218
100
AcDbEntity
  8
0
100
AcDbLine
 62
7
  6
CONTINUOUS
 10
32.172660916
 20
71.8161310438
 11
32.5710136278
 21
72.0937336441
  0
LINE
  5
219
100
AcDbEntity
  8
0
100
AcDbLine
 62
7
  6
CONTINUOUS
 10
25.0891123846
 20
35.4743822606
 11
34.0049797383
 21
35.5275169733
  0
LINE
  5
21A
100
AcDbEntity
  8
0
100
AcDbLine
 62
7
  6
CONTINUOUS
 10
43.9727513655
 20
35.5869205805
 11
52.8886187192
 21
35.6400552932
  0
LINE
  5
21B
100
AcDbEntity
  8
0
100
AcDbLine
 62
7
  6
CONTINUOUS
 10
52.3833735287
 20
36.5186948101
 11
45.4834960572
 21
36.477574525
  0
LINE
  5
21C
100
AcDbEntity
  8
0
100
AcDbLine
 62
7
  6
CONTINUOUS
 10
43.9835226938
 20
36.4686353326
 11
42.6554805161
 21
36.4607207757
  0
LINE
  5
21D
100
AcDbEntity
  8
0
100
AcDbLine
 62
7
  6
CONTINUOUS
 10
35.311742449
 20
36.4169552735
 11
33.9837002713
 21
36.4090407165
  0
LINE
  5
21E
100
AcDbEntity
  8
0
100
AcDbLine
 62
7
  6
CONTINUOUS
 10
32.4837269079
 20
36.4001015241
 11
25.5838494364
 21
36.3589812391
  0
LINE
  5
21F
100
AcDbEntity
  8
0
100
AcDbLine
 62
7
  6
CONTINUOUS
 10
25.0822820944
 20
36.6204872826
 11
35.8559282507
 21
36.6846935533
  0
LINE
  5
220
100
AcDbEntity
  8
0
100
AcDbLine
 62
7
  6
CONTINUOUS
 10
42.1081422727
 20
36.7219540444
 11
52.881788429
 21
36.7861603152
  0
LINE
  5
221
100
AcDbEntity
  8
0
100
AcDbLine
 62
7
  6
CONTINUOUS
 10
35.3802163387
 20
36.3611770697
 11
35.6326143632
 21
36.2194388834
  0
LINE
  5
222
100
AcDbEntity
  8
0
100
AcDbLine
 62
7
  6
CONTINUOUS
 10
24.0620293793
 20
40.0158607452
 11
23.9043868326
 21
66.4678723087
  0
LINE
  5
223
100
AcDbEntity
  8
0
100
AcDbLine
 62
7
  6
CONTINUOUS
 10
24.1778053895
 20
37.3689850054
 11
23.9871026182
 21
69.3684167574
  0
LINE
  5
224
100
AcDbEntity
  8
0
100
AcDbLine
 62
7
  6
CONTINUOUS
 10
25.0891123846
 20
35.4743822606
 11
25.0777894076
 21
37.3743485208
  0
LINE
  5
225
100
AcDbEntity
  8
0
100
AcDbLine
 62
7
  6
CONTINUOUS
 10
42.5706684466
 20
72.1814517309
 11
42.1718807731
 21
71.9768345643
  0
LINE
  5
226
100
AcDbEntity
  8
0
100
AcDbLine
 62
7
  6
CONTINUOUS
 10
53.7772797602
 20
37.5453850689
 11
44.0024533422
 21
37.4871313317
  0
LINE
  5
227
100
AcDbEntity
  8
0
100
AcDbLine
 62
7
  6
CONTINUOUS
 10
43.95245423
 20
37.4868333586
 11
34.177627812
 21
37.4285796215
  0
LINE
  5
228
100
AcDbEntity
  8
0
100
AcDbLine
 62
7
  6
CONTINUOUS
 10
33.9526318075
 20
37.4272387426
 11
24.1778053895
 21
37.3689850054
  0
LINE
  5
229
100
AcDbEntity
  8
0
100
AcDbLine
 62
7
  6
CONTINUOUS
 10
53.7683405678
 20
39.0453584323
 11
43.9935141498
 21
38.9871046951
  0
LINE
  5
22A
100
AcDbEntity
  8
0
100
AcDbLine
 62
7
  6
CONTINUOUS
 10
43.9435150376
 20
38.986806722
 11
34.1686886196
 21
38.9285529848
  0
LINE
  5
22B
100
AcDbEntity
  8
0
100
AcDbLine
 62
7
  6
CONTINUOUS
 10
33.9436926151
 20
38.927212106
 11
24.1688661971
 21
38.8689583688
  0
LINE
  5
22C
100
AcDbEntity
  8
0
100
AcDbLine
 62
7
  6
CONTINUOUS
 10
25.0067510837
 20
66.0744348196
 11
24.9877815996
 21
69.2574651854
  0
LINE
  5
22D
100
AcDbEntity
  8
0
100
AcDbLine
 62
7
  6
CONTINUOUS
 10
24.9870848604
 20
69.374376219
 11
24.9660917646
 21
72.8969633955
  0
LINE
  5
22E
100
AcDbEntity
  8
0
100
AcDbLine
 62
7
  6
CONTINUOUS
 10
25.3727816687
 20
71.7756067049
 11
25.3870777573
 21
69.3767600037
  0
LINE
  5
22F
100
AcDbEntity
  8
0
100
AcDbLine
 62
7
  6
CONTINUOUS
 10
25.5838494364
 20
36.3589812391
 11
25.5891035057
 21
35.4773619914
  0
LINE
  5
230
100
AcDbEntity
  8
0
100
AcDbLine
 62
7
  6
CONTINUOUS
 10
26.0519588233
 20
44.5575463602
 11
26.0515940024
 21
44.6187623655
  0
LINE
  5
231
100
AcDbEntity
  8
0
100
AcDbLine
 62
7
  6
CONTINUOUS
 10
26.5174250403
 20
43.3127930103
 11
26.5257682866
 21
41.9128178712
  0
LINE
  5
232
100
AcDbEntity
  8
0
100
AcDbLine
 62
7
  6
CONTINUOUS
 10
26.4870582238
 20
69.3833154114
 11
26.4805247736
 21
70.4796114481
  0
LINE
  5
233
100
AcDbEntity
  8
0
100
AcDbLine
 62
7
  6
CONTINUOUS
 10
26.7870528965
 20
69.3851032499
 11
26.7787247786
 21
70.7825398901
  0
LINE
  5
234
100
AcDbEntity
  8
0
100
AcDbLine
 62
7
  6
CONTINUOUS
 10
35.0911347125
 20
69.7845982008
 11
35.3827285567
 21
70.1363421893
  0
LINE
  5
235
100
AcDbEntity
  8
0
100
AcDbLine
 62
7
  6
CONTINUOUS
 10
24.1620276035
 20
40.0164566913
 11
24.0620293793
 21
40.0158607452
  0
LINE
  5
236
100
AcDbEntity
  8
0
100
AcDbLine
 62
7
  6
CONTINUOUS
 10
53.7615019741
 20
40.1928567548
 11
53.8615001984
 21
40.193452701
  0
LINE
  5
237
100
AcDbEntity
  8
0
100
AcDbLine
 62
7
  6
CONTINUOUS
 10
51.3503274505
 20
42.0607615055
 11
46.3504162392
 21
42.0309641975
  0
LINE
  5
238
100
AcDbEntity
  8
0
100
AcDbLine
 62
7
  6
CONTINUOUS
 10
41.5255019203
 20
42.0022097953
 11
36.5255907091
 21
41.9724124872
  0
LINE
  5
239
100
AcDbEntity
  8
0
100
AcDbLine
 62
7
  6
CONTINUOUS
 10
31.5256794978
 20
41.9426151792
 11
26.5257682866
 21
41.9128178712
  0
LINE
  5
23A
100
AcDbEntity
  8
0
100
AcDbLine
 62
7
  6
CONTINUOUS
 10
28.5230733376
 20
64.185033948
 11
28.5286702404
 21
63.2458881435
  0
LINE
  5
23B
100
AcDbEntity
  8
0
100
AcDbLine
 62
7
  6
CONTINUOUS
 10
28.5335043147
 20
62.4347429725
 11
28.5401360671
 21
61.321952074
  0
LINE
  5
23C
100
AcDbEntity
  8
0
100
AcDbLine
 62
7
  6
CONTINUOUS
 10
28.6339910335
 20
45.5733314944
 11
28.6406227859
 21
44.4605405958
  0
LINE
  5
23D
100
AcDbEntity
  8
0
100
AcDbLine
 62
7
  6
CONTINUOUS
 10
28.6454568602
 20
43.6493954249
 11
28.651053763
 21
42.7102496204
  0
LINE
  5
23E
100
AcDbEntity
  8
0
100
AcDbLine
 62
7
  6
CONTINUOUS
 10
29.3910406222
 20
42.714659622
 11
29.3854437195
 21
43.6538054264
  0
LINE
  5
23F
100
AcDbEntity
  8
0
100
AcDbLine
 62
7
  6
CONTINUOUS
 10
29.3806096451
 20
44.4649505974
 11
29.3739778927
 21
45.577741496
  0
LINE
  5
240
100
AcDbEntity
  8
0
100
AcDbLine
 62
7
  6
CONTINUOUS
 10
29.2801229264
 20
61.3263620756
 11
29.273491174
 21
62.4391529741
  0
LINE
  5
241
100
AcDbEntity
  8
0
100
AcDbLine
 62
7
  6
CONTINUOUS
 10
29.2686570997
 20
63.2502981451
 11
29.2630601969
 21
64.1894439495
  0
LINE
  5
242
100
AcDbEntity
  8
0
100
AcDbLine
 62
7
  6
CONTINUOUS
 10
26.34627968
 20
43.6356933234
 11
28.6454568602
 21
43.6493954249
  0
LINE
  5
243
100
AcDbEntity
  8
0
100
AcDbLine
 62
7
  6
CONTINUOUS
 10
29.3854437195
 20
43.6538054264
 11
31.6846208997
 21
43.6675075279
  0
LINE
  5
244
100
AcDbEntity
  8
0
100
AcDbLine
 62
7
  6
CONTINUOUS
 10
36.3461021025
 20
43.6952879395
 11
38.6452792827
 21
43.7089900409
  0
LINE
  5
245
100
AcDbEntity
  8
0
100
AcDbLine
 62
7
  6
CONTINUOUS
 10
39.385266142
 20
43.7134000425
 11
41.6844433222
 21
43.7271021439
  0
LINE
  5
246
100
AcDbEntity
  8
0
100
AcDbLine
 62
7
  6
CONTINUOUS
 10
46.1709276326
 20
43.7538396497
 11
48.4701048128
 21
43.7675417512
  0
LINE
  5
247
100
AcDbEntity
  8
0
100
AcDbLine
 62
7
  6
CONTINUOUS
 10
49.2100916721
 20
43.7719517528
 11
51.5092688523
 21
43.7856538542
  0
LINE
  5
248
100
AcDbEntity
  8
0
100
AcDbLine
 62
7
  6
CONTINUOUS
 10
51.7824411472
 20
44.5984558229
 11
49.2052575978
 21
44.5830969237
  0
LINE
  5
249
100
AcDbEntity
  8
0
100
AcDbLine
 62
7
  6
CONTINUOUS
 10
48.4652707385
 20
44.5786869221
 11
45.8880871891
 21
44.563328023
  0
LINE
  5
24A
100
AcDbEntity
  8
0
100
AcDbLine
 62
7
  6
CONTINUOUS
 10
41.957615617
 20
44.5399041126
 11
39.3804320676
 21
44.5245452135
  0
LINE
  5
24B
100
AcDbEntity
  8
0
100
AcDbLine
 62
7
  6
CONTINUOUS
 10
38.6404452084
 20
44.5201352119
 11
36.063261659
 21
44.5047763127
  0
LINE
  5
24C
100
AcDbEntity
  8
0
100
AcDbLine
 62
7
  6
CONTINUOUS
 10
31.9577931945
 20
44.4803094966
 11
29.3806096451
 21
44.4649505974
  0
LINE
  5
24D
100
AcDbEntity
  8
0
100
AcDbLine
 62
7
  6
CONTINUOUS
 10
28.6406227859
 20
44.4605405958
 11
26.0634392365
 21
44.4451816967
  0
LINE
  5
24E
100
AcDbEntity
  8
0
100
AcDbLine
 62
7
  6
CONTINUOUS
 10
51.7922166819
 20
44.7721653422
 11
49.2042227481
 21
44.7567420178
  0
LINE
  5
24F
100
AcDbEntity
  8
0
100
AcDbLine
 62
7
  6
CONTINUOUS
 10
48.4642358888
 20
44.7523320162
 11
45.8762419551
 21
44.7369086918
  0
LINE
  5
250
100
AcDbEntity
  8
0
100
AcDbLine
 62
7
  6
CONTINUOUS
 10
41.9673911518
 20
44.7136136319
 11
39.379397218
 21
44.6981903075
  0
LINE
  5
251
100
AcDbEntity
  8
0
100
AcDbLine
 62
7
  6
CONTINUOUS
 10
38.6394103587
 20
44.6937803059
 11
36.0514164249
 21
44.6783569816
  0
LINE
  5
252
100
AcDbEntity
  8
0
100
AcDbLine
 62
7
  6
CONTINUOUS
 10
31.9675687293
 20
44.6540190159
 11
29.3795747955
 21
44.6385956915
  0
LINE
  5
253
100
AcDbEntity
  8
0
100
AcDbLine
 62
7
  6
CONTINUOUS
 10
28.6395879362
 20
44.6341856899
 11
26.0515940024
 21
44.6187623655
  0
LINE
  5
254
100
AcDbEntity
  8
0
100
AcDbLine
 62
7
  6
CONTINUOUS
 10
43.9551199454
 20
45.4295528739
 11
43.9051208333
 21
45.4292549008
  0
LINE
  5
255
100
AcDbEntity
  8
0
100
AcDbLine
 62
7
  6
CONTINUOUS
 10
34.1302944153
 20
45.3710011636
 11
33.9052984108
 21
45.3696602848
  0
LINE
  5
256
100
AcDbEntity
  8
0
100
AcDbLine
 62
7
  6
CONTINUOUS
 10
30.6786555234
 20
70.8057817904
 11
30.6869836413
 21
69.4083451502
  0
LINE
  5
257
100
AcDbEntity
  8
0
100
AcDbLine
 62
7
  6
CONTINUOUS
 10
30.9869783139
 20
69.4101329887
 11
30.9804448638
 21
70.5064290253
  0
LINE
  5
258
100
AcDbEntity
  8
0
100
AcDbLine
 62
7
  6
CONTINUOUS
 10
31.5256794978
 20
41.9426151792
 11
31.5173362516
 21
43.3425903184
  0
LINE
  5
259
100
AcDbEntity
  8
0
100
AcDbLine
 62
7
  6
CONTINUOUS
 10
31.9675687293
 20
44.6540190159
 11
31.9679335502
 21
44.5928030105
  0
LINE
  5
25A
100
AcDbEntity
  8
0
100
AcDbLine
 62
7
  6
CONTINUOUS
 10
32.172660916
 20
71.8161310438
 11
32.1869570046
 21
69.4172843426
  0
LINE
  5
25B
100
AcDbEntity
  8
0
100
AcDbLine
 62
7
  6
CONTINUOUS
 10
32.4889809773
 20
35.5184822764
 11
32.4837269079
 21
36.4001015241
  0
LINE
  5
25C
100
AcDbEntity
  8
0
100
AcDbLine
 62
7
  6
CONTINUOUS
 10
32.5626757922
 20
73.492800877
 11
32.5869499015
 21
69.4196681272
  0
LINE
  5
25D
100
AcDbEntity
  8
0
100
AcDbLine
 62
7
  6
CONTINUOUS
 10
32.7626435331
 20
69.3037999993
 11
32.7816130172
 21
66.1207696336
  0
LINE
  5
25E
100
AcDbEntity
  8
0
100
AcDbLine
 62
7
  6
CONTINUOUS
 10
42.1867794271
 20
69.4768789586
 11
42.5839314401
 21
69.9559557152
  0
LINE
  5
25F
100
AcDbEntity
  8
0
100
AcDbLine
 62
7
  6
CONTINUOUS
 10
52.172305761
 20
71.9353202759
 11
52.5706584728
 21
72.2129228762
  0
LINE
  5
260
100
AcDbEntity
  8
0
100
AcDbLine
 62
7
  6
CONTINUOUS
 10
33.9001885454
 20
46.2270824744
 11
34.1251845499
 21
46.2284233533
  0
LINE
  5
261
100
AcDbEntity
  8
0
100
AcDbLine
 62
7
  6
CONTINUOUS
 10
43.9000109679
 20
46.2866770904
 11
43.95001008
 21
46.2869750635
  0
LINE
  5
262
100
AcDbEntity
  8
0
100
AcDbLine
 62
7
  6
CONTINUOUS
 10
53.8221854219
 20
46.7903704911
 11
53.7221871977
 21
46.7897745449
  0
LINE
  5
263
100
AcDbEntity
  8
0
100
AcDbLine
 62
7
  6
CONTINUOUS
 10
24.1227128271
 20
46.6133744814
 11
24.0227146028
 21
46.6127785352
  0
LINE
  5
264
100
AcDbEntity
  8
0
100
AcDbLine
 62
7
  6
CONTINUOUS
 10
42.0635919775
 20
36.7329255666
 11
42.3369855345
 21
36.2593940355
  0
LINE
  5
265
100
AcDbEntity
  8
0
100
AcDbLine
 62
7
  6
CONTINUOUS
 10
33.9526318075
 20
37.4272387426
 11
33.7619290362
 21
69.4266704946
  0
LINE
  5
266
100
AcDbEntity
  8
0
100
AcDbLine
 62
7
  6
CONTINUOUS
 10
33.9837002713
 20
36.4090407165
 11
33.9889543406
 21
35.5274214689
  0
LINE
  5
267
100
AcDbEntity
  8
0
100
AcDbLine
 62
7
  6
CONTINUOUS
 10
34.177627812
 20
37.4285796215
 11
33.9869250407
 21
69.4280113735
  0
LINE
  5
268
100
AcDbEntity
  8
0
100
AcDbLine
 62
7
  6
CONTINUOUS
 10
35.0065735062
 20
66.1340294357
 11
34.9876040221
 21
69.3170598014
  0
LINE
  5
269
100
AcDbEntity
  8
0
100
AcDbLine
 62
7
  6
CONTINUOUS
 10
34.9869072829
 20
69.4339708351
 11
34.962481785
 21
73.5325062045
  0
LINE
  5
26A
100
AcDbEntity
  8
0
100
AcDbLine
 62
7
  6
CONTINUOUS
 10
35.3720015258
 20
71.9363102254
 11
35.3827285567
 21
70.1363421893
  0
LINE
  5
26B
100
AcDbEntity
  8
0
100
AcDbLine
 62
7
  6
CONTINUOUS
 10
35.8566426476
 20
74.5149801482
 11
35.871992647
 21
71.9392899562
  0
LINE
  5
26C
100
AcDbEntity
  8
0
100
AcDbLine
 62
7
  6
CONTINUOUS
 10
36.0517812459
 20
44.6171409763
 11
36.0514164249
 21
44.6783569816
  0
LINE
  5
26D
100
AcDbEntity
  8
0
100
AcDbLine
 62
7
  6
CONTINUOUS
 10
36.1594724503
 20
74.0410405034
 11
36.1541089348
 21
74.9410245214
  0
LINE
  5
26E
100
AcDbEntity
  8
0
100
AcDbLine
 62
7
  6
CONTINUOUS
 10
50.7817095549
 20
70.3532163243
 11
51.078781622
 21
70.6538504619
  0
LINE
  5
26F
100
AcDbEntity
  8
0
100
AcDbLine
 62
7
  6
CONTINUOUS
 10
24.0080814645
 20
49.0681812936
 11
24.1080796888
 21
49.0687772397
  0
LINE
  5
270
100
AcDbEntity
  8
0
100
AcDbLine
 62
7
  6
CONTINUOUS
 10
53.7075540594
 20
49.2451773032
 11
53.8075522836
 21
49.2457732494
  0
LINE
  5
271
100
AcDbEntity
  8
0
100
AcDbLine
 62
7
  6
CONTINUOUS
 10
43.9227753623
 20
50.8568902585
 11
43.8727744744
 21
50.8568902585
  0
LINE
  5
272
100
AcDbEntity
  8
0
100
AcDbLine
 62
7
  6
CONTINUOUS
 10
33.8629055462
 20
52.4830732995
 11
34.0883912349
 21
52.4022464471
  0
LINE
  5
273
100
AcDbEntity
  8
0
100
AcDbLine
 62
7
  6
CONTINUOUS
 10
36.5172474628
 20
43.3723876264
 11
36.5255907091
 21
41.9724124872
  0
LINE
  5
274
100
AcDbEntity
  8
0
100
AcDbLine
 62
7
  6
CONTINUOUS
 10
38.5228957602
 20
64.244628564
 11
38.5284926629
 21
63.3054827595
  0
LINE
  5
275
100
AcDbEntity
  8
0
100
AcDbLine
 62
7
  6
CONTINUOUS
 10
38.5333267373
 20
62.4943375886
 11
38.5399584897
 21
61.38154669
  0
LINE
  5
276
100
AcDbEntity
  8
0
100
AcDbLine
 62
7
  6
CONTINUOUS
 10
38.633813456
 20
45.6329261104
 11
38.6404452084
 21
44.5201352119
  0
LINE
  5
277
100
AcDbEntity
  8
0
100
AcDbLine
 62
7
  6
CONTINUOUS
 10
38.6452792827
 20
43.7089900409
 11
38.6508761855
 21
42.7698442364
  0
LINE
  5
278
100
AcDbEntity
  8
0
100
AcDbLine
 62
7
  6
CONTINUOUS
 10
39.3908630447
 20
42.774254238
 11
39.385266142
 21
43.7134000425
  0
LINE
  5
279
100
AcDbEntity
  8
0
100
AcDbLine
 62
7
  6
CONTINUOUS
 10
39.3804320676
 20
44.5245452135
 11
39.3738003152
 21
45.637336112
  0
LINE
  5
27A
100
AcDbEntity
  8
0
100
AcDbLine
 62
7
  6
CONTINUOUS
 10
39.2799453489
 20
61.3859566916
 11
39.2733135965
 21
62.4987475901
  0
LINE
  5
27B
100
AcDbEntity
  8
0
100
AcDbLine
 62
7
  6
CONTINUOUS
 10
39.2684795222
 20
63.3098927611
 11
39.2628826194
 21
64.2490385656
  0
LINE
  5
27C
100
AcDbEntity
  8
0
100
AcDbLine
 62
7
  6
CONTINUOUS
 10
41.5255019203
 20
42.0022097953
 11
41.5171586741
 21
43.4021849344
  0
LINE
  5
27D
100
AcDbEntity
  8
0
100
AcDbLine
 62
7
  6
CONTINUOUS
 10
41.3540165945
 20
74.9720137217
 11
41.35938011
 21
74.0720297037
  0
LINE
  5
27E
100
AcDbEntity
  8
0
100
AcDbLine
 62
7
  6
CONTINUOUS
 10
41.671889652
 20
71.9738548335
 11
41.6565396526
 21
74.5495450255
  0
LINE
  5
27F
100
AcDbEntity
  8
0
100
AcDbLine
 62
7
  6
CONTINUOUS
 10
41.9673911518
 20
44.7136136319
 11
41.9677559727
 21
44.6523976266
  0
LINE
  5
280
100
AcDbEntity
  8
0
100
AcDbLine
 62
7
  6
CONTINUOUS
 10
42.182607804
 20
70.1768665282
 11
42.1718807731
 21
71.9768345643
  0
LINE
  5
281
100
AcDbEntity
  8
0
100
AcDbLine
 62
7
  6
CONTINUOUS
 10
42.586772324
 20
69.4792627433
 11
42.5623468261
 21
73.5777981127
  0
LINE
  5
282
100
AcDbEntity
  8
0
100
AcDbLine
 62
7
  6
CONTINUOUS
 10
42.7624659556
 20
69.3633946154
 11
42.7814354397
 21
66.1803642496
  0
LINE
  5
283
100
AcDbEntity
  8
0
100
AcDbLine
 62
7
  6
CONTINUOUS
 10
43.95245423
 20
37.4868333586
 11
43.7617514587
 21
69.4862651107
  0
LINE
  5
284
100
AcDbEntity
  8
0
100
AcDbLine
 62
7
  6
CONTINUOUS
 10
43.9887767632
 20
35.5870160849
 11
43.9835226938
 21
36.4686353326
  0
LINE
  5
285
100
AcDbEntity
  8
0
100
AcDbLine
 62
7
  6
CONTINUOUS
 10
44.0024533422
 20
37.4871313317
 11
43.8117505708
 21
69.4865630838
  0
LINE
  5
286
100
AcDbEntity
  8
0
100
AcDbLine
 62
7
  6
CONTINUOUS
 10
44.8313990364
 20
66.1925811459
 11
44.8124295522
 21
69.3756115117
  0
LINE
  5
287
100
AcDbEntity
  8
0
100
AcDbLine
 62
7
  6
CONTINUOUS
 10
35.6326143632
 20
36.2194388834
 11
35.9003446151
 21
36.6961952783
  0
LINE
  5
288
100
AcDbEntity
  8
0
100
AcDbLine
 62
7
  6
CONTINUOUS
 10
33.8344556621
 20
57.2568902585
 11
34.0594596577
 21
57.2568902585
  0
LINE
  5
289
100
AcDbEntity
  8
0
100
AcDbLine
 62
7
  6
CONTINUOUS
 10
43.8943254782
 20
55.6307072176
 11
43.8442175474
 21
55.6486687403
  0
LINE
  5
28A
100
AcDbEntity
  8
0
100
AcDbLine
 62
7
  6
CONTINUOUS
 10
44.9867297054
 20
69.4935654511
 11
44.9624555962
 21
73.5666982009
  0
LINE
  5
28B
100
AcDbEntity
  8
0
100
AcDbLine
 62
7
  6
CONTINUOUS
 10
45.4834960572
 20
36.477574525
 11
45.4887501265
 21
35.5959552773
  0
LINE
  5
28C
100
AcDbEntity
  8
0
100
AcDbLine
 62
7
  6
CONTINUOUS
 10
45.3867226024
 20
69.4959492358
 11
45.3724265137
 21
71.894795937
  0
LINE
  5
28D
100
AcDbEntity
  8
0
100
AcDbLine
 62
7
  6
CONTINUOUS
 10
45.876606776
 20
44.6756926865
 11
45.8762419551
 21
44.7369086918
  0
LINE
  5
28E
100
AcDbEntity
  8
0
100
AcDbLine
 62
7
  6
CONTINUOUS
 10
46.3420729929
 20
43.4309393367
 11
46.3504162392
 21
42.0309641975
  0
LINE
  5
28F
100
AcDbEntity
  8
0
100
AcDbLine
 62
7
  6
CONTINUOUS
 10
46.5867012931
 20
69.5031005897
 11
46.5783731752
 21
70.9005372299
  0
LINE
  5
290
100
AcDbEntity
  8
0
100
AcDbLine
 62
7
  6
CONTINUOUS
 10
46.8866959657
 20
69.5048884282
 11
46.8817788101
 21
70.329974424
  0
LINE
  5
291
100
AcDbEntity
  8
0
100
AcDbLine
 62
7
  6
CONTINUOUS
 10
25.9465452306
 20
62.2456745541
 11
28.5345391644
 21
62.2610978784
  0
LINE
  5
292
100
AcDbEntity
  8
0
100
AcDbLine
 62
7
  6
CONTINUOUS
 10
29.2745260237
 20
62.26550788
 11
31.8625199574
 21
62.2809312044
  0
LINE
  5
293
100
AcDbEntity
  8
0
100
AcDbLine
 62
7
  6
CONTINUOUS
 10
35.9463676531
 20
62.3052691701
 11
38.5343615869
 21
62.3206924945
  0
LINE
  5
294
100
AcDbEntity
  8
0
100
AcDbLine
 62
7
  6
CONTINUOUS
 10
39.2743484462
 20
62.3251024961
 11
41.86234238
 21
62.3405258204
  0
LINE
  5
295
100
AcDbEntity
  8
0
100
AcDbLine
 62
7
  6
CONTINUOUS
 10
45.7711931832
 20
62.3638208804
 11
48.359187117
 21
62.3792442048
  0
LINE
  5
296
100
AcDbEntity
  8
0
100
AcDbLine
 62
7
  6
CONTINUOUS
 10
49.0991739763
 20
62.3836542063
 11
51.6871679101
 21
62.3990775307
  0
LINE
  5
297
100
AcDbEntity
  8
0
100
AcDbLine
 62
7
  6
CONTINUOUS
 10
26.0345215512
 20
62.4198501162
 11
28.5335043147
 21
62.4347429725
  0
LINE
  5
298
100
AcDbEntity
  8
0
100
AcDbLine
 62
7
  6
CONTINUOUS
 10
29.273491174
 20
62.4391529741
 11
31.8614851078
 21
62.4545762985
  0
LINE
  5
299
100
AcDbEntity
  8
0
100
AcDbLine
 62
7
  6
CONTINUOUS
 10
36.0343439737
 20
62.4794447323
 11
38.5333267373
 21
62.4943375886
  0
LINE
  5
29A
100
AcDbEntity
  8
0
100
AcDbLine
 62
7
  6
CONTINUOUS
 10
39.2733135965
 20
62.4987475901
 11
41.8613075303
 21
62.5141709145
  0
LINE
  5
29B
100
AcDbEntity
  8
0
100
AcDbLine
 62
7
  6
CONTINUOUS
 10
45.8591695038
 20
62.5379964425
 11
48.3581522674
 21
62.5528892988
  0
LINE
  5
29C
100
AcDbEntity
  8
0
100
AcDbLine
 62
7
  6
CONTINUOUS
 10
49.0981391266
 20
62.5572993004
 11
51.6861330604
 21
62.5727226248
  0
LINE
  5
29D
100
AcDbEntity
  8
0
100
AcDbLine
 62
7
  6
CONTINUOUS
 10
25.3727816687
 20
71.7756067049
 11
24.9711485867
 21
72.0484417359
  0
LINE
  5
29E
100
AcDbEntity
  8
0
100
AcDbLine
 62
7
  6
CONTINUOUS
 10
35.3869001798
 20
69.4363546197
 11
34.984066399
 21
69.910663807
  0
LINE
  5
29F
100
AcDbEntity
  8
0
100
AcDbLine
 62
7
  6
CONTINUOUS
 10
48.3477212903
 20
64.3031802743
 11
48.353318193
 21
63.3640344698
  0
LINE
  5
2A0
100
AcDbEntity
  8
0
100
AcDbLine
 62
7
  6
CONTINUOUS
 10
48.3581522674
 20
62.5528892988
 11
48.3647840198
 21
61.4400984003
  0
LINE
  5
2A1
100
AcDbEntity
  8
0
100
AcDbLine
 62
7
  6
CONTINUOUS
 10
48.4586389861
 20
45.6914778207
 11
48.4652707385
 21
44.5786869221
  0
LINE
  5
2A2
100
AcDbEntity
  8
0
100
AcDbLine
 62
7
  6
CONTINUOUS
 10
48.4701048128
 20
43.7675417512
 11
48.4757017156
 21
42.8283959467
  0
LINE
  5
2A3
100
AcDbEntity
  8
0
100
AcDbLine
 62
7
  6
CONTINUOUS
 10
49.2156885749
 20
42.8328059483
 11
49.2100916721
 21
43.7719517528
  0
LINE
  5
2A4
100
AcDbEntity
  8
0
100
AcDbLine
 62
7
  6
CONTINUOUS
 10
49.2052575978
 20
44.5830969237
 11
49.1986258454
 21
45.6958878223
  0
LINE
  5
2A5
100
AcDbEntity
  8
0
100
AcDbLine
 62
7
  6
CONTINUOUS
 10
49.104770879
 20
61.4445084019
 11
49.0981391266
 21
62.5572993004
  0
LINE
  5
2A6
100
AcDbEntity
  8
0
100
AcDbLine
 62
7
  6
CONTINUOUS
 10
49.0933050523
 20
63.3684444714
 11
49.0877081495
 21
64.3075902759
  0
LINE
  5
2A7
100
AcDbEntity
  8
0
100
AcDbLine
 62
7
  6
CONTINUOUS
 10
51.2976405895
 20
63.3815813577
 11
49.0933050523
 21
63.3684444714
  0
LINE
  5
2A8
100
AcDbEntity
  8
0
100
AcDbLine
 62
7
  6
CONTINUOUS
 10
48.353318193
 20
63.3640344698
 11
46.1461206078
 21
63.350880527
  0
LINE
  5
2A9
100
AcDbEntity
  8
0
100
AcDbLine
 62
7
  6
CONTINUOUS
 10
41.4728150594
 20
63.3230296474
 11
39.2684795222
 21
63.3098927611
  0
LINE
  5
2AA
100
AcDbEntity
  8
0
100
AcDbLine
 62
7
  6
CONTINUOUS
 10
38.5284926629
 20
63.3054827595
 11
36.3212950776
 21
63.2923288167
  0
LINE
  5
2AB
100
AcDbEntity
  8
0
100
AcDbLine
 62
7
  6
CONTINUOUS
 10
31.4729926368
 20
63.2634350314
 11
29.2686570997
 21
63.2502981451
  0
LINE
  5
2AC
100
AcDbEntity
  8
0
100
AcDbLine
 62
7
  6
CONTINUOUS
 10
28.5286702404
 20
63.2458881435
 11
26.3214726551
 21
63.2327342006
  0
LINE
  5
2AD
100
AcDbEntity
  8
0
100
AcDbLine
 62
7
  6
CONTINUOUS
 10
50.7817095549
 20
70.3532163243
 11
50.7866267105
 21
69.5281303284
  0
LINE
  5
2AE
100
AcDbEntity
  8
0
100
AcDbLine
 62
7
  6
CONTINUOUS
 10
51.0866213832
 20
69.5299181669
 11
51.0782932653
 21
70.9273548071
  0
LINE
  5
2AF
100
AcDbEntity
  8
0
100
AcDbLine
 62
7
  6
CONTINUOUS
 10
51.3503274505
 20
42.0607615055
 11
51.3419842042
 21
43.4607366447
  0
LINE
  5
2B0
100
AcDbEntity
  8
0
100
AcDbLine
 62
7
  6
CONTINUOUS
 10
51.7922166819
 20
44.7721653422
 11
51.7925815028
 21
44.7109493369
  0
LINE
  5
2B1
100
AcDbEntity
  8
0
100
AcDbLine
 62
7
  6
CONTINUOUS
 10
52.3886275981
 20
35.6370755624
 11
52.3833735287
 21
36.5186948101
  0
LINE
  5
2B2
100
AcDbEntity
  8
0
100
AcDbLine
 62
7
  6
CONTINUOUS
 10
52.1866018497
 20
69.5364735747
 11
52.172305761
 21
71.9353202759
  0
LINE
  5
2B3
100
AcDbEntity
  8
0
100
AcDbLine
 62
7
  6
CONTINUOUS
 10
52.5872914857
 20
69.4219463257
 11
52.6062609699
 21
66.2389159599
  0
LINE
  5
2B4
100
AcDbEntity
  8
0
100
AcDbLine
 62
7
  6
CONTINUOUS
 10
52.5865947466
 20
69.5388573593
 11
52.5656016507
 21
73.0614445358
  0
LINE
  5
2B5
100
AcDbEntity
  8
0
100
AcDbLine
 62
7
  6
CONTINUOUS
 10
52.8772957421
 20
37.5400215535
 11
52.8886187192
 21
35.6400552932
  0
LINE
  5
2B6
100
AcDbEntity
  8
0
100
AcDbLine
 62
7
  6
CONTINUOUS
 10
23.9067706172
 20
66.0678794118
 11
25.0067510837
 21
66.0744348196
  0
LINE
  5
2B7
100
AcDbEntity
  8
0
100
AcDbLine
 62
7
  6
CONTINUOUS
 10
32.7816130172
 20
66.1207696336
 11
35.0065735062
 21
66.1340294357
  0
LINE
  5
2B8
100
AcDbEntity
  8
0
100
AcDbLine
 62
7
  6
CONTINUOUS
 10
42.7814354397
 20
66.1803642496
 11
44.8313990364
 21
66.1925811459
  0
LINE
  5
2B9
100
AcDbEntity
  8
0
100
AcDbLine
 62
7
  6
CONTINUOUS
 10
52.6062609699
 20
66.2389159599
 11
53.7062414363
 21
66.2454713677
  0
LINE
  5
2BA
100
AcDbEntity
  8
0
100
AcDbLine
 62
7
  6
CONTINUOUS
 10
23.9043868326
 20
66.4678723087
 11
24.0043850568
 21
66.4684682549
  0
LINE
  5
2BB
100
AcDbEntity
  8
0
100
AcDbLine
 62
7
  6
CONTINUOUS
 10
33.7792114748
 20
66.5267219921
 11
34.0042074793
 21
66.528062871
  0
LINE
  5
2BC
100
AcDbEntity
  8
0
100
AcDbLine
 62
7
  6
CONTINUOUS
 10
43.7790338973
 20
66.5863166081
 11
43.8290330095
 21
66.5866145812
  0
LINE
  5
2BD
100
AcDbEntity
  8
0
100
AcDbLine
 62
7
  6
CONTINUOUS
 10
53.6038594275
 20
66.6448683184
 11
53.7038576517
 21
66.6454642646
  0
LINE
  5
2BE
100
AcDbEntity
  8
0
100
AcDbLine
 62
7
  6
CONTINUOUS
 10
53.6027683282
 20
66.8279519574
 11
52.6027860859
 21
66.8219924958
  0
LINE
  5
2BF
100
AcDbEntity
  8
0
100
AcDbLine
 62
7
  6
CONTINUOUS
 10
43.7779427981
 20
66.7694002471
 11
42.7779605558
 21
66.7634407855
  0
LINE
  5
2C0
100
AcDbEntity
  8
0
100
AcDbLine
 62
7
  6
CONTINUOUS
 10
33.7781203755
 20
66.7098056311
 11
32.7781381333
 21
66.7038461695
  0
LINE
  5
2C1
100
AcDbEntity
  8
0
100
AcDbLine
 62
7
  6
CONTINUOUS
 10
24.0032939575
 20
66.6515518939
 11
25.0032761998
 21
66.6575113555
  0
LINE
  5
2C2
100
AcDbEntity
  8
0
100
AcDbLine
 62
7
  6
CONTINUOUS
 10
34.0031163801
 20
66.71114651
 11
35.0030986223
 21
66.7171059716
  0
LINE
  5
2C3
100
AcDbEntity
  8
0
100
AcDbLine
 62
7
  6
CONTINUOUS
 10
43.8279419102
 20
66.7696982202
 11
44.8279241524
 21
66.7756576818
  0
LINE
  5
2C4
100
AcDbEntity
  8
0
100
AcDbLine
 62
7
  6
CONTINUOUS
 10
52.595533939
 20
68.038883996
 11
44.8206720055
 21
67.992549182
  0
LINE
  5
2C5
100
AcDbEntity
  8
0
100
AcDbLine
 62
7
  6
CONTINUOUS
 10
42.7707084088
 20
67.9803322857
 11
34.9958464753
 21
67.9339974717
  0
LINE
  5
2C6
100
AcDbEntity
  8
0
100
AcDbLine
 62
7
  6
CONTINUOUS
 10
32.7708859863
 20
67.9207376696
 11
24.9960240528
 21
67.8744028557
  0
LINE
  5
2C7
100
AcDbEntity
  8
0
100
AcDbLine
 62
7
  6
CONTINUOUS
 10
42.4783732713
 20
69.8286229471
 11
42.182607804
 21
70.1768665282
  0
LINE
  5
2C8
100
AcDbEntity
  8
0
100
AcDbLine
 62
7
  6
CONTINUOUS
 10
53.7772797602
 20
37.5453850689
 11
53.5865769888
 21
69.5448168209
  0
LINE
  5
2C9
100
AcDbEntity
  8
0
100
AcDbLine
 62
7
  6
CONTINUOUS
 10
53.8615001984
 20
40.193452701
 11
53.7038576517
 21
66.6454642646
  0
LINE
  5
2CA
100
AcDbEntity
  8
0
100
AcDbLine
 62
7
  6
CONTINUOUS
 10
42.3369855345
 20
36.2593940355
 11
42.5876719328
 21
36.4041278951
  0
LINE
  5
2CB
100
AcDbEntity
  8
0
100
AcDbLine
 62
7
  6
CONTINUOUS
 10
53.587273728
 20
69.4279057873
 11
52.5872914857
 21
69.4219463257
  0
LINE
  5
2CC
100
AcDbEntity
  8
0
100
AcDbLine
 62
7
  6
CONTINUOUS
 10
43.7624481979
 20
69.369354077
 11
42.7624659556
 21
69.3633946154
  0
LINE
  5
2CD
100
AcDbEntity
  8
0
100
AcDbLine
 62
7
  6
CONTINUOUS
 10
33.7626257754
 20
69.3097594609
 11
32.7626435331
 21
69.3037999993
  0
LINE
  5
2CE
100
AcDbEntity
  8
0
100
AcDbLine
 62
7
  6
CONTINUOUS
 10
23.9877993574
 20
69.2515057238
 11
24.9877815996
 21
69.2574651854
  0
LINE
  5
2CF
100
AcDbEntity
  8
0
100
AcDbLine
 62
7
  6
CONTINUOUS
 10
33.9876217799
 20
69.3111003398
 11
34.9876040221
 21
69.3170598014
  0
LINE
  5
2D0
100
AcDbEntity
  8
0
100
AcDbLine
 62
7
  6
CONTINUOUS
 10
43.81244731
 20
69.3696520501
 11
44.8124295522
 21
69.3756115117
  0
LINE
  5
2D1
100
AcDbEntity
  8
0
100
AcDbLine
 62
7
  6
CONTINUOUS
 10
53.5865769888
 20
69.5448168209
 11
43.8117505708
 21
69.4865630838
  0
LINE
  5
2D2
100
AcDbEntity
  8
0
100
AcDbLine
 62
7
  6
CONTINUOUS
 10
43.7617514587
 20
69.4862651107
 11
33.9869250407
 21
69.4280113735
  0
LINE
  5
2D3
100
AcDbEntity
  8
0
100
AcDbLine
 62
7
  6
CONTINUOUS
 10
33.7619290362
 20
69.4266704946
 11
23.9871026182
 21
69.3684167574
  0
LINE
  5
2D4
100
AcDbEntity
  8
0
100
AcDbLine
 62
7
  6
CONTINUOUS
 10
44.9861337593
 20
69.5935636754
 11
42.5861763779
 21
69.5792609675
  0
LINE
  5
2D5
100
AcDbEntity
  8
0
100
AcDbLine
 62
7
  6
CONTINUOUS
 10
34.9863113368
 20
69.5339690593
 11
32.5863539554
 21
69.5196663515
  0
LINE
  5
2D6
100
AcDbEntity
  8
0
100
AcDbLine
 62
7
  6
CONTINUOUS
 10
35.3827285567
 20
70.1363421893
 11
42.182607804
 21
70.1768665282
  0
LINE
  5
2D7
100
AcDbEntity
  8
0
100
AcDbLine
 62
7
  6
CONTINUOUS
 10
26.4821410682
 20
70.2084014073
 11
30.9820611583
 21
70.2352189845
  0
LINE
  5
2D8
100
AcDbEntity
  8
0
100
AcDbLine
 62
7
  6
CONTINUOUS
 10
46.8817788101
 20
70.329974424
 11
50.7817095549
 21
70.3532163243
  0
LINE
  5
2D9
100
AcDbEntity
  8
0
100
AcDbLine
 62
7
  6
CONTINUOUS
 10
51.078781622
 20
70.6538504619
 11
46.5811446725
 21
70.6270464912
  0
LINE
  5
2DA
100
AcDbEntity
  8
0
100
AcDbLine
 62
7
  6
CONTINUOUS
 10
30.6802854504
 20
70.5322842484
 11
26.7803547056
 21
70.5090423482
  0
LINE
  5
2DB
100
AcDbEntity
  8
0
100
AcDbLine
 62
7
  6
CONTINUOUS
 10
51.0782932653
 20
70.9273548071
 11
46.5783731752
 21
70.9005372299
  0
LINE
  5
2DC
100
AcDbEntity
  8
0
100
AcDbLine
 62
7
  6
CONTINUOUS
 10
26.7787247786
 20
70.7825398901
 11
30.6786555234
 21
70.8057817904
  0
LINE
  5
2DD
100
AcDbEntity
  8
0
100
AcDbLine
 62
7
  6
CONTINUOUS
 10
34.9708034055
 20
72.1361598227
 11
35.3720015258
 21
71.9363102254
  0
LINE
  5
2DE
100
AcDbEntity
  8
0
100
AcDbLine
 62
7
  6
CONTINUOUS
 10
46.8817788101
 20
70.329974424
 11
46.5811446725
 21
70.6270464912
  0
LINE
  5
2DF
100
AcDbEntity
  8
0
100
AcDbLine
 62
7
  6
CONTINUOUS
 10
38.1039455506
 20
71.8593262156
 11
38.7716431764
 21
72.0065715069
  0
LINE
  5
2E0
100
AcDbEntity
  8
0
100
AcDbLine
 62
7
  6
CONTINUOUS
 10
38.7625010509
 20
73.5405965224
 11
35.8662559281
 21
72.9018965475
  0
LINE
  5
2E1
100
AcDbEntity
  8
0
100
AcDbLine
 62
7
  6
CONTINUOUS
 10
25.3727816686
 20
71.7756067049
 11
32.172660916
 21
71.8161310438
  0
LINE
  5
2E2
100
AcDbEntity
  8
0
100
AcDbLine
 62
7
  6
CONTINUOUS
 10
45.3724265137
 20
71.894795937
 11
52.172305761
 21
71.9353202759
  0
LINE
  5
2E3
100
AcDbEntity
  8
0
100
AcDbLine
 62
7
  6
CONTINUOUS
 10
32.5726471937
 20
71.8196255086
 11
34.9726045751
 21
71.8339282165
  0
LINE
  5
2E4
100
AcDbEntity
  8
0
100
AcDbLine
 62
7
  6
CONTINUOUS
 10
42.5724696162
 20
71.8792201247
 11
44.9724269976
 21
71.8935228325
  0
LINE
  5
2E5
100
AcDbEntity
  8
0
100
AcDbLine
 62
7
  6
CONTINUOUS
 10
35.3720015258
 20
71.9363102254
 11
37.8505612174
 21
71.951081369
  0
LINE
  5
2E6
100
AcDbEntity
  8
0
100
AcDbLine
 62
7
  6
CONTINUOUS
 10
39.6933210816
 20
71.9620634207
 11
42.1718807731
 21
71.9768345643
  0
LINE
  5
2E7
100
AcDbEntity
  8
0
100
AcDbLine
 62
7
  6
CONTINUOUS
 10
25.0075585493
 20
73.1879634116
 11
32.5642241058
 21
73.2329978695
  0
LINE
  5
2E8
100
AcDbEntity
  8
0
100
AcDbLine
 62
7
  6
CONTINUOUS
 10
44.9640039097
 20
73.3068951934
 11
52.5206694662
 21
73.3519296514
  0
LINE
  5
2E9
100
AcDbEntity
  8
0
100
AcDbLine
 62
7
  6
CONTINUOUS
 10
34.9641276366
 20
73.2563365741
 11
35.8641116546
 21
73.2617000896
  0
LINE
  5
2EA
100
AcDbEntity
  8
0
100
AcDbLine
 62
7
  6
CONTINUOUS
 10
41.6640086596
 20
73.2962649669
 11
42.5639926777
 21
73.3016284823
  0
LINE
  5
2EB
100
AcDbEntity
  8
0
100
AcDbLine
 62
7
  6
CONTINUOUS
 10
52.3971222332
 20
73.6110055981
 11
44.9624555962
 21
73.5666982009
  0
LINE
  5
2EC
100
AcDbEntity
  8
0
100
AcDbLine
 62
7
  6
CONTINUOUS
 10
32.5626757922
 20
73.492800877
 11
25.1280091552
 21
73.4484934799
  0
LINE
  5
2ED
100
AcDbEntity
  8
0
100
AcDbLine
 62
7
  6
CONTINUOUS
 10
42.5623468261
 20
73.5777981127
 11
41.6623628081
 21
73.5724345972
  0
LINE
  5
2EE
100
AcDbEntity
  8
0
100
AcDbLine
 62
7
  6
CONTINUOUS
 10
35.8624658031
 20
73.5378697199
 11
34.962481785
 21
73.5325062045
  0
LINE
  5
2EF
100
AcDbEntity
  8
0
100
AcDbLine
 62
7
  6
CONTINUOUS
 10
38.7716431764
 20
72.0065715069
 11
39.4410505543
 21
71.8672943112
  0
LINE
  5
2F0
100
AcDbEntity
  8
0
100
AcDbLine
 62
7
  6
CONTINUOUS
 10
41.6661529331
 20
72.9364614248
 11
38.7625010509
 21
73.5405965224
  0
LINE
  5
2F1
100
AcDbEntity
  8
0
100
AcDbLine
 62
7
  6
CONTINUOUS
 10
45.3724265137
 20
71.894795937
 11
44.9707934317
 21
72.167630968
  0
LINE
  5
2F2
100
AcDbEntity
  8
0
100
AcDbLine
 62
7
  6
CONTINUOUS
 10
36.1594724503
 20
74.0410405034
 11
37.5840323324
 21
74.0495302641
  0
LINE
  5
2F3
100
AcDbEntity
  8
0
100
AcDbLine
 62
7
  6
CONTINUOUS
 10
39.9348202278
 20
74.063539943
 11
41.35938011
 21
74.0720297037
  0
LINE
  5
2F4
100
AcDbEntity
  8
0
100
AcDbLine
 62
7
  6
CONTINUOUS
 10
40.4607417626
 20
74.9666787047
 11
41.3540165945
 21
74.9720137217
  0
LINE
  5
2F5
100
AcDbEntity
  8
0
100
AcDbLine
 62
7
  6
CONTINUOUS
 10
36.1541089348
 20
74.9410245214
 11
37.0475359632
 21
74.9463381254
  0
LINE
  5
2F6
100
AcDbEntity
  8
0
100
AcDbLine
 62
7
  6
CONTINUOUS
 10
49.1658533984
 20
75.4185759932
 11
43.2651894172
 21
75.3834105883
  0
LINE
  5
2F7
100
AcDbEntity
  8
0
100
AcDbLine
 62
7
  6
CONTINUOUS
 10
34.2381685428
 20
75.3296134487
 11
28.3375045617
 21
75.2944480438
  0
LINE
  5
2F8
100
AcDbEntity
  8
0
100
AcDbLine
 62
7
  6
CONTINUOUS
 10
52.0604494845
 20
73.9244748301
 11
49.666642936
 21
75.2875835069
  0
ARC
  5
2F9
100
AcDbEntity
  8
0
100
AcDbCircle
 62
7
  6
CONTINUOUS
 10
29.0122283563
 20
44.1890600984
 40
1.5222770828
100
AcDbArc
 50
256.2751540272
 51
284.4077540114
  0
ARC
  5
2FA
100
AcDbEntity
  8
0
100
AcDbCircle
 62
7
  6
CONTINUOUS
 10
29.0128032994
 20
44.0989310179
 40
1.5222770828
100
AcDbArc
 50
76.2751540272
 51
104.4077540114
  0
ARC
  5
2FB
100
AcDbEntity
  8
0
100
AcDbCircle
 62
7
  6
CONTINUOUS
 10
29.0138003377
 20
43.9252856985
 40
1.5222770828
100
AcDbArc
 50
76.2751540272
 51
104.4077540114
  0
ARC
  5
2FC
100
AcDbEntity
  8
0
100
AcDbCircle
 62
7
  6
CONTINUOUS
 10
19.8260566289
 20
65.0568902585
 40
6.6
100
AcDbArc
 50
40.9042077403
 51
41.531557254
  0
ARC
  5
2FD
100
AcDbEntity
  8
0
100
AcDbCircle
 62
7
  6
CONTINUOUS
 10
19.8260566289
 20
65.0568902585
 40
6.6
100
AcDbArc
 50
43.2456455503
 51
307.8897256568
  0
ARC
  5
2FE
100
AcDbEntity
  8
0
100
AcDbCircle
 62
7
  6
CONTINUOUS
 10
19.8260566289
 20
65.0568902585
 40
4.1
100
AcDbArc
 50
359.2231554146
 51
357.2777782668
  0
CIRCLE
  5
2FF
100
AcDbEntity
  8
0
100
AcDbCircle
 62
7
  6
CONTINUOUS
 10
19.8260566289
 20
65.0568902585
 40
4.0
  0
CIRCLE
  5
300
100
AcDbEntity
  8
0
100
AcDbCircle
 62
7
  6
CONTINUOUS
 10
19.8260566289
 20
65.0568902585
 40
3.9880720041
  0
CIRCLE
  5
301
100
AcDbEntity
  8
0
100
AcDbCircle
 62
7
  6
CONTINUOUS
 10
19.8260566289
 20
65.0568902585
 40
3.7860359481
  0
ARC
  5
302
100
AcDbEntity
  8
0
100
AcDbCircle
 62
7
  6
CONTINUOUS
 10
28.9018477922
 20
62.7106332462
 40
1.5222770828
100
AcDbArc
 50
76.2751540272
 51
104.4077540114
  0
ARC
  5
303
100
AcDbEntity
  8
0
100
AcDbCircle
 62
7
  6
CONTINUOUS
 10
28.9002758109
 20
62.9744076461
 40
1.5222770828
100
AcDbArc
 50
256.2751540272
 51
284.4077540114
  0
ARC
  5
304
100
AcDbEntity
  8
0
100
AcDbCircle
 62
7
  6
CONTINUOUS
 10
28.9013484719
 20
62.8007627774
 40
1.5222770828
100
AcDbArc
 50
256.2751540272
 51
284.4077540114
  0
ARC
  5
305
100
AcDbEntity
  8
0
100
AcDbCircle
 62
7
  6
CONTINUOUS
 10
25.9660740069
 20
72.9029228571
 40
1.0
100
AcDbArc
 50
120.3414540238
 51
180.3414540193
  0
ARC
  5
306
100
AcDbEntity
  8
0
100
AcDbCircle
 62
7
  6
CONTINUOUS
 10
28.3434640233
 20
74.2944658015
 40
1.0
100
AcDbArc
 50
90.3414540192
 51
120.3414540169
  0
ARC
  5
307
100
AcDbEntity
  8
0
100
AcDbCircle
 62
7
  6
CONTINUOUS
 10
26.7819854182
 20
70.208686049
 40
0.3003607259
100
AcDbArc
 50
90.311070658
 51
144.1945882808
  0
ARC
  5
308
100
AcDbEntity
  8
0
100
AcDbCircle
 62
7
  6
CONTINUOUS
 10
26.7802287791
 20
70.2101276751
 40
0.2980927094
100
AcDbArc
 50
144.2217812861
 51
180.3318041947
  0
ARC
  5
309
100
AcDbEntity
  8
0
100
AcDbCircle
 62
7
  6
CONTINUOUS
 10
33.3546840601
 20
65.5419976118
 40
1.7801591252
100
AcDbArc
 50
67.6230856509
 51
74.7732412833
  0
ARC
  5
30A
100
AcDbEntity
  8
0
100
AcDbCircle
 62
7
  6
CONTINUOUS
 10
33.2639002176
 20
65.7818624188
 40
1.5
100
AcDbArc
 50
59.4878367927
 51
69.9404164401
  0
ARC
  5
30B
100
AcDbEntity
  8
0
100
AcDbCircle
 62
7
  6
CONTINUOUS
 10
33.2639002176
 20
65.7818624188
 40
1.2
100
AcDbArc
 50
51.4931319044
 51
64.2347227907
  0
ARC
  5
30C
100
AcDbEntity
  8
0
100
AcDbCircle
 62
7
  6
CONTINUOUS
 10
33.6936710346
 20
67.5956325625
 40
0.3597595041
100
AcDbArc
 50
283.110831084
 51
290.9016955805
  0
ARC
  5
30D
100
AcDbEntity
  8
0
100
AcDbCircle
 62
7
  6
CONTINUOUS
 10
38.7773046649
 20
71.0565883768
 40
5.75
100
AcDbArc
 50
54.7060104927
 51
125.9768975459
  0
ARC
  5
30E
100
AcDbEntity
  8
0
100
AcDbCircle
 62
7
  6
CONTINUOUS
 10
34.2262496196
 20
77.3295779332
 40
2.0
100
AcDbArc
 50
270.3414540193
 51
305.91487579
  0
ARC
  5
30F
100
AcDbEntity
  8
0
100
AcDbCircle
 62
7
  6
CONTINUOUS
 10
30.6822347136
 20
70.2319298473
 40
0.3003607262
100
AcDbArc
 50
36.4883320182
 51
90.3718373593
  0
ARC
  5
310
100
AcDbEntity
  8
0
100
AcDbCircle
 62
7
  6
CONTINUOUS
 10
36.1612602887
 20
73.7410458307
 40
0.3
100
AcDbArc
 50
90.3414540193
 51
180.3414540193
  0
ARC
  5
311
100
AcDbEntity
  8
0
100
AcDbCircle
 62
7
  6
CONTINUOUS
 10
30.6839740454
 20
70.2333923082
 40
0.2980927098
100
AcDbArc
 50
0.3511038584
 51
36.4611390424
  0
ARC
  5
312
100
AcDbEntity
  8
0
100
AcDbCircle
 62
7
  6
CONTINUOUS
 10
38.8786155122
 20
32.0568902585
 40
8.6
100
AcDbArc
 50
152.1265033688
 51
28.5128570147
  0
ARC
  5
313
100
AcDbEntity
  8
0
100
AcDbCircle
 62
7
  6
CONTINUOUS
 10
39.0246223215
 20
29.5573253234
 40
7.8
100
AcDbArc
 50
119.5786548213
 51
130.0565912511
  0
ARC
  5
314
100
AcDbEntity
  8
0
100
AcDbCircle
 62
7
  6
CONTINUOUS
 10
39.0246223215
 20
29.5573253234
 40
7.8
100
AcDbArc
 50
50.6263167875
 51
61.1042745442
  0
ARC
  5
315
100
AcDbEntity
  8
0
100
AcDbCircle
 62
7
  6
CONTINUOUS
 10
39.0246223215
 20
29.5573253234
 40
7.8
100
AcDbArc
 50
62.257760982
 51
118.4251470566
  0
CIRCLE
  5
316
100
AcDbEntity
  8
0
100
AcDbCircle
 62
7
  6
CONTINUOUS
 10
38.8786155122
 20
32.0568902585
 40
4.1
  0
CIRCLE
  5
317
100
AcDbEntity
  8
0
100
AcDbCircle
 62
7
  6
CONTINUOUS
 10
38.8786155122
 20
32.0568902585
 40
3.8623955366
  0
CIRCLE
  5
318
100
AcDbEntity
  8
0
100
AcDbCircle
 62
7
  6
CONTINUOUS
 10
38.8786155122
 20
32.0568902585
 40
3.6603594806
  0
CIRCLE
  5
319
100
AcDbEntity
  8
0
100
AcDbCircle
 62
7
  6
CONTINUOUS
 10
38.8786155122
 20
32.0568902585
 40
3.0
  0
ARC
  5
31A
100
AcDbEntity
  8
0
100
AcDbCircle
 62
7
  6
CONTINUOUS
 10
39.0120507788
 20
44.2486547145
 40
1.5222770828
100
AcDbArc
 50
256.2751540272
 51
284.4077540114
  0
ARC
  5
31B
100
AcDbEntity
  8
0
100
AcDbCircle
 62
7
  6
CONTINUOUS
 10
39.0126257219
 20
44.158525634
 40
1.5222770828
100
AcDbArc
 50
76.2751540272
 51
104.4077540114
  0
ARC
  5
31C
100
AcDbEntity
  8
0
100
AcDbCircle
 62
7
  6
CONTINUOUS
 10
39.0136227602
 20
43.9848803146
 40
1.5222770828
100
AcDbArc
 50
76.2751540272
 51
104.4077540114
  0
ARC
  5
31D
100
AcDbEntity
  8
0
100
AcDbCircle
 62
7
  6
CONTINUOUS
 10
48.836876309
 20
44.3072064247
 40
1.5222770828
100
AcDbArc
 50
256.2751540272
 51
284.4077540114
  0
ARC
  5
31E
100
AcDbEntity
  8
0
100
AcDbCircle
 62
7
  6
CONTINUOUS
 10
48.837451252
 20
44.2170773442
 40
1.5222770828
100
AcDbArc
 50
76.2751540272
 51
104.4077540114
  0
ARC
  5
31F
100
AcDbEntity
  8
0
100
AcDbCircle
 62
7
  6
CONTINUOUS
 10
48.8384482903
 20
44.0434320248
 40
1.5222770828
100
AcDbArc
 50
76.2751540272
 51
104.4077540114
  0
ARC
  5
320
100
AcDbEntity
  8
0
100
AcDbCircle
 62
7
  6
CONTINUOUS
 10
38.8786155122
 20
54.0568902585
 40
29.9973819397
100
AcDbArc
 50
282.0524882333
 51
257.9443862255
  0
ARC
  5
321
100
AcDbEntity
  8
0
100
AcDbCircle
 62
7
  6
CONTINUOUS
 10
38.8786155122
 20
54.0568902585
 40
29.0
100
AcDbArc
 50
287.3217963823
 51
252.6958469476
  0
ARC
  5
322
100
AcDbEntity
  8
0
100
AcDbCircle
 62
7
  6
CONTINUOUS
 10
38.8786155122
 20
54.0568902585
 40
28.9633443637
100
AcDbArc
 50
287.4241475738
 51
252.5604147948
  0
ARC
  5
323
100
AcDbEntity
  8
0
100
AcDbCircle
 62
7
  6
CONTINUOUS
 10
38.8786155122
 20
54.0568902585
 40
28.7
100
AcDbArc
 50
35.9423550471
 51
255.1124904256
  0
ARC
  5
324
100
AcDbEntity
  8
0
100
AcDbCircle
 62
7
  6
CONTINUOUS
 10
38.8786155122
 20
54.0568902585
 40
28.7
100
AcDbArc
 50
284.8878970689
 51
31.4937242955
  0
ARC
  5
325
100
AcDbEntity
  8
0
100
AcDbCircle
 62
7
  6
CONTINUOUS
 10
38.8786155122
 20
54.0568902585
 40
15.8
100
AcDbArc
 50
161.1672745283
 51
199.5851361229
  0
ARC
  5
326
100
AcDbEntity
  8
0
100
AcDbCircle
 62
7
  6
CONTINUOUS
 10
38.8786155122
 20
54.0568902585
 40
15.8
100
AcDbArc
 50
341.1672745283
 51
19.5851515134
  0
ARC
  5
327
100
AcDbEntity
  8
0
100
AcDbCircle
 62
7
  6
CONTINUOUS
 10
38.8786155122
 20
54.0568902585
 40
15.7790539221
100
AcDbArc
 50
161.3977457447
 51
199.3476965726
  0
ARC
  5
328
100
AcDbEntity
  8
0
100
AcDbCircle
 62
7
  6
CONTINUOUS
 10
38.8786155122
 20
54.0568902585
 40
15.7790539221
100
AcDbArc
 50
341.3977457447
 51
19.34769592
  0
ARC
  5
329
100
AcDbEntity
  8
0
100
AcDbCircle
 62
7
  6
CONTINUOUS
 10
38.8786155122
 20
54.0568902585
 40
14.8
100
AcDbArc
 50
109.26821356
 51
110.193863214
  0
ARC
  5
32A
100
AcDbEntity
  8
0
100
AcDbCircle
 62
7
  6
CONTINUOUS
 10
38.8786155122
 20
54.0568902585
 40
14.8
100
AcDbArc
 50
70.484837271
 51
70.6906802868
  0
ARC
  5
32B
100
AcDbEntity
  8
0
100
AcDbCircle
 62
7
  6
CONTINUOUS
 10
38.8786155122
 20
54.0568902585
 40
14.5604722414
100
AcDbArc
 50
109.7950523121
 51
110.7268515027
  0
ARC
  5
32C
100
AcDbEntity
  8
0
100
AcDbCircle
 62
7
  6
CONTINUOUS
 10
38.8786155122
 20
54.0568902585
 40
14.1378660542
100
AcDbArc
 50
110.2102874605
 51
110.9567526246
  0
ARC
  5
32D
100
AcDbEntity
  8
0
100
AcDbCircle
 62
7
  6
CONTINUOUS
 10
38.8786155122
 20
54.0568902585
 40
14.1378660542
100
AcDbArc
 50
69.5072841284
 51
69.7177144076
  0
ARC
  5
32E
100
AcDbEntity
  8
0
100
AcDbCircle
 62
7
  6
CONTINUOUS
 10
38.8786155122
 20
54.0568902585
 40
8.25
100
AcDbArc
 50
52.7990189038
 51
53.2415915649
  0
ARC
  5
32F
100
AcDbEntity
  8
0
100
AcDbCircle
 62
7
  6
CONTINUOUS
 10
38.8786155122
 20
54.0568902585
 40
8.25
100
AcDbArc
 50
125.9357205096
 51
127.8838891347
  0
ARC
  5
330
100
AcDbEntity
  8
0
100
AcDbCircle
 62
7
  6
CONTINUOUS
 10
38.8786155122
 20
54.0568902585
 40
8.0
100
AcDbArc
 50
127.4743945436
 51
129.6995725821
  0
ARC
  5
331
100
AcDbEntity
  8
0
100
AcDbCircle
 62
7
  6
CONTINUOUS
 10
44.3875812315
 20
65.5826160822
 40
1.7369035229
100
AcDbArc
 50
109.6932879218
 51
111.6944116711
  0
ARC
  5
332
100
AcDbEntity
  8
0
100
AcDbCircle
 62
7
  6
CONTINUOUS
 10
38.9016702147
 20
62.7702278622
 40
1.5222770828
100
AcDbArc
 50
76.2751540272
 51
104.4077540114
  0
ARC
  5
333
100
AcDbEntity
  8
0
100
AcDbCircle
 62
7
  6
CONTINUOUS
 10
38.9000982334
 20
63.0340022621
 40
1.5222770828
100
AcDbArc
 50
256.2751540272
 51
284.4077540114
  0
ARC
  5
334
100
AcDbEntity
  8
0
100
AcDbCircle
 62
7
  6
CONTINUOUS
 10
38.9011708944
 20
62.8603573934
 40
1.5222770828
100
AcDbArc
 50
256.2751540272
 51
284.4077540113
  0
ARC
  5
335
100
AcDbEntity
  8
0
100
AcDbCircle
 62
7
  6
CONTINUOUS
 10
43.253270494
 20
77.3833750728
 40
2.0
100
AcDbArc
 50
234.7680322486
 51
270.3414540193
  0
ARC
  5
336
100
AcDbEntity
  8
0
100
AcDbCircle
 62
7
  6
CONTINUOUS
 10
44.4933308068
 20
65.7818624188
 40
1.5
100
AcDbArc
 50
116.4475346393
 51
118.6290878548
  0
ARC
  5
337
100
AcDbEntity
  8
0
100
AcDbCircle
 62
7
  6
CONTINUOUS
 10
44.4933308068
 20
65.7818624188
 40
1.2
100
AcDbArc
 50
123.9926351761
 51
126.8455832998
  0
ARC
  5
338
100
AcDbEntity
  8
0
100
AcDbCircle
 62
7
  6
CONTINUOUS
 10
41.3611679484
 20
73.772035031
 40
0.3
100
AcDbArc
 50
0.3414540193
 51
90.3414540193
  0
ARC
  5
339
100
AcDbEntity
  8
0
100
AcDbCircle
 62
7
  6
CONTINUOUS
 10
57.9311743955
 20
65.0568902585
 40
6.6
100
AcDbArc
 50
231.3627825845
 51
134.8449358497
  0
CIRCLE
  5
33A
100
AcDbEntity
  8
0
100
AcDbCircle
 62
7
  6
CONTINUOUS
 10
57.9311743955
 20
65.0568902585
 40
4.1
  0
CIRCLE
  5
33B
100
AcDbEntity
  8
0
100
AcDbCircle
 62
7
  6
CONTINUOUS
 10
57.9311743955
 20
65.0568902585
 40
4.0
  0
CIRCLE
  5
33C
100
AcDbEntity
  8
0
100
AcDbCircle
 62
7
  6
CONTINUOUS
 10
57.9311743955
 20
65.0568902585
 40
3.9880720041
  0
CIRCLE
  5
33D
100
AcDbEntity
  8
0
100
AcDbCircle
 62
7
  6
CONTINUOUS
 10
57.9311743955
 20
65.0568902585
 40
3.7860359481
  0
ARC
  5
33E
100
AcDbEntity
  8
0
100
AcDbCircle
 62
7
  6
CONTINUOUS
 10
48.7264957448
 20
62.8287795725
 40
1.5222770828
100
AcDbArc
 50
76.2751540272
 51
104.4077540114
  0
ARC
  5
33F
100
AcDbEntity
  8
0
100
AcDbCircle
 62
7
  6
CONTINUOUS
 10
48.7249237635
 20
63.0925539724
 40
1.5222770828
100
AcDbArc
 50
256.2751540272
 51
284.4077540114
  0
ARC
  5
340
100
AcDbEntity
  8
0
100
AcDbCircle
 62
7
  6
CONTINUOUS
 10
48.7259964245
 20
62.9189091037
 40
1.5222770828
100
AcDbArc
 50
256.2751540272
 51
284.4077540114
  0
ARC
  5
341
100
AcDbEntity
  8
0
100
AcDbCircle
 62
7
  6
CONTINUOUS
 10
49.17181286
 20
74.4185937509
 40
1.0
100
AcDbArc
 50
60.3414540204
 51
90.3414540193
  0
ARC
  5
342
100
AcDbEntity
  8
0
100
AcDbCircle
 62
7
  6
CONTINUOUS
 10
51.5656194085
 20
73.0554850742
 40
1.0
100
AcDbArc
 50
0.3414540193
 51
60.3414540163
  0
SPLINE
  5
343
100
AcDbEntity
  8
0
100
AcDbSpline
 62
7
  6
CONTINUOUS
 70
0
 71
3
 72
27
 73
23
 74
0
 42
0.0000001
 43
0.0000001
 44
0.0000000001
 40
0.0
 40
0.0
 40
0.0
 40
0.0
 40
0.0620067965
 40
0.0930895504
 40
0.1241924028
 40
0.1864503381
 40
0.248875965
 40
0.2801801207
 40
0.3115240667
 40
0.3742583622
 40
0.4370998579
 40
0.4999981732
 40
0.5628963329
 40
0.6257374326
 40
0.6884715309
 40
0.7198155511
 40
0.7511200295
 40
0.8135466954
 40
0.8758056923
 40
0.9069092303
 40
0.9379926892
 40
1.0
 40
1.0
 40
1.0
 40
1.0
 10
31.9675687293
 20
44.6540190159
 30
0.0
 10
31.937341839
 20
44.8240433003
 30
0.0
 10
31.8689479977
 20
45.0759776729
 30
0.0
 10
31.7347247611
 20
45.3950996446
 30
0.0
 10
31.5724511965
 20
45.7018114204
 30
0.0
 10
31.3192178156
 20
46.0570510765
 30
0.0
 10
31.0072882028
 20
46.3628160646
 30
0.0
 10
30.7285033236
 20
46.5723041583
 30
0.0
 10
30.4317964445
 20
46.7571494579
 30
0.0
 10
30.0317760057
 20
46.9390018207
 30
0.0
 10
29.5211189534
 20
47.0711323335
 30
0.0
 10
28.9948346134
 20
47.1135471858
 30
0.0
 10
28.4690937148
 20
47.0648686941
 30
0.0
 10
27.9600483416
 20
46.9266673428
 30
0.0
 10
27.5622226321
 20
46.7400657594
 30
0.0
 10
27.2677381202
 20
46.5516990901
 30
0.0
 10
26.9914636808
 20
46.3389046042
 30
0.0
 10
26.6831935321
 20
46.0294407961
 30
0.0
 10
26.4342041993
 20
45.6712042189
 30
0.0
 10
26.2755928424
 20
45.3625749025
 30
0.0
 10
26.1451804881
 20
45.0418709803
 30
0.0
 10
26.0797925091
 20
44.7891362518
 30
0.0
 10
26.0515940024
 20
44.6187623655
 30
0.0
  0
SPLINE
  5
344
100
AcDbEntity
  8
0
100
AcDbSpline
 62
7
  6
CONTINUOUS
 70
0
 71
3
 72
15
 73
11
 74
0
 42
0.0000001
 43
0.0000001
 44
0.0000000001
 40
0.0
 40
0.0
 40
0.0
 40
0.0
 40
0.1240938088
 40
0.248373468
 40
0.3729387561
 40
0.4978290136
 40
0.6230372267
 40
0.7485108347
 40
0.8742161233
 40
1.0
 40
1.0
 40
1.0
 40
1.0
 10
25.9693526557
 20
62.1308749675
 30
0.0
 10
26.005386402
 20
61.966849528
 30
0.0
 10
26.106081535
 20
61.6440907704
 30
0.0
 10
26.3380691023
 20
61.1931851719
 30
0.0
 10
26.6443621203
 20
60.7875558743
 30
0.0
 10
27.0160102773
 20
60.4390503444
 30
0.0
 10
27.4422585221
 20
60.157763673
 30
0.0
 10
27.9107604744
 20
59.951699598
 30
0.0
 10
28.4077901586
 20
59.826959816
 30
0.0
 10
28.7489839282
 20
59.8003127732
 30
0.0
 10
28.919204904
 20
59.8013272166
 30
0.0
  0
SPLINE
  5
345
100
AcDbEntity
  8
0
100
AcDbSpline
 62
7
  6
CONTINUOUS
 70
0
 71
3
 72
15
 73
11
 74
0
 42
0.0000001
 43
0.0000001
 44
0.0000000001
 40
0.0
 40
0.0
 40
0.0
 40
0.0
 40
0.1257863487
 40
0.2514932095
 40
0.3769679982
 40
0.5021762868
 40
0.6270658355
 40
0.7516295715
 40
0.8759089066
 40
1.0
 40
1.0
 40
1.0
 40
1.0
 10
28.919204904
 20
59.8013272166
 30
0.0
 10
29.0897828547
 20
59.8023437874
 30
0.0
 10
29.4313509673
 20
59.8331802647
 30
0.0
 10
29.9278347495
 20
59.9643743922
 30
0.0
 10
30.3946407094
 20
60.1768663604
 30
0.0
 10
30.818036102
 20
60.4643422862
 30
0.0
 10
31.1857026351
 20
60.8185838551
 30
0.0
 10
31.4869592554
 20
61.2292870707
 30
0.0
 10
31.7129579508
 20
61.6844048587
 30
0.0
 10
31.8091208954
 20
62.0092798746
 30
0.0
 10
31.8427880865
 20
62.1741597006
 30
0.0
  0
SPLINE
  5
346
100
AcDbEntity
  8
0
100
AcDbSpline
 62
7
  6
CONTINUOUS
 70
0
 71
3
 72
27
 73
23
 74
0
 42
0.0000001
 43
0.0000001
 44
0.0000000001
 40
0.0
 40
0.0
 40
0.0
 40
0.0
 40
0.0620067965
 40
0.0930895504
 40
0.1241924028
 40
0.1864503381
 40
0.248875965
 40
0.2801801207
 40
0.3115240667
 40
0.3742583622
 40
0.4370998579
 40
0.4999981732
 40
0.5628963329
 40
0.6257374326
 40
0.6884715309
 40
0.7198155511
 40
0.7511200295
 40
0.8135466954
 40
0.8758056923
 40
0.9069092303
 40
0.9379926892
 40
1.0
 40
1.0
 40
1.0
 40
1.0
 10
41.9673911518
 20
44.7136136319
 30
0.0
 10
41.9371642615
 20
44.8836379163
 30
0.0
 10
41.8687704202
 20
45.1355722889
 30
0.0
 10
41.7345471836
 20
45.4546942606
 30
0.0
 10
41.572273619
 20
45.7614060364
 30
0.0
 10
41.3190402381
 20
46.1166456925
 30
0.0
 10
41.0071106253
 20
46.4224106807
 30
0.0
 10
40.7283257461
 20
46.6318987743
 30
0.0
 10
40.431618867
 20
46.8167440739
 30
0.0
 10
40.0315984282
 20
46.9985964367
 30
0.0
 10
39.5209413759
 20
47.1307269495
 30
0.0
 10
38.9946570359
 20
47.1731418018
 30
0.0
 10
38.4689161373
 20
47.1244633101
 30
0.0
 10
37.9598707642
 20
46.9862619588
 30
0.0
 10
37.5620450546
 20
46.7996603755
 30
0.0
 10
37.2675605427
 20
46.6112937062
 30
0.0
 10
36.9912861033
 20
46.3984992203
 30
0.0
 10
36.6830159546
 20
46.0890354121
 30
0.0
 10
36.4340266218
 20
45.7307988349
 30
0.0
 10
36.2754152649
 20
45.4221695186
 30
0.0
 10
36.1450029106
 20
45.1014655963
 30
0.0
 10
36.0796149317
 20
44.8487308678
 30
0.0
 10
36.0514164249
 20
44.6783569816
 30
0.0
  0
SPLINE
  5
347
100
AcDbEntity
  8
0
100
AcDbSpline
 62
7
  6
CONTINUOUS
 70
0
 71
3
 72
15
 73
11
 74
0
 42
0.0000001
 43
0.0000001
 44
0.0000000001
 40
0.0
 40
0.0
 40
0.0
 40
0.0
 40
0.1240938088
 40
0.248373468
 40
0.3729387561
 40
0.4978290136
 40
0.6230372267
 40
0.7485108347
 40
0.8742161233
 40
1.0
 40
1.0
 40
1.0
 40
1.0
 10
35.9691750782
 20
62.1904695836
 30
0.0
 10
36.0052088245
 20
62.0264441441
 30
0.0
 10
36.1059039575
 20
61.7036853865
 30
0.0
 10
36.3378915248
 20
61.2527797879
 30
0.0
 10
36.6441845428
 20
60.8471504903
 30
0.0
 10
37.0158326999
 20
60.4986449605
 30
0.0
 10
37.4420809446
 20
60.217358289
 30
0.0
 10
37.9105828969
 20
60.011294214
 30
0.0
 10
38.4076125811
 20
59.886554432
 30
0.0
 10
38.7488063507
 20
59.8599073893
 30
0.0
 10
38.9190273265
 20
59.8609218327
 30
0.0
  0
SPLINE
  5
348
100
AcDbEntity
  8
0
100
AcDbSpline
 62
7
  6
CONTINUOUS
 70
0
 71
3
 72
15
 73
11
 74
0
 42
0.0000001
 43
0.0000001
 44
0.0000000001
 40
0.0
 40
0.0
 40
0.0
 40
0.0
 40
0.1257863487
 40
0.2514932095
 40
0.3769679982
 40
0.5021762868
 40
0.6270658355
 40
0.7516295715
 40
0.8759089066
 40
1.0
 40
1.0
 40
1.0
 40
1.0
 10
38.9190273265
 20
59.8609218327
 30
0.0
 10
39.0896052772
 20
59.8619384035
 30
0.0
 10
39.4311733898
 20
59.8927748808
 30
0.0
 10
39.927657172
 20
60.0239690083
 30
0.0
 10
40.3944631319
 20
60.2364609764
 30
0.0
 10
40.8178585245
 20
60.5239369022
 30
0.0
 10
41.1855250576
 20
60.8781784711
 30
0.0
 10
41.4867816779
 20
61.2888816867
 30
0.0
 10
41.7127803733
 20
61.7439994747
 30
0.0
 10
41.808943318
 20
62.0688744906
 30
0.0
 10
41.842610509
 20
62.2337543167
 30
0.0
  0
SPLINE
  5
349
100
AcDbEntity
  8
0
100
AcDbSpline
 62
7
  6
CONTINUOUS
 70
0
 71
3
 72
27
 73
23
 74
0
 42
0.0000001
 43
0.0000001
 44
0.0000000001
 40
0.0
 40
0.0
 40
0.0
 40
0.0
 40
0.0620067965
 40
0.0930895504
 40
0.1241924028
 40
0.1864503381
 40
0.248875965
 40
0.2801801207
 40
0.3115240667
 40
0.3742583622
 40
0.4370998579
 40
0.4999981732
 40
0.5628963329
 40
0.6257374326
 40
0.6884715309
 40
0.7198155511
 40
0.7511200295
 40
0.8135466954
 40
0.8758056923
 40
0.9069092303
 40
0.9379926892
 40
1.0
 40
1.0
 40
1.0
 40
1.0
 10
51.7922166819
 20
44.7721653422
 30
0.0
 10
51.7619897916
 20
44.9421896266
 30
0.0
 10
51.6935959504
 20
45.1941239992
 30
0.0
 10
51.5593727137
 20
45.5132459709
 30
0.0
 10
51.3970991491
 20
45.8199577467
 30
0.0
 10
51.1438657682
 20
46.1751974028
 30
0.0
 10
50.8319361554
 20
46.4809623909
 30
0.0
 10
50.5531512762
 20
46.6904504846
 30
0.0
 10
50.2564443972
 20
46.8752957842
 30
0.0
 10
49.8564239584
 20
47.057148147
 30
0.0
 10
49.345766906
 20
47.1892786598
 30
0.0
 10
48.819482566
 20
47.2316935121
 30
0.0
 10
48.2937416674
 20
47.1830150204
 30
0.0
 10
47.7846962943
 20
47.0448136691
 30
0.0
 10
47.3868705847
 20
46.8582120857
 30
0.0
 10
47.0923860728
 20
46.6698454164
 30
0.0
 10
46.8161116334
 20
46.4570509305
 30
0.0
 10
46.5078414847
 20
46.1475871224
 30
0.0
 10
46.2588521519
 20
45.7893505452
 30
0.0
 10
46.100240795
 20
45.4807212289
 30
0.0
 10
45.9698284407
 20
45.1600173066
 30
0.0
 10
45.9044404618
 20
44.9072825781
 30
0.0
 10
45.8762419551
 20
44.7369086918
 30
0.0
  0
SPLINE
  5
34A
100
AcDbEntity
  8
0
100
AcDbSpline
 62
7
  6
CONTINUOUS
 70
0
 71
3
 72
15
 73
11
 74
0
 42
0.0000001
 43
0.0000001
 44
0.0000000001
 40
0.0
 40
0.0
 40
0.0
 40
0.0
 40
0.1240938088
 40
0.248373468
 40
0.3729387561
 40
0.4978290136
 40
0.6230372267
 40
0.7485108347
 40
0.8742161233
 40
1.0
 40
1.0
 40
1.0
 40
1.0
 10
45.7940006083
 20
62.2490212938
 30
0.0
 10
45.8300343546
 20
62.0849958544
 30
0.0
 10
45.9307294876
 20
61.7622370967
 30
0.0
 10
46.1627170549
 20
61.3113314982
 30
0.0
 10
46.469010073
 20
60.9057022006
 30
0.0
 10
46.84065823
 20
60.5571966708
 30
0.0
 10
47.2669064747
 20
60.2759099993
 30
0.0
 10
47.7354084271
 20
60.0698459243
 30
0.0
 10
48.2324381112
 20
59.9451061423
 30
0.0
 10
48.5736318809
 20
59.9184590996
 30
0.0
 10
48.7438528566
 20
59.9194735429
 30
0.0
  0
SPLINE
  5
34B
100
AcDbEntity
  8
0
100
AcDbSpline
 62
7
  6
CONTINUOUS
 70
0
 71
3
 72
15
 73
11
 74
0
 42
0.0000001
 43
0.0000001
 44
0.0000000001
 40
0.0
 40
0.0
 40
0.0
 40
0.0
 40
0.1257863487
 40
0.2514932095
 40
0.3769679982
 40
0.5021762868
 40
0.6270658355
 40
0.7516295715
 40
0.8759089066
 40
1.0
 40
1.0
 40
1.0
 40
1.0
 10
48.7438528566
 20
59.9194735429
 30
0.0
 10
48.9144308073
 20
59.9204901137
 30
0.0
 10
49.25599892
 20
59.951326591
 30
0.0
 10
49.7524827022
 20
60.0825207185
 30
0.0
 10
50.219288662
 20
60.2950126867
 30
0.0
 10
50.6426840546
 20
60.5824886125
 30
0.0
 10
51.0103505877
 20
60.9367301814
 30
0.0
 10
51.311607208
 20
61.347433397
 30
0.0
 10
51.5376059034
 20
61.802551185
 30
0.0
 10
51.6337688481
 20
62.1274262009
 30
0.0
 10
51.6674360391
 20
62.2923060269
 30
0.0
  0
SPLINE
  5
34C
100
AcDbEntity
  8
0
100
AcDbSpline
 62
7
  6
CONTINUOUS
 70
0
 71
3
 72
11
 73
7
 74
0
 42
0.0000001
 43
0.0000001
 44
0.0000000001
 40
0.0
 40
0.0
 40
0.0
 40
0.0
 40
0.2500406365
 40
0.5000383277
 40
0.7500326199
 40
1.0
 40
1.0
 40
1.0
 40
1.0
 10
40.4607417626
 20
74.9666787047
 30
0.0
 10
40.3496904723
 20
75.0816436941
 30
0.0
 10
40.106669627
 20
75.29251422
 30
0.0
 10
39.6886994369
 20
75.5336537825
 30
0.0
 10
39.2301973628
 20
75.6850044533
 30
0.0
 10
38.9093204382
 20
75.7183087103
 30
0.0
 10
38.7495285035
 20
75.7173564195
 30
0.0
  0
SPLINE
  5
34D
100
AcDbEntity
  8
0
100
AcDbSpline
 62
7
  6
CONTINUOUS
 70
0
 71
3
 72
9
 73
5
 74
0
 42
0.0000001
 43
0.0000001
 44
0.0000000001
 40
0.0
 40
0.0
 40
0.0
 40
0.0
 40
0.2485261099
 40
1.0
 40
1.0
 40
1.0
 40
1.0
 10
40.7703548449
 20
74.068518639
 30
0.0
 10
40.7485073379
 20
74.1441492168
 30
0.0
 10
40.6571772143
 20
74.4474459461
 30
0.0
 10
40.5511106533
 20
74.7464726417
 30
0.0
 10
40.4607417086
 20
74.9666877627
 30
0.0
  0
SPLINE
  5
34E
100
AcDbEntity
  8
0
100
AcDbSpline
 62
7
  6
CONTINUOUS
 70
0
 71
3
 72
11
 73
7
 74
0
 42
0.0000001
 43
0.0000001
 44
0.0000000001
 40
0.0
 40
0.0
 40
0.0
 40
0.0
 40
0.2499683667
 40
0.4999634245
 40
0.749959751
 40
1.0
 40
1.0
 40
1.0
 40
1.0
 10
38.7495285035
 20
75.7173564195
 30
0.0
 10
38.5897455631
 20
75.7164041823
 30
0.0
 10
38.2693042294
 20
75.6792850459
 30
0.0
 10
37.8126741492
 20
75.5224859551
 30
0.0
 10
37.3975876901
 20
75.2764514317
 30
0.0
 10
37.1572075525
 20
75.0626064503
 30
0.0
 10
37.0475359632
 20
74.9463381254
 30
0.0
  0
SPLINE
  5
34F
100
AcDbEntity
  8
0
100
AcDbSpline
 62
7
  6
CONTINUOUS
 70
0
 71
3
 72
10
 73
6
 74
0
 42
0.0000001
 43
0.0000001
 44
0.0000000001
 40
0.0
 40
0.0
 40
0.0
 40
0.0
 40
0.2484776125
 40
0.6228996222
 40
1.0
 40
1.0
 40
1.0
 40
1.0
 10
36.7484983383
 20
74.0445501475
 30
0.0
 10
36.7694435379
 20
74.1204381182
 30
0.0
 10
36.8241232513
 20
74.3100836482
 30
0.0
 10
36.9208809585
 20
74.6118622107
 30
0.0
 10
37.0034943834
 20
74.8352831398
 30
0.0
 10
37.0475359123
 20
74.9463466701
 30
0.0
  0
ELLIPSE
  5
350
100
AcDbEntity
  8
0
100
AcDbEllipse
 62
7
  6
CONTINUOUS
 10
29.0115487966
 20
44.3062609009
 30
0.0
 11
-0.0181541877
 21
3.0462257406
 31
0.0
 40
0.984807753
 41
-2.4798353547
 42
-2.1564818703
  0
ELLIPSE
  5
351
100
AcDbEntity
  8
0
100
AcDbEllipse
 62
7
  6
CONTINUOUS
 10
29.0115487966
 20
44.3062609009
 30
0.0
 11
-0.0181541877
 21
3.0462257406
 31
0.0
 40
0.984807753
 41
-4.1267034369
 42
-3.8033500651
  0
ELLIPSE
  5
352
100
AcDbEntity
  8
0
100
AcDbEllipse
 62
7
  6
CONTINUOUS
 10
29.0073455411
 20
45.0115562991
 30
0.0
 11
-0.0181541877
 21
3.0462257406
 31
0.0
 40
0.984807753
 41
4.1267034369
 42
8.4396671774
  0
ELLIPSE
  5
353
100
AcDbEntity
  8
0
100
AcDbEllipse
 62
7
  6
CONTINUOUS
 10
28.9073893286
 20
61.7839502144
 30
0.0
 11
-0.0181541877
 21
3.0462257406
 31
0.0
 40
0.984807753
 41
0.0
 42
6.2831853072
  0
ELLIPSE
  5
354
100
AcDbEntity
  8
0
100
AcDbEllipse
 62
7
  6
CONTINUOUS
 10
39.0113712191
 20
44.365855517
 30
0.0
 11
-0.0181541877
 21
3.0462257406
 31
0.0
 40
0.984807753
 41
-2.4798353547
 42
-2.1564818703
  0
ELLIPSE
  5
355
100
AcDbEntity
  8
0
100
AcDbEllipse
 62
7
  6
CONTINUOUS
 10
39.0113712191
 20
44.365855517
 30
0.0
 11
-0.0181541877
 21
3.0462257406
 31
0.0
 40
0.984807753
 41
-4.1267034369
 42
-3.8033500651
  0
ELLIPSE
  5
356
100
AcDbEntity
  8
0
100
AcDbEllipse
 62
7
  6
CONTINUOUS
 10
39.0071679636
 20
45.0711509151
 30
0.0
 11
-0.0181541877
 21
3.0462257406
 31
0.0
 40
0.984807753
 41
4.1267034369
 42
8.4396671774
  0
ELLIPSE
  5
357
100
AcDbEntity
  8
0
100
AcDbEllipse
 62
7
  6
CONTINUOUS
 10
38.9072117511
 20
61.8435448305
 30
0.0
 11
-0.0181541877
 21
3.0462257406
 31
0.0
 40
0.984807753
 41
0.0
 42
6.2831853072
  0
ELLIPSE
  5
358
100
AcDbEntity
  8
0
100
AcDbEllipse
 62
7
  6
CONTINUOUS
 10
48.8361967492
 20
44.4244072272
 30
0.0
 11
-0.0181541877
 21
3.0462257406
 31
0.0
 40
0.984807753
 41
-2.4798353547
 42
-2.1564818703
  0
ELLIPSE
  5
359
100
AcDbEntity
  8
0
100
AcDbEllipse
 62
7
  6
CONTINUOUS
 10
48.8361967492
 20
44.4244072272
 30
0.0
 11
-0.0181541877
 21
3.0462257406
 31
0.0
 40
0.984807753
 41
-4.1267034369
 42
-3.8033500651
  0
ELLIPSE
  5
35A
100
AcDbEntity
  8
0
100
AcDbEllipse
 62
7
  6
CONTINUOUS
 10
48.8319934937
 20
45.1297026254
 30
0.0
 11
-0.0181541877
 21
3.0462257406
 31
0.0
 40
0.984807753
 41
4.1267034369
 42
8.4396671774
  0
ELLIPSE
  5
35B
100
AcDbEntity
  8
0
100
AcDbEllipse
 62
7
  6
CONTINUOUS
 10
48.7320372812
 20
61.9020965407
 30
0.0
 11
-0.0181541877
 21
3.0462257406
 31
0.0
 40
0.984807753
 41
0.0
 42
6.2831853072
  0
ELLIPSE
  5
35C
100
AcDbEntity
  8
0
100
AcDbEllipse
 62
7
  6
CONTINUOUS
 10
38.7749208803
 20
71.4565812737
 30
0.0
 11
-0.0174787396
 21
2.9328872851
 31
0.0
 40
0.8660254038
 41
5.8020772417
 42
6.7642933727
  0
ELLIPSE
  5
35D
100
AcDbEntity
  8
0
100
AcDbEllipse
 62
7
  6
CONTINUOUS
 10
38.7556529784
 20
74.6896853675
 30
0.0
 11
0.0174787396
 21
-2.9328872851
 31
0.0
 40
0.8660254038
 41
5.9119633278
 42
6.6544072865
  0
ELLIPSE
  5
35E
100
AcDbEntity
  8
0
100
AcDbEllipse
 62
7
  6
CONTINUOUS
 10
41.3565449799
 20
74.547757187
 30
0.0
 11
0.0025283854
 21
-0.4242565347
 31
0.0
 40
0.7071067812
 41
1.5707963268
 42
3.1415926536
  0
ELLIPSE
  5
35F
100
AcDbEntity
  8
0
100
AcDbEllipse
 62
7
  6
CONTINUOUS
 10
30.6804501911
 20
70.5046411868
 30
0.0
 11
-0.0017946677
 21
0.3011406036
 31
0.0
 40
0.9961946981
 41
-1.5707963268
 42
-0.0
  0
ELLIPSE
  5
360
100
AcDbEntity
  8
0
100
AcDbEllipse
 62
7
  6
CONTINUOUS
 10
36.1566373202
 20
74.5167679867
 30
0.0
 11
-0.0025283854
 21
0.4242565347
 31
0.0
 40
0.7071067812
 41
-0.0000000001
 42
1.5707963268
  0
ELLIPSE
  5
361
100
AcDbEntity
  8
0
100
AcDbEllipse
 62
7
  6
CONTINUOUS
 10
26.7805194463
 20
70.4813992866
 30
0.0
 11
0.0017946677
 21
-0.3011406036
 31
0.0
 40
0.9961946981
 41
3.1415926536
 42
4.7123889804
  0
ENDSEC
  0
SECTION
  2
OBJECTS
  0
DICTIONARY
  5
C
100
AcDbDictionary
280
0
281
1
  3
ACAD_GROUP
350
D
  3
ACAD_MLINESTYLE
350
17
  3
ACAD_LAYOUT
350
1A
  3
ACAD_PLOTSETTINGS
350
19
  3
ACAD_PLOTSTYLENAME
350
E
  0
DICTIONARY
  5
D
102
{ACAD_REACTORS
330
C
102
}
100
AcDbDictionary
280
0
281
1
  0
ACDBDICTIONARYWDFLT
  5
E
102
{ACAD_REACTORS
330
C
102
}
100
AcDbDictionary
281
1
  3
Normal
350
F
100
AcDbDictionaryWithDefault
340
F
  0
DICTIONARY
  5
17
102
{ACAD_REACTORS
330
C
102
}
100
AcDbDictionary
280
0
281
1
  3
Standard
350
18
  0
DICTIONARY
  5
19
102
{ACAD_REACTORS
330
C
102
}
100
AcDbDictionary
281
1
  0
DICTIONARY
  5
1A
102
{ACAD_REACTORS
330
C
102
}
100
AcDbDictionary
281
1
  3
Model
350
362
  3
Layout1
350
363
  0
ACDBPLACEHOLDER
  5
F
102
{ACAD_REACTORS
330
E
102
}
  0
MLINESTYLE
  5
18
102
{ACAD_REACTORS
330
17
102
}
100
AcDbMlineStyle
  2
STANDARD
 70
0
  3

 62
256
 51
90.0
 52
90.0
 71
2
 49
0.5
 62
256
  6
BYLAYER
 49
-0.5
 62
256
  6
BYLAYER
  0
LAYOUT
  5
362
102
{ACAD_REACTORS
330
1A
102
}
100
AcDbPlotSettings
  1

  2
none_device
  4

  6

 40
0.0
 41
0.0
 42
0.0
 43
0.0
 44
210.0
 45
297.0
 46
0.0
 47
0.0
 48
0.0
 49
0.0
140
0.0
141
0.0
142
1.0
143
1.0
 70
1024
 72
1
 73
0
 74
0
  7

 75
0
147
1.0
148
0.0
149
0.0
100
AcDbLayout
  1
Model
 70
0
 71
0
 10
0.0
 20
0.0
 11
210.0
 21
297.0
 12
0.0
 22
0.0
 32
0.0
 14
0.0
 24
0.0
 34
0.0
 15
0.0
 25
0.0
 35
0.0
146
0.0
 13
0.0
 23
0.0
 33
0.0
 16
1.0
 26
0.0
 36
0.0
 17
0.0
 27
1.0
 37
0.0
 76
0
330
210
345
0
346
0
  0
LAYOUT
  5
363
102
{ACAD_REACTORS
330
1A
102
}
100
AcDbPlotSettings
  1

  2
none_device
  4

  6

 40
0.0
 41
0.0
 42
0.0
 43
0.0
 44
210.0
 45
297.0
 46
0.0
 47
0.0
 48
0.0
 49
0.0
140
0.0
141
0.0
142
1.0
143
1.0
 70
0
 72
1
 73
0
 74
0
  7

 75
0
147
1.0
148
0.0
149
0.0
100
AcDbLayout
  1
Layout1
 70
0
 71
1
 10
0.0
 20
0.0
 11
210.0
 21
297.0
 12
0.0
 22
0.0
 32
0.0
 14
0.0
 24
0.0
 34
0.0
 15
0.0
 25
0.0
 35
0.0
146
0.0
 13
0.0
 23
0.0
 33
0.0
 16
1.0
 26
0.0
 36
0.0
 17
0.0
 27
1.0
 37
0.0
 76
0
330
211
345
0
346
0
  0
ENDSEC
  0
EOF
