999
DXF file: C:\Users\sesa63760\Dev\_Creo\CAD\MCADID0005204_3D-CAD\drw0001_1.dxf
999
Pro/ENGINEER 2019471 by Parametric Technology Corporation
  0
SECTION
  2
HEADER
  9
$ACADVER
  1
AC1024
  9
$DWGCODEPAGE
  3
ANSI_1252
  9
$EXTMAX
 10
72.0177801294
 20
101.8537176116
 30
0.0
  9
$EXTMIN
 10
0.0
 20
0.0
 30
0.0
  9
$LIMMIN
 10
0.0
 20
0.0
  9
$LIMMAX
 10
72.0177801294
 20
101.8537176116
  9
$VIEWCTR
 10
36.0088900647
 20
50.9268588058
  9
$VIEWSIZE
 40
101.8537176116
  9
$CLAYER
  8
0
  9
$LTSCALE
 40
6.6393534443
  9
$CELTYPE
  6
BYLAYER
  9
$DIMSCALE
 40
1.0
  9
$DIMASZ
 40
0.8573545254
  9
$DIMEXO
 40
1.0
  9
$DIMDLI
 40
4.5871896524
  9
$DIMEXE
 40
1.0
  9
$DIMCEN
 40
1.0864396545
  9
$DIMLFAC
 40
1.0
  9
$DIMBLK
  1
_FILLED
  9
$DIMALT
 70
0
  9
$DIMALTF
 40
0.0393700787
  9
$DIMTXT
 40
1.2002963355
  9
$DIMTOL
 70
1
  9
$DIMLIM
 70
0
  9
$DIMTFAC
 40
1.0
  9
$DIMTP
 40
0.01
  9
$DIMTM
 40
0.01
  9
$DIMGAP
 40
0.625
  9
$DIMDSEP
 70
46
  9
$AUNITS
 70
0
  9
$PDMODE
 70
3
  9
$PDSIZE
 40
0.3125
  9
$HANDSEED
  5
3EF
  9
$TILEMODE
 70
1
  9
$MEASUREMENT
 70
1
  9
$INSUNITS
 70
4
  0
ENDSEC
  0
SECTION
  2
CLASSES
  0
CLASS
  1
ACDBDICTIONARYWDFLT
  2
AcDbDictionaryWithDefault
  3
AutoCAD 2000
 90
0
 91
1
280
0
281
0
  0
CLASS
  1
ACDBPLACEHOLDER
  2
AcDbPlaceHolder
  3
AutoCAD 2000
 90
0
 91
1
280
0
281
0
  0
CLASS
  1
LAYOUT
  2
AcDbLayout
  3
AutoCAD 2000
 90
0
 91
0
280
0
281
0
  0
ENDSEC
  0
SECTION
  2
TABLES
  0
TABLE
  2
VPORT
  5
8
100
AcDbSymbolTable
 70
2
  0
VPORT
  5
1F4
100
AcDbSymbolTableRecord
100
AcDbViewportTableRecord
  2
*ACTIVE
 70
0
 10
0.0
 20
0.0
 11
1.0
 21
1.0
 12
36.0088900647
 22
50.9268588058
 13
0.0
 23
0.0
 14
1.0
 24
1.0
 15
0.0
 25
0.0
 16
0.0
 26
0.0
 36
1.0
 17
0.0
 27
0.0
 37
0.0
 40
101.8537176116
 41
0.7070707071
 42
50.0
 43
0.0
 44
0.0
 50
0.0
 51
0.0
 71
0
 72
100
 73
1
 74
1
 75
0
 76
0
 77
0
 78
0
  0
ENDTAB
  0
TABLE
  2
LTYPE
  5
5
100
AcDbSymbolTable
 70
6
  0
LTYPE
  5
14
100
AcDbSymbolTableRecord
100
AcDbLinetypeTableRecord
  2
BYBLOCK
 70
0
  3

 72
65
 73
0
 40
0.0
  0
LTYPE
  5
15
100
AcDbSymbolTableRecord
100
AcDbLinetypeTableRecord
  2
BYLAYER
 70
0
  3

 72
65
 73
0
 40
0.0
  0
LTYPE
  5
16
100
AcDbSymbolTableRecord
100
AcDbLinetypeTableRecord
  2
CONTINUOUS
 70
64
  3
Solid line
 72
65
 73
0
 40
0.0
  0
LTYPE
  5
1F5
100
AcDbSymbolTableRecord
100
AcDbLinetypeTableRecord
  2
CENTER
 70
64
  3
____ _ ____ _ ____ _ ____ _ ____ _ ____ _ ____
 72
65
 73
4
 40
0.6
 49
0.375
 74
0
 49
-0.075
 74
0
 49
0.075
 74
0
 49
-0.075
 74
0
  0
LTYPE
  5
1F6
100
AcDbSymbolTableRecord
100
AcDbLinetypeTableRecord
  2
HIDDEN
 70
64
  3
- - - - - - - - - - - - - - - - - - - -
 72
65
 73
2
 40
0.2
 49
0.1
 74
0
 49
-0.1
 74
0
  0
LTYPE
  5
1F7
100
AcDbSymbolTableRecord
100
AcDbLinetypeTableRecord
  2
PHANTOM
 70
64
  3
_____ _ _ _____ _ _ _____ _ _ _____
 72
65
 73
6
 40
0.8
 49
0.45
 74
0
 49
-0.05
 74
0
 49
0.1
 74
0
 49
-0.05
 74
0
 49
0.1
 74
0
 49
-0.05
 74
0
  0
LTYPE
  5
1F8
100
AcDbSymbolTableRecord
100
AcDbLinetypeTableRecord
  2
DOT
 70
64
  3
. . . . . . . . . . . . . . . . . . . .
 72
65
 73
2
 40
0.2
 49
0.1
 74
0
 49
-0.1
 74
0
  0
LTYPE
  5
1F9
100
AcDbSymbolTableRecord
100
AcDbLinetypeTableRecord
  2
DASHED
 70
64
  3
- - - - - - - - - - - - - - - - - - - -
 72
65
 73
2
 40
0.2
 49
0.1
 74
0
 49
-0.1
 74
0
  0
ENDTAB
  0
TABLE
  2
LAYER
  5
2
100
AcDbSymbolTable
 70
36
  0
LAYER
  5
10
100
AcDbSymbolTableRecord
100
AcDbLayerTableRecord
  2
0
 70
0
 62
7
  6
CONTINUOUS
370
-3
390
F
  0
LAYER
  5
1FA
100
AcDbSymbolTableRecord
100
AcDbLayerTableRecord
  2
DEFAULT_1
 70
0
 62
7
  6
CENTER
370
-3
390
F
  0
LAYER
  5
1FB
100
AcDbSymbolTableRecord
100
AcDbLayerTableRecord
  2
DEFAULT_2
 70
0
 62
7
  6
HIDDEN
370
-3
390
F
  0
LAYER
  5
1FC
100
AcDbSymbolTableRecord
100
AcDbLayerTableRecord
  2
DEFAULT_3
 70
0
 62
7
  6
PHANTOM
370
-3
390
F
  0
LAYER
  5
1FD
100
AcDbSymbolTableRecord
100
AcDbLayerTableRecord
  2
00_COMPONENTS
 70
0
 62
7
  6
CONTINUOUS
370
-3
390
F
  0
LAYER
  5
1FE
100
AcDbSymbolTableRecord
100
AcDbLayerTableRecord
  2
01_1_DEFAULT_DATUMS
 70
0
 62
7
  6
CONTINUOUS
370
-3
390
F
  0
LAYER
  5
1FF
100
AcDbSymbolTableRecord
100
AcDbLayerTableRecord
  2
01_PLANES
 70
0
 62
7
  6
CONTINUOUS
370
-3
390
F
  0
LAYER
  5
200
100
AcDbSymbolTableRecord
100
AcDbLayerTableRecord
  2
02_COORD_SYS
 70
0
 62
7
  6
CONTINUOUS
370
-3
390
F
  0
LAYER
  5
201
100
AcDbSymbolTableRecord
100
AcDbLayerTableRecord
  2
03_AXES
 70
0
 62
7
  6
CONTINUOUS
370
-3
390
F
  0
LAYER
  5
202
100
AcDbSymbolTableRecord
100
AcDbLayerTableRecord
  2
04_POINTS
 70
0
 62
7
  6
CONTINUOUS
370
-3
390
F
  0
LAYER
  5
203
100
AcDbSymbolTableRecord
100
AcDbLayerTableRecord
  2
05_CURVES
 70
0
 62
7
  6
CONTINUOUS
370
-3
390
F
  0
LAYER
  5
204
100
AcDbSymbolTableRecord
100
AcDbLayerTableRecord
  2
06_SURFS
 70
0
 62
7
  6
CONTINUOUS
370
-3
390
F
  0
LAYER
  5
205
100
AcDbSymbolTableRecord
100
AcDbLayerTableRecord
  2
07_COSMETICS
 70
0
 62
7
  6
CONTINUOUS
370
-3
390
F
  0
LAYER
  5
206
100
AcDbSymbolTableRecord
100
AcDbLayerTableRecord
  2
10_NOTES
 70
0
 62
7
  6
CONTINUOUS
370
-3
390
F
  0
LAYER
  5
207
100
AcDbSymbolTableRecord
100
AcDbLayerTableRecord
  2
11_NOTES_PUB
 70
0
 62
7
  6
CONTINUOUS
370
-3
390
F
  0
LAYER
  5
208
100
AcDbSymbolTableRecord
100
AcDbLayerTableRecord
  2
13_REF_GTOL
 70
0
 62
7
  6
CONTINUOUS
370
-3
390
F
  0
LAYER
  5
209
100
AcDbSymbolTableRecord
100
AcDbLayerTableRecord
  2
16_MISC
 70
0
 62
7
  6
CONTINUOUS
370
-3
390
F
  0
LAYER
  5
20A
100
AcDbSymbolTableRecord
100
AcDbLayerTableRecord
  2
17_NO_PRINT
 70
0
 62
7
  6
CONTINUOUS
370
-3
390
F
  0
LAYER
  5
20B
100
AcDbSymbolTableRecord
100
AcDbLayerTableRecord
  2
18_DATUM_CAMS_JOINTS
 70
0
 62
7
  6
CONTINUOUS
370
-3
390
F
  0
LAYER
  5
20C
100
AcDbSymbolTableRecord
100
AcDbLayerTableRecord
  2
19_DATUM_FUNCTIONAL
 70
0
 62
7
  6
CONTINUOUS
370
-3
390
F
  0
LAYER
  5
20D
100
AcDbSymbolTableRecord
100
AcDbLayerTableRecord
  2
20_DATUM_KINEMATIC_SCHEME
 70
0
 62
7
  6
CONTINUOUS
370
-3
390
F
  0
ENDTAB
  0
TABLE
  2
STYLE
  5
3
100
AcDbSymbolTable
 70
1
  0
STYLE
  5
11
100
AcDbSymbolTableRecord
100
AcDbTextStyleTableRecord
  2
STANDARD
 70
0
 40
0.0
 41
1.0
 50
0.0
 71
0
 42
0.2
  3
ARIAL.TTF
  4

  0
STYLE
  5
20E
100
AcDbSymbolTableRecord
100
AcDbTextStyleTableRecord
  2
TEXTSTYLE_1
 70
0
 40
0.0
 41
0.8
 50
0.0
 71
0
 42
0.2
  3
gdt
  4

  0
ENDTAB
  0
TABLE
  2
VIEW
  5
6
100
AcDbSymbolTable
 70
0
  0
ENDTAB
  0
TABLE
  2
UCS
  5
7
100
AcDbSymbolTable
 70
0
  0
ENDTAB
  0
TABLE
  2
APPID
  5
9
100
AcDbSymbolTable
 70
1
  0
APPID
  5
20F
100
AcDbSymbolTableRecord
100
AcDbRegAppTableRecord
  2
ACAD
 70
0
  0
ENDTAB
  0
TABLE
  2
BLOCK_RECORD
  5
1
100
AcDbSymbolTable
 70
0
  0
BLOCK_RECORD
  5
210
100
AcDbSymbolTableRecord
100
AcDbBlockTableRecord
  2
*Model_Space
  0
BLOCK_RECORD
  5
211
100
AcDbSymbolTableRecord
100
AcDbBlockTableRecord
  2
*Paper_Space
  0
BLOCK_RECORD
  5
212
100
AcDbSymbolTableRecord
100
AcDbBlockTableRecord
  2
_FILLED
  0
ENDTAB
  0
TABLE
  2
DIMSTYLE
  5
A
100
AcDbSymbolTable
 70
1
100
AcDbDimStyleTable
 71
0
  0
DIMSTYLE
105
213
100
AcDbSymbolTableRecord
100
AcDbDimStyleTableRecord
  2
STANDARD
 70
0
  3

  4

 40
1.0
 41
0.8573545254
 42
1.0
 43
0.38
 44
1.0
 45
0.0
 46
0.0
 47
0.01
 48
0.01
140
1.2002963355
141
0.09
142
0.0
143
25.4
144
1.0
145
0.0
146
1.0
147
0.625
 71
1
 72
0
 73
0
 74
0
 75
0
 76
0
 77
1
 78
8
 79
2
170
0
171
1
172
0
173
0
174
0
175
0
176
0
177
0
178
0
270
2
179
2
271
2
272
2
273
2
274
2
275
0
280
0
281
0
282
0
283
1
284
8
285
0
286
0
287
3
288
0
340
11
278
46
341
212
342
212
343
212
344
212
  0
ENDTAB
  0
ENDSEC
  0
SECTION
  2
BLOCKS
  0
BLOCK
  5
20
100
AcDbEntity
  8
0
100
AcDbBlockBegin
  2
*Model_Space
 70
0
 10
0.0
 20
0.0
 30
0.0
  3
*Model_Space
  1

  0
ENDBLK
  5
21
100
AcDbEntity
  8
0
100
AcDbBlockEnd
  0
BLOCK
  5
1C
100
AcDbEntity
  8
0
100
AcDbBlockBegin
  2
*Paper_Space
 70
0
 10
0.0
 20
0.0
 30
0.0
  3
*Paper_Space
  1

  0
ENDBLK
  5
1D
100
AcDbEntity
  8
0
100
AcDbBlockEnd
  0
BLOCK
  5
214
100
AcDbEntity
  8
0
100
AcDbBlockBegin
  2
_FILLED
 70
64
 10
0.0
 20
0.0
  3
_FILLED
  1

  0
SOLID
  5
215
100
AcDbEntity
  8
0
  6
BYBLOCK
 62
0
100
AcDbTrace
 10
0.0
 20
0.0
 11
-1.0
 21
0.25
 12
-1.0
 22
-0.25
 13
-1.0
 23
-0.25
  0
ENDBLK
  5
216
100
AcDbEntity
  8
0
  6
BYBLOCK
 62
0
100
AcDbBlockEnd
  0
ENDSEC
  0
SECTION
  2
ENTITIES
  0
LINE
  5
217
100
AcDbEntity
  8
0
100
AcDbLine
 62
7
  6
BYLAYER
 10
18.502790593
 20
72.8841985402
 11
20.270550186
 21
73.9048089249
  0
LINE
  5
218
100
AcDbEntity
  8
0
100
AcDbLine
 62
7
  6
BYLAYER
 10
20.2705649059
 20
71.863596654
 11
22.0383244989
 21
72.8842070386
  0
LINE
  5
219
100
AcDbEntity
  8
0
100
AcDbLine
 62
7
  6
BYLAYER
 10
26.6450896004
 20
72.5922127014
 11
23.8276745798
 21
70.9655870904
  0
LINE
  5
21A
100
AcDbEntity
  8
0
100
AcDbLine
 62
7
  6
BYLAYER
 10
27.1414575734
 20
30.7588068284
 11
30.9585284016
 21
28.5550698134
  0
LINE
  5
21B
100
AcDbEntity
  8
0
100
AcDbLine
 62
7
  6
BYLAYER
 10
27.1047450718
 20
67.5912437423
 11
22.7207012811
 21
65.0601299882
  0
LINE
  5
21C
100
AcDbEntity
  8
0
100
AcDbLine
 62
7
  6
BYLAYER
 10
31.5242161817
 20
29.6852894172
 11
28.4093317066
 21
31.4836281236
  0
LINE
  5
21D
100
AcDbEntity
  8
0
100
AcDbLine
 62
7
  6
BYLAYER
 10
18.502790593
 20
72.8841985402
 11
18.502790593
 21
57.8229030969
  0
LINE
  5
21E
100
AcDbEntity
  8
0
100
AcDbLine
 62
7
  6
BYLAYER
 10
20.5109788386
 20
61.203525154
 11
22.7207012811
 21
62.4793402219
  0
LWPOLYLINE
  5
21F
100
AcDbEntity
  8
0
100
AcDbPolyline
 62
7
  6
BYLAYER
 90
3
 70
0
 10
23.2004215714
 20
30.8562243523
 10
24.13625664
 20
31.0103994206
 10
24.2818995123
 20
31.1203979808
  0
LINE
  5
220
100
AcDbEntity
  8
0
100
AcDbLine
 62
7
  6
BYLAYER
 10
20.2705649059
 20
57.9064066738
 11
20.2705649059
 21
71.863596654
  0
LINE
  5
221
100
AcDbEntity
  8
0
100
AcDbLine
 62
7
  6
BYLAYER
 10
20.5109788386
 20
61.203525154
 11
20.5109788386
 21
57.8490494307
  0
LWPOLYLINE
  5
222
100
AcDbEntity
  8
0
100
AcDbPolyline
 62
7
  6
BYLAYER
 90
3
 70
0
 10
12.1308502092
 20
52.9201513917
 10
10.8593989429
 20
51.9598722755
 10
10.6965109521
 20
51.6420595898
  0
LINE
  5
223
100
AcDbEntity
  8
0
100
AcDbLine
 62
7
  6
BYLAYER
 10
11.2847397302
 20
54.4771538858
 11
15.2247334104
 21
56.774324631
  0
LINE
  5
224
100
AcDbEntity
  8
0
100
AcDbLine
 62
7
  6
BYLAYER
 10
15.9105303504
 20
57.0712626989
 11
16.2750683468
 21
57.2817275529
  0
LINE
  5
225
100
AcDbEntity
  8
0
100
AcDbLine
 62
7
  6
BYLAYER
 10
33.6455453571
 20
34.8292860073
 11
36.5553018761
 21
33.1493753025
  0
LINE
  5
226
100
AcDbEntity
  8
0
100
AcDbLine
 62
7
  6
BYLAYER
 10
22.7207012811
 20
65.0601299882
 11
22.7207012811
 21
62.4793402219
  0
LINE
  5
227
100
AcDbEntity
  8
0
100
AcDbLine
 62
7
  6
BYLAYER
 10
24.5131879292
 20
66.0950164596
 11
24.5131879292
 21
70.2305494915
  0
LINE
  5
228
100
AcDbEntity
  8
0
100
AcDbLine
 62
7
  6
BYLAYER
 10
11.8435384559
 20
52.6283244584
 11
12.1970903745
 21
52.8324465353
  0
LINE
  5
229
100
AcDbEntity
  8
0
100
AcDbLine
 62
7
  6
BYLAYER
 10
23.2425005646
 20
57.073286208
 11
25.2822193867
 21
58.2509113895
  0
LINE
  5
22A
100
AcDbEntity
  8
0
100
AcDbLine
 62
7
  6
BYLAYER
 10
55.6235192932
 20
39.2382950848
 11
52.2798814603
 21
38.8677790689
  0
LINE
  5
22B
100
AcDbEntity
  8
0
100
AcDbLine
 62
7
  6
BYLAYER
 10
57.3728143196
 20
40.0738889167
 11
56.006318388
 21
39.9224644342
  0
LINE
  5
22C
100
AcDbEntity
  8
0
100
AcDbLine
 62
7
  6
BYLAYER
 10
52.2020997438
 20
39.5009104244
 11
50.7384062705
 21
39.3387152642
  0
LINE
  5
22D
100
AcDbEntity
  8
0
100
AcDbLine
 62
7
  6
BYLAYER
 10
52.5977443719
 20
39.9597536411
 11
55.9413822048
 21
40.330269657
  0
LINE
  5
22E
100
AcDbEntity
  8
0
100
AcDbLine
 62
7
  6
BYLAYER
 10
52.8484003767
 20
40.3976964143
 11
55.8087150152
 21
40.7257355264
  0
LINE
  5
22F
100
AcDbEntity
  8
0
100
AcDbLine
 62
7
  6
BYLAYER
 10
56.2844484356
 20
40.8779421849
 11
53.0466224064
 21
40.5191514125
  0
LINE
  5
230
100
AcDbEntity
  8
0
100
AcDbLine
 62
7
  6
BYLAYER
 10
37.1209896563
 20
34.8640387417
 11
34.5647879998
 21
36.3398290692
  0
LINE
  5
231
100
AcDbEntity
  8
0
100
AcDbLine
 62
7
  6
BYLAYER
 10
41.7065402884
 20
34.094386675
 11
41.0623004566
 21
34.4663303009
  0
LINE
  5
232
100
AcDbEntity
  8
0
100
AcDbLine
 62
7
  6
BYLAYER
 10
34.7681285176
 20
38.1003927634
 11
36.9512844998
 21
36.8399755839
  0
LINE
  5
233
100
AcDbEntity
  8
0
100
AcDbLine
 62
7
  6
BYLAYER
 10
52.1030477991
 20
71.0013351901
 11
49.1732442378
 21
69.3098224123
  0
LINE
  5
234
100
AcDbEntity
  8
0
100
AcDbLine
 62
7
  6
BYLAYER
 10
55.0728839154
 20
72.6412805373
 11
54.1536489271
 21
72.1852432364
  0
LINE
  5
235
100
AcDbEntity
  8
0
100
AcDbLine
 62
7
  6
BYLAYER
 10
46.1613315569
 20
32.7472235472
 11
42.1229833731
 21
35.0787122129
  0
LINE
  5
236
100
AcDbEntity
  8
0
100
AcDbLine
 62
7
  6
BYLAYER
 10
43.6864681266
 20
35.2375806109
 11
42.9281280528
 21
35.6753985519
  0
LINE
  5
237
100
AcDbEntity
  8
0
100
AcDbLine
 62
7
  6
BYLAYER
 10
41.2292423448
 20
64.1722386739
 11
41.9384299921
 21
64.5816859089
  0
LINE
  5
238
100
AcDbEntity
  8
0
100
AcDbLine
 62
7
  6
BYLAYER
 10
37.4745445188
 20
61.9310990965
 11
39.2423041119
 21
62.9517094812
  0
LINE
  5
239
100
AcDbEntity
  8
0
100
AcDbLine
 62
7
  6
BYLAYER
 10
41.7949301249
 20
63.8456460703
 11
42.5041177722
 21
64.2550933053
  0
LINE
  5
23A
100
AcDbEntity
  8
0
100
AcDbLine
 62
7
  6
BYLAYER
 10
33.7159009769
 20
58.7121920938
 11
37.4745445188
 21
60.8822330011
  0
LINE
  5
23B
100
AcDbEntity
  8
0
100
AcDbLine
 62
7
  6
BYLAYER
 10
44.2542078652
 20
64.1428308371
 11
43.6885247954
 21
63.816235514
  0
LINE
  5
23C
100
AcDbEntity
  8
0
100
AcDbLine
 62
7
  6
BYLAYER
 10
39.2423188317
 20
60.9104972102
 11
41.0100784247
 21
61.9311075949
  0
LINE
  5
23D
100
AcDbEntity
  8
0
100
AcDbLine
 62
7
  6
BYLAYER
 10
55.0728839154
 20
69.980677539
 11
54.4719063128
 21
69.6337050295
  0
LINE
  5
23E
100
AcDbEntity
  8
0
100
AcDbLine
 62
7
  6
BYLAYER
 10
46.1613315569
 20
35.3750274812
 11
45.042923721
 21
36.0207259387
  0
LINE
  5
23F
100
AcDbEntity
  8
0
100
AcDbLine
 62
7
  6
BYLAYER
 10
46.1613315569
 20
35.3750274812
 11
45.1006758011
 21
36.0540689187
  0
LINE
  5
240
100
AcDbEntity
  8
0
100
AcDbLine
 62
7
  6
BYLAYER
 10
31.8777710443
 20
34.0865666621
 11
31.8777710443
 21
29.8894202485
  0
LINE
  5
241
100
AcDbEntity
  8
0
100
AcDbLine
 62
7
  6
BYLAYER
 10
47.5705133802
 20
68.049844042
 11
44.0137810791
 21
64.6269712475
  0
LINE
  5
242
100
AcDbEntity
  8
0
100
AcDbLine
 62
7
  6
BYLAYER
 10
48.7344919258
 20
68.9759316601
 11
47.7366673929
 21
68.0238206542
  0
LINE
  5
243
100
AcDbEntity
  8
0
100
AcDbLine
 62
7
  6
BYLAYER
 10
43.8476263164
 20
62.7445752691
 11
43.7748556842
 21
62.7025613757
  0
LINE
  5
244
100
AcDbEntity
  8
0
100
AcDbLine
 62
7
  6
BYLAYER
 10
58.3963146095
 20
69.0009423011
 11
57.9720414429
 21
68.7559895363
  0
LINE
  5
245
100
AcDbEntity
  8
0
100
AcDbLine
 62
7
  6
BYLAYER
 10
59.6691047832
 20
69.0009653511
 11
60.5883397716
 21
69.457002652
  0
LWPOLYLINE
  5
246
100
AcDbEntity
  8
0
100
AcDbPolyline
 62
7
  6
BYLAYER
 90
8
 70
0
 10
32.4435129935
 20
38.6261655555
 10
32.0347039573
 20
42.1427321674
 10
30.8445953248
 20
45.8385294125
 10
28.9655626715
 20
49.4275960397
 10
26.5544048816
 20
52.6091601171
 10
23.8023631454
 20
55.1315549545
 10
20.9345239538
 20
56.7876782913
 10
18.1846328303
 20
57.4437864145
  0
LINE
  5
247
100
AcDbEntity
  8
0
100
AcDbLine
 62
7
  6
BYLAYER
 10
33.6455453571
 20
30.1064641314
 11
33.6455453571
 21
34.8292860073
  0
LINE
  5
248
100
AcDbEntity
  8
0
100
AcDbLine
 62
7
  6
BYLAYER
 10
45.3502184596
 20
63.8553962215
 11
48.9069507608
 21
67.278269016
  0
LINE
  5
249
100
AcDbEntity
  8
0
100
AcDbLine
 62
7
  6
BYLAYER
 10
49.007600013
 20
66.987817794
 11
48.3004961758
 21
66.3073261847
  0
LINE
  5
24A
100
AcDbEntity
  8
0
100
AcDbLine
 62
7
  6
BYLAYER
 10
46.0943322037
 20
64.1841923639
 11
45.9204262311
 21
64.0168314348
  0
LINE
  5
24B
100
AcDbEntity
  8
0
100
AcDbLine
 62
7
  6
BYLAYER
 10
46.5106215775
 20
64.1186146539
 11
48.2546960777
 21
65.7970499853
  0
LINE
  5
24C
100
AcDbEntity
  8
0
100
AcDbLine
 62
7
  6
BYLAYER
 10
48.535344431
 20
65.6296066667
 11
48.50862673
 21
65.6038945005
  0
LINE
  5
24D
100
AcDbEntity
  8
0
100
AcDbLine
 62
7
  6
BYLAYER
 10
54.6251082357
 20
66.0888299697
 11
57.6185036553
 21
67.8170573049
  0
LINE
  5
24E
100
AcDbEntity
  8
0
100
AcDbLine
 62
7
  6
BYLAYER
 10
48.1079558673
 20
61.917918725
 11
47.5422727975
 21
61.5913234019
  0
LINE
  5
24F
100
AcDbEntity
  8
0
100
AcDbLine
 62
7
  6
BYLAYER
 10
48.1079558673
 20
61.7954433624
 11
47.5422727975
 21
61.4688480393
  0
LINE
  5
250
100
AcDbEntity
  8
0
100
AcDbLine
 62
7
  6
BYLAYER
 10
57.23171838
 20
66.8588958796
 11
57.6185036553
 21
67.0822051295
  0
LINE
  5
251
100
AcDbEntity
  8
0
100
AcDbLine
 62
7
  6
BYLAYER
 10
59.6691047832
 20
68.2661131757
 11
60.5883397716
 21
68.7968305757
  0
LINE
  5
252
100
AcDbEntity
  8
0
100
AcDbLine
 62
7
  6
BYLAYER
 10
48.3024175184
 20
60.9075191183
 11
47.5932298711
 21
60.4980718832
  0
LINE
  5
253
100
AcDbEntity
  8
0
100
AcDbLine
 62
7
  6
BYLAYER
 10
56.0039721997
 20
65.2927604983
 11
57.9741725941
 21
66.4302494365
  0
LINE
  5
254
100
AcDbEntity
  8
0
100
AcDbLine
 62
7
  6
BYLAYER
 10
47.7876703825
 20
60.3858141413
 11
43.6864681266
 21
58.0179980488
  0
LINE
  5
255
100
AcDbEntity
  8
0
100
AcDbLine
 62
7
  6
BYLAYER
 10
48.8681052985
 20
60.5809265146
 11
47.7876703825
 21
59.9571408485
  0
LINE
  5
256
100
AcDbEntity
  8
0
100
AcDbLine
 62
7
  6
BYLAYER
 10
47.5401731467
 20
46.4848305676
 11
47.6401705298
 21
46.4749294692
  0
LINE
  5
257
100
AcDbEntity
  8
0
100
AcDbLine
 62
7
  6
BYLAYER
 10
47.4341184639
 20
43.6475181175
 11
50.6160857313
 21
42.6676834708
  0
LINE
  5
258
100
AcDbEntity
  8
0
100
AcDbLine
 62
7
  6
BYLAYER
 10
49.9584736869
 20
43.0473473725
 11
47.8371621753
 21
43.7005704703
  0
LINE
  5
259
100
AcDbEntity
  8
0
100
AcDbLine
 62
7
  6
BYLAYER
 10
50.6025226477
 20
43.334723909
 11
48.0019029508
 21
44.1794424148
  0
LINE
  5
25A
100
AcDbEntity
  8
0
100
AcDbLine
 62
7
  6
BYLAYER
 10
50.7384062705
 20
39.3387152642
 11
50.6160857313
 21
39.4093354627
  0
LINE
  5
25B
100
AcDbEntity
  8
0
100
AcDbLine
 62
7
  6
BYLAYER
 10
52.2798814603
 20
38.8677790689
 11
51.3473071205
 21
39.4061889346
  0
LWPOLYLINE
  5
25C
100
AcDbEntity
  8
0
100
AcDbPolyline
 62
7
  6
BYLAYER
 90
8
 70
0
 10
34.0167991594
 20
42.2901453636
 10
33.6746058611
 20
45.1070530315
 10
32.6809790674
 20
48.0627097411
 10
31.1210316646
 20
50.9046540069
 10
29.1380554037
 20
53.3717234045
 10
26.9053623597
 20
55.2501485306
 10
25.7564587994
 20
55.91413312
 10
24.6428997113
 20
56.2644295108
  0
LINE
  5
25D
100
AcDbEntity
  8
0
100
AcDbLine
 62
7
  6
BYLAYER
 10
49.1902846009
 20
60.5015445597
 11
49.3736729135
 21
60.6074232193
  0
LINE
  5
25E
100
AcDbEntity
  8
0
100
AcDbLine
 62
7
  6
BYLAYER
 10
60.5883397716
 20
66.7963996538
 11
57.9741725941
 21
65.2871185393
  0
LINE
  5
25F
100
AcDbEntity
  8
0
100
AcDbLine
 62
7
  6
BYLAYER
 10
37.4745445188
 20
53.3724197736
 11
36.9512844998
 21
53.0703172641
  0
LINE
  5
260
100
AcDbEntity
  8
0
100
AcDbLine
 62
7
  6
BYLAYER
 10
57.9741725941
 20
65.0013426933
 11
60.8004763549
 21
66.6331001902
  0
LINE
  5
261
100
AcDbEntity
  8
0
100
AcDbLine
 62
7
  6
BYLAYER
 10
50.3549756482
 20
60.3656519519
 11
50.2646296363
 21
60.313490969
  0
LINE
  5
262
100
AcDbEntity
  8
0
100
AcDbLine
 62
7
  6
BYLAYER
 10
49.4514602235
 20
59.2642934759
 11
49.1902846009
 21
59.1135045599
  0
LINE
  5
263
100
AcDbEntity
  8
0
100
AcDbLine
 62
7
  6
BYLAYER
 10
51.0267298871
 20
59.9778232352
 11
50.9363838752
 21
59.9256622522
  0
LINE
  5
264
100
AcDbEntity
  8
0
100
AcDbLine
 62
7
  6
BYLAYER
 10
48.8681052985
 20
58.2947197467
 11
47.9648645753
 21
57.7732365848
  0
LINE
  5
265
100
AcDbEntity
  8
0
100
AcDbLine
 62
7
  6
BYLAYER
 10
62.0591279999
 20
65.9064337635
 11
64.7814777732
 21
67.4781737559
  0
LINE
  5
266
100
AcDbEntity
  8
0
100
AcDbLine
 62
7
  6
BYLAYER
 10
48.0019029508
 20
57.6517322975
 11
50.1232144624
 21
58.8764647591
  0
LINE
  5
267
100
AcDbEntity
  8
0
100
AcDbLine
 62
7
  6
BYLAYER
 10
57.9741725941
 20
63.4091904932
 11
63.913842511
 21
66.8384400488
  0
LINE
  5
268
100
AcDbEntity
  8
0
100
AcDbLine
 62
7
  6
BYLAYER
 10
50.6347910769
 20
43.3202602155
 11
50.6025226477
 21
43.334723909
  0
LINE
  5
269
100
AcDbEntity
  8
0
100
AcDbLine
 62
7
  6
BYLAYER
 10
51.5395276755
 20
41.1595638241
 11
51.5748831618
 21
41.1391517863
  0
LINE
  5
26A
100
AcDbEntity
  8
0
100
AcDbLine
 62
7
  6
BYLAYER
 10
47.4341184639
 20
43.9332626014
 11
47.8371621753
 21
43.7005704703
  0
LINE
  5
26B
100
AcDbEntity
  8
0
100
AcDbLine
 62
7
  6
BYLAYER
 10
50.6160857313
 20
42.6676834708
 11
49.9584736869
 21
43.0473473725
  0
LINE
  5
26C
100
AcDbEntity
  8
0
100
AcDbLine
 62
7
  6
BYLAYER
 10
48.0019029508
 20
44.1794424148
 11
47.4341184639
 21
44.5072455253
  0
LINE
  5
26D
100
AcDbEntity
  8
0
100
AcDbLine
 62
7
  6
BYLAYER
 10
56.006318388
 20
39.9224644342
 11
55.8490964362
 21
40.0132345169
  0
LINE
  5
26E
100
AcDbEntity
  8
0
100
AcDbLine
 62
7
  6
BYLAYER
 10
50.7384062705
 20
43.0914695443
 11
50.0666520316
 21
43.4792982611
  0
LINE
  5
26F
100
AcDbEntity
  8
0
100
AcDbLine
 62
7
  6
BYLAYER
 10
48.0019029508
 20
44.710168986
 11
47.4341184639
 21
45.0379720964
  0
LINE
  5
270
100
AcDbEntity
  8
0
100
AcDbLine
 62
7
  6
BYLAYER
 10
36.9512844998
 20
36.8399755839
 11
36.9512844998
 21
53.0703172641
  0
LINE
  5
271
100
AcDbEntity
  8
0
100
AcDbLine
 62
7
  6
BYLAYER
 10
37.4745445188
 20
61.9310990965
 11
37.4745445188
 21
35.068169573
  0
LINE
  5
272
100
AcDbEntity
  8
0
100
AcDbLine
 62
7
  6
BYLAYER
 10
37.8881683804
 20
32.5559290546
 11
37.8881683804
 21
32.8508504824
  0
LINE
  5
273
100
AcDbEntity
  8
0
100
AcDbLine
 62
7
  6
BYLAYER
 10
39.2423188317
 20
34.7007696204
 11
39.2423188317
 21
60.9104972102
  0
LINE
  5
274
100
AcDbEntity
  8
0
100
AcDbLine
 62
7
  6
BYLAYER
 10
45.9204262311
 20
64.0168314348
 11
45.5371782836
 21
63.4021242777
  0
LINE
  5
275
100
AcDbEntity
  8
0
100
AcDbLine
 62
7
  6
BYLAYER
 10
49.2336807894
 20
62.3717296162
 11
50.7894566752
 21
63.8689530514
  0
LINE
  5
276
100
AcDbEntity
  8
0
100
AcDbLine
 62
7
  6
BYLAYER
 10
54.1777782258
 20
65.7467194556
 11
53.0451965436
 21
64.6567630857
  0
LINE
  5
277
100
AcDbEntity
  8
0
100
AcDbLine
 62
7
  6
BYLAYER
 10
50.2660609881
 20
61.7756981146
 11
52.1201224134
 21
63.5599809548
  0
LINE
  5
278
100
AcDbEntity
  8
0
100
AcDbLine
 62
7
  6
BYLAYER
 10
52.219386099
 20
63.5026723357
 11
50.3653246738
 21
61.7183894955
  0
LINE
  5
279
100
AcDbEntity
  8
0
100
AcDbLine
 62
7
  6
BYLAYER
 10
48.4947742197
 20
55.6500930672
 11
47.7876703825
 21
55.2418489134
  0
LINE
  5
27A
100
AcDbEntity
  8
0
100
AcDbLine
 62
7
  6
BYLAYER
 10
55.8087150152
 20
40.7257355264
 11
55.664139488
 21
40.8092043576
  0
LINE
  5
27B
100
AcDbEntity
  8
0
100
AcDbLine
 62
7
  6
BYLAYER
 10
47.4341184639
 20
45.6887323442
 11
48.3887048169
 21
45.1376141242
  0
LINE
  5
27C
100
AcDbEntity
  8
0
100
AcDbLine
 62
7
  6
BYLAYER
 10
51.5748831618
 20
43.507008796
 11
51.5395276755
 21
43.5274208337
  0
LINE
  5
27D
100
AcDbEntity
  8
0
100
AcDbLine
 62
7
  6
BYLAYER
 10
47.5401731467
 20
46.4848305676
 11
47.4482464386
 21
46.5379032766
  0
LINE
  5
27E
100
AcDbEntity
  8
0
100
AcDbLine
 62
7
  6
BYLAYER
 10
33.7159009769
 20
58.7121920938
 11
36.9512844998
 21
53.0703172641
  0
LINE
  5
27F
100
AcDbEntity
  8
0
100
AcDbLine
 62
7
  6
BYLAYER
 10
41.7065402884
 20
34.838280121
 11
41.7065402884
 21
34.094386675
  0
LINE
  5
280
100
AcDbEntity
  8
0
100
AcDbLine
 62
7
  6
BYLAYER
 10
50.2646296363
 20
60.313490969
 11
49.4514602235
 21
59.2724585
  0
LINE
  5
281
100
AcDbEntity
  8
0
100
AcDbLine
 62
7
  6
BYLAYER
 10
51.3368867258
 20
60.8897072552
 11
51.5107926984
 21
61.0570681843
  0
LINE
  5
282
100
AcDbEntity
  8
0
100
AcDbLine
 62
7
  6
BYLAYER
 10
53.7169566704
 20
63.1802020051
 11
55.5566421898
 21
64.9506499842
  0
LINE
  5
283
100
AcDbEntity
  8
0
100
AcDbLine
 62
7
  6
BYLAYER
 10
51.7456409536
 20
60.3793486662
 11
53.9518049257
 21
62.5024824871
  0
LINE
  5
284
100
AcDbEntity
  8
0
100
AcDbLine
 62
7
  6
BYLAYER
 10
62.3723035411
 20
43.6276124562
 11
62.445989674
 21
43.5960908205
  0
LINE
  5
285
100
AcDbEntity
  8
0
100
AcDbLine
 62
7
  6
BYLAYER
 10
52.8123145825
 20
45.7319646616
 11
52.8476700688
 21
45.7115526238
  0
LINE
  5
286
100
AcDbEntity
  8
0
100
AcDbLine
 62
7
  6
BYLAYER
 10
59.6691047832
 20
42.872888003
 11
58.4316175531
 21
43.5873354255
  0
LINE
  5
287
100
AcDbEntity
  8
0
100
AcDbLine
 62
7
  6
BYLAYER
 10
59.6691047832
 20
43.6077401784
 11
59.068027303
 21
43.9547645727
  0
LINE
  5
288
100
AcDbEntity
  8
0
100
AcDbLine
 62
7
  6
BYLAYER
 10
22.0383244989
 20
72.8842070386
 11
24.5131879292
 21
70.2305494915
  0
LINE
  5
289
100
AcDbEntity
  8
0
100
AcDbLine
 62
7
  6
BYLAYER
 10
42.5041177722
 20
63.436205654
 11
42.5041177722
 21
64.2550933053
  0
LINE
  5
28A
100
AcDbEntity
  8
0
100
AcDbLine
 62
7
  6
BYLAYER
 10
42.9283818409
 20
64.1326189625
 11
42.9283818409
 21
63.1912622211
  0
LINE
  5
28B
100
AcDbEntity
  8
0
100
AcDbLine
 62
7
  6
BYLAYER
 10
43.484941855
 20
37.1502345436
 11
43.484941855
 21
59.2774500478
  0
LINE
  5
28C
100
AcDbEntity
  8
0
100
AcDbLine
 62
7
  6
BYLAYER
 10
43.6864681266
 20
58.0179980488
 11
43.6864681266
 21
35.2375806109
  0
LINE
  5
28D
100
AcDbEntity
  8
0
100
AcDbLine
 62
7
  6
BYLAYER
 10
43.6885247954
 20
63.816235514
 11
43.6885247954
 21
63.6937601514
  0
LINE
  5
28E
100
AcDbEntity
  8
0
100
AcDbLine
 62
7
  6
BYLAYER
 10
50.934427708
 20
60.2441866718
 11
51.3368867258
 21
60.8897072552
  0
LINE
  5
28F
100
AcDbEntity
  8
0
100
AcDbLine
 62
7
  6
BYLAYER
 10
50.1232144624
 20
58.8846297833
 11
50.9363838752
 21
59.9256622522
  0
LINE
  5
290
100
AcDbEntity
  8
0
100
AcDbLine
 62
7
  6
BYLAYER
 10
49.5575313926
 20
51.6912491321
 11
48.4947742197
 21
51.0776696548
  0
LINE
  5
291
100
AcDbEntity
  8
0
100
AcDbLine
 62
7
  6
BYLAYER
 10
48.4947742197
 20
50.7918945142
 11
49.4493605727
 21
51.3430219124
  0
LINE
  5
292
100
AcDbEntity
  8
0
100
AcDbLine
 62
7
  6
BYLAYER
 10
47.6815950918
 20
49.3670843567
 11
47.4341184639
 21
49.2242045118
  0
LINE
  5
293
100
AcDbEntity
  8
0
100
AcDbLine
 62
7
  6
BYLAYER
 10
62.4738206567
 20
43.5811249432
 11
62.445989674
 21
43.5960908206
  0
LINE
  5
294
100
AcDbEntity
  8
0
100
AcDbLine
 62
7
  6
BYLAYER
 10
33.7159009769
 20
58.7121920938
 11
22.7207012811
 21
65.0601299882
  0
LINE
  5
295
100
AcDbEntity
  8
0
100
AcDbLine
 62
7
  6
BYLAYER
 10
60.5883397716
 20
43.4782855021
 11
62.0591279999
 21
42.6291447327
  0
LINE
  5
296
100
AcDbEntity
  8
0
100
AcDbLine
 62
7
  6
BYLAYER
 10
51.2132599899
 20
49.479135995
 11
51.9203697151
 21
49.0708952405
  0
LINE
  5
297
100
AcDbEntity
  8
0
100
AcDbLine
 62
7
  6
BYLAYER
 10
60.5883397716
 20
44.1384575784
 11
59.9872622914
 21
44.4854819727
  0
LINE
  5
298
100
AcDbEntity
  8
0
100
AcDbLine
 62
7
  6
BYLAYER
 10
53.8142964926
 20
48.0659359308
 11
53.6375153956
 21
48.1679982358
  0
LINE
  5
299
100
AcDbEntity
  8
0
100
AcDbLine
 62
7
  6
BYLAYER
 10
51.763700524
 20
49.3933722503
 11
51.2333682301
 21
49.6995528162
  0
LINE
  5
29A
100
AcDbEntity
  8
0
100
AcDbLine
 62
7
  6
BYLAYER
 10
51.205047248
 20
49.7193312306
 11
51.7353795419
 21
49.4131506647
  0
LINE
  5
29B
100
AcDbEntity
  8
0
100
AcDbLine
 62
7
  6
BYLAYER
 10
50.0045242094
 20
50.6837268643
 11
50.1459461544
 21
50.6020787134
  0
LINE
  5
29C
100
AcDbEntity
  8
0
100
AcDbLine
 62
7
  6
BYLAYER
 10
62.445989674
 20
43.5960908206
 11
62.3616586283
 21
43.644778271
  0
LINE
  5
29D
100
AcDbEntity
  8
0
100
AcDbLine
 62
7
  6
BYLAYER
 10
62.360594137
 20
43.6464948525
 11
62.4738316313
 21
43.5811186337
  0
LINE
  5
29E
100
AcDbEntity
  8
0
100
AcDbLine
 62
7
  6
BYLAYER
 10
50.0777401053
 20
50.7947723521
 11
49.8029124913
 21
50.9534405594
  0
LINE
  5
29F
100
AcDbEntity
  8
0
100
AcDbLine
 62
7
  6
BYLAYER
 10
49.4493605727
 20
51.3430219124
 11
49.2018685032
 21
51.4859082928
  0
LINE
  5
2A0
100
AcDbEntity
  8
0
100
AcDbLine
 62
7
  6
BYLAYER
 10
49.8089952206
 20
51.1494286152
 11
49.981793695
 21
51.0496656264
  0
LINE
  5
2A1
100
AcDbEntity
  8
0
100
AcDbLine
 62
7
  6
BYLAYER
 10
49.699356331
 20
51.3677858547
 11
49.3483118512
 21
51.5704568945
  0
LINE
  5
2A2
100
AcDbEntity
  8
0
100
AcDbLine
 62
7
  6
BYLAYER
 10
54.0455355146
 20
48.9122233952
 11
54.238558795
 21
48.8007838734
  0
LINE
  5
2A3
100
AcDbEntity
  8
0
100
AcDbLine
 62
7
  6
BYLAYER
 10
49.981793695
 20
51.4462941741
 11
49.5575259606
 21
51.6912397234
  0
LINE
  5
2A4
100
AcDbEntity
  8
0
100
AcDbLine
 62
7
  6
BYLAYER
 10
51.6484953075
 20
49.0611967894
 11
51.6704297039
 21
49.0462278328
  0
LINE
  5
2A5
100
AcDbEntity
  8
0
100
AcDbLine
 62
7
  6
BYLAYER
 10
51.205047248
 20
49.7193312306
 11
51.2334368319
 21
49.6996715698
  0
LINE
  5
2A6
100
AcDbEntity
  8
0
100
AcDbLine
 62
7
  6
BYLAYER
 10
51.7637691258
 20
49.3934910039
 11
51.7353795419
 21
49.4131506647
  0
LINE
  5
2A7
100
AcDbEntity
  8
0
100
AcDbLine
 62
7
  6
BYLAYER
 10
44.2011746358
 20
62.5404607859
 11
44.2011746358
 21
62.4564315824
  0
LINE
  5
2A8
100
AcDbEntity
  8
0
100
AcDbLine
 62
7
  6
BYLAYER
 10
46.1613315569
 20
35.3750274812
 11
46.1613315569
 21
32.7472235472
  0
LINE
  5
2A9
100
AcDbEntity
  8
0
100
AcDbLine
 62
7
  6
BYLAYER
 10
48.4947742197
 20
50.4900471959
 11
47.4341184639
 21
49.2965379811
  0
LINE
  5
2AA
100
AcDbEntity
  8
0
100
AcDbLine
 62
7
  6
BYLAYER
 10
63.843134443
 20
57.9385657445
 11
64.5502384027
 21
58.3468099691
  0
LINE
  5
2AB
100
AcDbEntity
  8
0
100
AcDbLine
 62
7
  6
BYLAYER
 10
50.7082672105
 20
49.8243390287
 11
50.9273235078
 21
49.950810486
  0
LINE
  5
2AC
100
AcDbEntity
  8
0
100
AcDbLine
 62
7
  6
BYLAYER
 10
51.2132599899
 20
49.479135995
 11
51.4142033218
 21
49.5951499892
  0
LINE
  5
2AD
100
AcDbEntity
  8
0
100
AcDbLine
 62
7
  6
BYLAYER
 10
33.6881800476
 20
38.8553909505
 11
35.7428613787
 21
40.0416546891
  0
LINE
  5
2AE
100
AcDbEntity
  8
0
100
AcDbLine
 62
7
  6
BYLAYER
 10
52.0636954339
 20
49.4230889811
 11
54.238558795
 21
50.6787394328
  0
LINE
  5
2AF
100
AcDbEntity
  8
0
100
AcDbLine
 62
7
  6
BYLAYER
 10
47.4341184639
 20
46.5297465353
 11
47.6815950918
 21
46.6726263802
  0
LINE
  5
2B0
100
AcDbEntity
  8
0
100
AcDbLine
 62
7
  6
BYLAYER
 10
51.9203697151
 20
49.0708952405
 11
54.0455355146
 21
50.297852963
  0
LINE
  5
2B1
100
AcDbEntity
  8
0
100
AcDbLine
 62
7
  6
BYLAYER
 10
47.5401731467
 20
46.4848305676
 11
47.6815963137
 21
46.5664807837
  0
LINE
  5
2B2
100
AcDbEntity
  8
0
100
AcDbLine
 62
7
  6
BYLAYER
 10
63.843134443
 20
55.5707087348
 11
64.6916590476
 21
56.0606017194
  0
LWPOLYLINE
  5
2B3
100
AcDbEntity
  8
0
100
AcDbPolyline
 62
7
  6
BYLAYER
 90
3
 70
0
 10
18.1846328303
 20
57.4437864145
 10
15.7746159496
 20
57.0489983823
 10
15.2474635246
 20
56.7855376522
  0
LINE
  5
2B4
100
AcDbEntity
  8
0
100
AcDbLine
 62
7
  6
BYLAYER
 10
62.0591279999
 20
45.3305728519
 11
61.7550671523
 21
45.5061184927
  0
LINE
  5
2B5
100
AcDbEntity
  8
0
100
AcDbLine
 62
7
  6
BYLAYER
 10
63.717945363
 20
44.5680413643
 11
62.8301698882
 21
45.0805871783
  0
LINE
  5
2B6
100
AcDbEntity
  8
0
100
AcDbLine
 62
7
  6
BYLAYER
 10
62.8644734697
 20
45.1146069912
 11
63.5620111969
 21
44.7118925072
  0
LINE
  5
2B7
100
AcDbEntity
  8
0
100
AcDbLine
 62
7
  6
BYLAYER
 10
54.0455355146
 20
50.297852963
 11
53.8121858839
 21
50.4325743872
  0
LINE
  5
2B8
100
AcDbEntity
  8
0
100
AcDbLine
 62
7
  6
BYLAYER
 10
24.5131879292
 20
69.0874461076
 11
27.1047450718
 21
67.5912437423
  0
LINE
  5
2B9
100
AcDbEntity
  8
0
100
AcDbLine
 62
7
  6
BYLAYER
 10
43.484941855
 20
58.1343466639
 11
43.6864681266
 21
58.0179980488
  0
LINE
  5
2BA
100
AcDbEntity
  8
0
100
AcDbLine
 62
7
  6
BYLAYER
 10
39.2423188317
 20
60.9104972102
 11
37.4745445188
 21
61.9310990965
  0
LINE
  5
2BB
100
AcDbEntity
  8
0
100
AcDbLine
 62
7
  6
BYLAYER
 10
20.2705649059
 20
71.863596654
 11
18.502790593
 21
72.8841985402
  0
LINE
  5
2BC
100
AcDbEntity
  8
0
100
AcDbLine
 62
7
  6
BYLAYER
 10
48.4947742197
 20
55.6500930672
 11
47.7876703825
 21
56.0583304224
  0
LINE
  5
2BD
100
AcDbEntity
  8
0
100
AcDbLine
 62
7
  6
BYLAYER
 10
49.8029124913
 20
50.5591760646
 11
51.6484953075
 21
49.0611967894
  0
LINE
  5
2BE
100
AcDbEntity
  8
0
100
AcDbLine
 62
7
  6
BYLAYER
 10
49.8029124913
 20
50.8517677035
 11
50.0045242094
 21
50.6837268643
  0
LINE
  5
2BF
100
AcDbEntity
  8
0
100
AcDbLine
 62
7
  6
BYLAYER
 10
50.1459461544
 20
50.6020787134
 11
51.205047248
 21
49.7193312306
  0
LINE
  5
2C0
100
AcDbEntity
  8
0
100
AcDbLine
 62
7
  6
BYLAYER
 10
51.7353795419
 20
49.4131506647
 11
50.0777401053
 21
50.7947723521
  0
LINE
  5
2C1
100
AcDbEntity
  8
0
100
AcDbLine
 62
7
  6
BYLAYER
 10
47.4341184639
 20
43.6475181175
 11
47.4341184639
 21
49.2965379811
  0
LINE
  5
2C2
100
AcDbEntity
  8
0
100
AcDbLine
 62
7
  6
BYLAYER
 10
47.5422727975
 20
61.5913234019
 11
47.5422727975
 21
61.4688480393
  0
LINE
  5
2C3
100
AcDbEntity
  8
0
100
AcDbLine
 62
7
  6
BYLAYER
 10
47.6815950918
 20
49.5750125326
 11
47.6815950918
 21
46.5664829002
  0
LINE
  5
2C4
100
AcDbEntity
  8
0
100
AcDbLine
 62
7
  6
BYLAYER
 10
47.7876703825
 20
55.2418489134
 11
47.7876703825
 21
60.3858141413
  0
LINE
  5
2C5
100
AcDbEntity
  8
0
100
AcDbLine
 62
7
  6
BYLAYER
 10
48.0019029508
 20
44.1794424148
 11
48.0019029508
 21
44.710168986
  0
LINE
  5
2C6
100
AcDbEntity
  8
0
100
AcDbLine
 62
7
  6
BYLAYER
 10
48.0019029508
 20
55.9346459896
 11
48.0019029508
 21
57.6517322975
  0
LINE
  5
2C7
100
AcDbEntity
  8
0
100
AcDbLine
 62
7
  6
BYLAYER
 10
48.1079558673
 20
61.917918725
 11
48.1079558673
 21
61.7954433624
  0
LINE
  5
2C8
100
AcDbEntity
  8
0
100
AcDbLine
 62
7
  6
BYLAYER
 10
48.302415752
 20
60.9075191183
 11
48.302415752
 21
61.0299892282
  0
LINE
  5
2C9
100
AcDbEntity
  8
0
100
AcDbLine
 62
7
  6
BYLAYER
 10
48.3887048169
 20
45.1376141242
 11
48.3887048169
 21
50.3706919679
  0
LINE
  5
2CA
100
AcDbEntity
  8
0
100
AcDbLine
 62
7
  6
BYLAYER
 10
48.4947742197
 20
50.4900471959
 11
48.4947742197
 21
55.6500930672
  0
LINE
  5
2CB
100
AcDbEntity
  8
0
100
AcDbLine
 62
7
  6
BYLAYER
 10
48.8681052985
 20
58.2947197467
 11
48.8681052985
 21
60.5809265146
  0
LINE
  5
2CC
100
AcDbEntity
  8
0
100
AcDbLine
 62
7
  6
BYLAYER
 10
47.6401705298
 20
46.4749294692
 11
47.6815950918
 21
46.5664829002
  0
LINE
  5
2CD
100
AcDbEntity
  8
0
100
AcDbLine
 62
7
  6
BYLAYER
 10
34.7681285176
 20
38.1003927634
 11
34.5810260151
 21
37.985422952
  0
LINE
  5
2CE
100
AcDbEntity
  8
0
100
AcDbLine
 62
7
  6
BYLAYER
 10
35.0781868278
 20
37.9213845643
 11
33.3780928909
 21
36.9398407311
  0
LINE
  5
2CF
100
AcDbEntity
  8
0
100
AcDbLine
 62
7
  6
BYLAYER
 10
24.1934831665
 20
31.2374650637
 11
24.5470350851
 21
31.4415871406
  0
LINE
  5
2D0
100
AcDbEntity
  8
0
100
AcDbLine
 62
7
  6
BYLAYER
 10
53.691983596
 20
48.1994452783
 11
48.3887048169
 21
45.1376141242
  0
LINE
  5
2D1
100
AcDbEntity
  8
0
100
AcDbLine
 62
7
  6
BYLAYER
 10
53.8142964926
 20
48.0659359308
 11
48.0019029508
 21
44.710168986
  0
LINE
  5
2D2
100
AcDbEntity
  8
0
100
AcDbLine
 62
7
  6
BYLAYER
 10
36.1911720934
 20
37.2788167585
 11
34.5647879998
 21
36.3398290692
  0
LINE
  5
2D3
100
AcDbEntity
  8
0
100
AcDbLine
 62
7
  6
BYLAYER
 10
64.7814777732
 20
46.9023128443
 11
64.4774169256
 21
47.0778584851
  0
LINE
  5
2D4
100
AcDbEntity
  8
0
100
AcDbLine
 62
7
  6
BYLAYER
 10
48.0019029508
 20
57.6517322975
 11
47.7876703825
 21
57.7754167303
  0
LINE
  5
2D5
100
AcDbEntity
  8
0
100
AcDbLine
 62
7
  6
BYLAYER
 10
47.7876703825
 20
57.8078990672
 11
47.864866272
 21
57.7633310079
  0
LINE
  5
2D6
100
AcDbEntity
  8
0
100
AcDbLine
 62
7
  6
BYLAYER
 10
47.8234438078
 20
57.8548882374
 11
47.7876703825
 21
57.875541567
  0
LINE
  5
2D7
100
AcDbEntity
  8
0
100
AcDbLine
 62
7
  6
BYLAYER
 10
41.0100784247
 20
61.9311075949
 11
39.2423041119
 21
62.9517094812
  0
LINE
  5
2D8
100
AcDbEntity
  8
0
100
AcDbLine
 62
7
  6
BYLAYER
 10
22.0383244989
 20
72.8842070386
 11
20.270550186
 21
73.9048089249
  0
LINE
  5
2D9
100
AcDbEntity
  8
0
100
AcDbLine
 62
7
  6
BYLAYER
 10
61.6157576502
 20
50.7737801319
 11
61.5804021639
 21
50.7941921696
  0
LINE
  5
2DA
100
AcDbEntity
  8
0
100
AcDbLine
 62
7
  6
BYLAYER
 10
41.0100784247
 20
61.9311075949
 11
43.484941855
 21
59.2774500478
  0
LINE
  5
2DB
100
AcDbEntity
  8
0
100
AcDbLine
 62
7
  6
BYLAYER
 10
44.0137810791
 20
64.6269712475
 11
44.1936620818
 21
64.1078749214
  0
LINE
  5
2DC
100
AcDbEntity
  8
0
100
AcDbLine
 62
7
  6
BYLAYER
 10
52.4917360295
 20
40.2757525056
 11
52.5977443719
 21
39.9597536411
  0
LINE
  5
2DD
100
AcDbEntity
  8
0
100
AcDbLine
 62
7
  6
BYLAYER
 10
49.1902846009
 20
60.907515982
 11
49.1902846009
 21
58.8254348184
  0
LINE
  5
2DE
100
AcDbEntity
  8
0
100
AcDbLine
 62
7
  6
BYLAYER
 10
49.4514602235
 20
59.2642934759
 11
49.4514602235
 21
59.2724585
  0
LINE
  5
2DF
100
AcDbEntity
  8
0
100
AcDbLine
 62
7
  6
BYLAYER
 10
49.5195922406
 20
59.3596821964
 11
49.5195922406
 21
60.1863326902
  0
LINE
  5
2E0
100
AcDbEntity
  8
0
100
AcDbLine
 62
7
  6
BYLAYER
 10
49.8029124913
 20
51.1388927807
 11
49.8029124913
 21
50.5591760646
  0
LINE
  5
2E1
100
AcDbEntity
  8
0
100
AcDbLine
 62
7
  6
BYLAYER
 10
49.981793695
 20
51.4462941741
 11
49.981793695
 21
51.0496656264
  0
LINE
  5
2E2
100
AcDbEntity
  8
0
100
AcDbLine
 62
7
  6
BYLAYER
 10
50.0666520316
 20
42.984891989
 11
50.0666520316
 21
43.4792982611
  0
LINE
  5
2E3
100
AcDbEntity
  8
0
100
AcDbLine
 62
7
  6
BYLAYER
 10
50.1232144624
 20
58.8764647591
 11
50.1232144624
 21
58.8846297833
  0
LINE
  5
2E4
100
AcDbEntity
  8
0
100
AcDbLine
 62
7
  6
BYLAYER
 10
50.6160857313
 20
35.956033602
 11
50.6160857313
 21
42.6676834708
  0
LINE
  5
2E5
100
AcDbEntity
  8
0
100
AcDbLine
 62
7
  6
BYLAYER
 10
50.7384062705
 20
39.3387152642
 11
50.7384062705
 21
43.0914695443
  0
LINE
  5
2E6
100
AcDbEntity
  8
0
100
AcDbLine
 62
7
  6
BYLAYER
 10
37.4745445188
 20
37.1420780934
 11
36.9512844998
 21
36.8399755839
  0
LINE
  5
2E7
100
AcDbEntity
  8
0
100
AcDbLine
 62
7
  6
BYLAYER
 10
61.5804021639
 20
50.7941921696
 11
52.8123145825
 21
45.7319646616
  0
LINE
  5
2E8
100
AcDbEntity
  8
0
100
AcDbLine
 62
7
  6
BYLAYER
 10
61.6157576502
 20
50.7737801319
 11
52.8476700688
 21
45.7115526238
  0
LINE
  5
2E9
100
AcDbEntity
  8
0
100
AcDbLine
 62
7
  6
BYLAYER
 10
37.1209896563
 20
34.8640387417
 11
37.4745475736
 21
35.0681642819
  0
LINE
  5
2EA
100
AcDbEntity
  8
0
100
AcDbLine
 62
7
  6
BYLAYER
 10
25.5152097748
 20
29.8291096252
 11
29.4746265383
 21
32.0926384026
  0
LINE
  5
2EB
100
AcDbEntity
  8
0
100
AcDbLine
 62
7
  6
BYLAYER
 10
62.0591279999
 20
68.6078618826
 11
62.745116164
 21
68.7141150201
  0
LINE
  5
2EC
100
AcDbEntity
  8
0
100
AcDbLine
 62
7
  6
BYLAYER
 10
61.5206401396
 20
69.5599860075
 11
62.8566867033
 21
69.7669270988
  0
LINE
  5
2ED
100
AcDbEntity
  8
0
100
AcDbLine
 62
7
  6
BYLAYER
 10
50.1232144624
 20
58.8764647591
 11
49.4514602235
 21
59.2642934759
  0
LINE
  5
2EE
100
AcDbEntity
  8
0
100
AcDbLine
 62
7
  6
BYLAYER
 10
50.1232144624
 20
58.8846297833
 11
49.4514602235
 21
59.2724585
  0
LINE
  5
2EF
100
AcDbEntity
  8
0
100
AcDbLine
 62
7
  6
BYLAYER
 10
47.7876703825
 20
60.3858141413
 11
26.6450896004
 21
72.5922127014
  0
LINE
  5
2F0
100
AcDbEntity
  8
0
100
AcDbLine
 62
7
  6
BYLAYER
 10
47.3831731093
 20
60.7033746711
 11
43.8476244836
 21
62.7445784437
  0
LINE
  5
2F1
100
AcDbEntity
  8
0
100
AcDbLine
 62
7
  6
BYLAYER
 10
41.9384299921
 20
64.5816859089
 11
42.5041177722
 21
64.2550933053
  0
LINE
  5
2F2
100
AcDbEntity
  8
0
100
AcDbLine
 62
7
  6
BYLAYER
 10
48.3024175184
 20
60.9075191183
 11
48.8681052985
 21
60.5809265146
  0
LINE
  5
2F3
100
AcDbEntity
  8
0
100
AcDbLine
 62
7
  6
BYLAYER
 10
42.9283818409
 20
64.1326189625
 11
43.6885247954
 21
63.6937601514
  0
LINE
  5
2F4
100
AcDbEntity
  8
0
100
AcDbLine
 62
7
  6
BYLAYER
 10
47.5422727975
 20
61.4688480393
 11
48.302415752
 21
61.0299892282
  0
LINE
  5
2F5
100
AcDbEntity
  8
0
100
AcDbLine
 62
7
  6
BYLAYER
 10
43.6885247954
 20
63.816235514
 11
47.5422727975
 21
61.5913234019
  0
LINE
  5
2F6
100
AcDbEntity
  8
0
100
AcDbLine
 62
7
  6
BYLAYER
 10
50.1127605654
 20
60.1190657591
 11
49.4617081479
 21
60.4949425441
  0
LINE
  5
2F7
100
AcDbEntity
  8
0
100
AcDbLine
 62
7
  6
BYLAYER
 10
49.3736729135
 20
60.6074232193
 11
49.1902846009
 21
60.7133001157
  0
LINE
  5
2F8
100
AcDbEntity
  8
0
100
AcDbLine
 62
7
  6
BYLAYER
 10
49.3697576351
 20
60.7602911504
 11
49.1902846009
 21
60.8639076109
  0
LINE
  5
2F9
100
AcDbEntity
  8
0
100
AcDbLine
 62
7
  6
BYLAYER
 10
45.4998143875
 20
63.4236958452
 11
45.3502184596
 21
63.8553962215
  0
LINE
  5
2FA
100
AcDbEntity
  8
0
100
AcDbLine
 62
7
  6
BYLAYER
 10
46.586327122
 20
63.9001453914
 11
46.5106215775
 21
64.1186146539
  0
LINE
  5
2FB
100
AcDbEntity
  8
0
100
AcDbLine
 62
7
  6
BYLAYER
 10
51.5395276755
 20
43.5274208337
 11
51.5395276755
 21
41.1595638241
  0
LINE
  5
2FC
100
AcDbEntity
  8
0
100
AcDbLine
 62
7
  6
BYLAYER
 10
51.5748831618
 20
43.507008796
 11
51.5748831618
 21
41.1391517863
  0
LINE
  5
2FD
100
AcDbEntity
  8
0
100
AcDbLine
 62
7
  6
BYLAYER
 10
39.2423188317
 20
34.7007696204
 11
43.484941855
 21
37.1502345436
  0
LINE
  5
2FE
100
AcDbEntity
  8
0
100
AcDbLine
 62
7
  6
BYLAYER
 10
31.5242161817
 20
29.6852894172
 11
31.877774099
 21
29.8894149575
  0
LINE
  5
2FF
100
AcDbEntity
  8
0
100
AcDbLine
 62
7
  6
BYLAYER
 10
42.6979163933
 20
35.4106479655
 11
38.4552933701
 21
32.9611830422
  0
LINE
  5
300
100
AcDbEntity
  8
0
100
AcDbLine
 62
7
  6
BYLAYER
 10
33.6455453571
 20
30.1064641314
 11
37.8881683804
 21
32.5559290546
  0
LINE
  5
301
100
AcDbEntity
  8
0
100
AcDbLine
 62
7
  6
BYLAYER
 10
43.6864681266
 20
35.2375806109
 11
45.1006758011
 21
36.0540689187
  0
LINE
  5
302
100
AcDbEntity
  8
0
100
AcDbLine
 62
7
  6
BYLAYER
 10
42.767223205
 20
34.706768587
 11
41.7065402884
 21
34.094386675
  0
LINE
  5
303
100
AcDbEntity
  8
0
100
AcDbLine
 62
7
  6
BYLAYER
 10
50.9363838752
 20
59.9256622522
 11
50.2646296363
 21
60.313490969
  0
LINE
  5
304
100
AcDbEntity
  8
0
100
AcDbLine
 62
7
  6
BYLAYER
 10
50.3549756482
 20
60.3656519519
 11
51.0267298871
 21
59.9778232352
  0
LINE
  5
305
100
AcDbEntity
  8
0
100
AcDbLine
 62
7
  6
BYLAYER
 10
43.4940649107
 20
64.4592142856
 11
44.1481395735
 21
64.0815926459
  0
LINE
  5
306
100
AcDbEntity
  8
0
100
AcDbLine
 62
7
  6
BYLAYER
 10
48.1079558673
 20
61.7954433624
 11
48.8680988218
 21
61.3565845513
  0
LINE
  5
307
100
AcDbEntity
  8
0
100
AcDbLine
 62
7
  6
BYLAYER
 10
50.934427708
 20
60.2441866718
 11
48.1079558673
 21
61.876014033
  0
LINE
  5
308
100
AcDbEntity
  8
0
100
AcDbLine
 62
7
  6
BYLAYER
 10
48.1079558673
 20
61.917918725
 11
44.2542078652
 21
64.1428308371
  0
LINE
  5
309
100
AcDbEntity
  8
0
100
AcDbLine
 62
7
  6
BYLAYER
 10
44.0137810791
 20
64.6269712475
 11
45.3502184596
 21
63.8553962215
  0
LINE
  5
30A
100
AcDbEntity
  8
0
100
AcDbLine
 62
7
  6
BYLAYER
 10
51.3368867258
 20
60.8897072552
 11
45.9204262311
 21
64.0168314348
  0
LINE
  5
30B
100
AcDbEntity
  8
0
100
AcDbLine
 62
7
  6
BYLAYER
 10
46.0943322037
 20
64.1841923639
 11
51.5107926984
 21
61.0570681843
  0
LINE
  5
30C
100
AcDbEntity
  8
0
100
AcDbLine
 62
7
  6
BYLAYER
 10
46.5106215775
 20
64.1186146539
 11
47.4639094905
 21
63.3934844369
  0
LINE
  5
30D
100
AcDbEntity
  8
0
100
AcDbLine
 62
7
  6
BYLAYER
 10
49.3736729135
 20
60.6074232193
 11
49.5195922406
 21
60.1863326902
  0
LINE
  5
30E
100
AcDbEntity
  8
0
100
AcDbLine
 62
7
  6
BYLAYER
 10
49.3697576351
 20
60.7602911504
 11
49.4617081479
 21
60.4949425441
  0
LINE
  5
30F
100
AcDbEntity
  8
0
100
AcDbLine
 62
7
  6
BYLAYER
 10
48.3004961758
 20
66.3073261847
 11
48.535344431
 21
65.6296066667
  0
LINE
  5
310
100
AcDbEntity
  8
0
100
AcDbLine
 62
7
  6
BYLAYER
 10
47.7366673929
 20
68.0238206542
 11
47.7669491134
 21
67.9364343843
  0
LINE
  5
311
100
AcDbEntity
  8
0
100
AcDbLine
 62
7
  6
BYLAYER
 10
51.0267298871
 20
59.9778232352
 11
50.934427708
 21
60.2441866718
  0
LINE
  5
312
100
AcDbEntity
  8
0
100
AcDbLine
 62
7
  6
BYLAYER
 10
48.9069507608
 20
67.278269016
 11
49.007600013
 21
66.987817794
  0
LINE
  5
313
100
AcDbEntity
  8
0
100
AcDbLine
 62
7
  6
BYLAYER
 10
55.9413822048
 20
40.330269657
 11
55.8087150152
 21
40.7257355264
  0
LINE
  5
314
100
AcDbEntity
  8
0
100
AcDbLine
 62
7
  6
BYLAYER
 10
54.0455355146
 20
50.297852963
 11
54.0455355146
 21
48.8118185638
  0
LINE
  5
315
100
AcDbEntity
  8
0
100
AcDbLine
 62
7
  6
BYLAYER
 10
54.1536489271
 20
72.1852432364
 11
54.1536489271
 21
71.4503910609
  0
LINE
  5
316
100
AcDbEntity
  8
0
100
AcDbLine
 62
7
  6
BYLAYER
 10
54.238558795
 20
50.6787394328
 11
54.238558795
 21
48.8007838734
  0
LINE
  5
317
100
AcDbEntity
  8
0
100
AcDbLine
 62
7
  6
BYLAYER
 10
55.0728839154
 20
70.9196824992
 11
55.0728839154
 21
69.980677539
  0
LINE
  5
318
100
AcDbEntity
  8
0
100
AcDbLine
 62
7
  6
BYLAYER
 10
52.4262805253
 20
40.2710528478
 11
52.2020997438
 21
39.5009104244
  0
LINE
  5
319
100
AcDbEntity
  8
0
100
AcDbLine
 62
7
  6
BYLAYER
 10
52.2798814603
 20
38.8677790689
 11
52.5977443719
 21
39.9597536411
  0
LINE
  5
31A
100
AcDbEntity
  8
0
100
AcDbLine
 62
7
  6
BYLAYER
 10
50.6160857313
 20
35.956033602
 11
50.2976533905
 21
35.1353158164
  0
LINE
  5
31B
100
AcDbEntity
  8
0
100
AcDbLine
 62
7
  6
BYLAYER
 10
64.5502384027
 20
58.3468099691
 11
64.6088119721
 21
58.4284218705
  0
LINE
  5
31C
100
AcDbEntity
  8
0
100
AcDbLine
 62
7
  6
BYLAYER
 10
60.5883397716
 20
43.4782855021
 11
59.6691047832
 21
42.872888003
  0
LINE
  5
31D
100
AcDbEntity
  8
0
100
AcDbLine
 62
7
  6
BYLAYER
 10
52.8476700688
 20
40.4042869125
 11
61.6157576502
 21
45.4665144205
  0
LINE
  5
31E
100
AcDbEntity
  8
0
100
AcDbLine
 62
7
  6
BYLAYER
 10
64.6916590476
 20
47.2015504936
 11
57.9741725941
 21
43.3232310318
  0
LINE
  5
31F
100
AcDbEntity
  8
0
100
AcDbLine
 62
7
  6
BYLAYER
 10
64.7814777732
 20
46.9023128443
 11
62.0591279999
 21
45.3305728519
  0
LINE
  5
320
100
AcDbEntity
  8
0
100
AcDbLine
 62
7
  6
BYLAYER
 10
37.1011429188
 20
30.8163424764
 11
32.8585198955
 21
28.3668775532
  0
LINE
  5
321
100
AcDbEntity
  8
0
100
AcDbLine
 62
7
  6
BYLAYER
 10
60.5883397716
 20
44.1384575784
 11
59.6691047832
 21
43.6077401784
  0
LINE
  5
322
100
AcDbEntity
  8
0
100
AcDbLine
 62
7
  6
BYLAYER
 10
58.698881519
 20
72.1673827353
 11
57.3628349557
 21
71.9604416441
  0
LINE
  5
323
100
AcDbEntity
  8
0
100
AcDbLine
 62
7
  6
BYLAYER
 10
55.7588720795
 20
72.7475336748
 11
55.0728839154
 21
72.6412805373
  0
LINE
  5
324
100
AcDbEntity
  8
0
100
AcDbLine
 62
7
  6
BYLAYER
 10
64.6916590476
 20
56.0606017194
 11
63.843134443
 21
56.5504865457
  0
LINE
  5
325
100
AcDbEntity
  8
0
100
AcDbLine
 62
7
  6
BYLAYER
 10
53.9518049257
 20
62.5024824871
 11
48.535344431
 21
65.6296066667
  0
LINE
  5
326
100
AcDbEntity
  8
0
100
AcDbLine
 62
7
  6
BYLAYER
 10
48.3004961758
 20
66.3073261847
 11
53.7169566704
 21
63.1802020051
  0
LINE
  5
327
100
AcDbEntity
  8
0
100
AcDbLine
 62
7
  6
BYLAYER
 10
50.7894566752
 20
63.8689530514
 11
48.2546960777
 21
65.7970499854
  0
LINE
  5
328
100
AcDbEntity
  8
0
100
AcDbLine
 62
7
  6
BYLAYER
 10
51.5107926984
 20
61.0570681843
 11
51.7456409536
 21
60.3793486662
  0
LINE
  5
329
100
AcDbEntity
  8
0
100
AcDbLine
 62
7
  6
BYLAYER
 10
57.3215004957
 20
69.1315710304
 11
57.3215004957
 21
69.6214724807
  0
LINE
  5
32A
100
AcDbEntity
  8
0
100
AcDbLine
 62
7
  6
BYLAYER
 10
57.6185036553
 20
67.0822051295
 11
57.6185036553
 21
67.8170573049
  0
LINE
  5
32B
100
AcDbEntity
  8
0
100
AcDbLine
 62
7
  6
BYLAYER
 10
57.9720414429
 20
68.7559895363
 11
57.9720414429
 21
69.2458909866
  0
LINE
  5
32C
100
AcDbEntity
  8
0
100
AcDbLine
 62
7
  6
BYLAYER
 10
57.9741725941
 20
66.4302494365
 11
57.9741725941
 21
63.4091904932
  0
LINE
  5
32D
100
AcDbEntity
  8
0
100
AcDbLine
 62
7
  6
BYLAYER
 10
57.9741725941
 20
43.3232310318
 11
57.9741725941
 21
40.3021720884
  0
LINE
  5
32E
100
AcDbEntity
  8
0
100
AcDbLine
 62
7
  6
BYLAYER
 10
62.8558650579
 20
68.7891109811
 11
62.851496448
 21
68.7694204705
  0
LINE
  5
32F
100
AcDbEntity
  8
0
100
AcDbLine
 62
7
  6
BYLAYER
 10
55.9413822048
 20
40.330269657
 11
55.6235192932
 21
39.2382950848
  0
LINE
  5
330
100
AcDbEntity
  8
0
100
AcDbLine
 62
7
  6
BYLAYER
 10
56.006318388
 20
39.9224644342
 11
56.2844484356
 21
40.8779421849
  0
LINE
  5
331
100
AcDbEntity
  8
0
100
AcDbLine
 62
7
  6
BYLAYER
 10
57.9741725941
 20
40.3021720884
 11
57.9025858388
 21
40.2608417027
  0
LINE
  5
332
100
AcDbEntity
  8
0
100
AcDbLine
 62
7
  6
BYLAYER
 10
50.2976533905
 20
35.1353158164
 11
46.1613315569
 21
32.7472235472
  0
LINE
  5
333
100
AcDbEntity
  8
0
100
AcDbLine
 62
7
  6
BYLAYER
 10
53.0451965436
 20
64.6567630857
 11
49.007600013
 21
66.987817794
  0
LINE
  5
334
100
AcDbEntity
  8
0
100
AcDbLine
 62
7
  6
BYLAYER
 10
48.9069507608
 20
67.278269016
 11
47.5705133802
 21
68.049844042
  0
LINE
  5
335
100
AcDbEntity
  8
0
100
AcDbLine
 62
7
  6
BYLAYER
 10
53.2414983169
 20
64.8456769376
 11
47.7366673929
 21
68.0238206542
  0
LINE
  5
336
100
AcDbEntity
  8
0
100
AcDbLine
 62
7
  6
BYLAYER
 10
55.5566421898
 20
64.9506499842
 11
54.1777782257
 21
65.7467194555
  0
LINE
  5
337
100
AcDbEntity
  8
0
100
AcDbLine
 62
7
  6
BYLAYER
 10
54.2366091889
 20
65.799354641
 11
48.7344919258
 21
68.9759316601
  0
LINE
  5
338
100
AcDbEntity
  8
0
100
AcDbLine
 62
7
  6
BYLAYER
 10
54.6251082357
 20
66.0888299697
 11
56.0039721997
 21
65.2927604983
  0
LINE
  5
339
100
AcDbEntity
  8
0
100
AcDbLine
 62
7
  6
BYLAYER
 10
63.9138426737
 20
59.5464255947
 11
64.4725807535
 21
59.1866043197
  0
LINE
  5
33A
100
AcDbEntity
  8
0
100
AcDbLine
 62
7
  6
BYLAYER
 10
53.9518049257
 20
62.5024824871
 11
53.7169566704
 21
63.1802020051
  0
LINE
  5
33B
100
AcDbEntity
  8
0
100
AcDbLine
 62
7
  6
BYLAYER
 10
59.6691047832
 20
69.0009653511
 11
59.6691047832
 21
68.2661131757
  0
LINE
  5
33C
100
AcDbEntity
  8
0
100
AcDbLine
 62
7
  6
BYLAYER
 10
59.6691047832
 20
43.6077401784
 11
59.6691047832
 21
42.872888003
  0
LINE
  5
33D
100
AcDbEntity
  8
0
100
AcDbLine
 62
7
  6
BYLAYER
 10
60.5883397716
 20
69.457002652
 11
60.5883397716
 21
68.7968305757
  0
LINE
  5
33E
100
AcDbEntity
  8
0
100
AcDbLine
 62
7
  6
BYLAYER
 10
60.5883397716
 20
44.1384575784
 11
60.5883397716
 21
43.4782855021
  0
LINE
  5
33F
100
AcDbEntity
  8
0
100
AcDbLine
 62
7
  6
BYLAYER
 10
60.5883397716
 20
66.7555745329
 11
60.5883397716
 21
66.7963996538
  0
LINE
  5
340
100
AcDbEntity
  8
0
100
AcDbLine
 62
7
  6
BYLAYER
 10
64.2709061534
 20
44.8404872054
 11
64.1308403798
 21
44.7004490223
  0
LINE
  5
341
100
AcDbEntity
  8
0
100
AcDbLine
 62
7
  6
BYLAYER
 10
62.5177789107
 20
43.0877052975
 11
62.0591279999
 21
42.6291447327
  0
LINE
  5
342
100
AcDbEntity
  8
0
100
AcDbLine
 62
7
  6
BYLAYER
 10
61.5463414284
 20
69.5558775437
 11
61.5206401396
 21
69.5599860075
  0
LINE
  5
343
100
AcDbEntity
  8
0
100
AcDbLine
 62
7
  6
BYLAYER
 10
49.1732442378
 20
69.3098224123
 11
54.688700094
 21
66.125544527
  0
LINE
  5
344
100
AcDbEntity
  8
0
100
AcDbLine
 62
7
  6
BYLAYER
 10
57.9741725941
 20
66.4302494365
 11
56.5953086301
 21
67.2263189079
  0
LINE
  5
345
100
AcDbEntity
  8
0
100
AcDbLine
 62
7
  6
BYLAYER
 10
62.0591279999
 20
68.6078618826
 11
62.0591279999
 21
65.9064337635
  0
LINE
  5
346
100
AcDbEntity
  8
0
100
AcDbLine
 62
7
  6
BYLAYER
 10
62.0591279999
 20
45.3305728519
 11
62.0591279999
 21
42.6291447327
  0
LINE
  5
347
100
AcDbEntity
  8
0
100
AcDbLine
 62
7
  6
BYLAYER
 10
62.8885445571
 20
47.6710582483
 11
62.8885445571
 21
50.038915258
  0
LINE
  5
348
100
AcDbEntity
  8
0
100
AcDbLine
 62
7
  6
BYLAYER
 10
57.6185036553
 20
67.8170573049
 11
52.1030477991
 21
71.0013351901
  0
LINE
  5
349
100
AcDbEntity
  8
0
100
AcDbLine
 62
7
  6
BYLAYER
 10
62.0591279999
 20
65.9064337635
 11
60.5883397716
 21
66.7555745329
  0
LINE
  5
34A
100
AcDbEntity
  8
0
100
AcDbLine
 62
7
  6
BYLAYER
 10
55.0728839154
 20
69.980677539
 11
60.5883397716
 21
66.7963996538
  0
LINE
  5
34B
100
AcDbEntity
  8
0
100
AcDbLine
 62
7
  6
BYLAYER
 10
57.9720414429
 20
68.7559895363
 11
57.3215004957
 21
69.1315710304
  0
LINE
  5
34C
100
AcDbEntity
  8
0
100
AcDbLine
 62
7
  6
BYLAYER
 10
59.6691047832
 20
68.2661131757
 11
57.9720414429
 21
69.2458909866
  0
LINE
  5
34D
100
AcDbEntity
  8
0
100
AcDbLine
 62
7
  6
BYLAYER
 10
57.3215004957
 20
69.6214724807
 11
54.1536489271
 21
71.4503910609
  0
LINE
  5
34E
100
AcDbEntity
  8
0
100
AcDbLine
 62
7
  6
BYLAYER
 10
57.4661998161
 20
72.9290442762
 11
57.4629328436
 21
72.9465542292
  0
LINE
  5
34F
100
AcDbEntity
  8
0
100
AcDbLine
 62
7
  6
BYLAYER
 10
63.843134443
 20
57.9385657445
 11
63.843134443
 21
55.5707087348
  0
LINE
  5
350
100
AcDbEntity
  8
0
100
AcDbLine
 62
7
  6
BYLAYER
 10
63.913842511
 20
66.8384400488
 11
63.9138426737
 21
59.5464255947
  0
LINE
  5
351
100
AcDbEntity
  8
0
100
AcDbLine
 62
7
  6
BYLAYER
 10
64.6088163113
 20
58.4284218697
 11
64.6087597021
 21
58.9932027768
  0
LINE
  5
352
100
AcDbEntity
  8
0
100
AcDbLine
 62
7
  6
BYLAYER
 10
64.6916590476
 20
56.0606017194
 11
64.6916590476
 21
47.2015504936
  0
LINE
  5
353
100
AcDbEntity
  8
0
100
AcDbLine
 62
7
  6
BYLAYER
 10
64.7814777732
 20
45.9787397945
 11
64.7814777732
 21
46.9023128443
  0
LINE
  5
354
100
AcDbEntity
  8
0
100
AcDbLine
 62
7
  6
BYLAYER
 10
64.7814777732
 20
67.4781737559
 11
64.7814777732
 21
68.4017468057
  0
LINE
  5
355
100
AcDbEntity
  8
0
100
AcDbLine
 62
7
  6
BYLAYER
 10
64.2067350708
 20
60.1551429843
 11
64.2067351015
 21
67.1463479005
  0
LWPOLYLINE
  5
356
100
AcDbEntity
  8
0
100
AcDbPolyline
 62
7
  6
BYLAYER
 90
6
 70
0
 10
64.2055444518
 20
60.1138009818
 10
64.2056102995
 20
60.1150110562
 10
64.2060875598
 20
60.1248952582
 10
64.2064374207
 20
60.1348464094
 10
64.2066414445
 20
60.1454829064
 10
64.206696769
 20
60.1555437719
  0
LINE
  5
357
100
AcDbEntity
  8
0
100
AcDbLine
 62
7
  6
BYLAYER
 10
56.0276100374
 20
72.7313166706
 11
56.0877912212
 21
72.707308795
  0
LINE
  5
358
100
AcDbEntity
  8
0
100
AcDbLine
 62
7
  6
BYLAYER
 10
59.6691047832
 20
69.0009653511
 11
54.1536489271
 21
72.1852432364
  0
LINE
  5
359
100
AcDbEntity
  8
0
100
AcDbLine
 62
7
  6
BYLAYER
 10
55.0728839154
 20
72.6412805373
 11
62.0591279999
 21
68.6078618826
  0
LINE
  5
35A
100
AcDbEntity
  8
0
100
AcDbLine
 62
7
  6
BYLAYER
 10
62.8558650579
 20
68.7891109811
 11
61.5206401396
 21
69.5599860075
  0
LINE
  5
35B
100
AcDbEntity
  8
0
100
AcDbLine
 62
7
  6
BYLAYER
 10
57.3628349557
 20
71.9604416441
 11
56.0276100374
 21
72.7313166706
  0
LINE
  5
35C
100
AcDbEntity
  8
0
100
AcDbLine
 62
7
  6
BYLAYER
 10
62.8470968445
 20
68.8049101931
 11
61.5463445093
 21
69.5558829147
  0
LINE
  5
35D
100
AcDbEntity
  8
0
100
AcDbLine
 62
7
  6
BYLAYER
 10
57.3774984192
 20
71.9627128772
 11
56.0877869902
 21
72.7073112728
  0
LINE
  5
35E
100
AcDbEntity
  8
0
100
AcDbLine
 62
7
  6
BYLAYER
 10
63.9939739721
 20
69.0117207562
 11
62.8625984119
 21
69.6649059635
  0
LINE
  5
35F
100
AcDbEntity
  8
0
100
AcDbLine
 62
7
  6
BYLAYER
 10
58.5642129352
 20
72.1465238338
 11
57.5734176678
 21
72.7185468073
  0
LINE
  5
360
100
AcDbEntity
  8
0
100
AcDbLine
 62
7
  6
BYLAYER
 10
62.8566867031
 20
69.7669270987
 11
58.6988815191
 21
72.1673827353
  0
LINE
  5
361
100
AcDbEntity
  8
0
100
AcDbLine
 62
7
  6
BYLAYER
 10
64.4878061707
 20
59.5868710223
 11
64.2067351015
 21
60.1876423512
  0
LWPOLYLINE
  5
362
100
AcDbEntity
  8
0
100
AcDbPolyline
 62
7
  6
BYLAYER
 90
12
 70
0
 10
64.5250730729
 20
59.5013910117
 10
64.5220647976
 20
59.5111349707
 10
64.5189636242
 20
59.5202909192
 10
64.5159246184
 20
59.5285433633
 10
64.5129167147
 20
59.5361364006
 10
64.5098966504
 20
59.5432882225
 10
64.5078234842
 20
59.5480189021
 10
64.5046535233
 20
59.5550580648
 10
64.5008473685
 20
59.5631331745
 10
64.4964705784
 20
59.571975956
 10
64.4912781105
 20
59.5819279403
 10
64.4852808618
 20
59.5928092639
  0
LINE
  5
363
100
AcDbEntity
  8
0
100
AcDbLine
 62
7
  6
BYLAYER
 10
64.531529101
 20
59.4713042715
 11
64.5325782618
 21
59.4675624988
  0
LINE
  5
364
100
AcDbEntity
  8
0
100
AcDbLine
 62
7
  6
BYLAYER
 10
64.6087597021
 20
58.9932027768
 11
64.5326236402
 21
59.4674243574
  0
LWPOLYLINE
  5
365
100
AcDbEntity
  8
0
100
AcDbPolyline
 62
7
  6
BYLAYER
 90
8
 70
0
 10
64.5370506022
 20
59.4460807524
 10
64.5365862029
 20
59.4491680315
 10
64.535294461
 20
59.4571674046
 10
64.5338090503
 20
59.4653453745
 10
64.5320848591
 20
59.4738026729
 10
64.5300873824
 20
59.4825810778
 10
64.5277710079
 20
59.491748156
 10
64.5250730729
 20
59.5013910117
  0
LINE
  5
366
100
AcDbEntity
  8
0
100
AcDbLine
 62
7
  6
BYLAYER
 10
57.4661998161
 20
72.9290442761
 11
58.7744361189
 21
72.1737507816
  0
LINE
  5
367
100
AcDbEntity
  8
0
100
AcDbLine
 62
7
  6
BYLAYER
 10
62.9322413028
 20
69.773295145
 11
64.2404776056
 21
69.0180016505
  0
LINE
  5
368
100
AcDbEntity
  8
0
100
AcDbLine
 62
7
  6
BYLAYER
 10
57.5624974571
 20
72.9415162738
 11
64.5536542204
 21
68.9053115683
  0
LINE
  5
369
100
AcDbEntity
  8
0
100
AcDbLine
 62
7
  6
BYLAYER
 10
62.8470099621
 20
68.8049603144
 11
62.8558650579
 21
68.7891109811
  0
ARC
  5
36A
100
AcDbEntity
  8
0
100
AcDbCircle
 62
7
  6
BYLAYER
 10
27.1151078219
 20
36.219951488
 40
4.7541406452
100
AcDbArc
 50
299.7559104957
 51
300.1746946923
  0
ARC
  5
36B
100
AcDbEntity
  8
0
100
AcDbCircle
 62
7
  6
BYLAYER
 10
17.6192842369
 20
52.6672528936
 40
4.7541270743
100
AcDbArc
 50
119.9387046717
 51
120.2435187955
  0
ARC
  5
36C
100
AcDbEntity
  8
0
100
AcDbCircle
 62
7
  6
BYLAYER
 10
22.5028897499
 20
34.873402308
 40
4.1940956779
100
AcDbArc
 50
295.3921972441
 51
300.9124883343
  0
ARC
  5
36D
100
AcDbEntity
  8
0
100
AcDbCircle
 62
7
  6
BYLAYER
 10
55.7523780471
 20
64.2978532517
 40
2.1148078449
100
AcDbArc
 50
122.1574194863
 51
124.9703485889
  0
ARC
  5
36E
100
AcDbEntity
  8
0
100
AcDbCircle
 62
7
  6
BYLAYER
 10
55.6683007367
 20
64.4300478199
 40
1.958143637
100
AcDbArc
 50
120.0178689028
 51
122.1334633894
  0
ARC
  5
36F
100
AcDbEntity
  8
0
100
AcDbCircle
 62
7
  6
BYLAYER
 10
49.6313478488
 20
43.4797473531
 40
0.4353044145
100
AcDbArc
 50
359.9408894644
 51
4.2978938426
  0
ARC
  5
370
100
AcDbEntity
  8
0
100
AcDbCircle
 62
7
  6
BYLAYER
 10
64.135827056
 20
59.4217043504
 40
0.3887575847
100
AcDbArc
 50
15.6336227239
 51
25.1181357266
  0
ARC
  5
371
100
AcDbEntity
  8
0
100
AcDbCircle
 62
7
  6
BYLAYER
 10
63.9162460802
 20
60.0776909885
 40
0.3098094765
100
AcDbArc
 50
7.0755435678
 51
14.2276948025
  0
ARC
  5
372
100
AcDbEntity
  8
0
100
AcDbCircle
 62
7
  6
BYLAYER
 10
64.2529093813
 20
59.3913351501
 40
0.2898486645
100
AcDbArc
 50
10.9808626179
 51
15.2444372356
  0
ARC
  5
373
100
AcDbEntity
  8
0
100
AcDbCircle
 62
7
  6
BYLAYER
 10
43.7477449479
 20
62.6726680178
 40
0.1002014424
100
AcDbArc
 50
120.0120988509
 51
126.2731556604
  0
SPLINE
  5
374
100
AcDbEntity
  8
0
100
AcDbSpline
 62
7
  6
BYLAYER
 70
0
 71
3
 72
11
 73
7
 74
0
 42
0.0000001
 43
0.0000001
 44
0.0000000001
 40
0.0
 40
0.0
 40
0.0
 40
0.0
 40
0.2656700215
 40
0.5252436375
 40
0.7720007281
 40
1.0
 40
1.0
 40
1.0
 40
1.0
 10
47.5388039742
 20
60.5350206929
 30
0.0
 10
47.5289373362
 20
60.5530215642
 30
0.0
 10
47.5073002733
 20
60.5874883831
 30
0.0
 10
47.4696978973
 20
60.63398582
 30
0.0
 10
47.4285293834
 20
60.6732646251
 30
0.0
 10
47.3984298563
 20
60.6945663834
 30
0.0
 10
47.3831731093
 20
60.7033746711
 30
0.0
  0
SPLINE
  5
375
100
AcDbEntity
  8
0
100
AcDbSpline
 62
7
  6
BYLAYER
 70
0
 71
3
 72
11
 73
7
 74
0
 42
0.0000001
 43
0.0000001
 44
0.0000000001
 40
0.0
 40
0.0
 40
0.0
 40
0.0
 40
0.289702329
 40
0.5490881649
 40
0.7822156415
 40
1.0
 40
1.0
 40
1.0
 40
1.0
 10
43.8476244836
 20
62.7445784437
 30
0.0
 10
43.8344608364
 20
62.752178307
 30
0.0
 10
43.8082740974
 20
62.7646358521
 30
0.0
 10
43.7680245584
 20
62.7743553947
 30
0.0
 10
43.7302587159
 20
62.7733991704
 30
0.0
 10
43.7075216622
 20
62.7651477175
 30
0.0
 10
43.6976259036
 20
62.759434431
 30
0.0
  0
SPLINE
  5
376
100
AcDbEntity
  8
0
100
AcDbSpline
 62
7
  6
BYLAYER
 70
0
 71
3
 72
15
 73
11
 74
0
 42
0.0000001
 43
0.0000001
 44
0.0000000001
 40
0.0
 40
0.0
 40
0.0
 40
0.0
 40
0.1485552698
 40
0.2895102443
 40
0.4227336065
 40
0.5486407192
 40
0.6680011625
 40
0.7819397656
 40
0.8919883364
 40
1.0
 40
1.0
 40
1.0
 40
1.0
 10
48.8681052985
 20
58.3763699884
 30
0.0
 10
48.8929089626
 20
58.390690305
 30
0.0
 10
48.9401227456
 20
58.4206222326
 30
0.0
 10
49.0046798119
 20
58.4705793875
 30
0.0
 10
49.0605156487
 20
58.5240277086
 30
0.0
 10
49.1070706514
 20
58.5804617056
 30
0.0
 10
49.1438810586
 20
58.6393823448
 30
0.0
 10
49.1705226706
 20
58.7002645124
 30
0.0
 10
49.1866686795
 20
58.7624846281
 30
0.0
 10
49.1902804513
 20
58.8046106745
 30
0.0
 10
49.1902804513
 20
58.8254348184
 30
0.0
  0
SPLINE
  5
377
100
AcDbEntity
  8
0
100
AcDbSpline
 62
7
  6
BYLAYER
 70
0
 71
3
 72
15
 73
11
 74
0
 42
0.0000001
 43
0.0000001
 44
0.0000000001
 40
0.0
 40
0.0
 40
0.0
 40
0.0
 40
0.1485555334
 40
0.2895107144
 40
0.4227342069
 40
0.5486413618
 40
0.6680017539
 40
0.7819402176
 40
0.8919885811
 40
1.0
 40
1.0
 40
1.0
 40
1.0
 10
48.8680988218
 20
61.3565845513
 30
0.0
 10
48.8929029534
 20
61.3422642032
 30
0.0
 10
48.9401176363
 20
61.3123321768
 30
0.0
 10
49.0046759719
 20
61.2623747496
 30
0.0
 10
49.0605129328
 20
61.2089260517
 30
0.0
 10
49.107068891
 20
61.1524915856
 30
0.0
 10
49.1438800686
 20
61.0935704004
 30
0.0
 10
49.1705222449
 20
61.0326876225
 30
0.0
 10
49.1866686016
 20
60.9704668523
 30
0.0
 10
49.1902804508
 20
60.9283403475
 30
0.0
 10
49.1902804513
 20
60.907515982
 30
0.0
  0
SPLINE
  5
378
100
AcDbEntity
  8
0
100
AcDbSpline
 62
7
  6
BYLAYER
 70
0
 71
3
 72
9
 73
5
 74
0
 42
0.0000001
 43
0.0000001
 44
0.0000000001
 40
0.0
 40
0.0
 40
0.0
 40
0.0
 40
0.5080542443
 40
1.0
 40
1.0
 40
1.0
 40
1.0
 10
48.3800686546
 20
60.8627040851
 30
0.0
 10
48.3833629323
 20
60.869807572
 30
0.0
 10
48.3884930533
 20
60.8844754473
 30
0.0
 10
48.3902831053
 20
60.8999340631
 30
0.0
 10
48.3902831039
 20
60.907515982
 30
0.0
  0
SPLINE
  5
379
100
AcDbEntity
  8
0
100
AcDbSpline
 62
7
  6
BYLAYER
 70
0
 71
3
 72
15
 73
11
 74
0
 42
0.0000001
 43
0.0000001
 44
0.0000000001
 40
0.0
 40
0.0
 40
0.0
 40
0.0
 40
0.1192692466
 40
0.245329992
 40
0.375806271
 40
0.507999116
 40
0.639101408
 40
0.7663773581
 40
0.8873464024
 40
1.0
 40
1.0
 40
1.0
 40
1.0
 10
42.0535535132
 20
64.5170324556
 30
0.0
 10
42.1077561659
 20
64.5406575258
 30
0.0
 10
42.2227416333
 20
64.5814704908
 30
0.0
 10
42.4047939369
 20
64.6227243592
 30
0.0
 10
42.5966010889
 20
64.6448258727
 30
0.0
 10
42.7921408712
 20
64.6470671643
 30
0.0
 10
42.9853071505
 20
64.6293883945
 30
0.0
 10
43.1700807709
 20
64.5923270897
 30
0.0
 10
43.34067078
 20
64.5370563141
 30
0.0
 10
43.4456989487
 20
64.4871377551
 30
0.0
 10
43.4940649107
 20
64.4592142856
 30
0.0
  0
SPLINE
  5
37A
100
AcDbEntity
  8
0
100
AcDbSpline
 62
7
  6
BYLAYER
 70
0
 71
3
 72
11
 73
7
 74
0
 42
0.0000001
 43
0.0000001
 44
0.0000000001
 40
0.0
 40
0.0
 40
0.0
 40
0.0
 40
0.2897028091
 40
0.5490887568
 40
0.7822160316
 40
1.0
 40
1.0
 40
1.0
 40
1.0
 10
47.9648645753
 20
57.7732365848
 30
0.0
 10
47.956088935
 20
57.7681699968
 30
0.0
 10
47.9386313592
 20
57.7598649209
 30
0.0
 10
47.9117986887
 20
57.753385074
 30
0.0
 10
47.8866217654
 20
57.7540223339
 30
0.0
 10
47.871463882
 20
57.7595231136
 30
0.0
 10
47.864866771
 20
57.7633318721
 30
0.0
  0
SPLINE
  5
37B
100
AcDbEntity
  8
0
100
AcDbSpline
 62
7
  6
BYLAYER
 70
0
 71
3
 72
15
 73
11
 74
0
 42
0.0000001
 43
0.0000001
 44
0.0000000001
 40
0.0
 40
0.0
 40
0.0
 40
0.0
 40
0.10801166
 40
0.2180602282
 40
0.3319988302
 40
0.4513592716
 40
0.5772663831
 40
0.710489749
 40
0.8514447311
 40
1.0
 40
1.0
 40
1.0
 40
1.0
 10
49.1902804513
 20
60.907515982
 30
0.0
 10
49.1902804518
 20
60.8866918389
 30
0.0
 10
49.1866686787
 20
60.8445657939
 30
0.0
 10
49.1705226723
 20
60.782345679
 30
0.0
 10
49.143881059
 20
60.7214635132
 30
0.0
 10
49.1070706549
 20
60.6625428732
 30
0.0
 10
49.0605156517
 20
60.6061088763
 30
0.0
 10
49.0046798145
 20
60.5526605529
 30
0.0
 10
48.9401227459
 20
60.5027033977
 30
0.0
 10
48.8929089625
 20
60.4727714686
 30
0.0
 10
48.8681052985
 20
60.4584511521
 30
0.0
  0
SPLINE
  5
37C
100
AcDbEntity
  8
0
100
AcDbSpline
 62
7
  6
BYLAYER
 70
0
 71
3
 72
11
 73
7
 74
0
 42
0.0000001
 43
0.0000001
 44
0.0000000001
 40
0.0
 40
0.0
 40
0.0
 40
0.0
 40
0.2177817009
 40
0.4509079353
 40
0.7102947134
 40
1.0
 40
1.0
 40
1.0
 40
1.0
 10
48.3902831039
 20
60.907515982
 30
0.0
 10
48.3902831018
 20
60.9189425062
 30
0.0
 10
48.3860604352
 20
60.9427589993
 30
0.0
 10
48.3680050661
 20
60.9759429948
 30
0.0
 10
48.3394620946
 20
61.005939965
 30
0.0
 10
48.315579582
 20
61.0223892594
 30
0.0
 10
48.302415752
 20
61.0299892282
 30
0.0
  0
SPLINE
  5
37D
100
AcDbEntity
  8
0
100
AcDbSpline
 62
7
  6
BYLAYER
 70
0
 71
3
 72
15
 73
11
 74
0
 42
0.0000001
 43
0.0000001
 44
0.0000000001
 40
0.0
 40
0.0
 40
0.0
 40
0.0
 40
0.1141236058
 40
0.2373475862
 40
0.3669728832
 40
0.5000004526
 40
0.6330279586
 40
0.7626530685
 40
0.8858767805
 40
1.0
 40
1.0
 40
1.0
 40
1.0
 10
42.9283818409
 20
64.1326189625
 30
0.0
 10
42.913863684
 20
64.1410008347
 30
0.0
 10
42.8821031981
 20
64.1557830924
 30
0.0
 10
42.830395074
 20
64.1715091038
 30
0.0
 10
42.7744034781
 20
64.1811771467
 30
0.0
 10
42.716249478
 20
64.1844467368
 30
0.0
 10
42.6580955205
 20
64.1811768773
 30
0.0
 10
42.6021040462
 20
64.1715085726
 30
0.0
 10
42.550396127
 20
64.1557823092
 30
0.0
 10
42.5186358195
 20
64.1409998912
 30
0.0
 10
42.5041177722
 20
64.1326179427
 30
0.0
  0
SPLINE
  5
37E
100
AcDbEntity
  8
0
100
AcDbSpline
 62
7
  6
BYLAYER
 70
0
 71
3
 72
11
 73
7
 74
0
 42
0.0000001
 43
0.0000001
 44
0.0000000001
 40
0.0
 40
0.0
 40
0.0
 40
0.0
 40
0.2872771284
 40
0.5470840466
 40
0.7819721199
 40
1.0
 40
1.0
 40
1.0
 40
1.0
 10
47.823443826
 20
57.8548880889
 30
0.0
 10
47.823443826
 20
57.8642190744
 30
0.0
 10
47.8221307569
 20
57.8820375922
 30
0.0
 10
47.8155535348
 20
57.9067561749
 30
0.0
 10
47.8045164881
 20
57.9273805892
 30
0.0
 10
47.7940442549
 20
57.9380802612
 30
0.0
 10
47.7883514719
 20
57.9422924958
 30
0.0
  0
SPLINE
  5
37F
100
AcDbEntity
  8
0
100
AcDbSpline
 62
7
  6
BYLAYER
 70
0
 71
3
 72
11
 73
7
 74
0
 42
0.0000001
 43
0.0000001
 44
0.0000000001
 40
0.0
 40
0.0
 40
0.0
 40
0.0
 40
0.2177825428
 40
0.4509091942
 40
0.7102957052
 40
1.0
 40
1.0
 40
1.0
 40
1.0
 10
47.864866771
 20
57.7633318721
 30
0.0
 10
47.8582694512
 20
57.7671407512
 30
0.0
 10
47.8459261197
 20
57.7775176648
 30
0.0
 10
47.8327851854
 20
57.7990036134
 30
0.0
 10
47.8249802382
 20
57.8254823735
 30
0.0
 10
47.823443826
 20
57.8447544286
 30
0.0
 10
47.823443826
 20
57.8548880889
 30
0.0
  0
SPLINE
  5
380
100
AcDbEntity
  8
0
100
AcDbSpline
 62
7
  6
BYLAYER
 70
0
 71
3
 72
11
 73
7
 74
0
 42
0.0000001
 43
0.0000001
 44
0.0000000001
 40
0.0
 40
0.0
 40
0.0
 40
0.0
 40
0.2177839237
 40
0.4509111717
 40
0.7102971901
 40
1.0
 40
1.0
 40
1.0
 40
1.0
 10
49.8575248056
 20
51.72096327
 30
0.0
 10
49.837733471
 20
51.7323895339
 30
0.0
 10
49.7922598381
 20
51.7488918873
 30
0.0
 10
49.7167290643
 20
51.7508036664
 30
0.0
 10
49.6362310519
 20
51.7313641179
 30
0.0
 10
49.5838583134
 20
51.7064488962
 30
0.0
 10
49.5575313926
 20
51.6912491321
 30
0.0
  0
SPLINE
  5
381
100
AcDbEntity
  8
0
100
AcDbSpline
 62
7
  6
BYLAYER
 70
0
 71
3
 72
13
 73
9
 74
0
 42
0.0000001
 43
0.0000001
 44
0.0000000001
 40
0.0
 40
0.0
 40
0.0
 40
0.0
 40
0.1080938149
 40
0.2182323106
 40
0.3322557273
 40
0.4516837798
 40
0.7106213759
 40
1.0
 40
1.0
 40
1.0
 40
1.0
 10
62.5157357642
 20
50.8629188653
 30
0.0
 10
62.5452471291
 20
50.8458808547
 30
0.0
 10
62.6020002892
 20
50.8063022687
 30
0.0
 10
62.6769488473
 20
50.7324942
 30
0.0
 10
62.7414404527
 20
50.6449370067
 30
0.0
 10
62.8145637004
 20
50.5074751314
 30
0.0
 10
62.8747918434
 20
50.3035164702
 30
0.0
 10
62.8885445571
 20
50.1301419277
 30
0.0
 10
62.8885445571
 20
50.038915258
 30
0.0
  0
SPLINE
  5
382
100
AcDbEntity
  8
0
100
AcDbSpline
 62
7
  6
BYLAYER
 70
0
 71
3
 72
9
 73
5
 74
0
 42
0.0000001
 43
0.0000001
 44
0.0000000001
 40
0.0
 40
0.0
 40
0.0
 40
0.0
 40
0.4835473768
 40
1.0
 40
1.0
 40
1.0
 40
1.0
 10
54.6251082357
 20
66.0888299697
 30
0.0
 10
54.5463554299
 20
66.0433622875
 30
0.0
 10
54.3901410698
 20
65.9375701422
 30
0.0
 10
54.2477594735
 20
65.8140669219
 30
0.0
 10
54.1777782258
 20
65.7467194556
 30
0.0
  0
SPLINE
  5
383
100
AcDbEntity
  8
0
100
AcDbSpline
 62
7
  6
BYLAYER
 70
0
 71
3
 72
11
 73
7
 74
0
 42
0.0000001
 43
0.0000001
 44
0.0000000001
 40
0.0
 40
0.0
 40
0.0
 40
0.0
 40
0.2895471685
 40
0.548964882
 40
0.7820850008
 40
1.0
 40
1.0
 40
1.0
 40
1.0
 10
52.0636954339
 20
49.4230889811
 30
0.0
 10
52.0373828664
 20
49.4078975038
 30
0.0
 10
51.985013051
 20
49.3830106206
 30
0.0
 10
51.9045461833
 20
49.3635292031
 30
0.0
 10
51.8289860343
 20
49.3654164642
 30
0.0
 10
51.7835237588
 20
49.3819739803
 30
0.0
 10
51.7637121105
 20
49.3933921913
 30
0.0
  0
SPLINE
  5
384
100
AcDbEntity
  8
0
100
AcDbSpline
 62
7
  6
BYLAYER
 70
0
 71
3
 72
9
 73
5
 74
0
 42
0.0000001
 43
0.0000001
 44
0.0000000001
 40
0.0
 40
0.0
 40
0.0
 40
0.0
 40
0.5271770644
 40
1.0
 40
1.0
 40
1.0
 40
1.0
 10
57.9025858388
 20
40.2608417027
 30
0.0
 10
57.8166404534
 20
40.2112214074
 30
0.0
 10
57.6458588528
 20
40.1295228651
 30
0.0
 10
57.4612816907
 20
40.0836921847
 30
0.0
 10
57.3728143196
 20
40.0738889167
 30
0.0
  0
SPLINE
  5
385
100
AcDbEntity
  8
0
100
AcDbSpline
 62
7
  6
BYLAYER
 70
0
 71
3
 72
15
 73
11
 74
0
 42
0.0000001
 43
0.0000001
 44
0.0000000001
 40
0.0
 40
0.0
 40
0.0
 40
0.0
 40
0.1141475829
 40
0.2373370756
 40
0.3669780685
 40
0.5000016033
 40
0.6330249151
 40
0.7626652568
 40
0.8858537231
 40
1.0
 40
1.0
 40
1.0
 40
1.0
 10
62.8885445571
 20
47.6710582483
 30
0.0
 10
62.8885445571
 20
47.5704525836
 30
0.0
 10
62.870104076
 20
47.3610783303
 30
0.0
 10
62.7966576947
 20
47.0452189869
 30
0.0
 10
62.6789451404
 20
46.7252856244
 30
0.0
 10
62.5214539352
 20
46.4133001674
 30
0.0
 10
62.3300139529
 20
46.1209155931
 30
0.0
 10
62.111801961
 20
45.8590072216
 30
0.0
 10
61.8749854023
 20
45.6374723036
 30
0.0
 10
61.7028838448
 20
45.5168164522
 30
0.0
 10
61.6157576502
 20
45.4665144205
 30
0.0
  0
SPLINE
  5
386
100
AcDbEntity
  8
0
100
AcDbSpline
 62
7
  6
BYLAYER
 70
0
 71
3
 72
9
 73
5
 74
0
 42
0.0000001
 43
0.0000001
 44
0.0000000001
 40
0.0
 40
0.0
 40
0.0
 40
0.0
 40
0.5241045481
 40
1.0
 40
1.0
 40
1.0
 40
1.0
 10
52.8476700688
 20
40.4042869125
 30
0.0
 10
52.7778941142
 20
40.3640019868
 30
0.0
 10
52.6390632887
 20
40.2963800206
 30
0.0
 10
52.4899954031
 20
40.2542313452
 30
0.0
 10
52.4177890011
 20
40.2424634245
 30
0.0
  0
SPLINE
  5
387
100
AcDbEntity
  8
0
100
AcDbSpline
 62
7
  6
BYLAYER
 70
0
 71
3
 72
11
 73
7
 74
0
 42
0.0000001
 43
0.0000001
 44
0.0000000001
 40
0.0
 40
0.0
 40
0.0
 40
0.0
 40
0.2675088014
 40
0.5205672555
 40
0.7630908325
 40
1.0
 40
1.0
 40
1.0
 40
1.0
 10
52.4177890011
 20
40.2424634245
 30
0.0
 10
52.3751306922
 20
40.2355111379
 30
0.0
 10
52.2910355528
 20
40.2275781378
 30
0.0
 10
52.1674415759
 20
40.2355376814
 30
0.0
 10
52.0518375277
 20
40.2636628614
 30
0.0
 10
51.9808411455
 20
40.2960099161
 30
0.0
 10
51.9476919547
 20
40.3151481791
 30
0.0
  0
SPLINE
  5
388
100
AcDbEntity
  8
0
100
AcDbSpline
 62
7
  6
BYLAYER
 70
0
 71
3
 72
13
 73
9
 74
0
 42
0.0000001
 43
0.0000001
 44
0.0000000001
 40
0.0
 40
0.0
 40
0.0
 40
0.0
 40
0.1005787927
 40
0.2067499108
 40
0.3202386579
 40
0.4416944337
 40
0.7076079422
 40
1.0
 40
1.0
 40
1.0
 40
1.0
 10
64.2236962356
 20
60.1158526671
 30
0.0
 10
64.2264759748
 20
60.093542788
 30
0.0
 10
64.2273013108
 20
60.0469655195
 30
0.0
 10
64.2149355236
 20
59.976109021
 30
0.0
 10
64.1899472547
 20
59.9037814839
 30
0.0
 10
64.1397163757
 20
59.8034419311
 30
0.0
 10
64.049673782
 20
59.6798560177
 30
0.0
 10
63.9619123165
 20
59.5907145932
 30
0.0
 10
63.913844653
 20
59.5464288983
 30
0.0
  0
SPLINE
  5
389
100
AcDbEntity
  8
0
100
AcDbSpline
 62
7
  6
BYLAYER
 70
0
 71
3
 72
9
 73
5
 74
0
 42
0.0000001
 43
0.0000001
 44
0.0000000001
 40
0.0
 40
0.0
 40
0.0
 40
0.0
 40
0.2462182947
 40
1.0
 40
1.0
 40
1.0
 40
1.0
 10
64.510202395
 20
59.526468682
 30
0.0
 10
64.5127079495
 20
59.5174691115
 30
0.0
 10
64.5215277033
 20
59.4805429744
 30
0.0
 10
64.5247102251
 20
59.4423578489
 30
0.0
 10
64.5244407033
 20
59.4137596518
 30
0.0
  0
SPLINE
  5
38A
100
AcDbEntity
  8
0
100
AcDbSpline
 62
7
  6
BYLAYER
 70
0
 71
3
 72
10
 73
6
 74
0
 42
0.0000001
 43
0.0000001
 44
0.0000000001
 40
0.0
 40
0.0
 40
0.0
 40
0.0
 40
0.2648547837
 40
0.6560204749
 40
1.0
 40
1.0
 40
1.0
 40
1.0
 10
64.5244407033
 20
59.4137596518
 30
0.0
 10
64.524245762
 20
59.3930749731
 30
0.0
 10
64.5203776645
 20
59.3418202842
 30
0.0
 10
64.5027330177
 20
59.2653998888
 30
0.0
 10
64.4830038066
 20
59.2113656829
 30
0.0
 10
64.472522795
 20
59.1866291405
 30
0.0
  0
SPLINE
  5
38B
100
AcDbEntity
  8
0
100
AcDbSpline
 62
7
  6
BYLAYER
 70
0
 71
3
 72
14
 73
10
 74
0
 42
0.0000001
 43
0.0000001
 44
0.0000000001
 40
0.0
 40
0.0
 40
0.0
 40
0.0
 40
0.2892612107
 40
0.4225612102
 40
0.5485048548
 40
0.6678850718
 40
0.7818634992
 40
0.8919517024
 40
1.0
 40
1.0
 40
1.0
 40
1.0
 10
51.5395276755
 20
41.1595638241
 30
0.0
 10
51.5395276755
 20
41.0683330014
 30
0.0
 10
51.5501846865
 20
40.9344057117
 30
0.0
 10
51.5913527243
 20
40.7660776467
 30
0.0
 10
51.6332357802
 20
40.6539078794
 30
0.0
 10
51.6866363594
 20
40.5535519245
 30
0.0
 10
51.7511027086
 20
40.4659737544
 30
0.0
 10
51.8260802268
 20
40.3921885172
 30
0.0
 10
51.8828259461
 20
40.3526017143
 30
0.0
 10
51.9123357312
 20
40.3355589119
 30
0.0
  0
SPLINE
  5
38C
100
AcDbEntity
  8
0
100
AcDbSpline
 62
7
  6
BYLAYER
 70
0
 71
3
 72
11
 73
7
 74
0
 42
0.0000001
 43
0.0000001
 44
0.0000000001
 40
0.0
 40
0.0
 40
0.0
 40
0.0
 40
0.2895182094
 40
0.5489627756
 40
0.7820694333
 40
1.0
 40
1.0
 40
1.0
 40
1.0
 10
50.7384062705
 20
43.0914695443
 30
0.0
 10
50.7384062705
 20
43.1167871801
 30
0.0
 10
50.7345421413
 20
43.1649525573
 30
0.0
 10
50.7150787823
 20
43.2311434769
 30
0.0
 10
50.6822357825
 20
43.2848966419
 30
0.0
 10
50.6513360345
 20
43.310801939
 30
0.0
 10
50.6348374928
 20
43.3203405743
 30
0.0
  0
SPLINE
  5
38D
100
AcDbEntity
  8
0
100
AcDbSpline
 62
7
  6
BYLAYER
 70
0
 71
3
 72
15
 73
11
 74
0
 42
0.0000001
 43
0.0000001
 44
0.0000000001
 40
0.0
 40
0.0
 40
0.0
 40
0.0
 40
0.1141229605
 40
0.2373462928
 40
0.366971064
 40
0.4999983279
 40
0.633025824
 40
0.762651271
 40
0.8858756957
 40
1.0
 40
1.0
 40
1.0
 40
1.0
 10
53.8142964926
 20
48.0659359308
 30
0.0
 10
53.8433325574
 20
48.0826998106
 30
0.0
 10
53.9006968444
 20
48.1229275888
 30
0.0
 10
53.9796434094
 20
48.1967619055
 30
0.0
 10
54.052380661
 20
48.2840736892
 30
0.0
 10
54.1161977954
 20
48.3815296452
 30
0.0
 10
54.168688153
 20
48.4855253101
 30
0.0
 10
54.2079335218
 20
48.592174216
 30
0.0
 10
54.2324025716
 20
48.6974620515
 30
0.0
 10
54.238558795
 20
48.767255569
 30
0.0
 10
54.238558795
 20
48.8007838734
 30
0.0
  0
SPLINE
  5
38E
100
AcDbEntity
  8
0
100
AcDbSpline
 62
7
  6
BYLAYER
 70
0
 71
3
 72
11
 73
7
 74
0
 42
0.0000001
 43
0.0000001
 44
0.0000000001
 40
0.0
 40
0.0
 40
0.0
 40
0.0
 40
0.2184666569
 40
0.4543335945
 40
0.7140724045
 40
1.0
 40
1.0
 40
1.0
 40
1.0
 10
50.0777401053
 20
50.7947723521
 30
0.0
 10
50.0620451285
 20
50.8078539185
 30
0.0
 10
50.0334313464
 20
50.8401507634
 30
0.0
 10
50.0033382731
 20
50.9004384641
 30
0.0
 10
49.9853956976
 20
50.9717676743
 30
0.0
 10
49.981793695
 20
51.0229245938
 30
0.0
 10
49.981793695
 20
51.0496656264
 30
0.0
  0
SPLINE
  5
38F
100
AcDbEntity
  8
0
100
AcDbSpline
 62
7
  6
BYLAYER
 70
0
 71
3
 72
11
 73
7
 74
0
 42
0.0000001
 43
0.0000001
 44
0.0000000001
 40
0.0
 40
0.0
 40
0.0
 40
0.0
 40
0.2897042895
 40
0.5490907647
 40
0.7822174449
 40
1.0
 40
1.0
 40
1.0
 40
1.0
 10
49.981793695
 20
51.4462941741
 30
0.0
 10
49.981793695
 20
51.476695198
 30
0.0
 10
49.977184478
 20
51.5345114413
 30
0.0
 10
49.9537696515
 20
51.6139478482
 30
0.0
 10
49.9143468374
 20
51.6784058115
 30
0.0
 10
49.8773167998
 20
51.7095366253
 30
0.0
 10
49.8575248056
 20
51.72096327
 30
0.0
  0
SPLINE
  5
390
100
AcDbEntity
  8
0
100
AcDbSpline
 62
7
  6
BYLAYER
 70
0
 71
3
 72
9
 73
5
 74
0
 42
0.0000001
 43
0.0000001
 44
0.0000000001
 40
0.0
 40
0.0
 40
0.0
 40
0.0
 40
0.5164526232
 40
1.0
 40
1.0
 40
1.0
 40
1.0
 10
55.5566421898
 20
64.9506499842
 30
0.0
 10
55.6266234375
 20
65.0179974505
 30
0.0
 10
55.7690050338
 20
65.1415006709
 30
0.0
 10
55.9252193939
 20
65.2472928161
 30
0.0
 10
56.0039721997
 20
65.2927604983
 30
0.0
  0
SPLINE
  5
391
100
AcDbEntity
  8
0
100
AcDbSpline
 62
7
  6
BYLAYER
 70
0
 71
3
 72
19
 73
15
 74
0
 42
0.0000001
 43
0.0000001
 44
0.0000000001
 40
0.0
 40
0.0
 40
0.0
 40
0.0
 40
0.1015097508
 40
0.2133160245
 40
0.2740019599
 40
0.3378090198
 40
0.4039488191
 40
0.4701736792
 40
0.5032666718
 40
0.5363802189
 40
0.602630733
 40
0.7350858718
 40
0.8675393812
 40
1.0
 40
1.0
 40
1.0
 40
1.0
 10
64.4725726037
 20
59.186594553
 30
0.0
 10
64.4880975549
 20
59.1622271456
 30
0.0
 10
64.5159518638
 20
59.1078256805
 30
0.0
 10
64.5378266974
 20
59.0324499573
 30
0.0
 10
64.547487483
 20
58.9658194586
 30
0.0
 10
64.5507977062
 20
58.911593876
 30
0.0
 10
64.5500776379
 20
58.8557478346
 30
0.0
 10
64.5502342268
 20
58.8086557837
 30
0.0
 10
64.5502700546
 20
58.7709614426
 30
0.0
 10
64.5502686306
 20
58.733260135
 30
0.0
 10
64.5502121605
 20
58.6672771992
 30
0.0
 10
64.5502452814
 20
58.5730190782
 30
0.0
 10
64.550245356
 20
58.459915496
 30
0.0
 10
64.550238815
 20
58.3845127467
 30
0.0
 10
64.5502388391
 20
58.3468103597
 30
0.0
  0
SPLINE
  5
392
100
AcDbEntity
  8
0
100
AcDbSpline
 62
7
  6
BYLAYER
 70
0
 71
3
 72
15
 73
11
 74
0
 42
0.0000001
 43
0.0000001
 44
0.0000000001
 40
0.0
 40
0.0
 40
0.0
 40
0.0
 40
0.1141462769
 40
0.2373347432
 40
0.3669750849
 40
0.4999983967
 40
0.6330219315
 40
0.7626629244
 40
0.8858524171
 40
1.0
 40
1.0
 40
1.0
 40
1.0
 10
52.8123145825
 20
45.7319646616
 30
0.0
 10
52.7251883879
 20
45.6816626299
 30
0.0
 10
52.5530868304
 20
45.5610067785
 30
0.0
 10
52.3162702717
 20
45.3394718605
 30
0.0
 10
52.0980582798
 20
45.077563489
 30
0.0
 10
51.9066182975
 20
44.7851789147
 30
0.0
 10
51.7491270923
 20
44.4731934576
 30
0.0
 10
51.631414538
 20
44.1532600952
 30
0.0
 10
51.5579681567
 20
43.8374007518
 30
0.0
 10
51.5395276755
 20
43.6280264985
 30
0.0
 10
51.5395276755
 20
43.5274208337
 30
0.0
  0
SPLINE
  5
393
100
AcDbEntity
  8
0
100
AcDbSpline
 62
7
  6
BYLAYER
 70
0
 71
3
 72
13
 73
9
 74
0
 42
0.0000001
 43
0.0000001
 44
0.0000000001
 40
0.0
 40
0.0
 40
0.0
 40
0.0
 40
0.1080945663
 40
0.2182336992
 40
0.3322575376
 40
0.4516857461
 40
0.7106228288
 40
1.0
 40
1.0
 40
1.0
 40
1.0
 10
62.480380278
 20
50.883330903
 30
0.0
 10
62.4508698791
 20
50.9003683559
 30
0.0
 10
62.388218856
 20
50.9297267021
 30
0.0
 10
62.2868280909
 20
50.9577278925
 30
0.0
 10
62.1787593807
 20
50.9697994893
 30
0.0
 10
62.023158475
 20
50.964394799
 30
0.0
 10
61.8164198377
 20
50.9145767508
 30
0.0
 10
61.6594033634
 20
50.8398032611
 30
0.0
 10
61.5804021639
 20
50.7941921696
 30
0.0
  0
SPLINE
  5
394
100
AcDbEntity
  8
0
100
AcDbSpline
 62
7
  6
BYLAYER
 70
0
 71
3
 72
11
 73
7
 74
0
 42
0.0000001
 43
0.0000001
 44
0.0000000001
 40
0.0
 40
0.0
 40
0.0
 40
0.0
 40
0.2854349347
 40
0.552240812
 40
0.7922971319
 40
1.0
 40
1.0
 40
1.0
 40
1.0
 10
63.9138425924
 20
59.5464255038
 30
0.0
 10
63.9559758089
 20
59.5964355107
 30
0.0
 10
64.033321673
 20
59.6968591944
 30
0.0
 10
64.1269362696
 20
59.8530308659
 30
0.0
 10
64.1889586864
 20
60.0052832728
 30
0.0
 10
64.2067121558
 20
60.1078494023
 30
0.0
 10
64.2067111039
 20
60.1554338262
 30
0.0
  0
SPLINE
  5
395
100
AcDbEntity
  8
0
100
AcDbSpline
 62
7
  6
BYLAYER
 70
0
 71
3
 72
13
 73
9
 74
0
 42
0.0000001
 43
0.0000001
 44
0.0000000001
 40
0.0
 40
0.0
 40
0.0
 40
0.0
 40
0.1080938149
 40
0.2182323106
 40
0.3322557273
 40
0.4516837798
 40
0.7106213759
 40
1.0
 40
1.0
 40
1.0
 40
1.0
 10
51.9476919547
 20
40.3151481791
 30
0.0
 10
51.9181805898
 20
40.3321861896
 30
0.0
 10
51.8614274297
 20
40.3717647756
 30
0.0
 10
51.7864788716
 20
40.4455728444
 30
0.0
 10
51.7219872662
 20
40.5331300377
 30
0.0
 10
51.6488640185
 20
40.6705919129
 30
0.0
 10
51.5886358755
 20
40.8745505742
 30
0.0
 10
51.5748831618
 20
41.0479251167
 30
0.0
 10
51.5748831618
 20
41.1391517863
 30
0.0
  0
SPLINE
  5
396
100
AcDbEntity
  8
0
100
AcDbSpline
 62
7
  6
BYLAYER
 70
0
 71
3
 72
11
 73
7
 74
0
 42
0.0000001
 43
0.0000001
 44
0.0000000001
 40
0.0
 40
0.0
 40
0.0
 40
0.0
 40
0.2211316511
 40
0.4595935485
 40
0.7190729709
 40
1.0
 40
1.0
 40
1.0
 40
1.0
 10
64.1862589661
 20
67.1304862453
 30
0.0
 10
64.176206436
 20
67.1022140723
 30
0.0
 10
64.1481088814
 20
67.0458632576
 30
0.0
 10
64.0873581383
 20
66.9688183784
 30
0.0
 10
64.008235514
 20
66.8980889524
 30
0.0
 10
63.9468578184
 20
66.8575012111
 30
0.0
 10
63.9138448267
 20
66.8384413857
 30
0.0
  0
SPLINE
  5
397
100
AcDbEntity
  8
0
100
AcDbSpline
 62
7
  6
BYLAYER
 70
0
 71
3
 72
13
 73
9
 74
0
 42
0.0000001
 43
0.0000001
 44
0.0000000001
 40
0.0
 40
0.0
 40
0.0
 40
0.0
 40
0.2893771712
 40
0.5483142539
 40
0.6677424624
 40
0.7817663008
 40
0.8919054337
 40
1.0
 40
1.0
 40
1.0
 40
1.0
 10
61.6157576502
 20
50.7737801319
 30
0.0
 10
61.6947588496
 20
50.8193912234
 30
0.0
 10
61.8517753239
 20
50.8941647131
 30
0.0
 10
62.0585139612
 20
50.9439827613
 30
0.0
 10
62.214114867
 20
50.9493874516
 30
0.0
 10
62.3221835771
 20
50.9373158548
 30
0.0
 10
62.4235743422
 20
50.9093146643
 30
0.0
 10
62.4862253653
 20
50.8799563181
 30
0.0
 10
62.5157357642
 20
50.8629188653
 30
0.0
  0
SPLINE
  5
398
100
AcDbEntity
  8
0
100
AcDbSpline
 62
7
  6
BYLAYER
 70
0
 71
3
 72
15
 73
11
 74
0
 42
0.0000001
 43
0.0000001
 44
0.0000000001
 40
0.0
 40
0.0
 40
0.0
 40
0.0
 40
0.1141475829
 40
0.2373370756
 40
0.3669780685
 40
0.5000016033
 40
0.6330249151
 40
0.7626652568
 40
0.8858537231
 40
1.0
 40
1.0
 40
1.0
 40
1.0
 10
51.5748831618
 20
43.507008796
 30
0.0
 10
51.5748831618
 20
43.6076144608
 30
0.0
 10
51.593323643
 20
43.816988714
 30
0.0
 10
51.6667700242
 20
44.1328480575
 30
0.0
 10
51.7844825785
 20
44.4527814199
 30
0.0
 10
51.9419737837
 20
44.764766877
 30
0.0
 10
52.133413766
 20
45.0571514513
 30
0.0
 10
52.3516257579
 20
45.3190598228
 30
0.0
 10
52.5884423166
 20
45.5405947408
 30
0.0
 10
52.7605438741
 20
45.6612505922
 30
0.0
 10
52.8476700688
 20
45.7115526238
 30
0.0
  0
SPLINE
  5
399
100
AcDbEntity
  8
0
100
AcDbSpline
 62
7
  6
BYLAYER
 70
0
 71
3
 72
11
 73
7
 74
0
 42
0.0000001
 43
0.0000001
 44
0.0000000001
 40
0.0
 40
0.0
 40
0.0
 40
0.0
 40
0.2315006884
 40
0.4742909053
 40
0.7314547061
 40
1.0
 40
1.0
 40
1.0
 40
1.0
 10
64.5374511663
 20
59.4465458458
 30
0.0
 10
64.5414881306
 20
59.4257280443
 30
0.0
 10
64.5449779105
 20
59.3819887802
 30
0.0
 10
64.535166409
 20
59.3152043622
 30
0.0
 10
64.5111206469
 20
59.2486118211
 30
0.0
 10
64.486730684
 20
59.2067420014
 30
0.0
 10
64.4725332126
 20
59.1866537286
 30
0.0
  0
SPLINE
  5
39A
100
AcDbEntity
  8
0
100
AcDbSpline
 62
7
  6
BYLAYER
 70
0
 71
3
 72
9
 73
5
 74
0
 42
0.0000001
 43
0.0000001
 44
0.0000000001
 40
0.0
 40
0.0
 40
0.0
 40
0.0
 40
0.4837968072
 40
1.0
 40
1.0
 40
1.0
 40
1.0
 10
49.1732442378
 20
69.3098224123
 30
0.0
 10
49.0961073623
 20
69.2652876823
 30
0.0
 10
48.9430457185
 20
69.1619532854
 30
0.0
 10
48.8032491065
 20
69.0415388549
 30
0.0
 10
48.7344919258
 20
68.9759316601
 30
0.0
  0
SPLINE
  5
39B
100
AcDbEntity
  8
0
100
AcDbSpline
 62
7
  6
BYLAYER
 70
0
 71
3
 72
11
 73
7
 74
0
 42
0.0000001
 43
0.0000001
 44
0.0000000001
 40
0.0
 40
0.0
 40
0.0
 40
0.0
 40
0.2495852671
 40
0.4997102163
 40
0.750143732
 40
1.0
 40
1.0
 40
1.0
 40
1.0
 10
63.7179445638
 20
44.5680457187
 30
0.0
 10
63.7301492743
 20
44.5610005969
 30
0.0
 10
63.7554614922
 20
44.5483386334
 30
0.0
 10
63.7959876537
 20
44.5352355161
 30
0.0
 10
63.8385366158
 20
44.5310931233
 30
0.0
 10
63.8668976054
 20
44.5362735129
 30
0.0
 10
63.8800898944
 20
44.5412718829
 30
0.0
  0
SPLINE
  5
39C
100
AcDbEntity
  8
0
100
AcDbSpline
 62
7
  6
BYLAYER
 70
0
 71
3
 72
30
 73
26
 74
0
 42
0.0000001
 43
0.0000001
 44
0.0000000001
 40
0.0
 40
0.0
 40
0.0
 40
0.0
 40
0.0049298102
 40
0.0121248795
 40
0.0226268433
 40
0.0372544241
 40
0.0565090075
 40
0.0807699508
 40
0.1096766773
 40
0.1427609357
 40
0.2194755881
 40
0.3070800948
 40
0.4017911708
 40
0.5000178921
 40
0.5982465224
 40
0.6929633981
 40
0.7805773371
 40
0.8573004229
 40
0.9192274375
 40
0.943486277
 40
0.9627409597
 40
0.9773751288
 40
0.9878771176
 40
0.9950706897
 40
1.0
 40
1.0
 40
1.0
 40
1.0
 10
63.372286574
 20
45.3596730596
 30
0.0
 10
63.3690517403
 20
45.3615406495
 30
0.0
 10
63.3607540732
 20
45.3655882379
 30
0.0
 10
63.3440675254
 20
45.3699592565
 30
0.0
 10
63.319600513
 20
45.3722426893
 30
0.0
 10
63.2858997266
 20
45.3707844465
 30
0.0
 10
63.2424160072
 20
45.3629928185
 30
0.0
 10
63.1898186622
 20
45.3469875294
 30
0.0
 10
63.1294072404
 20
45.3217840822
 30
0.0
 10
63.0366622112
 20
45.2720624961
 30
0.0
 10
62.9145427226
 20
45.1845739333
 30
0.0
 10
62.7717589362
 20
45.0491870057
 30
0.0
 10
62.6360312757
 20
44.8849623674
 30
0.0
 10
62.5151839645
 20
44.6998608393
 30
0.0
 10
62.4152981757
 20
44.5026463889
 30
0.0
 10
62.3409272221
 20
44.302996875
 30
0.0
 10
62.2950787504
 20
44.1115749787
 30
0.0
 10
62.2781766894
 20
43.9403873657
 30
0.0
 10
62.2863809709
 20
43.8163982055
 30
0.0
 10
62.3044838103
 20
43.7384290961
 30
0.0
 10
62.3194883402
 20
43.696874929
 30
0.0
 10
62.3350773887
 20
43.6669559897
 30
0.0
 10
62.3492835972
 20
43.6469002627
 30
0.0
 10
62.3614139299
 20
43.6346376581
 30
0.0
 10
62.3690690353
 20
43.6294798567
 30
0.0
 10
62.3723035411
 20
43.6276124562
 30
0.0
  0
SPLINE
  5
39D
100
AcDbEntity
  8
0
100
AcDbSpline
 62
7
  6
BYLAYER
 70
0
 71
3
 72
11
 73
7
 74
0
 42
0.0000001
 43
0.0000001
 44
0.0000000001
 40
0.0
 40
0.0
 40
0.0
 40
0.0
 40
0.2177442246
 40
0.4508817658
 40
0.7104588047
 40
1.0
 40
1.0
 40
1.0
 40
1.0
 10
49.6993423428
 20
51.3677616263
 30
0.0
 10
49.7158324388
 20
51.3582412715
 30
0.0
 10
49.7467166609
 20
51.3323367704
 30
0.0
 10
49.7795699158
 20
51.2785961866
 30
0.0
 10
49.7990465008
 20
51.212390628
 30
0.0
 10
49.8029124913
 20
51.1642122102
 30
0.0
 10
49.8029124913
 20
51.1388927807
 30
0.0
  0
SPLINE
  5
39E
100
AcDbEntity
  8
0
100
AcDbSpline
 62
7
  6
BYLAYER
 70
0
 71
3
 72
10
 73
6
 74
0
 42
0.0000001
 43
0.0000001
 44
0.0000000001
 40
0.0
 40
0.0
 40
0.0
 40
0.0
 40
0.2116003072
 40
0.4533019098
 40
1.0
 40
1.0
 40
1.0
 40
1.0
 10
55.7588720795
 20
72.7475336748
 30
0.0
 10
55.7777163916
 20
72.7504524821
 30
0.0
 10
55.818562042
 20
72.7536854524
 30
0.0
 10
55.908739302
 20
72.7517400537
 30
0.0
 10
55.9793818953
 20
72.7413826044
 30
0.0
 10
56.0276100374
 20
72.7313166706
 30
0.0
  0
SPLINE
  5
39F
100
AcDbEntity
  8
0
100
AcDbSpline
 62
7
  6
BYLAYER
 70
0
 71
3
 72
9
 73
5
 74
0
 42
0.0000001
 43
0.0000001
 44
0.0000000001
 40
0.0
 40
0.0
 40
0.0
 40
0.0
 40
0.2447976531
 40
1.0
 40
1.0
 40
1.0
 40
1.0
 10
58.7744361189
 20
72.1737507816
 30
0.0
 10
58.7682463797
 20
72.173686316
 30
0.0
 10
58.7429675198
 20
72.1729414588
 30
0.0
 10
58.7177529091
 20
72.1703057367
 30
0.0
 10
58.698881519
 20
72.1673827353
 30
0.0
  0
SPLINE
  5
3A0
100
AcDbEntity
  8
0
100
AcDbSpline
 62
7
  6
BYLAYER
 70
0
 71
3
 72
14
 73
10
 74
0
 42
0.0000001
 43
0.0000001
 44
0.0000000001
 40
0.0
 40
0.0
 40
0.0
 40
0.0
 40
0.0803851853
 40
0.1564581658
 40
0.2423224641
 40
0.3471422459
 40
0.4748947626
 40
0.6267796074
 40
1.0
 40
1.0
 40
1.0
 40
1.0
 10
57.4630533864
 20
72.9465059659
 30
0.0
 10
57.4632822299
 20
72.9495617911
 30
0.0
 10
57.4648053263
 20
72.9555868184
 30
0.0
 10
57.4714705771
 20
72.9625236885
 30
0.0
 10
57.4812779465
 20
72.9660374327
 30
0.0
 10
57.4935032028
 20
72.9666445016
 30
0.0
 10
57.5080658794
 20
72.9644447862
 30
0.0
 10
57.5319455505
 20
72.957251767
 30
0.0
 10
57.5500678104
 20
72.9484393545
 30
0.0
 10
57.5624974571
 20
72.9415162738
 30
0.0
  0
SPLINE
  5
3A1
100
AcDbEntity
  8
0
100
AcDbSpline
 62
7
  6
BYLAYER
 70
0
 71
3
 72
11
 73
7
 74
0
 42
0.0000001
 43
0.0000001
 44
0.0000000001
 40
0.0
 40
0.0
 40
0.0
 40
0.0
 40
0.2220844369
 40
0.4705713885
 40
0.7336655095
 40
1.0
 40
1.0
 40
1.0
 40
1.0
 10
57.4630238015
 20
72.9465215488
 30
0.0
 10
57.4579261223
 20
72.8788138209
 30
0.0
 10
57.4341870319
 20
72.7362200234
 30
0.0
 10
57.3668017767
 20
72.5216541649
 30
0.0
 10
57.2675539354
 20
72.3048803898
 30
0.0
 10
57.1828489714
 20
72.1664070166
 30
0.0
 10
57.1361876943
 20
72.0996741123
 30
0.0
  0
SPLINE
  5
3A2
100
AcDbEntity
  8
0
100
AcDbSpline
 62
7
  6
BYLAYER
 70
0
 71
3
 72
19
 73
15
 74
0
 42
0.0000001
 43
0.0000001
 44
0.0000000001
 40
0.0
 40
0.0
 40
0.0
 40
0.0
 40
0.2059908762
 40
0.3999828815
 40
0.5754279034
 40
0.7259024413
 40
0.7897397441
 40
0.8448356937
 40
0.8904061754
 40
0.9267845822
 40
0.954745217
 40
0.9751051189
 40
0.9896107367
 40
1.0
 40
1.0
 40
1.0
 40
1.0
 10
62.8514628761
 20
68.7694303636
 30
0.0
 10
62.8250633932
 20
68.7108221424
 30
0.0
 10
62.7793382068
 20
68.594412186
 30
0.0
 10
62.7316098894
 20
68.4209248495
 30
0.0
 10
62.7071343125
 20
68.2601580148
 30
0.0
 10
62.704936222
 20
68.1380182134
 30
0.0
 10
62.7144553451
 20
68.0543916655
 30
0.0
 10
62.7247012393
 20
68.004014724
 30
0.0
 10
62.7374255603
 20
67.9630986239
 30
0.0
 10
62.751306519
 20
67.9316480901
 30
0.0
 10
62.7648103868
 20
67.9088551464
 30
0.0
 10
62.7768711367
 20
67.8933195704
 30
0.0
 10
62.7872351092
 20
67.88362026
 30
0.0
 10
62.7937581967
 20
67.8793509711
 30
0.0
 10
62.7965658434
 20
67.8777300122
 30
0.0
  0
SPLINE
  5
3A3
100
AcDbEntity
  8
0
100
AcDbSpline
 62
7
  6
BYLAYER
 70
0
 71
3
 72
11
 73
7
 74
0
 42
0.0000001
 43
0.0000001
 44
0.0000000001
 40
0.0
 40
0.0
 40
0.0
 40
0.0
 40
0.2177427933
 40
0.4509554988
 40
0.7103105704
 40
1.0
 40
1.0
 40
1.0
 40
1.0
 10
64.553653882
 20
68.9053111512
 30
0.0
 10
64.5899287376
 20
68.8843595368
 30
0.0
 10
64.6578093069
 20
68.8272719032
 30
0.0
 10
64.7301275258
 20
68.7091190725
 30
0.0
 10
64.7730110004
 20
68.5634619204
 30
0.0
 10
64.7814777732
 20
68.4574791149
 30
0.0
 10
64.7814777732
 20
68.4017468057
 30
0.0
  0
SPLINE
  5
3A4
100
AcDbEntity
  8
0
100
AcDbSpline
 62
7
  6
BYLAYER
 70
0
 71
3
 72
13
 73
9
 74
0
 42
0.0000001
 43
0.0000001
 44
0.0000000001
 40
0.0
 40
0.0
 40
0.0
 40
0.0
 40
0.1121089106
 40
0.2334766478
 40
0.3589883323
 40
0.486149048
 40
0.7424662027
 40
1.0
 40
1.0
 40
1.0
 40
1.0
 10
62.6524662191
 20
43.3138900276
 30
0.0
 10
62.6556098261
 20
43.3262140459
 30
0.0
 10
62.6568236527
 20
43.35325311
 30
0.0
 10
62.6479095493
 20
43.39329368
 30
0.0
 10
62.6303338184
 20
43.4321860197
 30
0.0
 10
62.5985911601
 20
43.4806289596
 30
0.0
 10
62.5472739994
 20
43.5330885676
 30
0.0
 10
62.4991437283
 20
43.5665257195
 30
0.0
 10
62.4738360207
 20
43.5811253464
 30
0.0
  0
SPLINE
  5
3A5
100
AcDbEntity
  8
0
100
AcDbSpline
 62
7
  6
BYLAYER
 70
0
 71
3
 72
12
 73
8
 74
0
 42
0.0000001
 43
0.0000001
 44
0.0000000001
 40
0.0
 40
0.0
 40
0.0
 40
0.0
 40
0.1112595225
 40
0.2298949718
 40
0.4827411375
 40
0.744757182
 40
1.0
 40
1.0
 40
1.0
 40
1.0
 10
64.7814777732
 20
45.9787397946
 30
0.0
 10
64.7814777732
 20
45.9314458691
 30
0.0
 10
64.7748058552
 20
45.8336504743
 30
0.0
 10
64.737685813
 20
45.631505044
 30
0.0
 10
64.6482496808
 20
45.3755736649
 30
0.0
 10
64.4875844869
 20
45.0887505194
 30
0.0
 10
64.347633376
 20
44.9171993142
 30
0.0
 10
64.2709061534
 20
44.8404872054
 30
0.0
  0
SPLINE
  5
3A6
100
AcDbEntity
  8
0
100
AcDbSpline
 62
7
  6
BYLAYER
 70
0
 71
3
 72
9
 73
5
 74
0
 42
0.0000001
 43
0.0000001
 44
0.0000000001
 40
0.0
 40
0.0
 40
0.0
 40
0.0
 40
0.2658190167
 40
1.0
 40
1.0
 40
1.0
 40
1.0
 10
62.5177789107
 20
43.0877052975
 30
0.0
 10
62.5343798624
 20
43.1043029791
 30
0.0
 10
62.5930296881
 20
43.1702547109
 30
0.0
 10
62.6364407776
 20
43.2510647952
 30
0.0
 10
62.6524662191
 20
43.3138900276
 30
0.0
  0
SPLINE
  5
3A7
100
AcDbEntity
  8
0
100
AcDbSpline
 62
7
  6
BYLAYER
 70
0
 71
3
 72
9
 73
5
 74
0
 42
0.0000001
 43
0.0000001
 44
0.0000000001
 40
0.0
 40
0.0
 40
0.0
 40
0.0
 40
0.5078967697
 40
1.0
 40
1.0
 40
1.0
 40
1.0
 10
63.8800898944
 20
44.5412718828
 30
0.0
 10
63.9273663946
 20
44.559184274
 30
0.0
 10
64.0170972641
 20
44.6039074359
 30
0.0
 10
64.0962000296
 20
44.6658154957
 30
0.0
 10
64.1308403798
 20
44.7004490223
 30
0.0
  0
SPLINE
  5
3A8
100
AcDbEntity
  8
0
100
AcDbSpline
 62
7
  6
BYLAYER
 70
0
 71
3
 72
13
 73
9
 74
0
 42
0.0000001
 43
0.0000001
 44
0.0000000001
 40
0.0
 40
0.0
 40
0.0
 40
0.0
 40
0.114176888
 40
0.2375715548
 40
0.5000017735
 40
0.762431024
 40
0.8858245003
 40
1.0
 40
1.0
 40
1.0
 40
1.0
 10
54.0455355146
 20
48.8118185638
 30
0.0
 10
54.0455355146
 20
48.7838905701
 30
0.0
 10
54.0403881491
 20
48.7257249605
 30
0.0
 10
54.0126483156
 20
48.6063094146
 30
0.0
 10
53.9480135662
 20
48.4598735447
 30
0.0
 10
53.8535145483
 20
48.3306800319
 30
0.0
 10
53.763968418
 20
48.2469492068
 30
0.0
 10
53.71616969
 20
48.2134090428
 30
0.0
 10
53.691983596
 20
48.1994452783
 30
0.0
  0
SPLINE
  5
3A9
100
AcDbEntity
  8
0
100
AcDbSpline
 62
7
  6
BYLAYER
 70
0
 71
3
 72
9
 73
5
 74
0
 42
0.0000001
 43
0.0000001
 44
0.0000000001
 40
0.0
 40
0.0
 40
0.0
 40
0.0
 40
0.2572439272
 40
1.0
 40
1.0
 40
1.0
 40
1.0
 10
51.2132599899
 20
49.479135995
 30
0.0
 10
51.2088250376
 20
49.4765754894
 30
0.0
 10
51.1914221073
 20
49.4669085571
 30
0.0
 10
51.173359932
 20
49.4584108805
 30
0.0
 10
51.1596314612
 20
49.4529187958
 30
0.0
  0
SPLINE
  5
3AA
100
AcDbEntity
  8
0
100
AcDbSpline
 62
7
  6
BYLAYER
 70
0
 71
3
 72
9
 73
5
 74
0
 42
0.0000001
 43
0.0000001
 44
0.0000000001
 40
0.0
 40
0.0
 40
0.0
 40
0.0
 40
0.2555063352
 40
1.0
 40
1.0
 40
1.0
 40
1.0
 10
62.8566867033
 20
69.7669270988
 30
0.0
 10
62.8630713411
 20
69.7679160193
 30
0.0
 10
62.8881215498
 20
69.7713676284
 30
0.0
 10
62.9134169463
 20
69.773099091
 30
0.0
 10
62.9322413028
 20
69.7732951451
 30
0.0
  0
SPLINE
  5
3AB
100
AcDbEntity
  8
0
100
AcDbSpline
 62
7
  6
BYLAYER
 70
0
 71
3
 72
11
 73
7
 74
0
 42
0.0000001
 43
0.0000001
 44
0.0000000001
 40
0.0
 40
0.0
 40
0.0
 40
0.0
 40
0.2328299422
 40
0.4906389456
 40
0.7534825661
 40
1.0
 40
1.0
 40
1.0
 40
1.0
 10
62.9322413028
 20
69.7732951451
 30
0.0
 10
62.9233404491
 20
69.7681419089
 30
0.0
 10
62.9063113339
 20
69.754272245
 30
0.0
 10
62.8855193983
 20
69.7280163544
 30
0.0
 10
62.8700657969
 20
69.697622685
 30
0.0
 10
62.8640411438
 20
69.6756995888
 30
0.0
 10
62.8625984119
 20
69.6649059635
 30
0.0
  0
SPLINE
  5
3AC
100
AcDbEntity
  8
0
100
AcDbSpline
 62
7
  6
BYLAYER
 70
0
 71
3
 72
11
 73
7
 74
0
 42
0.0000001
 43
0.0000001
 44
0.0000000001
 40
0.0
 40
0.0
 40
0.0
 40
0.0
 40
0.2359410137
 40
0.4854502514
 40
0.7423245267
 40
1.0
 40
1.0
 40
1.0
 40
1.0
 10
62.8625984119
 20
69.6649059635
 30
0.0
 10
62.8545765314
 20
69.6048912306
 30
0.0
 10
62.8286386081
 20
69.4825633726
 30
0.0
 10
62.7655977699
 20
69.3023319415
 30
0.0
 10
62.679433545
 20
69.1257346112
 30
0.0
 10
62.6082615991
 20
69.0141033962
 30
0.0
 10
62.5694979767
 20
68.9605306179
 30
0.0
  0
SPLINE
  5
3AD
100
AcDbEntity
  8
0
100
AcDbSpline
 62
7
  6
BYLAYER
 70
0
 71
3
 72
11
 73
7
 74
0
 42
0.0000001
 43
0.0000001
 44
0.0000000001
 40
0.0
 40
0.0
 40
0.0
 40
0.0
 40
0.2359201637
 40
0.4853511478
 40
0.7421930398
 40
1.0
 40
1.0
 40
1.0
 40
1.0
 10
57.5734176678
 20
72.7185468073
 30
0.0
 10
57.5654647036
 20
72.659047664
 30
0.0
 10
57.5398318465
 20
72.5377754029
 30
0.0
 10
57.4776200753
 20
72.3590162125
 30
0.0
 10
57.3926089098
 20
72.183717039
 30
0.0
 10
57.3223995893
 20
72.0727851999
 30
0.0
 10
57.284153146
 20
72.0194915829
 30
0.0
  0
SPLINE
  5
3AE
100
AcDbEntity
  8
0
100
AcDbSpline
 62
7
  6
BYLAYER
 70
0
 71
3
 72
9
 73
5
 74
0
 42
0.0000001
 43
0.0000001
 44
0.0000000001
 40
0.0
 40
0.0
 40
0.0
 40
0.0
 40
0.522512487
 40
1.0
 40
1.0
 40
1.0
 40
1.0
 10
57.5734176678
 20
72.7185468073
 30
0.0
 10
57.5539282571
 20
72.7432043744
 30
0.0
 10
57.5198223518
 20
72.7929875313
 30
0.0
 10
57.4928496356
 20
72.8470808082
 30
0.0
 10
57.48254398
 20
72.8738897206
 30
0.0
  0
SPLINE
  5
3AF
100
AcDbEntity
  8
0
100
AcDbSpline
 62
7
  6
BYLAYER
 70
0
 71
3
 72
9
 73
5
 74
0
 42
0.0000001
 43
0.0000001
 44
0.0000000001
 40
0.0
 40
0.0
 40
0.0
 40
0.0
 40
0.2659512938
 40
1.0
 40
1.0
 40
1.0
 40
1.0
 10
57.48254398
 20
72.8738897206
 30
0.0
 10
57.4811475183
 20
72.8775224464
 30
0.0
 10
57.476087294
 20
72.8912529149
 30
0.0
 10
57.4717474432
 20
72.9052593825
 30
0.0
 10
57.4691461095
 20
72.9156815998
 30
0.0
  0
LINE
  5
3B0
100
AcDbEntity
  8
0
100
AcDbLine
 62
7
  6
BYLAYER
 10
57.4691461095
 20
72.9156815998
 11
57.4661998161
 21
72.9290442761
  0
SPLINE
  5
3B1
100
AcDbEntity
  8
0
100
AcDbSpline
 62
7
  6
BYLAYER
 70
0
 71
3
 72
11
 73
7
 74
0
 42
0.0000001
 43
0.0000001
 44
0.0000000001
 40
0.0
 40
0.0
 40
0.0
 40
0.0
 40
0.217907072
 40
0.4510325443
 40
0.7104422046
 40
1.0
 40
1.0
 40
1.0
 40
1.0
 10
51.6703825315
 20
49.0461460771
 30
0.0
 10
51.6868919104
 20
49.0366316847
 30
0.0
 10
51.7247779937
 20
49.0228372641
 30
0.0
 10
51.7877432819
 20
49.0212616943
 30
0.0
 10
51.8548005205
 20
49.037494895
 30
0.0
 10
51.8984417503
 20
49.0582351997
 30
0.0
 10
51.9203697151
 20
49.0708952405
 30
0.0
  0
SPLINE
  5
3B2
100
AcDbEntity
  8
0
100
AcDbSpline
 62
7
  6
BYLAYER
 70
0
 71
3
 72
10
 73
6
 74
0
 42
0.0000001
 43
0.0000001
 44
0.0000000001
 40
0.0
 40
0.0
 40
0.0
 40
0.0
 40
0.2376090313
 40
0.4808060942
 40
1.0
 40
1.0
 40
1.0
 40
1.0
 10
62.7965656583
 20
67.8777296916
 30
0.0
 10
62.814679821
 20
67.8672729681
 30
0.0
 10
62.8534473496
 20
67.8495470599
 30
0.0
 10
62.9392407703
 20
67.828218539
 30
0.0
 10
63.0078177181
 20
67.8296619567
 30
0.0
 10
63.0529898597
 20
67.8366034795
 30
0.0
  0
SPLINE
  5
3B3
100
AcDbEntity
  8
0
100
AcDbSpline
 62
7
  6
BYLAYER
 70
0
 71
3
 72
9
 73
5
 74
0
 42
0.0000001
 43
0.0000001
 44
0.0000000001
 40
0.0
 40
0.0
 40
0.0
 40
0.0
 40
0.2434142442
 40
1.0
 40
1.0
 40
1.0
 40
1.0
 10
62.851451897
 20
68.7694333297
 30
0.0
 10
62.8509110466
 20
68.7682337847
 30
0.0
 10
62.8485009385
 20
68.7633913365
 30
0.0
 10
62.845355623
 20
68.7589270428
 30
0.0
 10
62.8426931549
 20
68.7558224221
 30
0.0
  0
SPLINE
  5
3B4
100
AcDbEntity
  8
0
100
AcDbSpline
 62
7
  6
BYLAYER
 70
0
 71
3
 72
10
 73
6
 74
0
 42
0.0000001
 43
0.0000001
 44
0.0000000001
 40
0.0
 40
0.0
 40
0.0
 40
0.0
 40
0.4237338345
 40
0.6922500467
 40
1.0
 40
1.0
 40
1.0
 40
1.0
 10
62.8426931549
 20
68.7558224221
 30
0.0
 10
62.8327893948
 20
68.7442739572
 30
0.0
 10
62.8104108035
 20
68.7310495854
 30
0.0
 10
62.7764088589
 20
68.7199024993
 30
0.0
 10
62.756035262
 20
68.7158062861
 30
0.0
 10
62.745116164
 20
68.7141150201
 30
0.0
  0
SPLINE
  5
3B5
100
AcDbEntity
  8
0
100
AcDbSpline
 62
7
  6
BYLAYER
 70
0
 71
3
 72
9
 73
5
 74
0
 42
0.0000001
 43
0.0000001
 44
0.0000000001
 40
0.0
 40
0.0
 40
0.0
 40
0.0
 40
0.4627636861
 40
1.0
 40
1.0
 40
1.0
 40
1.0
 10
64.5487415416
 20
68.9080976191
 30
0.0
 10
64.536097762
 20
68.9151399679
 30
0.0
 10
64.5079048681
 20
68.9287918905
 30
0.0
 10
64.4788579302
 20
68.9404244013
 30
0.0
 10
64.4631183943
 20
68.9463038869
 30
0.0
  0
SPLINE
  5
3B6
100
AcDbEntity
  8
0
100
AcDbSpline
 62
7
  6
BYLAYER
 70
0
 71
3
 72
9
 73
5
 74
0
 42
0.0000001
 43
0.0000001
 44
0.0000000001
 40
0.0
 40
0.0
 40
0.0
 40
0.0
 40
0.4686779716
 40
1.0
 40
1.0
 40
1.0
 40
1.0
 10
64.4631183943
 20
68.9463038869
 30
0.0
 10
64.4288853081
 20
68.959091617
 30
0.0
 10
64.3545910525
 20
68.9829241844
 30
0.0
 10
64.2799263228
 20
69.0053494878
 30
0.0
 10
64.2404776056
 20
69.0180016505
 30
0.0
  0
SPLINE
  5
3B7
100
AcDbEntity
  8
0
100
AcDbSpline
 62
7
  6
BYLAYER
 70
0
 71
3
 72
11
 73
7
 74
0
 42
0.0000001
 43
0.0000001
 44
0.0000000001
 40
0.0
 40
0.0
 40
0.0
 40
0.0
 40
0.2836031975
 40
0.5471366576
 40
0.7863781389
 40
1.0
 40
1.0
 40
1.0
 40
1.0
 10
64.2404776056
 20
69.0180016505
 30
0.0
 10
64.2172047221
 20
69.019448002
 30
0.0
 10
64.1721487933
 20
69.0194219713
 30
0.0
 10
64.1075712702
 20
69.0164408421
 30
0.0
 10
64.0487565362
 20
69.0132211246
 30
0.0
 10
64.0115369933
 20
69.0118999955
 30
0.0
 10
63.9939739721
 20
69.0117207562
 30
0.0
  0
SPLINE
  5
3B8
100
AcDbEntity
  8
0
100
AcDbSpline
 62
7
  6
BYLAYER
 70
0
 71
3
 72
9
 73
5
 74
0
 42
0.0000001
 43
0.0000001
 44
0.0000000001
 40
0.0
 40
0.0
 40
0.0
 40
0.0
 40
0.4933312848
 40
1.0
 40
1.0
 40
1.0
 40
1.0
 10
63.5620111969
 20
44.7118925072
 30
0.0
 10
63.5832467785
 20
44.6840124952
 30
0.0
 10
63.6304459149
 20
44.6306008008
 30
0.0
 10
63.6867715961
 20
44.5860401933
 30
0.0
 10
63.7179445638
 20
44.5680457187
 30
0.0
  0
SPLINE
  5
3B9
100
AcDbEntity
  8
0
100
AcDbSpline
 62
7
  6
BYLAYER
 70
0
 71
3
 72
13
 73
9
 74
0
 42
0.0000001
 43
0.0000001
 44
0.0000000001
 40
0.0
 40
0.0
 40
0.0
 40
0.0
 40
0.2999515023
 40
0.5636650677
 40
0.6822134327
 40
0.793050537
 40
0.8980830278
 40
1.0
 40
1.0
 40
1.0
 40
1.0
 10
63.562011197
 20
44.7118925072
 30
0.0
 10
63.5744053028
 20
44.7823868265
 30
0.0
 10
63.586717754
 20
44.9172046333
 30
0.0
 10
63.5656215708
 20
45.0806639554
 30
0.0
 10
63.5243976181
 20
45.1913825735
 30
0.0
 10
63.4840051583
 20
45.2607343825
 30
0.0
 10
63.4334974001
 20
45.3179752087
 30
0.0
 10
63.3933476226
 20
45.3475122304
 30
0.0
 10
63.372286615
 20
45.3596731305
 30
0.0
  0
SPLINE
  5
3BA
100
AcDbEntity
  8
0
100
AcDbSpline
 62
7
  6
BYLAYER
 70
0
 71
3
 72
9
 73
5
 74
0
 42
0.0000001
 43
0.0000001
 44
0.0000000001
 40
0.0
 40
0.0
 40
0.0
 40
0.0
 40
0.2320873806
 40
1.0
 40
1.0
 40
1.0
 40
1.0
 10
63.0529898597
 20
67.8366034795
 30
0.0
 10
63.072929044
 20
67.8396674985
 30
0.0
 10
63.1580807724
 20
67.8578349522
 30
0.0
 10
63.2387521427
 20
67.8938842383
 30
0.0
 10
63.2965573599
 20
67.9272578967
 30
0.0
  0
SPLINE
  5
3BB
100
AcDbEntity
  8
0
100
AcDbSpline
 62
7
  6
BYLAYER
 70
0
 71
3
 72
15
 73
11
 74
0
 42
0.0000001
 43
0.0000001
 44
0.0000000001
 40
0.0
 40
0.0
 40
0.0
 40
0.0
 40
0.1123867055
 40
0.2330229019
 40
0.3598625982
 40
0.4906211055
 40
0.6226551648
 40
0.7532385759
 40
0.8798478615
 40
1.0
 40
1.0
 40
1.0
 40
1.0
 10
63.2965573599
 20
67.9272578967
 30
0.0
 10
63.3396597442
 20
67.9521429214
 30
0.0
 10
63.4250384805
 20
68.0108183789
 30
0.0
 10
63.5440380615
 20
68.1173456297
 30
0.0
 10
63.6555554564
 20
68.2427819137
 30
0.0
 10
63.756242632
 20
68.3832764022
 30
0.0
 10
63.8430530768
 20
68.5346495733
 30
0.0
 10
63.9134216686
 20
68.6923401034
 30
0.0
 10
63.9651553976
 20
68.8515607884
 30
0.0
 10
63.9869244528
 20
68.9589806264
 30
0.0
 10
63.9939739721
 20
69.0117207562
 30
0.0
  0
SPLINE
  5
3BC
100
AcDbEntity
  8
0
100
AcDbSpline
 62
7
  6
BYLAYER
 70
0
 71
3
 72
9
 73
5
 74
0
 42
0.0000001
 43
0.0000001
 44
0.0000000001
 40
0.0
 40
0.0
 40
0.0
 40
0.0
 40
0.5120661943
 40
1.0
 40
1.0
 40
1.0
 40
1.0
 10
62.745116164
 20
68.7141150201
 30
0.0
 10
62.7133406288
 20
68.6383244316
 30
0.0
 10
62.6590802585
 20
68.486902367
 30
0.0
 10
62.6226328465
 20
68.3301237269
 30
0.0
 10
62.6100609582
 20
68.252830405
 30
0.0
  0
SPLINE
  5
3BD
100
AcDbEntity
  8
0
100
AcDbSpline
 62
7
  6
BYLAYER
 70
0
 71
3
 72
25
 73
21
 74
0
 42
0.0000001
 43
0.0000001
 44
0.0000000001
 40
0.0
 40
0.0
 40
0.0
 40
0.0
 40
0.0667917367
 40
0.1274347364
 40
0.1816737841
 40
0.2304305354
 40
0.2534528828
 40
0.2760164745
 40
0.2985455039
 40
0.3214653907
 40
0.3698487158
 40
0.4235952214
 40
0.4836885632
 40
0.5500114923
 40
0.6216446931
 40
0.6971236879
 40
0.7746547283
 40
0.8522569191
 40
0.9279999761
 40
1.0
 40
1.0
 40
1.0
 40
1.0
 10
62.6100609582
 20
68.252830405
 30
0.0
 10
62.5974553693
 20
68.1753298881
 30
0.0
 10
62.5833256462
 20
68.0255214057
 30
0.0
 10
62.5987566107
 20
67.8113256651
 30
0.0
 10
62.6518177742
 20
67.6247291891
 30
0.0
 10
62.7289131109
 20
67.4955093275
 30
0.0
 10
62.8072709337
 20
67.4163693706
 30
0.0
 10
62.872588806
 20
67.3693757461
 30
0.0
 10
62.9448872455
 20
67.3343244396
 30
0.0
 10
63.051224716
 20
67.3032914356
 30
0.0
 10
63.2005047899
 20
67.2975441821
 30
0.0
 10
63.3879163019
 20
67.3409695628
 30
0.0
 10
63.5809881269
 20
67.431015729
 30
0.0
 10
63.7732047862
 20
67.5639919152
 30
0.0
 10
63.9578959096
 20
67.734903204
 30
0.0
 10
64.1283393067
 20
67.9374413998
 30
0.0
 10
64.278186637
 20
68.1640562808
 30
0.0
 10
64.4019133067
 20
68.4062907297
 30
0.0
 10
64.494759539
 20
68.6550102738
 30
0.0
 10
64.5351529939
 20
68.8245537657
 30
0.0
 10
64.5487415416
 20
68.9080976191
 30
0.0
  0
SPLINE
  5
3BE
100
AcDbEntity
  8
0
100
AcDbSpline
 62
7
  6
BYLAYER
 70
0
 71
3
 72
15
 73
11
 74
0
 42
0.0000001
 43
0.0000001
 44
0.0000000001
 40
0.0
 40
0.0
 40
0.0
 40
0.0
 40
0.155022807
 40
0.3008123875
 40
0.4366368759
 40
0.5627033885
 40
0.6799035246
 40
0.7899773711
 40
0.8956260185
 40
1.0
 40
1.0
 40
1.0
 40
1.0
 10
62.1794375154
 20
43.9602438899
 30
0.0
 10
62.1723838464
 20
43.9086775047
 30
0.0
 10
62.1633817204
 20
43.8078834482
 30
0.0
 10
62.1660607464
 20
43.6610043291
 30
0.0
 10
62.1854068083
 20
43.5251000214
 30
0.0
 10
62.2212192266
 20
43.4024487264
 30
0.0
 10
62.2730531996
 20
43.2950486642
 30
0.0
 10
62.3404075627
 20
43.204862936
 30
0.0
 10
62.4222418559
 20
43.1339000275
 30
0.0
 10
62.485179156
 20
43.1005582152
 30
0.0
 10
62.5177789107
 20
43.0877052975
 30
0.0
  0
SPLINE
  5
3BF
100
AcDbEntity
  8
0
100
AcDbSpline
 62
7
  6
BYLAYER
 70
0
 71
3
 72
26
 73
22
 74
0
 42
0.0000001
 43
0.0000001
 44
0.0000000001
 40
0.0
 40
0.0
 40
0.0
 40
0.0
 40
0.0657479845
 40
0.1252485921
 40
0.1784150948
 40
0.2029952344
 40
0.2265204324
 40
0.249331996
 40
0.2718307615
 40
0.2944469533
 40
0.3175971302
 40
0.3667895388
 40
0.4216094534
 40
0.4828257363
 40
0.5501588625
 40
0.6225771549
 40
0.6985433054
 40
0.7762229416
 40
0.8536232981
 40
0.9288286955
 40
1.0
 40
1.0
 40
1.0
 40
1.0
 10
64.1308403798
 20
44.7004490223
 30
0.0
 10
64.1413168532
 20
44.7770380803
 30
0.0
 10
64.1512103408
 20
44.9246816775
 30
0.0
 10
64.129236047
 20
45.1344480767
 30
0.0
 10
64.078007738
 20
45.289364708
 30
0.0
 10
64.0179732738
 20
45.3926305264
 30
0.0
 10
63.9655671659
 20
45.4579235873
 30
0.0
 10
63.9051215066
 20
45.5122979455
 30
0.0
 10
63.8372692084
 20
45.5551568104
 30
0.0
 10
63.7627210567
 20
45.5859306829
 30
0.0
 10
63.6534812991
 20
45.6110936476
 30
0.0
 10
63.5017131298
 20
45.6091604393
 30
0.0
 10
63.3128892412
 20
45.5572865253
 30
0.0
 10
63.1194856329
 20
45.4593855881
 30
0.0
 10
62.9281031702
 20
45.319336914
 30
0.0
 10
62.7454385771
 20
45.1423670115
 30
0.0
 10
62.5781731336
 20
44.9350155362
 30
0.0
 10
62.4325500282
 20
44.7050207752
 30
0.0
 10
62.3139392047
 20
44.460967287
 30
0.0
 10
62.2269066008
 20
44.2120586497
 30
0.0
 10
62.1907781562
 20
44.0431505098
 30
0.0
 10
62.1794375154
 20
43.9602438899
 30
0.0
  0
SPLINE
  5
3C0
100
AcDbEntity
  8
0
100
AcDbSpline
 62
7
  6
BYLAYER
 70
0
 71
3
 72
11
 73
7
 74
0
 42
0.0000001
 43
0.0000001
 44
0.0000000001
 40
0.0
 40
0.0
 40
0.0
 40
0.0
 40
0.2895396729
 40
0.5491163863
 40
0.7822545095
 40
1.0
 40
1.0
 40
1.0
 40
1.0
 10
49.4493605727
 20
51.3430219124
 30
0.0
 10
49.4712868903
 20
51.3556810022
 30
0.0
 10
49.5149417942
 20
51.376421146
 30
0.0
 10
49.5820129982
 20
51.3926560599
 30
0.0
 10
49.6449779403
 20
51.3910748885
 30
0.0
 10
49.6828528044
 20
51.3772816592
 30
0.0
 10
49.6993423428
 20
51.3677616263
 30
0.0
  0
SPLINE
  5
3C1
100
AcDbEntity
  8
0
100
AcDbSpline
 62
7
  6
BYLAYER
 70
0
 71
3
 72
23
 73
19
 74
0
 42
0.0000001
 43
0.0000001
 44
0.0000000001
 40
0.0
 40
0.0
 40
0.0
 40
0.0
 40
0.0596302444
 40
0.1226581974
 40
0.1885848872
 40
0.2568047956
 40
0.3266192589
 40
0.3972762433
 40
0.4679935153
 40
0.5379874487
 40
0.6064988865
 40
0.6728207129
 40
0.7363270038
 40
0.7965058116
 40
0.8529971065
 40
0.9056371499
 40
0.9545097877
 40
1.0
 40
1.0
 40
1.0
 40
1.0
 10
33.8400390976
 20
39.9835750725
 30
0.0
 10
33.8400390976
 20
40.4758828841
 30
0.0
 10
33.7818381862
 20
41.4891134407
 30
0.0
 10
33.5396536258
 20
43.029247276
 30
0.0
 10
33.1440317984
 20
44.6104107833
 30
0.0
 10
32.6016037092
 20
46.2064382658
 30
0.0
 10
31.9212444997
 20
47.7912043476
 30
0.0
 10
31.1142013891
 20
49.3385814762
 30
0.0
 10
30.1937684293
 20
50.8230553695
 30
0.0
 10
29.1751333252
 20
52.22014027
 30
0.0
 10
28.0750734875
 20
53.5068137853
 30
0.0
 10
26.911659452
 20
54.661907557
 30
0.0
 10
25.7039118593
 20
55.6664550756
 30
0.0
 10
24.4713951649
 20
56.5039756201
 30
0.0
 10
23.2339023248
 20
57.1606729818
 30
0.0
 10
22.0107449512
 20
57.625428737
 30
0.0
 10
20.8215679021
 20
57.8897553945
 30
0.0
 10
20.0384039247
 20
57.9291716434
 30
0.0
 10
19.6632895793
 20
57.910726093
 30
0.0
  0
SPLINE
  5
3C2
100
AcDbEntity
  8
0
100
AcDbSpline
 62
7
  6
BYLAYER
 70
0
 71
3
 72
28
 73
24
 74
0
 42
0.0000001
 43
0.0000001
 44
0.0000000001
 40
0.0
 40
0.0
 40
0.0
 40
0.0
 40
0.0306651538
 40
0.0624037831
 40
0.1287335471
 40
0.1983176701
 40
0.27028474
 40
0.3436526811
 40
0.4173749036
 40
0.4903898627
 40
0.5616671756
 40
0.630255719
 40
0.6953351882
 40
0.7562752765
 40
0.785082645
 40
0.8127429549
 40
0.8646373325
 40
0.8890213978
 40
0.9124678654
 40
0.9351099865
 40
0.9571125813
 40
0.9786705292
 40
1.0
 40
1.0
 40
1.0
 40
1.0
 10
33.3727998643
 20
39.2327277806
 30
0.0
 10
33.3727998643
 20
39.5216147924
 30
0.0
 10
33.3537092556
 20
40.1096448002
 30
0.0
 10
33.2426814348
 20
41.3178642085
 30
0.0
 10
32.9655680906
 20
42.8760725603
 30
0.0
 10
32.4330455953
 20
44.7635672949
 30
0.0
 10
31.7068361228
 20
46.6564219156
 30
0.0
 10
30.8025010704
 20
48.5141727716
 30
0.0
 10
29.7392950675
 20
50.2972740929
 30
0.0
 10
28.539905606
 20
51.9676722192
 30
0.0
 10
27.2298959944
 20
53.4897627336
 30
0.0
 10
25.8369956936
 20
54.8312314646
 30
0.0
 10
24.3907398267
 20
55.963490383
 30
0.0
 10
23.1430121885
 20
56.7268691941
 30
0.0
 10
22.1448984343
 20
57.2056184497
 30
0.0
 10
21.1944066817
 20
57.5794978
 30
0.0
 10
20.2424234524
 20
57.8322557794
 30
0.0
 10
19.3080828233
 20
57.9421663042
 30
0.0
 10
18.6430043649
 20
57.9526088364
 30
0.0
 10
18.0029899945
 20
57.8926249752
 30
0.0
 10
17.3915631704
 20
57.762160894
 30
0.0
 10
16.8123537611
 20
57.5619930944
 30
0.0
 10
16.4490964567
 20
57.3821788302
 30
0.0
 10
16.2750781943
 20
57.2817104929
 30
0.0
  0
SPLINE
  5
3C3
100
AcDbEntity
  8
0
100
AcDbSpline
 62
7
  6
BYLAYER
 70
0
 71
3
 72
28
 73
24
 74
0
 42
0.0000001
 43
0.0000001
 44
0.0000000001
 40
0.0
 40
0.0
 40
0.0
 40
0.0
 40
0.0306543074
 40
0.0623806696
 40
0.1286825388
 40
0.1982360743
 40
0.2701724966
 40
0.3435117609
 40
0.4172103941
 40
0.4902094363
 40
0.561480562
 40
0.630073963
 40
0.6951699664
 40
0.7561376725
 40
0.784962234
 40
0.8126414507
 40
0.8645761793
 40
0.888979604
 40
0.9124435008
 40
0.935099808
 40
0.9571120066
 40
0.9786737104
 40
1.0
 40
1.0
 40
1.0
 40
1.0
 10
8.3548910793
 20
47.9727341575
 30
0.0
 10
8.3548910793
 20
47.6828021194
 30
0.0
 10
8.3740300876
 20
47.0926550611
 30
0.0
 10
8.4853432687
 20
45.8801074213
 30
0.0
 10
8.7631740014
 20
44.3163277501
 30
0.0
 10
9.2971052262
 20
42.4220174341
 30
0.0
 10
10.0252726193
 20
40.5222047789
 30
0.0
 10
10.9321055001
 20
38.6574196468
 30
0.0
 10
11.9983336051
 20
36.8672766156
 30
0.0
 10
13.2012543705
 20
35.1898982758
 30
0.0
 10
14.5152804536
 20
33.6609660921
 30
0.0
 10
15.912651728
 20
32.3128751029
 30
0.0
 10
17.363796339
 20
31.1742963578
 30
0.0
 10
18.615929741
 20
30.4059140932
 30
0.0
 10
19.6177632623
 20
29.9233735568
 30
0.0
 10
20.5720059855
 20
29.545982538
 30
0.0
 10
21.5278947334
 20
29.2899274183
 30
0.0
 10
22.4663642293
 20
29.1769789186
 30
0.0
 10
23.1345249524
 20
29.1644708442
 30
0.0
 10
23.7776611188
 20
29.2225717768
 30
0.0
 10
24.3922437632
 20
29.3513407441
 30
0.0
 10
24.9746332813
 20
29.5500201353
 30
0.0
 10
25.3400913563
 20
29.7290142221
 30
0.0
 10
25.5152021984
 20
29.829122791
 30
0.0
  0
SPLINE
  5
3C4
100
AcDbEntity
  8
0
100
AcDbSpline
 62
7
  6
BYLAYER
 70
0
 71
3
 72
23
 73
19
 74
0
 42
0.0000001
 43
0.0000001
 44
0.0000000001
 40
0.0
 40
0.0
 40
0.0
 40
0.0
 40
0.0558315739
 40
0.1141826055
 40
0.1747828208
 40
0.2373530422
 40
0.3015488421
 40
0.3669921651
 40
0.4332822151
 40
0.4999994831
 40
0.5667167223
 40
0.6330068164
 40
0.6984504629
 40
0.7626457916
 40
0.8252162999
 40
0.8858199665
 40
0.9441610397
 40
1.0
 40
1.0
 40
1.0
 40
1.0
 10
27.1991026174
 20
36.7414055178
 30
0.0
 10
27.1991026174
 20
37.0928791901
 30
0.0
 10
27.1678630881
 20
37.8119484058
 30
0.0
 10
27.0354754637
 20
38.9051980396
 30
0.0
 10
26.8176283433
 20
40.0278954935
 30
0.0
 10
26.516518339
 20
41.1691666548
 30
0.0
 10
26.1350009699
 20
42.3182474848
 30
0.0
 10
25.6767334583
 20
43.4641439758
 30
0.0
 10
25.1460833122
 20
44.5958971311
 30
0.0
 10
24.5481271406
 20
45.7026862701
 30
0.0
 10
23.8886082234
 20
46.7739328147
 30
0.0
 10
23.1738163436
 20
47.7993755703
 30
0.0
 10
22.4105815906
 20
48.7691997976
 30
0.0
 10
21.6062200851
 20
49.6741561419
 30
0.0
 10
20.7684023441
 20
50.5055882131
 30
0.0
 10
19.90506021
 20
51.2555585415
 30
0.0
 10
19.0245045337
 20
51.9168865768
 30
0.0
 10
18.4173985431
 20
52.3034570699
 30
0.0
 10
18.1129753273
 20
52.4792209363
 30
0.0
  0
SPLINE
  5
3C5
100
AcDbEntity
  8
0
100
AcDbSpline
 62
7
  6
BYLAYER
 70
0
 71
3
 72
27
 73
23
 74
0
 42
0.0000001
 43
0.0000001
 44
0.0000000001
 40
0.0
 40
0.0
 40
0.0
 40
0.0
 40
0.0213300666
 40
0.0428886736
 40
0.0648921482
 40
0.0875351252
 40
0.1109827414
 40
0.1353673799
 40
0.1872639949
 40
0.2149256479
 40
0.2437333482
 40
0.3046743202
 40
0.3697553328
 40
0.4383444304
 40
0.5096225676
 40
0.5826387154
 40
0.6563624412
 40
0.7297323562
 40
0.8017023113
 40
0.8712883269
 40
0.9376219778
 40
1.0
 40
1.0
 40
1.0
 40
1.0
 10
24.1934830959
 20
31.2374651859
 30
0.0
 10
24.0417535647
 20
31.1498654156
 30
0.0
 10
23.7250129898
 20
30.9931051727
 30
0.0
 10
23.2200006999
 20
30.8185379977
 30
0.0
 10
22.6868749181
 20
30.7048198546
 30
0.0
 10
22.1288315975
 20
30.6524847701
 30
0.0
 10
21.54893318
 20
30.6616220811
 30
0.0
 10
20.7342551239
 20
30.757429031
 30
0.0
 10
19.9041950217
 20
30.9778286188
 30
0.0
 10
19.0754463434
 20
31.3038394906
 30
0.0
 10
18.2051755436
 20
31.7212572634
 30
0.0
 10
17.1172780426
 20
32.386864005
 30
0.0
 10
15.8562806973
 20
33.3740871818
 30
0.0
 10
14.6418054187
 20
34.5437211169
 30
0.0
 10
13.4996034497
 20
35.8708344494
 30
0.0
 10
12.4538449183
 20
37.3272637155
 30
0.0
 10
11.5268216699
 20
38.8819627475
 30
0.0
 10
10.7383066565
 20
40.5017793036
 30
0.0
 10
10.1051203208
 20
42.1521446407
 30
0.0
 10
9.6407495028
 20
43.7980831452
 30
0.0
 10
9.3551166223
 20
45.4043840027
 30
0.0
 10
9.2857070289
 20
46.4623056792
 30
0.0
 10
9.2857057056
 20
46.9746680691
 30
0.0
  0
SPLINE
  5
3C6
100
AcDbEntity
  8
0
100
AcDbSpline
 62
7
  6
BYLAYER
 70
0
 71
3
 72
15
 73
11
 74
0
 42
0.0000001
 43
0.0000001
 44
0.0000000001
 40
0.0
 40
0.0
 40
0.0
 40
0.0
 40
0.1486066899
 40
0.2895005212
 40
0.4227246207
 40
0.5486429793
 40
0.6680004033
 40
0.7819377583
 40
0.8919868444
 40
1.0
 40
1.0
 40
1.0
 40
1.0
 10
9.2857057056
 20
46.9746680691
 30
0.0
 10
9.285706536
 20
47.2963497422
 30
0.0
 10
9.3116091799
 20
47.923451896
 30
0.0
 10
9.4350979701
 20
48.831586257
 30
0.0
 10
9.6412893593
 20
49.6744550492
 30
0.0
 10
9.9286457154
 20
50.4439793117
 30
0.0
 10
10.2949474899
 20
51.1326732167
 30
0.0
 10
10.7373499458
 20
51.7335157383
 30
0.0
 10
11.2517447792
 20
52.2397642012
 30
0.0
 10
11.641051653
 20
52.5114202406
 30
0.0
 10
11.8435385265
 20
52.6283243361
 30
0.0
  0
SPLINE
  5
3C7
100
AcDbEntity
  8
0
100
AcDbSpline
 62
7
  6
BYLAYER
 70
0
 71
3
 72
9
 73
5
 74
0
 42
0.0000001
 43
0.0000001
 44
0.0000000001
 40
0.0
 40
0.0
 40
0.0
 40
0.0
 40
0.4976776759
 40
1.0
 40
1.0
 40
1.0
 40
1.0
 10
29.5047204288
 20
32.110011724
 30
0.0
 10
29.665623174
 20
32.2035642498
 30
0.0
 10
29.9781297106
 20
32.4107625237
 30
0.0
 10
30.2642865237
 20
32.652984214
 30
0.0
 10
30.4006367573
 20
32.7822126864
 30
0.0
  0
SPLINE
  5
3C8
100
AcDbEntity
  8
0
100
AcDbSpline
 62
7
  6
BYLAYER
 70
0
 71
3
 72
9
 73
5
 74
0
 42
0.0000001
 43
0.0000001
 44
0.0000000001
 40
0.0
 40
0.0
 40
0.0
 40
0.0
 40
0.4937929581
 40
1.0
 40
1.0
 40
1.0
 40
1.0
 10
30.4006367573
 20
32.7822126864
 30
0.0
 10
30.5390605225
 20
32.9134063869
 30
0.0
 10
30.8044190419
 20
33.1952852625
 30
0.0
 10
31.0375956142
 20
33.5041780745
 30
0.0
 10
31.1473854762
 20
33.6659524563
 30
0.0
  0
SPLINE
  5
3C9
100
AcDbEntity
  8
0
100
AcDbSpline
 62
7
  6
BYLAYER
 70
0
 71
3
 72
12
 73
8
 74
0
 42
0.0000001
 43
0.0000001
 44
0.0000000001
 40
0.0
 40
0.0
 40
0.0
 40
0.0
 40
0.1101805609
 40
0.224033859
 40
0.4641084436
 40
0.7225778417
 40
1.0
 40
1.0
 40
1.0
 40
1.0
 10
31.1473854762
 20
33.6659524563
 30
0.0
 10
31.2545977679
 20
33.8239288113
 30
0.0
 10
31.4569118036
 20
34.1560684207
 30
0.0
 10
31.8113033817
 20
34.8789675438
 30
0.0
 10
32.1529666382
 20
35.8889401007
 30
0.0
 10
32.3938470346
 20
37.2156222494
 30
0.0
 10
32.4435129935
 20
38.1454469667
 30
0.0
 10
32.4435129935
 20
38.6261655555
 30
0.0
  0
SPLINE
  5
3CA
100
AcDbEntity
  8
0
100
AcDbSpline
 62
7
  6
BYLAYER
 70
0
 71
3
 72
15
 73
11
 74
0
 42
0.0000001
 43
0.0000001
 44
0.0000000001
 40
0.0
 40
0.0
 40
0.0
 40
0.0
 40
0.1079904157
 40
0.218053103
 40
0.332022478
 40
0.4514151686
 40
0.5773559578
 40
0.7105713753
 40
0.8514685634
 40
1.0
 40
1.0
 40
1.0
 40
1.0
 10
11.2847473394
 20
54.4771407492
 30
0.0
 10
11.0526785894
 20
54.3418367595
 30
0.0
 10
10.6065838521
 20
54.0279031406
 30
0.0
 10
10.0173700844
 20
53.4441604079
 30
0.0
 10
9.5106885535
 20
52.7522190666
 30
0.0
 10
9.091180398
 20
51.9598080693
 30
0.0
 10
8.7621027347
 20
51.0749601529
 30
0.0
 10
8.5259503
 20
50.1061372103
 30
0.0
 10
8.3845991159
 20
49.0626754022
 30
0.0
 10
8.3548910793
 20
48.3422139427
 30
0.0
 10
8.3548910793
 20
47.9727341575
 30
0.0
  0
SPLINE
  5
3CB
100
AcDbEntity
  8
0
100
AcDbSpline
 62
7
  6
BYLAYER
 70
0
 71
3
 72
15
 73
11
 74
0
 42
0.0000001
 43
0.0000001
 44
0.0000000001
 40
0.0
 40
0.0
 40
0.0
 40
0.0
 40
0.1080124875
 40
0.2180614971
 40
0.3319986631
 40
0.4513577436
 40
0.5772771411
 40
0.710492209
 40
0.8514152435
 40
1.0
 40
1.0
 40
1.0
 40
1.0
 10
30.43921137
 20
32.7485657526
 30
0.0
 10
30.6714416295
 20
32.8826424163
 30
0.0
 10
31.1179422528
 20
33.1941926738
 30
0.0
 10
31.7079045059
 20
33.7748035269
 30
0.0
 10
32.2152868533
 20
34.4639193453
 30
0.0
 10
32.6354020758
 20
35.2537855453
 30
0.0
 10
32.9649731136
 20
36.1363333351
 30
0.0
 10
33.2014854384
 20
37.1030666527
 30
0.0
 10
33.3430520379
 20
38.1446085284
 30
0.0
 10
33.3727998643
 20
38.8638459892
 30
0.0
 10
33.3727998643
 20
39.2327277806
 30
0.0
  0
SPLINE
  5
3CC
100
AcDbEntity
  8
0
100
AcDbSpline
 62
7
  6
BYLAYER
 70
0
 71
3
 72
9
 73
5
 74
0
 42
0.0000001
 43
0.0000001
 44
0.0000000001
 40
0.0
 40
0.0
 40
0.0
 40
0.0
 40
0.4855086001
 40
1.0
 40
1.0
 40
1.0
 40
1.0
 10
33.8418597659
 20
40.507913694
 30
0.0
 10
33.9017290529
 20
40.7918754653
 30
0.0
 10
33.9899664438
 20
41.3844694258
 30
0.0
 10
34.0167991594
 20
41.9826169483
 30
0.0
 10
34.0167991594
 20
42.2901453636
 30
0.0
  0
SPLINE
  5
3CD
100
AcDbEntity
  8
0
100
AcDbSpline
 62
7
  6
BYLAYER
 70
0
 71
3
 72
14
 73
10
 74
0
 42
0.0000001
 43
0.0000001
 44
0.0000000001
 40
0.0
 40
0.0
 40
0.0
 40
0.0
 40
0.1088514393
 40
0.2213710759
 40
0.3382308777
 40
0.4599304457
 40
0.7189412194
 40
0.8567859788
 40
1.0
 40
1.0
 40
1.0
 40
1.0
 10
32.2596505109
 20
34.8030646545
 30
0.0
 10
32.3894167043
 20
34.955845034
 30
0.0
 10
32.6350917429
 20
35.2824643487
 30
0.0
 10
32.9532704028
 20
35.8191922087
 30
0.0
 10
33.224912581
 20
36.4070741723
 30
0.0
 10
33.5296331594
 20
37.2723568936
 30
0.0
 10
33.7261013245
 20
38.2118956516
 30
0.0
 10
33.8240117843
 20
39.202016741
 30
0.0
 10
33.8400390976
 20
39.7198433784
 30
0.0
 10
33.8400390976
 20
39.9835750725
 30
0.0
  0
SPLINE
  5
3CE
100
AcDbEntity
  8
0
100
AcDbSpline
 62
7
  6
BYLAYER
 70
0
 71
3
 72
15
 73
11
 74
0
 42
0.0000001
 43
0.0000001
 44
0.0000000001
 40
0.0
 40
0.0
 40
0.0
 40
0.0
 40
0.1486067063
 40
0.2895005168
 40
0.4227246192
 40
0.5486429785
 40
0.6680004026
 40
0.7819377578
 40
0.8919868441
 40
1.0
 40
1.0
 40
1.0
 40
1.0
 10
26.7513159168
 20
36.8911214427
 30
0.0
 10
26.7513167475
 20
36.5694397352
 30
0.0
 10
26.7254114017
 20
35.9423376138
 30
0.0
 10
26.6019239296
 20
35.0342032106
 30
0.0
 10
26.3957321953
 20
34.1913344769
 30
0.0
 10
26.1083759215
 20
33.4218102064
 30
0.0
 10
25.7420741267
 20
32.7331163028
 30
0.0
 10
25.2996716764
 20
32.1322737823
 30
0.0
 10
24.7852768422
 20
31.6260253203
 30
0.0
 10
24.3959699691
 20
31.3543692812
 30
0.0
 10
24.1934830959
 20
31.2374651859
 30
0.0
  0
SPLINE
  5
3CF
100
AcDbEntity
  8
0
100
AcDbSpline
 62
7
  6
BYLAYER
 70
0
 71
3
 72
18
 73
14
 74
0
 42
0.0000001
 43
0.0000001
 44
0.0000000001
 40
0.0
 40
0.0
 40
0.0
 40
0.0
 40
0.0558439188
 40
0.1142169421
 40
0.237349034
 40
0.3669601489
 40
0.4999460448
 40
0.6329377792
 40
0.7625610023
 40
0.8251509978
 40
0.8857783452
 40
0.9441562588
 40
1.0
 40
1.0
 40
1.0
 40
1.0
 10
12.3931901766
 20
44.8731691161
 30
0.0
 10
12.3931915761
 20
44.6658847398
 30
0.0
 10
12.4116606573
 20
44.2417631072
 30
0.0
 10
12.5176961638
 20
43.3664902002
 30
0.0
 10
12.7801815774
 20
42.23796639
 30
0.0
 10
13.2757163044
 20
40.891298803
 30
0.0
 10
13.9387217272
 20
39.5775428892
 30
0.0
 10
14.7447984607
 20
38.3465685281
 30
0.0
 10
15.5195374274
 20
37.4167148383
 30
0.0
 10
16.1860323265
 20
36.7551790002
 30
0.0
 10
16.6952790978
 20
36.3127218717
 30
0.0
 10
17.2147021299
 20
35.9226826837
 30
0.0
 10
17.5727995197
 20
35.6946680337
 30
0.0
 10
17.7523134993
 20
35.5910279329
 30
0.0
  0
SPLINE
  5
3D0
100
AcDbEntity
  8
0
100
AcDbSpline
 62
7
  6
BYLAYER
 70
0
 71
3
 72
23
 73
19
 74
0
 42
0.0000001
 43
0.0000001
 44
0.0000000001
 40
0.0
 40
0.0
 40
0.0
 40
0.0
 40
0.0742865599
 40
0.1447536189
 40
0.2113596946
 40
0.2743111743
 40
0.3339873978
 40
0.3909559416
 40
0.4459786704
 40
0.4999841276
 40
0.5539916313
 40
0.6090173593
 40
0.6659853045
 40
0.7256638889
 40
0.7886226885
 40
0.8552407221
 40
0.9257146855
 40
1.0
 40
1.0
 40
1.0
 40
1.0
 10
17.7523134993
 20
35.5910279329
 30
0.0
 10
17.923230115
 20
35.4923514102
 30
0.0
 10
18.2644569257
 20
35.3137135013
 30
0.0
 10
18.784945624
 20
35.1006663443
 30
0.0
 10
19.2961890083
 20
34.9517106699
 30
0.0
 10
19.7932748101
 20
34.8683769312
 30
0.0
 10
20.2716382714
 20
34.851700641
 30
0.0
 10
20.7266659927
 20
34.9023480923
 30
0.0
 10
21.1536209834
 20
35.0204306232
 30
0.0
 10
21.5477855296
 20
35.2050032271
 30
0.0
 10
21.9046695951
 20
35.4541437132
 30
0.0
 10
22.2204322318
 20
35.7648355456
 30
0.0
 10
22.4919796304
 20
36.1334654758
 30
0.0
 10
22.7167990054
 20
36.5560721011
 30
0.0
 10
22.8931749655
 20
37.0282925384
 30
0.0
 10
23.0197090257
 20
37.5456129663
 30
0.0
 10
23.095472095
 20
38.1029320266
 30
0.0
 10
23.111430242
 20
38.4877765599
 30
0.0
 10
23.1114314156
 20
38.6851296438
 30
0.0
  0
SPLINE
  5
3D1
100
AcDbEntity
  8
0
100
AcDbSpline
 62
7
  6
BYLAYER
 70
0
 71
3
 72
18
 73
14
 74
0
 42
0.0000001
 43
0.0000001
 44
0.0000000001
 40
0.0
 40
0.0
 40
0.0
 40
0.0
 40
0.0558442592
 40
0.1142173442
 40
0.2373493386
 40
0.3669606568
 40
0.4999462166
 40
0.6329376688
 40
0.7625607087
 40
0.825150921
 40
0.8857785981
 40
0.9441564982
 40
1.0
 40
1.0
 40
1.0
 40
1.0
 10
23.1114314155
 20
38.6852409399
 30
0.0
 10
23.111430183
 20
38.892526849
 30
0.0
 10
23.0929723571
 20
39.3166508421
 30
0.0
 10
22.9869387957
 20
40.1919271695
 30
0.0
 10
22.7244436161
 20
41.3204485345
 30
0.0
 10
22.228960942
 20
42.6671387226
 30
0.0
 10
21.5658880842
 20
43.980861503
 30
0.0
 10
20.7598564659
 20
45.2118605873
 30
0.0
 10
19.9851138743
 20
46.1417156168
 30
0.0
 10
19.3186050412
 20
46.8032411149
 30
0.0
 10
18.8093453312
 20
47.2456875455
 30
0.0
 10
18.2899215227
 20
47.6357268416
 30
0.0
 10
17.9318270208
 20
47.8637454811
 30
0.0
 10
17.7523135779
 20
47.9673852725
 30
0.0
  0
SPLINE
  5
3D2
100
AcDbEntity
  8
0
100
AcDbSpline
 62
7
  6
BYLAYER
 70
0
 71
3
 72
23
 73
19
 74
0
 42
0.0000001
 43
0.0000001
 44
0.0000000001
 40
0.0
 40
0.0
 40
0.0
 40
0.0
 40
0.0742867044
 40
0.1447532974
 40
0.2113576648
 40
0.274307975
 40
0.333984703
 40
0.3909548805
 40
0.4459776304
 40
0.499981206
 40
0.5539866958
 40
0.6090124633
 40
0.665982124
 40
0.7256620607
 40
0.7886207172
 40
0.855237743
 40
0.9257129727
 40
1.0
 40
1.0
 40
1.0
 40
1.0
 10
17.7523135779
 20
47.9673852725
 30
0.0
 10
17.5813962716
 20
48.0660621942
 30
0.0
 10
17.2401667328
 20
48.244694995
 30
0.0
 10
16.71968341
 20
48.4577423941
 30
0.0
 10
16.2084523671
 20
48.6067121597
 30
0.0
 10
15.7113724117
 20
48.6900522209
 30
0.0
 10
15.2330047506
 20
48.7067241629
 30
0.0
 10
14.7779714914
 20
48.6560676815
 30
0.0
 10
14.3510161461
 20
48.5379868139
 30
0.0
 10
13.9568588394
 20
48.3534204698
 30
0.0
 10
13.5999838232
 20
48.1042831515
 30
0.0
 10
13.2842216872
 20
47.7935910704
 30
0.0
 10
13.0126621584
 20
47.4249587879
 30
0.0
 10
12.7878333677
 20
47.0023470101
 30
0.0
 10
12.6114515667
 20
46.5301270515
 30
0.0
 10
12.4849176279
 20
46.0128044661
 30
0.0
 10
12.4091777237
 20
45.4554752593
 30
0.0
 10
12.3932310048
 20
45.0706221379
 30
0.0
 10
12.3932296708
 20
44.8732640902
 30
0.0
  0
SPLINE
  5
3D3
100
AcDbEntity
  8
0
100
AcDbSpline
 62
7
  6
BYLAYER
 70
0
 71
3
 72
25
 73
21
 74
0
 42
0.0000001
 43
0.0000001
 44
0.0000000001
 40
0.0
 40
0.0
 40
0.0
 40
0.0
 40
0.0742980436
 40
0.1447409117
 40
0.2113488465
 40
0.2432790971
 40
0.2743354769
 40
0.3340108769
 40
0.3909766357
 40
0.4459979302
 40
0.5000009599
 40
0.5540039852
 40
0.6090251643
 40
0.6659904412
 40
0.7256663526
 40
0.7567231176
 40
0.7886524921
 40
0.8552555877
 40
0.9257122921
 40
1.0
 40
1.0
 40
1.0
 40
1.0
 10
18.1129753273
 20
52.4792209363
 30
0.0
 10
17.8231156179
 20
52.6465763171
 30
0.0
 10
17.2445492675
 20
52.9494842752
 30
0.0
 10
16.3620614806
 20
53.3106526754
 30
0.0
 10
15.62957353
 20
53.5242332505
 30
0.0
 10
15.0564111427
 20
53.6369939279
 30
0.0
 10
14.5083654922
 20
53.7098221603
 30
0.0
 10
13.8411384633
 20
53.7330238081
 30
0.0
 10
13.0696433937
 20
53.6470184443
 30
0.0
 10
12.3456911112
 20
53.4467938094
 30
0.0
 10
11.6773440576
 20
53.1338655471
 30
0.0
 10
11.0721586366
 20
52.7115362543
 30
0.0
 10
10.5367762097
 20
52.1846985565
 30
0.0
 10
10.07652944
 20
51.5595792778
 30
0.0
 10
9.7630041779
 20
50.9701427873
 30
0.0
 10
9.5520492793
 20
50.4591085305
 30
0.0
 10
9.3631165386
 20
49.906382676
 30
0.0
 10
9.1817916151
 20
49.1652116331
 30
0.0
 10
9.0533733583
 20
48.2203698665
 30
0.0
 10
9.026382681
 20
47.5678499103
 30
0.0
 10
9.026382681
 20
47.2331929089
 30
0.0
  0
SPLINE
  5
3D4
100
AcDbEntity
  8
0
100
AcDbSpline
 62
7
  6
BYLAYER
 70
0
 71
3
 72
15
 73
11
 74
0
 42
0.0000001
 43
0.0000001
 44
0.0000000001
 40
0.0
 40
0.0
 40
0.0
 40
0.0
 40
0.1476903901
 40
0.2879067406
 40
0.4207435924
 40
0.5465925273
 40
0.6661846404
 40
0.7806114998
 40
0.8913090517
 40
1.0
 40
1.0
 40
1.0
 40
1.0
 10
18.1056905839
 20
52.4802907558
 30
0.0
 10
17.8335081508
 20
52.6296596496
 30
0.0
 10
17.2907013829
 20
52.8994240132
 30
0.0
 10
16.4644444749
 20
53.2187897159
 30
0.0
 10
15.6537983041
 20
53.439767048
 30
0.0
 10
14.8657621396
 20
53.5600040487
 30
0.0
 10
14.1071988858
 20
53.577975629
 30
0.0
 10
13.3848766478
 20
53.4929151056
 30
0.0
 10
12.7058882378
 20
53.3050153016
 30
0.0
 10
12.2847491959
 20
53.111144636
 30
0.0
 10
12.0857543274
 20
52.9988563714
 30
0.0
  0
SPLINE
  5
3D5
100
AcDbEntity
  8
0
100
AcDbSpline
 62
7
  6
BYLAYER
 70
0
 71
3
 72
15
 73
11
 74
0
 42
0.0000001
 43
0.0000001
 44
0.0000000001
 40
0.0
 40
0.0
 40
0.0
 40
0.0
 40
0.1080128009
 40
0.2180620984
 40
0.3319998672
 40
0.4513592489
 40
0.5772785455
 40
0.7104931115
 40
0.8514153353
 40
1.0
 40
1.0
 40
1.0
 40
1.0
 10
24.5470284799
 20
31.4415985813
 30
0.0
 10
24.7495140441
 20
31.5585029198
 30
0.0
 10
25.1388265159
 20
31.8301485902
 30
0.0
 10
25.6532242737
 20
32.3363959763
 30
0.0
 10
26.0956187623
 20
32.9372501053
 30
0.0
 10
26.4619250492
 20
33.6259483335
 30
0.0
 10
26.7492795938
 20
34.3954564057
 30
0.0
 10
26.9554972076
 20
35.2383634551
 30
0.0
 10
27.0789308307
 20
36.1464973027
 30
0.0
 10
27.1048678354
 20
36.7736098595
 30
0.0
 10
27.1048678354
 20
37.0952435197
 30
0.0
  0
SPLINE
  5
3D6
100
AcDbEntity
  8
0
100
AcDbSpline
 62
7
  6
BYLAYER
 70
0
 71
3
 72
15
 73
11
 74
0
 42
0.0000001
 43
0.0000001
 44
0.0000000001
 40
0.0
 40
0.0
 40
0.0
 40
0.0
 40
0.1080360479
 40
0.2180724174
 40
0.3319787003
 40
0.4513046501
 40
0.5772021824
 40
0.7104155617
 40
0.8513624632
 40
1.0
 40
1.0
 40
1.0
 40
1.0
 10
25.5152021984
 20
29.829122791
 30
0.0
 10
25.7497721344
 20
29.9632233431
 30
0.0
 10
26.2008695313
 20
30.2752959081
 30
0.0
 10
26.79711825
 20
30.8582070545
 30
0.0
 10
27.309964146
 20
31.5509490625
 30
0.0
 10
27.7346334688
 20
32.3456658101
 30
0.0
 10
28.0677838779
 20
33.2341786674
 30
0.0
 10
28.3068740293
 20
34.2078703579
 30
0.0
 10
28.4499840493
 20
35.2572434385
 30
0.0
 10
28.4800495379
 20
35.981991505
 30
0.0
 10
28.4800495379
 20
36.353731361
 30
0.0
  0
SPLINE
  5
3D7
100
AcDbEntity
  8
0
100
AcDbSpline
 62
7
  6
BYLAYER
 70
0
 71
3
 72
28
 73
24
 74
0
 42
0.0000001
 43
0.0000001
 44
0.0000000001
 40
0.0
 40
0.0
 40
0.0
 40
0.0
 40
0.0306759248
 40
0.0624266748
 40
0.1287839582
 40
0.1983985618
 40
0.2703967128
 40
0.3437930158
 40
0.4175385796
 40
0.4905694152
 40
0.56185297
 40
0.6304364827
 40
0.695499154
 40
0.7564114779
 40
0.7852016257
 40
0.8128430263
 40
0.8646971424
 40
0.8890619683
 40
0.9124911874
 40
0.9351193447
 40
0.9571125809
 40
0.9786670468
 40
1.0
 40
1.0
 40
1.0
 40
1.0
 10
28.4800495379
 20
36.353731361
 30
0.0
 10
28.4800495379
 20
36.6442798737
 30
0.0
 10
28.4608287028
 20
37.2357013428
 30
0.0
 10
28.3490464352
 20
38.4509095226
 30
0.0
 10
28.0700556056
 20
40.018143347
 30
0.0
 10
27.5339525884
 20
41.9165106768
 30
0.0
 10
26.8028963812
 20
43.8201462131
 30
0.0
 10
25.8925844482
 20
45.6882706709
 30
0.0
 10
24.8224403584
 20
47.4810348773
 30
0.0
 10
23.6153437797
 20
49.1601034909
 30
0.0
 10
22.297075579
 20
50.6896131999
 30
0.0
 10
20.8955961508
 20
52.0370253375
 30
0.0
 10
19.4406814754
 20
53.1735675895
 30
0.0
 10
18.1856725166
 20
53.9390903868
 30
0.0
 10
17.1819291106
 20
54.4185296828
 30
0.0
 10
16.2262843613
 20
54.7923973996
 30
0.0
 10
15.2692884095
 20
55.0442223328
 30
0.0
 10
14.3303246595
 20
55.1521194033
 30
0.0
 10
13.6620978706
 20
55.1605905716
 30
0.0
 10
13.0192100153
 20
55.0981567635
 30
0.0
 10
12.4052122359
 20
54.9647709243
 30
0.0
 10
11.8237595364
 20
54.7612332632
 30
0.0
 10
11.4593018685
 20
54.578911988
 30
0.0
 10
11.2847473394
 20
54.4771407492
 30
0.0
  0
SPLINE
  5
3D8
100
AcDbEntity
  8
0
100
AcDbSpline
 62
7
  6
BYLAYER
 70
0
 71
3
 72
41
 73
37
 74
0
 42
0.0000001
 43
0.0000001
 44
0.0000000001
 40
0.0
 40
0.0
 40
0.0
 40
0.0
 40
0.0325440201
 40
0.0665566437
 40
0.1018803241
 40
0.1383523232
 40
0.1757718671
 40
0.2139185808
 40
0.2525588329
 40
0.2914480845
 40
0.3303372868
 40
0.3689774675
 40
0.4071242099
 40
0.44454326
 40
0.4810151522
 40
0.5163405217
 40
0.5503469768
 40
0.5828949069
 40
0.6138847076
 40
0.6432665096
 40
0.6710487711
 40
0.6843669332
 40
0.6973206119
 40
0.722211377
 40
0.7459720014
 40
0.7689216483
 40
0.7914466375
 40
0.813971681
 40
0.8369214433
 40
0.8606821233
 40
0.8855734313
 40
0.8985274556
 40
0.9118454472
 40
0.9396261008
 40
0.9690140955
 40
1.0
 40
1.0
 40
1.0
 40
1.0
 10
9.026382681
 20
47.2331929089
 30
0.0
 10
9.026382681
 20
46.8817133755
 30
0.0
 10
9.0576232576
 20
46.1626319379
 30
0.0
 10
9.1900151995
 20
45.0693636766
 30
0.0
 10
9.4078693507
 20
43.9466469966
 30
0.0
 10
9.7089889553
 20
42.8053565388
 30
0.0
 10
10.0905183263
 20
41.6562568807
 30
0.0
 10
10.5487999966
 20
40.5103425655
 30
0.0
 10
11.0794661779
 20
39.3785731077
 30
0.0
 10
11.677439949
 20
38.2717697106
 30
0.0
 10
12.3369777122
 20
37.2005114032
 30
0.0
 10
13.0517891251
 20
36.1750599076
 30
0.0
 10
13.8150443054
 20
35.2052300373
 30
0.0
 10
14.6194245402
 20
34.3002727381
 30
0.0
 10
15.4572666485
 20
33.4688401974
 30
0.0
 10
16.320610557
 20
32.718886129
 30
0.0
 10
17.2012433671
 20
32.0575346841
 30
0.0
 10
18.0908447727
 20
31.4910997317
 30
0.0
 10
18.9811136014
 20
31.025036182
 30
0.0
 10
19.8636346046
 20
30.663870059
 30
0.0
 10
20.5960953889
 20
30.4503200754
 30
0.0
 10
21.1692458345
 20
30.3375762259
 30
0.0
 10
21.7172783859
 20
30.2647641228
 30
0.0
 10
22.3844893926
 20
30.2415804151
 30
0.0
 10
23.1559641679
 20
30.3276040507
 30
0.0
 10
23.8798964287
 20
30.5278430038
 30
0.0
 10
24.5482240953
 20
30.8407815158
 30
0.0
 10
25.1533912933
 20
31.2631168707
 30
0.0
 10
25.6887571699
 20
31.7899565257
 30
0.0
 10
26.1489894517
 20
32.4150739231
 30
0.0
 10
26.4625047641
 20
33.0045060162
 30
0.0
 10
26.673452968
 20
33.5155353297
 30
0.0
 10
26.8623796104
 20
34.0682548731
 30
0.0
 10
27.043698658
 20
34.8094160796
 30
0.0
 10
27.1721127808
 20
35.7542439524
 30
0.0
 10
27.1991026174
 20
36.4067538298
 30
0.0
 10
27.1991026174
 20
36.7414055178
 30
0.0
  0
SPLINE
  5
3D9
100
AcDbEntity
  8
0
100
AcDbSpline
 62
7
  6
BYLAYER
 70
0
 71
3
 72
15
 73
11
 74
0
 42
0.0000001
 43
0.0000001
 44
0.0000000001
 40
0.0
 40
0.0
 40
0.0
 40
0.0
 40
0.1086789579
 40
0.2194102782
 40
0.3338895561
 40
0.4535309262
 40
0.5794042886
 40
0.7122183614
 40
0.8523968144
 40
1.0
 40
1.0
 40
1.0
 40
1.0
 10
24.6575152494
 20
31.2750655377
 30
0.0
 10
24.8525167402
 20
31.391842696
 30
0.0
 10
25.227536894
 20
31.660396122
 30
0.0
 10
25.7250212939
 20
32.1542867552
 30
0.0
 10
26.155781626
 20
32.7359888001
 30
0.0
 10
26.5161728527
 20
33.399557832
 30
0.0
 10
26.8035283782
 20
34.1388233281
 30
0.0
 10
27.0158315021
 20
34.9472338859
 30
0.0
 10
27.1515268656
 20
35.8176876537
 30
0.0
 10
27.1893472461
 20
36.4192663282
 30
0.0
 10
27.1962345112
 20
36.7278904041
 30
0.0
  0
SPLINE
  5
3DA
100
AcDbEntity
  8
0
100
AcDbSpline
 62
7
  6
BYLAYER
 70
0
 71
3
 72
27
 73
23
 74
0
 42
0.0000001
 43
0.0000001
 44
0.0000000001
 40
0.0
 40
0.0
 40
0.0
 40
0.0
 40
0.0213300666
 40
0.0428886736
 40
0.0648921482
 40
0.0875351252
 40
0.1109827414
 40
0.1353673799
 40
0.1872639949
 40
0.214925648
 40
0.2437333482
 40
0.3046743202
 40
0.3697553329
 40
0.4383444304
 40
0.5096225677
 40
0.5826387154
 40
0.6563624412
 40
0.7297323563
 40
0.8017023113
 40
0.8712883269
 40
0.9376219777
 40
1.0
 40
1.0
 40
1.0
 40
1.0
 10
11.8435385265
 20
52.6283243361
 30
0.0
 10
11.9952680578
 20
52.7159241064
 30
0.0
 10
12.3120086329
 20
52.8726843494
 30
0.0
 10
12.817020923
 20
53.0472515245
 30
0.0
 10
13.350146705
 20
53.1609696675
 30
0.0
 10
13.9081900259
 20
53.213304752
 30
0.0
 10
14.4880884436
 20
53.2041674408
 30
0.0
 10
15.3027665002
 20
53.1083604907
 30
0.0
 10
16.1328266028
 20
52.8879609025
 30
0.0
 10
16.9615752815
 20
52.5619500304
 30
0.0
 10
17.8318460817
 20
52.144532257
 30
0.0
 10
18.9197435831
 20
51.4789255147
 30
0.0
 10
20.1807409289
 20
50.4917023369
 30
0.0
 10
21.3952162079
 20
49.3220684008
 30
0.0
 10
22.5374181764
 20
47.9949550673
 30
0.0
 10
23.5831767105
 20
46.5385258001
 30
0.0
 10
24.5101999486
 20
44.9838267671
 30
0.0
 10
25.2987149991
 20
43.3640102099
 30
0.0
 10
25.9319011985
 20
41.7136448723
 30
0.0
 10
26.3962724964
 20
40.0677063667
 30
0.0
 10
26.6819037021
 20
38.4614055106
 30
0.0
 10
26.7513172399
 20
37.4034838332
 30
0.0
 10
26.7513159168
 20
36.8911214427
 30
0.0
  0
SPLINE
  5
3DB
100
AcDbEntity
  8
0
100
AcDbSpline
 62
7
  6
BYLAYER
 70
0
 71
3
 72
11
 73
7
 74
0
 42
0.0000001
 43
0.0000001
 44
0.0000000001
 40
0.0
 40
0.0
 40
0.0
 40
0.0
 40
0.2312438135
 40
0.4766550246
 40
0.7338801183
 40
1.0
 40
1.0
 40
1.0
 40
1.0
 10
27.1048678354
 20
37.0952435197
 30
0.0
 10
27.1048678354
 20
37.5858773724
 30
0.0
 10
27.0412590906
 20
38.5978378339
 30
0.0
 10
26.7784844387
 20
40.1350755315
 30
0.0
 10
26.3506363473
 20
41.7113749971
 30
0.0
 10
25.9657303853
 20
42.7546187204
 30
0.0
 10
25.7485315363
 20
43.275802769
 30
0.0
  0
SPLINE
  5
3DC
100
AcDbEntity
  8
0
100
AcDbSpline
 62
7
  6
BYLAYER
 70
0
 71
3
 72
19
 73
15
 74
0
 42
0.0000001
 43
0.0000001
 44
0.0000000001
 40
0.0
 40
0.0
 40
0.0
 40
0.0
 40
0.1567082274
 40
0.3055910074
 40
0.4450505099
 40
0.510948604
 40
0.5741832695
 40
0.6926411711
 40
0.7481930017
 40
0.8015279682
 40
0.8529541679
 40
0.9028584429
 40
0.951702098
 40
1.0
 40
1.0
 40
1.0
 40
1.0
 10
21.9729447266
 20
49.2447441563
 30
0.0
 10
21.5800331845
 20
49.6769304089
 30
0.0
 10
20.7740229611
 20
50.4848449656
 30
0.0
 10
19.4854401123
 20
51.534220683
 30
0.0
 10
18.3689713546
 20
52.2462138219
 30
0.0
 10
17.4734973906
 20
52.6957256745
 30
0.0
 10
16.6203141352
 20
53.0487129333
 30
0.0
 10
15.7643978592
 20
53.2912635278
 30
0.0
 10
14.9231676856
 20
53.4027712719
 30
0.0
 10
14.3247133237
 20
53.4199910488
 30
0.0
 10
13.7489332609
 20
53.3723626659
 30
0.0
 10
13.1991692924
 20
53.2598212438
 30
0.0
 10
12.678875813
 20
53.0830358429
 30
0.0
 10
12.3529982591
 20
52.9224441578
 30
0.0
 10
12.1970969797
 20
52.8324350946
 30
0.0
  0
SPLINE
  5
3DD
100
AcDbEntity
  8
0
100
AcDbSpline
 62
7
  6
BYLAYER
 70
0
 71
3
 72
9
 73
5
 74
0
 42
0.0000001
 43
0.0000001
 44
0.0000000001
 40
0.0
 40
0.0
 40
0.0
 40
0.0
 40
0.4967992444
 40
1.0
 40
1.0
 40
1.0
 40
1.0
 10
34.5811008308
 20
37.9852933572
 30
0.0
 10
34.4238331595
 20
37.894514972
 30
0.0
 10
34.094070514
 20
37.7337743298
 30
0.0
 10
33.7453519401
 20
37.62011812
 30
0.0
 10
33.567107727
 20
37.5747520495
 30
0.0
  0
SPLINE
  5
3DE
100
AcDbEntity
  8
0
100
AcDbSpline
 62
7
  6
BYLAYER
 70
0
 71
3
 72
26
 73
22
 74
0
 42
0.0000001
 43
0.0000001
 44
0.0000000001
 40
0.0
 40
0.0
 40
0.0
 40
0.0
 40
0.0623805578
 40
0.1287165127
 40
0.1983057488
 40
0.270278577
 40
0.3436521734
 40
0.4173802734
 40
0.4904009711
 40
0.5616838189
 40
0.6302776141
 40
0.6953621028
 40
0.7563069665
 40
0.8127418694
 40
0.8392660666
 40
0.8646881386
 40
0.9124610937
 40
0.9351047792
 40
0.9571092674
 40
0.9786687865
 40
1.0
 40
1.0
 40
1.0
 40
1.0
 10
36.6507628666
 20
43.5454972416
 30
0.0
 10
36.6507628666
 20
44.010144783
 30
0.0
 10
36.5878145046
 20
44.969542118
 30
0.0
 10
36.3287883193
 20
46.4262537233
 30
0.0
 10
35.9076631304
 20
47.9189104045
 30
0.0
 10
35.3334469985
 20
49.4155914141
 30
0.0
 10
34.6183610281
 20
50.8845741594
 30
0.0
 10
33.7776580221
 20
52.2945149809
 30
0.0
 10
32.8292730175
 20
53.6153395713
 30
0.0
 10
31.7934040152
 20
54.818901668
 30
0.0
 10
30.6920478269
 20
55.8796058114
 30
0.0
 10
29.5483074631
 20
56.7750059728
 30
0.0
 10
28.3861846501
 20
57.4860004173
 30
0.0
 10
27.4019791167
 20
57.9210004606
 30
0.0
 10
26.6289046705
 20
58.1567950248
 30
0.0
 10
25.9019760423
 20
58.3121010106
 30
0.0
 10
25.1841696028
 20
58.3647718099
 30
0.0
 10
24.4975010236
 20
58.3003180313
 30
0.0
 10
24.0139903603
 20
58.1972005634
 30
0.0
 10
23.5560133253
 20
58.0388874964
 30
0.0
 10
23.2687696447
 20
57.8967192319
 30
0.0
 10
23.131165081
 20
57.8172821669
 30
0.0
  0
SPLINE
  5
3DF
100
AcDbEntity
  8
0
100
AcDbSpline
 62
7
  6
BYLAYER
 70
0
 71
3
 72
15
 73
11
 74
0
 42
0.0000001
 43
0.0000001
 44
0.0000000001
 40
0.0
 40
0.0
 40
0.0
 40
0.0
 40
0.1080126009
 40
0.2180608532
 40
0.3319981023
 40
0.4513586206
 40
0.5772757433
 40
0.7104913429
 40
0.851420815
 40
1.0
 40
1.0
 40
1.0
 40
1.0
 10
34.3311028089
 20
38.4183052175
 30
0.0
 10
34.5147378659
 20
38.5243150006
 30
0.0
 10
34.8677748456
 20
38.7706960716
 30
0.0
 10
35.3342921023
 20
39.2297732151
 30
0.0
 10
35.7354927797
 20
39.7746792882
 30
0.0
 10
36.0676698983
 20
40.3992525652
 30
0.0
 10
36.3282898989
 20
41.0970962
 30
0.0
 10
36.5153039334
 20
41.8615274807
 30
0.0
 10
36.6272321932
 20
42.6851041915
 30
0.0
 10
36.6507628666
 20
43.253824223
 30
0.0
 10
36.6507628666
 20
43.5454972416
 30
0.0
  0
SPLINE
  5
3E0
100
AcDbEntity
  8
0
100
AcDbSpline
 62
7
  6
BYLAYER
 70
0
 71
3
 72
9
 73
5
 74
0
 42
0.0000001
 43
0.0000001
 44
0.0000000001
 40
0.0
 40
0.0
 40
0.0
 40
0.0
 40
0.4984564159
 40
1.0
 40
1.0
 40
1.0
 40
1.0
 10
23.131165081
 20
57.8172821669
 30
0.0
 10
23.0268984834
 20
57.7570906132
 30
0.0
 10
22.8234575926
 20
57.6261115605
 30
0.0
 10
22.6335894102
 20
57.4761560183
 30
0.0
 10
22.5421480642
 20
57.3967008397
 30
0.0
  0
SPLINE
  5
3E1
100
AcDbEntity
  8
0
100
AcDbSpline
 62
7
  6
BYLAYER
 70
0
 71
3
 72
14
 73
10
 74
0
 42
0.0000001
 43
0.0000001
 44
0.0000000001
 40
0.0
 40
0.0
 40
0.0
 40
0.0
 40
0.1080471438
 40
0.2181317193
 40
0.3321125724
 40
0.4515014986
 40
0.5774450424
 40
0.710727948
 40
1.0
 40
1.0
 40
1.0
 40
1.0
 10
38.4552901264
 20
32.9611886605
 30
0.0
 10
38.3929889859
 20
32.9252192949
 30
0.0
 10
38.2607025675
 20
32.8633006497
 30
0.0
 10
38.0466789721
 20
32.8040740489
 30
0.0
 10
37.8185103131
 20
32.7786754367
 30
0.0
 10
37.5786646048
 20
32.7869706484
 30
0.0
 10
37.3293894555
 20
32.8287982073
 30
0.0
 10
36.9781922056
 20
32.9311895345
 30
0.0
 10
36.7220999345
 20
33.0530765771
 30
0.0
 10
36.5553018761
 20
33.1493753025
 30
0.0
  0
SPLINE
  5
3E2
100
AcDbEntity
  8
0
100
AcDbSpline
 62
7
  6
BYLAYER
 70
0
 71
3
 72
9
 73
5
 74
0
 42
0.0000001
 43
0.0000001
 44
0.0000000001
 40
0.0
 40
0.0
 40
0.0
 40
0.0
 40
0.497067101
 40
1.0
 40
1.0
 40
1.0
 40
1.0
 10
42.6979131497
 20
35.4106535837
 30
0.0
 10
42.7469455811
 20
35.4389622963
 30
0.0
 10
42.8418494044
 20
35.5026430834
 30
0.0
 10
42.9274644819
 20
35.5783168785
 30
0.0
 10
42.9678977935
 20
35.6188978194
 30
0.0
  0
SPLINE
  5
3E3
100
AcDbEntity
  8
0
100
AcDbSpline
 62
7
  6
BYLAYER
 70
0
 71
3
 72
11
 73
7
 74
0
 42
0.0000001
 43
0.0000001
 44
0.0000000001
 40
0.0
 40
0.0
 40
0.0
 40
0.0
 40
0.2197334291
 40
0.4569610937
 40
0.7165381771
 40
1.0
 40
1.0
 40
1.0
 40
1.0
 10
42.9678977935
 20
35.6188978194
 30
0.0
 10
43.05345398
 20
35.704766387
 30
0.0
 10
43.2075617931
 20
35.9081295561
 30
0.0
 10
43.3689371695
 20
36.2719739344
 30
0.0
 10
43.4654435059
 20
36.6936915081
 30
0.0
 10
43.484941855
 20
36.9938630081
 30
0.0
 10
43.484941855
 20
37.1502345436
 30
0.0
  0
SPLINE
  5
3E4
100
AcDbEntity
  8
0
100
AcDbSpline
 62
7
  6
BYLAYER
 70
0
 71
3
 72
14
 73
10
 74
0
 42
0.0000001
 43
0.0000001
 44
0.0000000001
 40
0.0
 40
0.0
 40
0.0
 40
0.0
 40
0.1080471438
 40
0.2181317193
 40
0.3321125724
 40
0.4515014986
 40
0.5774450424
 40
0.710727948
 40
1.0
 40
1.0
 40
1.0
 40
1.0
 10
32.8585166518
 20
28.3668831714
 30
0.0
 10
32.7962155113
 20
28.3309138059
 30
0.0
 10
32.663929093
 20
28.2689951607
 30
0.0
 10
32.4499054975
 20
28.2097685599
 30
0.0
 10
32.2217368385
 20
28.1843699477
 30
0.0
 10
31.9818911302
 20
28.1926651594
 30
0.0
 10
31.732615981
 20
28.2344927183
 30
0.0
 10
31.381418731
 20
28.3368840455
 30
0.0
 10
31.1253264599
 20
28.4587710881
 30
0.0
 10
30.9585284016
 20
28.5550698134
 30
0.0
  0
SPLINE
  5
3E5
100
AcDbEntity
  8
0
100
AcDbSpline
 62
7
  6
BYLAYER
 70
0
 71
3
 72
14
 73
10
 74
0
 42
0.0000001
 43
0.0000001
 44
0.0000000001
 40
0.0
 40
0.0
 40
0.0
 40
0.0
 40
0.1080466357
 40
0.2181307812
 40
0.3321113461
 40
0.4515001674
 40
0.5774437985
 40
0.7107269735
 40
1.0
 40
1.0
 40
1.0
 40
1.0
 10
37.1011396751
 20
30.8163480947
 30
0.0
 10
37.1634421949
 20
30.852318249
 30
0.0
 10
37.2832115144
 20
30.9359238446
 30
0.0
 10
37.4415186838
 20
31.0916640911
 30
0.0
 10
37.5776015714
 20
31.2765696351
 30
0.0
 10
37.690342291
 20
31.4884358721
 30
0.0
 10
37.7787568449
 20
31.7252354213
 30
0.0
 10
37.865681543
 20
32.0805879463
 30
0.0
 10
37.8881683804
 20
32.3633225276
 30
0.0
 10
37.8881683804
 20
32.5559290546
 30
0.0
  0
SPLINE
  5
3E6
100
AcDbEntity
  8
0
100
AcDbSpline
 62
7
  6
BYLAYER
 70
0
 71
3
 72
11
 73
7
 74
0
 42
0.0000001
 43
0.0000001
 44
0.0000000001
 40
0.0
 40
0.0
 40
0.0
 40
0.0
 40
0.217745073
 40
0.4508830113
 40
0.7104597664
 40
1.0
 40
1.0
 40
1.0
 40
1.0
 10
31.7742010741
 20
29.660551506
 30
0.0
 10
31.7906911464
 20
29.6700720047
 30
0.0
 10
31.8215752787
 20
29.6959766756
 30
0.0
 10
31.8544284841
 20
29.7497172845
 30
0.0
 10
31.8739050495
 20
29.8159226826
 30
0.0
 10
31.8777710443
 20
29.8641009334
 30
0.0
 10
31.8777710443
 20
29.8894202485
 30
0.0
  0
SPLINE
  5
3E7
100
AcDbEntity
  8
0
100
AcDbSpline
 62
7
  6
BYLAYER
 70
0
 71
3
 72
11
 73
7
 74
0
 42
0.0000001
 43
0.0000001
 44
0.0000000001
 40
0.0
 40
0.0
 40
0.0
 40
0.0
 40
0.217745073
 40
0.4508830113
 40
0.7104597664
 40
1.0
 40
1.0
 40
1.0
 40
1.0
 10
37.3709745487
 20
34.8393008304
 30
0.0
 10
37.387464621
 20
34.8488213292
 30
0.0
 10
37.4183487533
 20
34.8747260001
 30
0.0
 10
37.4512019586
 20
34.9284666089
 30
0.0
 10
37.4706785241
 20
34.9946720071
 30
0.0
 10
37.4745445188
 20
35.0428502579
 30
0.0
 10
37.4745445188
 20
35.068169573
 30
0.0
  0
SPLINE
  5
3E8
100
AcDbEntity
  8
0
100
AcDbSpline
 62
7
  6
BYLAYER
 70
0
 71
3
 72
14
 73
10
 74
0
 42
0.0000001
 43
0.0000001
 44
0.0000000001
 40
0.0
 40
0.0
 40
0.0
 40
0.0
 40
0.2892730352
 40
0.4225562199
 40
0.5484998506
 40
0.6678886669
 40
0.7818692291
 40
0.8919533702
 40
1.0
 40
1.0
 40
1.0
 40
1.0
 10
33.6455453571
 20
30.1064641314
 30
0.0
 10
33.6455453571
 20
29.9138575987
 30
0.0
 10
33.6230585135
 20
29.6311230058
 30
0.0
 10
33.5361338125
 20
29.2757704697
 30
0.0
 10
33.4477192552
 20
29.0389709185
 30
0.0
 10
33.3349785286
 20
28.8271046915
 30
0.0
 10
33.1988956451
 20
28.6421991557
 30
0.0
 10
33.0405884834
 20
28.4864589126
 30
0.0
 10
32.9208191649
 20
28.4028533295
 30
0.0
 10
32.8585166518
 20
28.3668831714
 30
0.0
  0
SPLINE
  5
3E9
100
AcDbEntity
  8
0
100
AcDbSpline
 62
7
  6
BYLAYER
 70
0
 71
3
 72
11
 73
7
 74
0
 42
0.0000001
 43
0.0000001
 44
0.0000000001
 40
0.0
 40
0.0
 40
0.0
 40
0.0
 40
0.2895391946
 40
0.5491157945
 40
0.7822541179
 40
1.0
 40
1.0
 40
1.0
 40
1.0
 10
31.5242161817
 20
29.6852894172
 30
0.0
 10
31.5461428106
 20
29.6726303585
 30
0.0
 10
31.5897983397
 20
29.6518903291
 30
0.0
 10
31.6568704325
 20
29.6356557954
 30
0.0
 10
31.7198361381
 20
29.6372375228
 30
0.0
 10
31.7577113816
 20
29.6510312266
 30
0.0
 10
31.7742010741
 20
29.660551506
 30
0.0
  0
SPLINE
  5
3EA
100
AcDbEntity
  8
0
100
AcDbSpline
 62
7
  6
BYLAYER
 70
0
 71
3
 72
11
 73
7
 74
0
 42
0.0000001
 43
0.0000001
 44
0.0000000001
 40
0.0
 40
0.0
 40
0.0
 40
0.0
 40
0.2229933541
 40
0.4626120963
 40
0.7214680516
 40
1.0
 40
1.0
 40
1.0
 40
1.0
 10
33.197955772
 20
36.6975196829
 30
0.0
 10
33.3039971051
 20
36.7086319158
 30
0.0
 10
33.5268393508
 20
36.7083208108
 30
0.0
 10
33.8675754091
 20
36.6456235305
 30
0.0
 10
34.2194796118
 20
36.5226819939
 30
0.0
 10
34.4494525225
 20
36.4064165318
 30
0.0
 10
34.5647879998
 20
36.3398290692
 30
0.0
  0
SPLINE
  5
3EB
100
AcDbEntity
  8
0
100
AcDbSpline
 62
7
  6
BYLAYER
 70
0
 71
3
 72
14
 73
10
 74
0
 42
0.0000001
 43
0.0000001
 44
0.0000000001
 40
0.0
 40
0.0
 40
0.0
 40
0.0
 40
0.2892730352
 40
0.4225562199
 40
0.5484998506
 40
0.6678886669
 40
0.7818692291
 40
0.8919533702
 40
1.0
 40
1.0
 40
1.0
 40
1.0
 10
39.2423188317
 20
34.7007696204
 30
0.0
 10
39.2423188317
 20
34.5081630877
 30
0.0
 10
39.2198319881
 20
34.2254284948
 30
0.0
 10
39.1329072871
 20
33.8700759587
 30
0.0
 10
39.0444927298
 20
33.6332764075
 30
0.0
 10
38.9317520032
 20
33.4214101805
 30
0.0
 10
38.7956691197
 20
33.2365046447
 30
0.0
 10
38.637361958
 20
33.0807644016
 30
0.0
 10
38.5175926395
 20
32.9971588185
 30
0.0
 10
38.4552901264
 20
32.9611886605
 30
0.0
  0
SPLINE
  5
3EC
100
AcDbEntity
  8
0
100
AcDbSpline
 62
7
  6
BYLAYER
 70
0
 71
3
 72
11
 73
7
 74
0
 42
0.0000001
 43
0.0000001
 44
0.0000000001
 40
0.0
 40
0.0
 40
0.0
 40
0.0
 40
0.2895391946
 40
0.5491157945
 40
0.7822541179
 40
1.0
 40
1.0
 40
1.0
 40
1.0
 10
37.1209896563
 20
34.8640387417
 30
0.0
 10
37.1429162852
 20
34.851379683
 30
0.0
 10
37.1865718143
 20
34.8306396535
 30
0.0
 10
37.253643907
 20
34.8144051198
 30
0.0
 10
37.3166096126
 20
34.8159868472
 30
0.0
 10
37.3544848562
 20
34.829780551
 30
0.0
 10
37.3709745487
 20
34.8393008304
 30
0.0
  0
ENDSEC
  0
SECTION
  2
OBJECTS
  0
DICTIONARY
  5
C
100
AcDbDictionary
280
0
281
1
  3
ACAD_GROUP
350
D
  3
ACAD_MLINESTYLE
350
17
  3
ACAD_LAYOUT
350
1A
  3
ACAD_PLOTSETTINGS
350
19
  3
ACAD_PLOTSTYLENAME
350
E
  0
DICTIONARY
  5
D
102
{ACAD_REACTORS
330
C
102
}
100
AcDbDictionary
280
0
281
1
  0
ACDBDICTIONARYWDFLT
  5
E
102
{ACAD_REACTORS
330
C
102
}
100
AcDbDictionary
281
1
  3
Normal
350
F
100
AcDbDictionaryWithDefault
340
F
  0
DICTIONARY
  5
17
102
{ACAD_REACTORS
330
C
102
}
100
AcDbDictionary
280
0
281
1
  3
Standard
350
18
  0
DICTIONARY
  5
19
102
{ACAD_REACTORS
330
C
102
}
100
AcDbDictionary
281
1
  0
DICTIONARY
  5
1A
102
{ACAD_REACTORS
330
C
102
}
100
AcDbDictionary
281
1
  3
Model
350
3ED
  3
Layout1
350
3EE
  0
ACDBPLACEHOLDER
  5
F
102
{ACAD_REACTORS
330
E
102
}
  0
MLINESTYLE
  5
18
102
{ACAD_REACTORS
330
17
102
}
100
AcDbMlineStyle
  2
STANDARD
 70
0
  3

 62
256
 51
90.0
 52
90.0
 71
2
 49
0.5
 62
256
  6
BYLAYER
 49
-0.5
 62
256
  6
BYLAYER
  0
LAYOUT
  5
3ED
102
{ACAD_REACTORS
330
1A
102
}
100
AcDbPlotSettings
  1

  2
none_device
  4

  6

 40
0.0
 41
0.0
 42
0.0
 43
0.0
 44
210.0
 45
297.0
 46
0.0
 47
0.0
 48
0.0
 49
0.0
140
0.0
141
0.0
142
1.0
143
1.0
 70
1024
 72
1
 73
0
 74
0
  7

 75
0
147
1.0
148
0.0
149
0.0
100
AcDbLayout
  1
Model
 70
0
 71
0
 10
0.0
 20
0.0
 11
210.0
 21
297.0
 12
0.0
 22
0.0
 32
0.0
 14
0.0
 24
0.0
 34
0.0
 15
0.0
 25
0.0
 35
0.0
146
0.0
 13
0.0
 23
0.0
 33
0.0
 16
1.0
 26
0.0
 36
0.0
 17
0.0
 27
1.0
 37
0.0
 76
0
330
210
345
0
346
0
  0
LAYOUT
  5
3EE
102
{ACAD_REACTORS
330
1A
102
}
100
AcDbPlotSettings
  1

  2
none_device
  4

  6

 40
0.0
 41
0.0
 42
0.0
 43
0.0
 44
210.0
 45
297.0
 46
0.0
 47
0.0
 48
0.0
 49
0.0
140
0.0
141
0.0
142
1.0
143
1.0
 70
0
 72
1
 73
0
 74
0
  7

 75
0
147
1.0
148
0.0
149
0.0
100
AcDbLayout
  1
Layout1
 70
0
 71
1
 10
0.0
 20
0.0
 11
210.0
 21
297.0
 12
0.0
 22
0.0
 32
0.0
 14
0.0
 24
0.0
 34
0.0
 15
0.0
 25
0.0
 35
0.0
146
0.0
 13
0.0
 23
0.0
 33
0.0
 16
1.0
 26
0.0
 36
0.0
 17
0.0
 27
1.0
 37
0.0
 76
0
330
211
345
0
346
0
  0
ENDSEC
  0
EOF
