999
DXF file: C:\Users\sesa63760\Dev\_Creo\CAD\MCADID0005331_3D-CAD\drw0001_5.dxf
999
Pro/ENGINEER 2019471 by Parametric Technology Corporation
  0
SECTION
  2
HEADER
  9
$ACADVER
  1
AC1024
  9
$DWGCODEPAGE
  3
ANSI_1252
  9
$EXTMAX
 10
204.4522677758
 20
289.1539215686
 30
0.0
  9
$EXTMIN
 10
0.0
 20
0.0
 30
0.0
  9
$LIMMIN
 10
0.0
 20
0.0
  9
$LIMMAX
 10
204.4522677758
 20
289.1539215686
  9
$VIEWCTR
 10
102.2261338879
 20
144.5769607843
  9
$VIEWSIZE
 40
289.1539215686
  9
$CLAYER
  8
0
  9
$LTSCALE
 40
18.8485519245
  9
$CELTYPE
  6
BYLAYER
  9
$DIMSCALE
 40
1.0
  9
$DIMASZ
 40
2.4339555688
  9
$DIMEXO
 40
1.0
  9
$DIMDLI
 40
13.0226358751
  9
$DIMEXE
 40
1.0
  9
$DIMCEN
 40
3.0843084967
  9
$DIMLFAC
 40
1.0
  9
$DIMBLK
  1
_FILLED
  9
$DIMALT
 70
0
  9
$DIMALTF
 40
0.0393700787
  9
$DIMTXT
 40
3.4075377963
  9
$DIMTOL
 70
1
  9
$DIMLIM
 70
0
  9
$DIMTFAC
 40
1.0
  9
$DIMTP
 40
0.01
  9
$DIMTM
 40
0.01
  9
$DIMGAP
 40
0.625
  9
$DIMDSEP
 70
46
  9
$AUNITS
 70
0
  9
$PDMODE
 70
3
  9
$PDSIZE
 40
0.3125
  9
$HANDSEED
  5
304
  9
$TILEMODE
 70
1
  9
$MEASUREMENT
 70
1
  9
$INSUNITS
 70
4
  0
ENDSEC
  0
SECTION
  2
CLASSES
  0
CLASS
  1
ACDBDICTIONARYWDFLT
  2
AcDbDictionaryWithDefault
  3
AutoCAD 2000
 90
0
 91
1
280
0
281
0
  0
CLASS
  1
ACDBPLACEHOLDER
  2
AcDbPlaceHolder
  3
AutoCAD 2000
 90
0
 91
1
280
0
281
0
  0
CLASS
  1
LAYOUT
  2
AcDbLayout
  3
AutoCAD 2000
 90
0
 91
0
280
0
281
0
  0
ENDSEC
  0
SECTION
  2
TABLES
  0
TABLE
  2
VPORT
  5
8
100
AcDbSymbolTable
 70
2
  0
VPORT
  5
1F4
100
AcDbSymbolTableRecord
100
AcDbViewportTableRecord
  2
*ACTIVE
 70
0
 10
0.0
 20
0.0
 11
1.0
 21
1.0
 12
102.2261338879
 22
144.5769607843
 13
0.0
 23
0.0
 14
1.0
 24
1.0
 15
0.0
 25
0.0
 16
0.0
 26
0.0
 36
1.0
 17
0.0
 27
0.0
 37
0.0
 40
289.1539215686
 41
0.7070707071
 42
50.0
 43
0.0
 44
0.0
 50
0.0
 51
0.0
 71
0
 72
100
 73
1
 74
1
 75
0
 76
0
 77
0
 78
0
  0
ENDTAB
  0
TABLE
  2
LTYPE
  5
5
100
AcDbSymbolTable
 70
6
  0
LTYPE
  5
14
100
AcDbSymbolTableRecord
100
AcDbLinetypeTableRecord
  2
BYBLOCK
 70
0
  3

 72
65
 73
0
 40
0.0
  0
LTYPE
  5
15
100
AcDbSymbolTableRecord
100
AcDbLinetypeTableRecord
  2
BYLAYER
 70
0
  3

 72
65
 73
0
 40
0.0
  0
LTYPE
  5
16
100
AcDbSymbolTableRecord
100
AcDbLinetypeTableRecord
  2
CONTINUOUS
 70
64
  3
Solid line
 72
65
 73
0
 40
0.0
  0
LTYPE
  5
1F5
100
AcDbSymbolTableRecord
100
AcDbLinetypeTableRecord
  2
CENTER
 70
64
  3
____ _ ____ _ ____ _ ____ _ ____ _ ____ _ ____
 72
65
 73
4
 40
0.6
 49
0.375
 74
0
 49
-0.075
 74
0
 49
0.075
 74
0
 49
-0.075
 74
0
  0
LTYPE
  5
1F6
100
AcDbSymbolTableRecord
100
AcDbLinetypeTableRecord
  2
HIDDEN
 70
64
  3
- - - - - - - - - - - - - - - - - - - -
 72
65
 73
2
 40
0.2
 49
0.1
 74
0
 49
-0.1
 74
0
  0
LTYPE
  5
1F7
100
AcDbSymbolTableRecord
100
AcDbLinetypeTableRecord
  2
PHANTOM
 70
64
  3
_____ _ _ _____ _ _ _____ _ _ _____
 72
65
 73
6
 40
0.8
 49
0.45
 74
0
 49
-0.05
 74
0
 49
0.1
 74
0
 49
-0.05
 74
0
 49
0.1
 74
0
 49
-0.05
 74
0
  0
LTYPE
  5
1F8
100
AcDbSymbolTableRecord
100
AcDbLinetypeTableRecord
  2
DOT
 70
64
  3
. . . . . . . . . . . . . . . . . . . .
 72
65
 73
2
 40
0.2
 49
0.1
 74
0
 49
-0.1
 74
0
  0
LTYPE
  5
1F9
100
AcDbSymbolTableRecord
100
AcDbLinetypeTableRecord
  2
DASHED
 70
64
  3
- - - - - - - - - - - - - - - - - - - -
 72
65
 73
2
 40
0.2
 49
0.1
 74
0
 49
-0.1
 74
0
  0
ENDTAB
  0
TABLE
  2
LAYER
  5
2
100
AcDbSymbolTable
 70
36
  0
LAYER
  5
10
100
AcDbSymbolTableRecord
100
AcDbLayerTableRecord
  2
0
 70
0
 62
7
  6
CONTINUOUS
370
-3
390
F
  0
LAYER
  5
1FA
100
AcDbSymbolTableRecord
100
AcDbLayerTableRecord
  2
DEFAULT_1
 70
0
 62
7
  6
CENTER
370
-3
390
F
  0
LAYER
  5
1FB
100
AcDbSymbolTableRecord
100
AcDbLayerTableRecord
  2
DEFAULT_2
 70
0
 62
7
  6
HIDDEN
370
-3
390
F
  0
LAYER
  5
1FC
100
AcDbSymbolTableRecord
100
AcDbLayerTableRecord
  2
DEFAULT_3
 70
0
 62
7
  6
PHANTOM
370
-3
390
F
  0
LAYER
  5
1FD
100
AcDbSymbolTableRecord
100
AcDbLayerTableRecord
  2
00_COMPONENTS
 70
0
 62
7
  6
CONTINUOUS
370
-3
390
F
  0
LAYER
  5
1FE
100
AcDbSymbolTableRecord
100
AcDbLayerTableRecord
  2
01_1_DEFAULT_DATUMS
 70
0
 62
7
  6
CONTINUOUS
370
-3
390
F
  0
LAYER
  5
1FF
100
AcDbSymbolTableRecord
100
AcDbLayerTableRecord
  2
01_PLANES
 70
0
 62
7
  6
CONTINUOUS
370
-3
390
F
  0
LAYER
  5
200
100
AcDbSymbolTableRecord
100
AcDbLayerTableRecord
  2
02_COORD_SYS
 70
0
 62
7
  6
CONTINUOUS
370
-3
390
F
  0
LAYER
  5
201
100
AcDbSymbolTableRecord
100
AcDbLayerTableRecord
  2
03_AXES
 70
0
 62
7
  6
CONTINUOUS
370
-3
390
F
  0
LAYER
  5
202
100
AcDbSymbolTableRecord
100
AcDbLayerTableRecord
  2
04_POINTS
 70
0
 62
7
  6
CONTINUOUS
370
-3
390
F
  0
LAYER
  5
203
100
AcDbSymbolTableRecord
100
AcDbLayerTableRecord
  2
05_CURVES
 70
0
 62
7
  6
CONTINUOUS
370
-3
390
F
  0
LAYER
  5
204
100
AcDbSymbolTableRecord
100
AcDbLayerTableRecord
  2
06_SURFS
 70
0
 62
7
  6
CONTINUOUS
370
-3
390
F
  0
LAYER
  5
205
100
AcDbSymbolTableRecord
100
AcDbLayerTableRecord
  2
07_COSMETICS
 70
0
 62
7
  6
CONTINUOUS
370
-3
390
F
  0
LAYER
  5
206
100
AcDbSymbolTableRecord
100
AcDbLayerTableRecord
  2
10_NOTES
 70
0
 62
7
  6
CONTINUOUS
370
-3
390
F
  0
LAYER
  5
207
100
AcDbSymbolTableRecord
100
AcDbLayerTableRecord
  2
11_NOTES_PUB
 70
0
 62
7
  6
CONTINUOUS
370
-3
390
F
  0
LAYER
  5
208
100
AcDbSymbolTableRecord
100
AcDbLayerTableRecord
  2
13_REF_GTOL
 70
0
 62
7
  6
CONTINUOUS
370
-3
390
F
  0
LAYER
  5
209
100
AcDbSymbolTableRecord
100
AcDbLayerTableRecord
  2
16_MISC
 70
0
 62
7
  6
CONTINUOUS
370
-3
390
F
  0
LAYER
  5
20A
100
AcDbSymbolTableRecord
100
AcDbLayerTableRecord
  2
17_NO_PRINT
 70
0
 62
7
  6
CONTINUOUS
370
-3
390
F
  0
LAYER
  5
20B
100
AcDbSymbolTableRecord
100
AcDbLayerTableRecord
  2
18_DATUM_CAMS_JOINTS
 70
0
 62
7
  6
CONTINUOUS
370
-3
390
F
  0
LAYER
  5
20C
100
AcDbSymbolTableRecord
100
AcDbLayerTableRecord
  2
19_DATUM_FUNCTIONAL
 70
0
 62
7
  6
CONTINUOUS
370
-3
390
F
  0
LAYER
  5
20D
100
AcDbSymbolTableRecord
100
AcDbLayerTableRecord
  2
20_DATUM_KINEMATIC_SCHEME
 70
0
 62
7
  6
CONTINUOUS
370
-3
390
F
  0
LAYER
  5
20E
100
AcDbSymbolTableRecord
100
AcDbLayerTableRecord
  2
_1
 70
0
 62
7
  6
CONTINUOUS
370
-3
390
F
  0
ENDTAB
  0
TABLE
  2
STYLE
  5
3
100
AcDbSymbolTable
 70
1
  0
STYLE
  5
11
100
AcDbSymbolTableRecord
100
AcDbTextStyleTableRecord
  2
STANDARD
 70
0
 40
0.0
 41
1.0
 50
0.0
 71
0
 42
0.2
  3
ARIAL.TTF
  4

  0
STYLE
  5
20F
100
AcDbSymbolTableRecord
100
AcDbTextStyleTableRecord
  2
TEXTSTYLE_1
 70
0
 40
0.0
 41
0.8
 50
0.0
 71
0
 42
0.2
  3
gdt
  4

  0
ENDTAB
  0
TABLE
  2
VIEW
  5
6
100
AcDbSymbolTable
 70
0
  0
ENDTAB
  0
TABLE
  2
UCS
  5
7
100
AcDbSymbolTable
 70
0
  0
ENDTAB
  0
TABLE
  2
APPID
  5
9
100
AcDbSymbolTable
 70
1
  0
APPID
  5
210
100
AcDbSymbolTableRecord
100
AcDbRegAppTableRecord
  2
ACAD
 70
0
  0
ENDTAB
  0
TABLE
  2
BLOCK_RECORD
  5
1
100
AcDbSymbolTable
 70
0
  0
BLOCK_RECORD
  5
211
100
AcDbSymbolTableRecord
100
AcDbBlockTableRecord
  2
*Model_Space
  0
BLOCK_RECORD
  5
212
100
AcDbSymbolTableRecord
100
AcDbBlockTableRecord
  2
*Paper_Space
  0
BLOCK_RECORD
  5
213
100
AcDbSymbolTableRecord
100
AcDbBlockTableRecord
  2
_FILLED
  0
ENDTAB
  0
TABLE
  2
DIMSTYLE
  5
A
100
AcDbSymbolTable
 70
1
100
AcDbDimStyleTable
 71
0
  0
DIMSTYLE
105
214
100
AcDbSymbolTableRecord
100
AcDbDimStyleTableRecord
  2
STANDARD
 70
0
  3

  4

 40
1.0
 41
2.4339555688
 42
1.0
 43
0.38
 44
1.0
 45
0.0
 46
0.0
 47
0.01
 48
0.01
140
3.4075377963
141
0.09
142
0.0
143
25.4
144
1.0
145
0.0
146
1.0
147
0.625
 71
1
 72
0
 73
0
 74
0
 75
0
 76
0
 77
1
 78
8
 79
2
170
0
171
1
172
0
173
0
174
0
175
0
176
0
177
0
178
0
270
2
179
2
271
2
272
2
273
2
274
2
275
0
280
0
281
0
282
0
283
1
284
8
285
0
286
0
287
3
288
0
340
11
278
46
341
213
342
213
343
213
344
213
  0
ENDTAB
  0
ENDSEC
  0
SECTION
  2
BLOCKS
  0
BLOCK
  5
20
100
AcDbEntity
  8
0
100
AcDbBlockBegin
  2
*Model_Space
 70
0
 10
0.0
 20
0.0
 30
0.0
  3
*Model_Space
  1

  0
ENDBLK
  5
21
100
AcDbEntity
  8
0
100
AcDbBlockEnd
  0
BLOCK
  5
1C
100
AcDbEntity
  8
0
100
AcDbBlockBegin
  2
*Paper_Space
 70
0
 10
0.0
 20
0.0
 30
0.0
  3
*Paper_Space
  1

  0
ENDBLK
  5
1D
100
AcDbEntity
  8
0
100
AcDbBlockEnd
  0
BLOCK
  5
215
100
AcDbEntity
  8
0
100
AcDbBlockBegin
  2
_FILLED
 70
64
 10
0.0
 20
0.0
  3
_FILLED
  1

  0
SOLID
  5
216
100
AcDbEntity
  8
0
  6
BYBLOCK
 62
0
100
AcDbTrace
 10
0.0
 20
0.0
 11
-1.0
 21
0.25
 12
-1.0
 22
-0.25
 13
-1.0
 23
-0.25
  0
ENDBLK
  5
217
100
AcDbEntity
  8
0
  6
BYBLOCK
 62
0
100
AcDbBlockEnd
  0
ENDSEC
  0
SECTION
  2
ENTITIES
  0
LINE
  5
218
100
AcDbEntity
  8
_1
100
AcDbLine
 62
7
  6
BYLAYER
 10
23.8325064369
 20
174.181071664
 11
23.8325064369
 21
197.1806930424
  0
LINE
  5
219
100
AcDbEntity
  8
_1
100
AcDbLine
 62
7
  6
BYLAYER
 10
39.7825064369
 20
173.4808823532
 11
39.7825064369
 21
197.7316560278
  0
LINE
  5
21A
100
AcDbEntity
  8
_1
100
AcDbLine
 62
7
  6
BYLAYER
 10
41.8619490706
 20
131.8475488532
 11
42.0106840923
 21
127.846559679
  0
LINE
  5
21B
100
AcDbEntity
  8
_1
100
AcDbLine
 62
7
  6
BYLAYER
 10
41.3825064369
 20
145.6808823532
 11
41.3825064369
 21
150.6808823532
  0
LINE
  5
21C
100
AcDbEntity
  8
_1
100
AcDbLine
 62
7
  6
BYLAYER
 10
41.5825064369
 20
144.7311072345
 11
41.5825064369
 21
151.6306574719
  0
LINE
  5
21D
100
AcDbEntity
  8
_1
100
AcDbLine
 62
7
  6
BYLAYER
 10
42.0825064369
 20
146.0581218886
 11
42.0825064369
 21
151.6806513619
  0
LINE
  5
21E
100
AcDbEntity
  8
_1
100
AcDbLine
 62
7
  6
BYLAYER
 10
42.5825064369
 20
152.1310212153
 11
42.5825064369
 21
152.1224040923
  0
LINE
  5
21F
100
AcDbEntity
  8
_1
100
AcDbLine
 62
7
  6
BYLAYER
 10
43.6823634581
 20
150.6808823532
 11
43.682363999
 21
156.6808823532
  0
LINE
  5
220
100
AcDbEntity
  8
_1
100
AcDbLine
 62
7
  6
BYLAYER
 10
43.6823634581
 20
104.1808823532
 11
43.682363999
 21
110.1808823532
  0
LINE
  5
221
100
AcDbEntity
  8
_1
100
AcDbLine
 62
7
  6
BYLAYER
 10
45.2825064369
 20
96.733241726
 11
45.2825064369
 21
114.0322646695
  0
LINE
  5
222
100
AcDbEntity
  8
_1
100
AcDbLine
 62
7
  6
BYLAYER
 10
45.2825064369
 20
147.8808823532
 11
45.2825064369
 21
160.1808823532
  0
LINE
  5
223
100
AcDbEntity
  8
_1
100
AcDbLine
 62
7
  6
BYLAYER
 10
42.010650295
 20
122.5196865141
 11
41.8619490706
 21
118.5142158532
  0
LINE
  5
224
100
AcDbEntity
  8
_1
100
AcDbLine
 62
7
  6
BYLAYER
 10
41.9278931014
 20
144.1808825304
 11
42.5825064369
 21
152.1224040923
  0
LWPOLYLINE
  5
225
100
AcDbEntity
  8
_1
100
AcDbPolyline
 62
7
  6
BYLAYER
 90
3
 70
0
 10
43.6823524997
 20
156.6808823532
 10
43.0430967233
 20
153.6719578476
 10
43.6823525005
 20
150.6808823532
  0
LINE
  5
226
100
AcDbEntity
  8
_1
100
AcDbLine
 62
7
  6
BYLAYER
 10
76.5222368732
 20
199.6808823532
 11
63.7825064369
 21
185.7779062268
  0
LINE
  5
227
100
AcDbEntity
  8
_1
100
AcDbLine
 62
7
  6
BYLAYER
 10
49.2825064369
 20
160.1808823532
 11
49.2825064369
 21
90.1808823532
  0
LINE
  5
228
100
AcDbEntity
  8
_1
100
AcDbLine
 62
7
  6
BYLAYER
 10
50.2825064369
 20
160.2808823532
 11
50.2825064369
 21
160.1808823532
  0
LINE
  5
229
100
AcDbEntity
  8
_1
100
AcDbLine
 62
7
  6
BYLAYER
 10
50.7825064369
 20
164.8808823532
 11
50.7825064369
 21
160.2808823532
  0
LINE
  5
22A
100
AcDbEntity
  8
_1
100
AcDbLine
 62
7
  6
BYLAYER
 10
51.0325064369
 20
164.8808823532
 11
51.0325064369
 21
166.8808823532
  0
LINE
  5
22B
100
AcDbEntity
  8
_1
100
AcDbLine
 62
7
  6
BYLAYER
 10
51.7825064369
 20
167.3808823532
 11
51.7825064369
 21
168.4808823532
  0
LINE
  5
22C
100
AcDbEntity
  8
_1
100
AcDbLine
 62
7
  6
BYLAYER
 10
52.2825064369
 20
160.2808823532
 11
52.2825064369
 21
160.1808823532
  0
LWPOLYLINE
  5
22D
100
AcDbEntity
  8
_1
100
AcDbPolyline
 62
7
  6
BYLAYER
 90
3
 70
0
 10
43.6823524997
 20
110.1808823532
 10
43.0430967233
 20
107.1719578476
 10
43.6823525005
 20
104.1808823532
  0
LINE
  5
22E
100
AcDbEntity
  8
_1
100
AcDbLine
 62
7
  6
BYLAYER
 10
88.2825064369
 20
90.1808823532
 11
49.2825064369
 21
90.1808823532
  0
LINE
  5
22F
100
AcDbEntity
  8
_1
100
AcDbLine
 62
7
  6
BYLAYER
 10
43.4786187751
 20
90.1808823532
 11
49.2825064369
 21
90.1808823532
  0
LINE
  5
230
100
AcDbEntity
  8
_1
100
AcDbLine
 62
7
  6
BYLAYER
 10
88.2825064369
 20
90.1808823532
 11
163.2825064369
 21
90.1808823532
  0
LINE
  5
231
100
AcDbEntity
  8
_1
100
AcDbLine
 62
7
  6
BYLAYER
 10
44.1257582123
 20
91.5788665378
 11
49.2825064369
 21
91.5788665378
  0
LINE
  5
232
100
AcDbEntity
  8
_1
100
AcDbLine
 62
7
  6
BYLAYER
 10
88.2825064369
 20
91.5788665365
 11
134.6706365837
 21
91.5788665365
  0
LINE
  5
233
100
AcDbEntity
  8
_1
100
AcDbLine
 62
7
  6
BYLAYER
 10
88.2825064369
 20
91.8366355658
 11
49.2825064369
 21
91.8366355658
  0
LINE
  5
234
100
AcDbEntity
  8
_1
100
AcDbLine
 62
7
  6
BYLAYER
 10
134.7825064369
 20
93.0340778476
 11
88.2825064369
 21
93.0340778476
  0
LINE
  5
235
100
AcDbEntity
  8
_1
100
AcDbLine
 62
7
  6
BYLAYER
 10
49.2825064369
 20
93.0340778452
 11
44.0475666044
 21
93.0340778452
  0
LINE
  5
236
100
AcDbEntity
  8
_1
100
AcDbLine
 62
7
  6
BYLAYER
 10
53.7825064369
 20
160.2808823532
 11
53.7825064369
 21
164.8808823532
  0
LINE
  5
237
100
AcDbEntity
  8
_1
100
AcDbLine
 62
7
  6
BYLAYER
 10
54.0439174226
 20
168.4808823532
 11
54.0439174226
 21
167.3808823532
  0
LINE
  5
238
100
AcDbEntity
  8
_1
100
AcDbLine
 62
7
  6
BYLAYER
 10
56.5325064369
 20
164.8808823532
 11
56.5325064369
 21
166.8808823532
  0
LINE
  5
239
100
AcDbEntity
  8
_1
100
AcDbLine
 62
7
  6
BYLAYER
 10
56.7710954512
 20
164.8808823532
 11
56.7710954512
 21
168.4808823532
  0
LINE
  5
23A
100
AcDbEntity
  8
_1
100
AcDbLine
 62
7
  6
BYLAYER
 10
134.6706322288
 20
103.8740201399
 11
154.7825064369
 21
106.9569252807
  0
LINE
  5
23B
100
AcDbEntity
  8
_1
100
AcDbLine
 62
7
  6
BYLAYER
 10
154.7825064369
 20
105.6808823532
 11
134.7825064369
 21
102.6808823532
  0
LINE
  5
23C
100
AcDbEntity
  8
_1
100
AcDbLine
 62
7
  6
BYLAYER
 10
134.7825064369
 20
96.7332415645
 11
154.7825064369
 21
96.7594211702
  0
LINE
  5
23D
100
AcDbEntity
  8
_1
100
AcDbLine
 62
7
  6
BYLAYER
 10
163.2825064369
 20
95.1093262967
 11
154.7825064369
 21
95.1093262967
  0
LINE
  5
23E
100
AcDbEntity
  8
_1
100
AcDbLine
 62
7
  6
BYLAYER
 10
163.2825064369
 20
95.1808823532
 11
165.7825064369
 21
95.1808823532
  0
LINE
  5
23F
100
AcDbEntity
  8
_1
100
AcDbLine
 62
7
  6
BYLAYER
 10
88.2825064369
 20
96.7332415662
 11
49.2825064369
 21
96.7332415662
  0
LINE
  5
240
100
AcDbEntity
  8
_1
100
AcDbLine
 62
7
  6
BYLAYER
 10
45.2825064369
 20
96.733241726
 11
49.2825064369
 21
96.733241726
  0
LINE
  5
241
100
AcDbEntity
  8
_1
100
AcDbLine
 62
7
  6
BYLAYER
 10
88.2825064369
 20
96.7332415662
 11
134.7825064369
 21
96.7332415662
  0
LINE
  5
242
100
AcDbEntity
  8
_1
100
AcDbLine
 62
7
  6
BYLAYER
 10
63.7825064369
 20
185.7779062268
 11
63.7825064369
 21
168.4808823532
  0
LINE
  5
243
100
AcDbEntity
  8
_1
100
AcDbLine
 62
7
  6
BYLAYER
 10
88.2825064369
 20
102.6808823532
 11
49.2825064369
 21
102.6808823532
  0
LINE
  5
244
100
AcDbEntity
  8
_1
100
AcDbLine
 62
7
  6
BYLAYER
 10
45.2825064369
 20
102.6808823532
 11
49.2825064369
 21
102.6808823532
  0
LINE
  5
245
100
AcDbEntity
  8
_1
100
AcDbLine
 62
7
  6
BYLAYER
 10
88.2825064369
 20
102.6808823532
 11
134.7825064369
 21
102.6808823532
  0
LINE
  5
246
100
AcDbEntity
  8
_1
100
AcDbLine
 62
7
  6
BYLAYER
 10
134.6706322309
 20
103.8740201399
 11
88.2825064369
 21
103.8740201399
  0
LINE
  5
247
100
AcDbEntity
  8
_1
100
AcDbLine
 62
7
  6
BYLAYER
 10
45.2825064369
 20
103.8742788118
 11
49.2825064369
 21
103.8742788118
  0
LINE
  5
248
100
AcDbEntity
  8
_1
100
AcDbLine
 62
7
  6
BYLAYER
 10
45.2825064369
 20
104.1808823532
 11
43.6823621492
 21
104.1808823532
  0
LINE
  5
249
100
AcDbEntity
  8
_1
100
AcDbLine
 62
7
  6
BYLAYER
 10
70.7939174226
 20
168.4808823532
 11
70.7939174226
 21
164.8808823532
  0
LINE
  5
24A
100
AcDbEntity
  8
_1
100
AcDbLine
 62
7
  6
BYLAYER
 10
71.0325064369
 20
164.8808823532
 11
71.0325064369
 21
166.8808823532
  0
LINE
  5
24B
100
AcDbEntity
  8
_1
100
AcDbLine
 62
7
  6
BYLAYER
 10
42.7772513274
 20
107.2406712009
 11
43.0576950983
 21
107.2406712009
  0
LINE
  5
24C
100
AcDbEntity
  8
_1
100
AcDbLine
 62
7
  6
BYLAYER
 10
45.2825064369
 20
110.1808823532
 11
43.6823624685
 21
110.1808823532
  0
LINE
  5
24D
100
AcDbEntity
  8
_1
100
AcDbLine
 62
7
  6
BYLAYER
 10
73.5210954512
 20
167.3808823532
 11
73.5210954512
 21
168.4808823532
  0
LINE
  5
24E
100
AcDbEntity
  8
_1
100
AcDbLine
 62
7
  6
BYLAYER
 10
73.7825064369
 20
164.8808823532
 11
73.7825064369
 21
160.2808823532
  0
LINE
  5
24F
100
AcDbEntity
  8
_1
100
AcDbLine
 62
7
  6
BYLAYER
 10
75.2825064369
 20
160.2808823532
 11
75.2825064369
 21
160.1808823532
  0
LINE
  5
250
100
AcDbEntity
  8
_1
100
AcDbLine
 62
7
  6
BYLAYER
 10
75.7825064369
 20
167.3808823532
 11
75.7825064369
 21
168.4808823532
  0
LINE
  5
251
100
AcDbEntity
  8
_1
100
AcDbLine
 62
7
  6
BYLAYER
 10
76.5325064369
 20
164.8808823532
 11
76.5325064369
 21
166.8808823532
  0
LINE
  5
252
100
AcDbEntity
  8
_1
100
AcDbLine
 62
7
  6
BYLAYER
 10
76.7825064369
 20
160.2808823532
 11
76.7825064369
 21
164.8808823532
  0
LINE
  5
253
100
AcDbEntity
  8
_1
100
AcDbLine
 62
7
  6
BYLAYER
 10
77.2825064369
 20
160.2808823532
 11
77.2825064369
 21
160.1808823532
  0
LINE
  5
254
100
AcDbEntity
  8
_1
100
AcDbLine
 62
7
  6
BYLAYER
 10
77.7825064369
 20
168.4808823532
 11
77.7825064369
 21
199.6808823532
  0
LINE
  5
255
100
AcDbEntity
  8
_1
100
AcDbLine
 62
7
  6
BYLAYER
 10
78.2825067361
 20
159.8053777299
 11
78.2825067361
 21
159.5189772171
  0
LINE
  5
256
100
AcDbEntity
  8
_1
100
AcDbLine
 62
7
  6
BYLAYER
 10
78.2825064369
 20
151.9257860368
 11
78.2825064369
 21
146.4877445665
  0
LINE
  5
257
100
AcDbEntity
  8
_1
100
AcDbLine
 62
7
  6
BYLAYER
 10
78.2825064369
 20
158.9462473961
 11
78.2825064369
 21
159.1388435394
  0
LINE
  5
258
100
AcDbEntity
  8
_1
100
AcDbLine
 62
7
  6
BYLAYER
 10
78.2814790614
 20
151.9257860369
 11
78.2849375819
 21
158.9463241472
  0
LINE
  5
259
100
AcDbEntity
  8
_1
100
AcDbLine
 62
7
  6
BYLAYER
 10
43.0641419752
 20
114.0322646695
 11
45.2825064369
 21
114.0322646695
  0
LINE
  5
25A
100
AcDbEntity
  8
_1
100
AcDbLine
 62
7
  6
BYLAYER
 10
154.7825064369
 20
114.7583550704
 11
88.2825064369
 21
114.7583550704
  0
LINE
  5
25B
100
AcDbEntity
  8
_1
100
AcDbLine
 62
7
  6
BYLAYER
 10
88.2825064369
 20
114.7583550704
 11
49.2825064369
 21
114.7583550704
  0
LINE
  5
25C
100
AcDbEntity
  8
_1
100
AcDbLine
 62
7
  6
BYLAYER
 10
49.2825064369
 20
114.7686363382
 11
43.6623747518
 21
114.7686363382
  0
LINE
  5
25D
100
AcDbEntity
  8
_1
100
AcDbLine
 62
7
  6
BYLAYER
 10
41.9094483984
 20
118.5142158532
 11
41.3619026062
 21
118.5142158532
  0
LINE
  5
25E
100
AcDbEntity
  8
_1
100
AcDbLine
 62
7
  6
BYLAYER
 10
186.2825064369
 20
119.6808823532
 11
165.7825064369
 21
119.6808823532
  0
LINE
  5
25F
100
AcDbEntity
  8
_1
100
AcDbLine
 62
7
  6
BYLAYER
 10
163.2825064369
 20
125.1808823532
 11
88.2825064369
 21
125.1808823532
  0
LINE
  5
260
100
AcDbEntity
  8
_1
100
AcDbLine
 62
7
  6
BYLAYER
 10
43.4786187751
 20
125.1808823532
 11
49.2825064369
 21
125.1808823532
  0
LINE
  5
261
100
AcDbEntity
  8
_1
100
AcDbLine
 62
7
  6
BYLAYER
 10
49.2825064369
 20
125.1808823532
 11
88.2825064369
 21
125.1808823532
  0
LINE
  5
262
100
AcDbEntity
  8
_1
100
AcDbLine
 62
7
  6
BYLAYER
 10
88.2825064369
 20
90.1808823532
 11
88.2825064369
 21
160.1808823532
  0
LINE
  5
263
100
AcDbEntity
  8
_1
100
AcDbLine
 62
7
  6
BYLAYER
 10
186.2825064369
 20
130.6808823532
 11
165.7825064369
 21
130.6808823532
  0
LINE
  5
264
100
AcDbEntity
  8
_1
100
AcDbLine
 62
7
  6
BYLAYER
 10
41.3617266327
 20
131.8475488532
 11
41.9094483984
 21
131.8475488532
  0
LINE
  5
265
100
AcDbEntity
  8
_1
100
AcDbLine
 62
7
  6
BYLAYER
 10
83.4490125163
 20
149.9015523787
 11
83.3678894199
 21
149.9870760218
  0
LINE
  5
266
100
AcDbEntity
  8
_1
100
AcDbLine
 62
7
  6
BYLAYER
 10
83.3964115535
 20
149.9567803357
 11
83.3192894648
 21
150.0392667635
  0
LINE
  5
267
100
AcDbEntity
  8
_1
100
AcDbLine
 62
7
  6
BYLAYER
 10
83.3450899418
 20
150.0114705644
 11
83.2720375464
 21
150.0907009436
  0
LINE
  5
268
100
AcDbEntity
  8
_1
100
AcDbLine
 62
7
  6
BYLAYER
 10
83.2951823849
 20
150.0654221501
 11
83.2262467806
 21
150.1411988152
  0
LINE
  5
269
100
AcDbEntity
  8
_1
100
AcDbLine
 62
7
  6
BYLAYER
 10
83.2476851122
 20
150.1171927538
 11
83.1820295797
 21
150.1905762069
  0
LINE
  5
26A
100
AcDbEntity
  8
_1
100
AcDbLine
 62
7
  6
BYLAYER
 10
83.2053292036
 20
150.1642527457
 11
83.1395503218
 21
150.2385851999
  0
LINE
  5
26B
100
AcDbEntity
  8
_1
100
AcDbLine
 62
7
  6
BYLAYER
 10
83.1645946438
 20
150.2100337858
 11
83.0992307923
 21
150.284675228
  0
LINE
  5
26C
100
AcDbEntity
  8
_1
100
AcDbLine
 62
7
  6
BYLAYER
 10
83.1254382942
 20
150.2545259545
 11
83.0615645791
 21
150.3281941083
  0
LINE
  5
26D
100
AcDbEntity
  8
_1
100
AcDbLine
 62
7
  6
BYLAYER
 10
83.0878290302
 20
150.297709333
 11
83.0269803955
 21
150.3685473195
  0
LINE
  5
26E
100
AcDbEntity
  8
_1
100
AcDbLine
 62
7
  6
BYLAYER
 10
82.9869230719
 20
150.4157543272
 11
83.0516787344
 21
150.3396335864
  0
LINE
  5
26F
100
AcDbEntity
  8
_1
100
AcDbLine
 62
7
  6
BYLAYER
 10
82.9624103321
 20
150.444910956
 11
83.0126038601
 21
150.3854093028
  0
LINE
  5
270
100
AcDbEntity
  8
_1
100
AcDbLine
 62
7
  6
BYLAYER
 10
43.6623747518
 20
135.5931283682
 11
49.2825064369
 21
135.5931283682
  0
LINE
  5
271
100
AcDbEntity
  8
_1
100
AcDbLine
 62
7
  6
BYLAYER
 10
88.2825064369
 20
135.603409636
 11
49.2825064369
 21
135.603409636
  0
LINE
  5
272
100
AcDbEntity
  8
_1
100
AcDbLine
 62
7
  6
BYLAYER
 10
88.2825064369
 20
135.603409636
 11
154.7825064369
 21
135.603409636
  0
LINE
  5
273
100
AcDbEntity
  8
_1
100
AcDbLine
 62
7
  6
BYLAYER
 10
85.5252268878
 20
148.3265073456
 11
85.4306909768
 21
148.3749866453
  0
LINE
  5
274
100
AcDbEntity
  8
_1
100
AcDbLine
 62
7
  6
BYLAYER
 10
85.4431726651
 20
148.3684710897
 11
85.3465642175
 21
148.4198206108
  0
LINE
  5
275
100
AcDbEntity
  8
_1
100
AcDbLine
 62
7
  6
BYLAYER
 10
85.3622856656
 20
148.4113200219
 11
85.2636855771
 21
148.4655687408
  0
LINE
  5
276
100
AcDbEntity
  8
_1
100
AcDbLine
 62
7
  6
BYLAYER
 10
85.2825495915
 20
148.4550171889
 11
85.182036114
 21
148.5121904607
  0
LWPOLYLINE
  5
277
100
AcDbEntity
  8
_1
100
AcDbPolyline
 62
7
  6
BYLAYER
 90
9
 70
0
 10
85.2039478143
 20
148.4995265955
 10
85.1015965803
 20
148.5596463472
 10
85.022347488
 20
148.6078981351
 10
84.9442691487
 20
148.6569087337
 10
84.8673437972
 20
148.7066408695
 10
84.7915617214
 20
148.7570527886
 10
84.7169149254
 20
148.8081019155
 10
84.6433952347
 20
148.8597460662
 10
84.5709943143
 20
148.9119434738
  0
LWPOLYLINE
  5
278
100
AcDbEntity
  8
_1
100
AcDbPolyline
 62
7
  6
BYLAYER
 90
9
 70
0
 10
85.1264634336
 20
148.5448132169
 10
85.0500793309
 20
148.5908430058
 10
84.9747782193
 20
148.6375828963
 10
84.9005429303
 20
148.6850006476
 10
84.8273614301
 20
148.7330615073
 10
84.7552265981
 20
148.7817279169
 10
84.6841313158
 20
148.8309625344
 10
84.6140683217
 20
148.8807283575
 10
84.5450302212
 20
148.9309887474
  0
LINE
  5
279
100
AcDbEntity
  8
_1
100
AcDbLine
 62
7
  6
BYLAYER
 10
84.5709943143
 20
148.9119434738
 11
84.4770094977
 21
148.9817074517
  0
LINE
  5
27A
100
AcDbEntity
  8
_1
100
AcDbLine
 62
7
  6
BYLAYER
 10
84.4997036819
 20
148.9646528172
 11
84.4099985225
 21
149.0328486256
  0
LWPOLYLINE
  5
27B
100
AcDbEntity
  8
_1
100
AcDbPolyline
 62
7
  6
BYLAYER
 90
8
 70
0
 10
84.1285672271
 20
149.2249795534
 10
84.528308275
 20
148.9155913076
 10
85.0067778473
 20
148.5975231198
 10
85.546420446
 20
148.3026993638
 10
86.1456284949
 20
148.0487439478
 10
86.8044960814
 20
147.8511819251
 10
87.5191046814
 20
147.7247668419
 10
88.2825064369
 20
147.6808823532
  0
LINE
  5
27C
100
AcDbEntity
  8
_1
100
AcDbLine
 62
7
  6
BYLAYER
 10
84.4295147207
 20
149.017833248
 11
84.3439895648
 21
149.0843768522
  0
LINE
  5
27D
100
AcDbEntity
  8
_1
100
AcDbLine
 62
7
  6
BYLAYER
 10
84.3604186916
 20
149.0714444156
 11
84.2789748016
 21
149.1362571615
  0
LINE
  5
27E
100
AcDbEntity
  8
_1
100
AcDbLine
 62
7
  6
BYLAYER
 10
84.2924067452
 20
149.1254464911
 11
84.2149463271
 21
149.1884550485
  0
LINE
  5
27F
100
AcDbEntity
  8
_1
100
AcDbLine
 62
7
  6
BYLAYER
 10
84.225469934
 20
149.1798001896
 11
84.1518961624
 21
149.2409364895
  0
LWPOLYLINE
  5
280
100
AcDbEntity
  8
_1
100
AcDbPolyline
 62
7
  6
BYLAYER
 90
4
 70
0
 10
83.4281418454
 20
149.9228428684
 10
84.9686579198
 20
148.6401296108
 10
86.5986756335
 20
147.9081529709
 10
88.2825064369
 20
147.680882354
  0
LWPOLYLINE
  5
281
100
AcDbEntity
  8
_1
100
AcDbPolyline
 62
7
  6
BYLAYER
 90
3
 70
0
 10
83.4131496269
 20
149.9386126432
 10
84.9284497502
 20
148.6656998435
 10
86.6018511782
 20
147.9072599138
  0
LINE
  5
282
100
AcDbEntity
  8
_1
100
AcDbLine
 62
7
  6
BYLAYER
 10
84.1595992233
 20
149.2344667915
 11
84.0898162636
 21
149.2936679583
  0
LINE
  5
283
100
AcDbEntity
  8
_1
100
AcDbLine
 62
7
  6
BYLAYER
 10
84.0947855024
 20
149.2894081612
 11
84.0286985315
 21
149.3466164402
  0
LINE
  5
284
100
AcDbEntity
  8
_1
100
AcDbLine
 62
7
  6
BYLAYER
 10
84.0310195952
 20
149.344586766
 11
83.9682922707
 21
149.3999656918
  0
LINE
  5
285
100
AcDbEntity
  8
_1
100
AcDbLine
 62
7
  6
BYLAYER
 10
83.9685348191
 20
149.3997494457
 11
83.9065942524
 21
149.4555086591
  0
LINE
  5
286
100
AcDbEntity
  8
_1
100
AcDbLine
 62
7
  6
BYLAYER
 10
83.9093169403
 20
149.4530350227
 11
83.8459162283
 21
149.5111800365
  0
LINE
  5
287
100
AcDbEntity
  8
_1
100
AcDbLine
 62
7
  6
BYLAYER
 10
83.8510366773
 20
149.5064417678
 11
83.7862488596
 21
149.5669448534
  0
LINE
  5
288
100
AcDbEntity
  8
_1
100
AcDbLine
 62
7
  6
BYLAYER
 10
83.7936857882
 20
149.5599388363
 11
83.7275827899
 21
149.6227688108
  0
LINE
  5
289
100
AcDbEntity
  8
_1
100
AcDbLine
 62
7
  6
BYLAYER
 10
83.7372560142
 20
149.6134959516
 11
83.6699086533
 21
149.6786182918
  0
LINE
  5
28A
100
AcDbEntity
  8
_1
100
AcDbLine
 62
7
  6
BYLAYER
 10
83.6817390869
 20
149.6670834133
 11
83.6132170826
 21
149.7344603697
  0
LINE
  5
28B
100
AcDbEntity
  8
_1
100
AcDbLine
 62
7
  6
BYLAYER
 10
83.6271267343
 20
149.7206721043
 11
83.5574988431
 21
149.7902626885
  0
LINE
  5
28C
100
AcDbEntity
  8
_1
100
AcDbLine
 62
7
  6
BYLAYER
 10
83.5734106541
 20
149.7742335305
 11
83.5027516286
 21
149.8459865073
  0
LINE
  5
28D
100
AcDbEntity
  8
_1
100
AcDbLine
 62
7
  6
BYLAYER
 10
83.5205859845
 20
149.827736297
 11
83.4490125163
 21
149.9015523787
  0
LINE
  5
28E
100
AcDbEntity
  8
_1
100
AcDbLine
 62
7
  6
BYLAYER
 10
83.4686619941
 20
149.8811348132
 11
83.4177207925
 21
149.9343064879
  0
LINE
  5
28F
100
AcDbEntity
  8
_1
100
AcDbLine
 62
7
  6
BYLAYER
 10
41.9731850642
 20
144.7308823532
 11
41.5825064369
 21
144.7308823532
  0
LINE
  5
290
100
AcDbEntity
  8
_1
100
AcDbLine
 62
7
  6
BYLAYER
 10
41.5825064369
 20
145.6808823532
 11
41.3825064369
 21
145.6808823532
  0
LINE
  5
291
100
AcDbEntity
  8
_1
100
AcDbLine
 62
7
  6
BYLAYER
 10
86.3443943179
 20
147.9866272775
 11
86.2254736591
 21
148.0273958791
  0
LINE
  5
292
100
AcDbEntity
  8
_1
100
AcDbLine
 62
7
  6
BYLAYER
 10
86.2468700225
 20
148.0198536361
 11
86.1335573393
 21
148.060841172
  0
LINE
  5
293
100
AcDbEntity
  8
_1
100
AcDbLine
 62
7
  6
BYLAYER
 10
86.1507479431
 20
148.0544566141
 11
86.0429182506
 21
148.095498466
  0
LINE
  5
294
100
AcDbEntity
  8
_1
100
AcDbLine
 62
7
  6
BYLAYER
 10
86.0560170813
 20
148.0903861192
 11
85.9535453867
 21
148.131324273
  0
LINE
  5
295
100
AcDbEntity
  8
_1
100
AcDbLine
 62
7
  6
BYLAYER
 10
85.9626651452
 20
148.1275927159
 11
85.8654267742
 21
148.1682757482
  0
LWPOLYLINE
  5
296
100
AcDbEntity
  8
_1
100
AcDbPolyline
 62
7
  6
BYLAYER
 90
3
 70
0
 10
85.8706786804
 20
148.1660277182
 10
85.7800431928
 20
148.2056432707
 10
85.6907432635
 20
148.2463924197
  0
LINE
  5
297
100
AcDbEntity
  8
_1
100
AcDbLine
 62
7
  6
BYLAYER
 10
85.6929001619
 20
148.2453879195
 11
85.6027626567
 21
148.2882291741
  0
LINE
  5
298
100
AcDbEntity
  8
_1
100
AcDbLine
 62
7
  6
BYLAYER
 10
85.6084642385
 20
148.2854666844
 11
85.5160844196
 21
148.3311085563
  0
LINE
  5
299
100
AcDbEntity
  8
_1
100
AcDbLine
 62
7
  6
BYLAYER
 10
88.2825064369
 20
146.4877445665
 11
78.282506443
 21
146.4877445665
  0
LINE
  5
29A
100
AcDbEntity
  8
_1
100
AcDbLine
 62
7
  6
BYLAYER
 10
88.2825064369
 20
146.4877445665
 11
134.6706306242
 21
146.4877445665
  0
LINE
  5
29B
100
AcDbEntity
  8
_1
100
AcDbLine
 62
7
  6
BYLAYER
 10
134.7825064369
 20
147.6808823532
 11
88.2825064369
 21
147.6808823532
  0
LINE
  5
29C
100
AcDbEntity
  8
_1
100
AcDbLine
 62
7
  6
BYLAYER
 10
43.4891524847
 20
147.8808823532
 11
45.2825064369
 21
147.8808823532
  0
LINE
  5
29D
100
AcDbEntity
  8
_1
100
AcDbLine
 62
7
  6
BYLAYER
 10
45.2825064369
 20
150.6808823532
 11
43.6823621492
 21
150.6808823532
  0
LINE
  5
29E
100
AcDbEntity
  8
_1
100
AcDbLine
 62
7
  6
BYLAYER
 10
41.5825064369
 20
150.6808823532
 11
41.3825064369
 21
150.6808823532
  0
LINE
  5
29F
100
AcDbEntity
  8
_1
100
AcDbLine
 62
7
  6
BYLAYER
 10
42.0825064369
 20
151.6308823532
 11
41.5825064369
 21
151.6308823532
  0
LINE
  5
2A0
100
AcDbEntity
  8
_1
100
AcDbLine
 62
7
  6
BYLAYER
 10
42.5460770166
 20
151.6808823532
 11
42.0825064369
 21
151.6808823532
  0
LINE
  5
2A1
100
AcDbEntity
  8
_1
100
AcDbLine
 62
7
  6
BYLAYER
 10
88.2825064458
 20
147.6808823525
 11
88.1491257971
 21
147.6822079111
  0
LINE
  5
2A2
100
AcDbEntity
  8
_1
100
AcDbLine
 62
7
  6
BYLAYER
 10
88.1545491187
 20
147.6821019959
 11
88.0186856176
 21
147.6861003469
  0
LINE
  5
2A3
100
AcDbEntity
  8
_1
100
AcDbLine
 62
7
  6
BYLAYER
 10
88.0292956698
 20
147.6856866718
 11
87.8910934389
 21
147.6924377583
  0
LINE
  5
2A4
100
AcDbEntity
  8
_1
100
AcDbLine
 62
7
  6
BYLAYER
 10
87.9066653731
 20
147.6915287205
 11
87.7662495047
 21
147.7011048062
  0
LWPOLYLINE
  5
2A5
100
AcDbEntity
  8
_1
100
AcDbPolyline
 62
7
  6
BYLAYER
 90
14
 70
0
 10
87.7865712316
 20
147.6995259527
 10
87.6440463294
 20
147.7119935225
 10
87.5243769456
 20
147.7250031264
 10
87.4071427355
 20
147.7400389194
 10
87.2922399946
 20
147.7570136105
 10
87.1795601177
 20
147.7758478003
 10
87.0689905743
 20
147.7964702792
 10
86.9604157726
 20
147.8188182327
 10
86.85371783
 20
147.8428373662
 10
86.748777262
 20
147.8684819615
 10
86.6454735989
 20
147.895714879
 10
86.5436862031
 20
147.9245074342
 10
86.4433303943
 20
147.9548281815
 10
86.3443943179
 20
147.9866272775
  0
LWPOLYLINE
  5
2A6
100
AcDbEntity
  8
_1
100
AcDbPolyline
 62
7
  6
BYLAYER
 90
5
 70
0
 10
88.2825064369
 20
147.6808823532
 10
86.9889328295
 20
147.8102358105
 10
85.8556675606
 20
148.1625418945
 10
84.904554769
 20
148.660976915
 10
84.1285672271
 20
149.2249795534
  0
LWPOLYLINE
  5
2A7
100
AcDbEntity
  8
_1
100
AcDbPolyline
 62
7
  6
BYLAYER
 90
14
 70
0
 10
87.6689200799
 20
147.7095822726
 10
87.5536158836
 20
147.7216079134
 10
87.4405720379
 20
147.7355181003
 10
87.3296988392
 20
147.7512340814
 10
87.2209021529
 20
147.7686836612
 10
87.1140842605
 20
147.7878014683
 10
87.0091445882
 20
147.8085291474
 10
86.9059803597
 20
147.8308154853
 10
86.8044871814
 20
147.8546164806
 10
86.7045595688
 20
147.8798953662
 10
86.606091408
 20
147.9066225947
 10
86.5089793359
 20
147.934774906
 10
86.4131765444
 20
147.9643180105
 10
86.318677144
 20
147.9952066441
  0
LINE
  5
2A8
100
AcDbEntity
  8
_1
100
AcDbLine
 62
7
  6
BYLAYER
 10
154.7825064369
 20
144.6808823532
 11
134.7825064369
 21
147.6808823532
  0
LINE
  5
2A9
100
AcDbEntity
  8
_1
100
AcDbLine
 62
7
  6
BYLAYER
 10
154.7825064369
 20
143.4048394257
 11
134.6706322288
 21
146.4877445665
  0
LINE
  5
2AA
100
AcDbEntity
  8
_1
100
AcDbLine
 62
7
  6
BYLAYER
 10
134.7825064369
 20
153.6285231402
 11
88.2825064369
 21
153.6285231402
  0
LINE
  5
2AB
100
AcDbEntity
  8
_1
100
AcDbLine
 62
7
  6
BYLAYER
 10
163.2825064369
 20
155.1808823532
 11
165.7825064369
 21
155.1808823532
  0
LINE
  5
2AC
100
AcDbEntity
  8
_1
100
AcDbLine
 62
7
  6
BYLAYER
 10
154.7825064369
 20
155.2524384097
 11
163.2825064369
 21
155.2524384097
  0
LINE
  5
2AD
100
AcDbEntity
  8
_1
100
AcDbLine
 62
7
  6
BYLAYER
 10
45.2825064369
 20
156.6808823532
 11
43.6823624685
 21
156.6808823532
  0
LINE
  5
2AE
100
AcDbEntity
  8
_1
100
AcDbLine
 62
7
  6
BYLAYER
 10
154.7825064369
 20
158.6938273355
 11
88.2825064369
 21
158.6939721565
  0
LINE
  5
2AF
100
AcDbEntity
  8
_1
100
AcDbLine
 62
7
  6
BYLAYER
 10
134.7825064369
 20
153.6285231422
 11
154.7825064369
 21
153.6023435363
  0
LINE
  5
2B0
100
AcDbEntity
  8
_1
100
AcDbLine
 62
7
  6
BYLAYER
 10
45.2825064369
 20
158.9456741671
 11
49.2825064369
 21
158.9456741671
  0
LINE
  5
2B1
100
AcDbEntity
  8
_1
100
AcDbLine
 62
7
  6
BYLAYER
 10
49.2825064369
 20
158.9463241472
 11
78.2825050525
 21
158.9463241472
  0
LINE
  5
2B2
100
AcDbEntity
  8
_1
100
AcDbLine
 62
7
  6
BYLAYER
 10
78.2825064369
 20
159.1350683017
 11
49.2825064369
 21
159.1350683017
  0
LINE
  5
2B3
100
AcDbEntity
  8
_1
100
AcDbLine
 62
7
  6
BYLAYER
 10
88.2825064369
 20
160.1808823532
 11
49.2825064369
 21
160.1808823532
  0
LINE
  5
2B4
100
AcDbEntity
  8
_1
100
AcDbLine
 62
7
  6
BYLAYER
 10
43.4784308776
 20
160.1808823532
 11
49.2825064369
 21
160.1808823532
  0
LINE
  5
2B5
100
AcDbEntity
  8
_1
100
AcDbLine
 62
7
  6
BYLAYER
 10
88.2825064369
 20
160.1808823532
 11
163.2825064369
 21
160.1808823532
  0
LINE
  5
2B6
100
AcDbEntity
  8
_1
100
AcDbLine
 62
7
  6
BYLAYER
 10
76.7825064369
 20
160.2808823532
 11
50.7825064369
 21
160.2808823532
  0
LINE
  5
2B7
100
AcDbEntity
  8
_1
100
AcDbLine
 62
7
  6
BYLAYER
 10
50.7825064369
 20
160.2808823532
 11
50.2825064369
 21
160.2808823532
  0
LINE
  5
2B8
100
AcDbEntity
  8
_1
100
AcDbLine
 62
7
  6
BYLAYER
 10
76.7825064369
 20
160.2808823532
 11
77.2825064369
 21
160.2808823532
  0
LINE
  5
2B9
100
AcDbEntity
  8
_1
100
AcDbLine
 62
7
  6
BYLAYER
 10
135.2825064369
 20
160.2808823532
 11
162.7825064369
 21
160.2808823532
  0
LINE
  5
2BA
100
AcDbEntity
  8
_1
100
AcDbLine
 62
7
  6
BYLAYER
 10
50.7825064369
 20
164.8808823532
 11
76.7825064369
 21
164.8808823532
  0
LINE
  5
2BB
100
AcDbEntity
  8
_1
100
AcDbLine
 62
7
  6
BYLAYER
 10
51.0325064369
 20
166.8808823532
 11
56.5325064369
 21
166.8808823532
  0
LINE
  5
2BC
100
AcDbEntity
  8
_1
100
AcDbLine
 62
7
  6
BYLAYER
 10
71.0325064369
 20
166.8808823532
 11
76.5325064369
 21
166.8808823532
  0
LINE
  5
2BD
100
AcDbEntity
  8
_1
100
AcDbLine
 62
7
  6
BYLAYER
 10
51.532653476
 20
167.3808823532
 11
56.0323593979
 21
167.3808823532
  0
LINE
  5
2BE
100
AcDbEntity
  8
_1
100
AcDbLine
 62
7
  6
BYLAYER
 10
71.532653476
 20
167.3808823532
 11
76.0323593979
 21
167.3808823532
  0
LINE
  5
2BF
100
AcDbEntity
  8
_1
100
AcDbLine
 62
7
  6
BYLAYER
 10
77.782491359
 20
168.4808823532
 11
44.7825064369
 21
168.4808823532
  0
LINE
  5
2C0
100
AcDbEntity
  8
_1
100
AcDbLine
 62
7
  6
BYLAYER
 10
134.7825064369
 20
158.693899746
 11
134.7825064369
 21
147.6808823532
  0
LINE
  5
2C1
100
AcDbEntity
  8
_1
100
AcDbLine
 62
7
  6
BYLAYER
 10
134.7825101338
 20
102.6808823532
 11
134.7825064369
 21
93.0376982586
  0
LINE
  5
2C2
100
AcDbEntity
  8
_1
100
AcDbLine
 62
7
  6
BYLAYER
 10
135.2825064369
 20
160.2808823532
 11
135.2825064369
 21
160.1808823532
  0
LINE
  5
2C3
100
AcDbEntity
  8
_1
100
AcDbLine
 62
7
  6
BYLAYER
 10
137.2825064369
 20
160.1808823532
 11
137.2825064369
 21
160.2808823532
  0
LINE
  5
2C4
100
AcDbEntity
  8
_1
100
AcDbLine
 62
7
  6
BYLAYER
 10
23.8325064369
 20
174.1808823532
 11
39.7825064369
 21
174.1808823532
  0
LINE
  5
2C5
100
AcDbEntity
  8
_1
100
AcDbLine
 62
7
  6
BYLAYER
 10
154.7825064369
 20
90.1808823532
 11
154.7825064369
 21
114.7583550704
  0
LINE
  5
2C6
100
AcDbEntity
  8
_1
100
AcDbLine
 62
7
  6
BYLAYER
 10
154.7825064369
 20
135.603409636
 11
154.7825064369
 21
160.1808823532
  0
LINE
  5
2C7
100
AcDbEntity
  8
_1
100
AcDbLine
 62
7
  6
BYLAYER
 10
155.7825064369
 20
160.2808823532
 11
155.7825064369
 21
160.1808823532
  0
LINE
  5
2C8
100
AcDbEntity
  8
_1
100
AcDbLine
 62
7
  6
BYLAYER
 10
23.8325064369
 20
197.1808823532
 11
39.7825064369
 21
197.1808823532
  0
LINE
  5
2C9
100
AcDbEntity
  8
_1
100
AcDbLine
 62
7
  6
BYLAYER
 10
162.7825064369
 20
160.2808823532
 11
162.7825064369
 21
160.1808823532
  0
LINE
  5
2CA
100
AcDbEntity
  8
_1
100
AcDbLine
 62
7
  6
BYLAYER
 10
163.2825064369
 20
160.1808823532
 11
163.2825064369
 21
90.1808823532
  0
LINE
  5
2CB
100
AcDbEntity
  8
_1
100
AcDbLine
 62
7
  6
BYLAYER
 10
62.0622652863
 20
199.6808823532
 11
39.7825064369
 21
197.7316560278
  0
LINE
  5
2CC
100
AcDbEntity
  8
_1
100
AcDbLine
 62
7
  6
BYLAYER
 10
62.0622652863
 20
199.6808823532
 11
77.7825002963
 21
199.6808823532
  0
LINE
  5
2CD
100
AcDbEntity
  8
_1
100
AcDbLine
 62
7
  6
BYLAYER
 10
165.7825064369
 20
155.1804891896
 11
165.7825064369
 21
95.1812755168
  0
LINE
  5
2CE
100
AcDbEntity
  8
_1
100
AcDbLine
 62
7
  6
BYLAYER
 10
186.2825064369
 20
130.6808656232
 11
186.2825064369
 21
119.6808990832
  0
ARC
  5
2CF
100
AcDbEntity
  8
_1
100
AcDbCircle
 62
7
  6
BYLAYER
 10
225.3761794358
 20
2976.4192863323
 40
2884.8044291172
100
AcDbArc
 50
268.2004018703
 51
268.5977824807
  0
ARC
  5
2D0
100
AcDbEntity
  8
_1
100
AcDbCircle
 62
7
  6
BYLAYER
 10
225.1737691541
 20
2913.9343931186
 40
2823.8062143009
100
AcDbArc
 50
268.1633527421
 51
268.571594589
  0
ARC
  5
2D1
100
AcDbEntity
  8
_1
100
AcDbCircle
 62
7
  6
BYLAYER
 10
576.6016472259
 20
118.991715325
 40
533.1977823099
100
AcDbArc
 50
176.894138888
 51
178.2157753006
  0
ARC
  5
2D2
100
AcDbEntity
  8
_1
100
AcDbCircle
 62
7
  6
BYLAYER
 10
321.2825064369
 20
125.1808823532
 40
280.0
100
AcDbArc
 50
172.8192442185
 51
174.4767021889
  0
ARC
  5
2D3
100
AcDbEntity
  8
_1
100
AcDbCircle
 62
7
  6
BYLAYER
 10
321.2825064369
 20
125.1808823532
 40
280.0
100
AcDbArc
 50
176.1090821488
 51
178.6356858834
  0
ARC
  5
2D4
100
AcDbEntity
  8
_1
100
AcDbCircle
 62
7
  6
BYLAYER
 10
321.2825064369
 20
125.1808823532
 40
280.0
100
AcDbArc
 50
181.3643141166
 51
187.1807557815
  0
ARC
  5
2D5
100
AcDbEntity
  8
_1
100
AcDbCircle
 62
7
  6
BYLAYER
 10
321.2825064369
 20
125.1808823532
 40
279.2848008754
100
AcDbArc
 50
179.1451691559
 51
180.8548308441
  0
ARC
  5
2D6
100
AcDbEntity
  8
_1
100
AcDbCircle
 62
7
  6
BYLAYER
 10
321.2825064369
 20
125.1808823532
 40
279.2151455419
100
AcDbArc
 50
172.7989528092
 51
173.5222685841
  0
ARC
  5
2D7
100
AcDbEntity
  8
_1
100
AcDbCircle
 62
7
  6
BYLAYER
 10
321.3069132586
 20
124.985951896
 40
279.0943703525
100
AcDbArc
 50
183.6454192217
 51
186.5738709214
  0
ARC
  5
2D8
100
AcDbEntity
  8
_1
100
AcDbCircle
 62
7
  6
BYLAYER
 10
321.2857655582
 20
124.8758959868
 40
277.8073141953
100
AcDbArc
 50
179.9370987219
 51
182.0850104506
  0
ARC
  5
2D9
100
AcDbEntity
  8
_1
100
AcDbCircle
 62
7
  6
BYLAYER
 10
321.2857655581
 20
125.4858687196
 40
277.8073141953
100
AcDbArc
 50
177.9149895494
 51
180.0629012781
  0
ARC
  5
2DA
100
AcDbEntity
  8
_1
100
AcDbCircle
 62
7
  6
BYLAYER
 10
3.8339532419
 20
120.4420966772
 40
38.1991200584
100
AcDbArc
 50
359.4221751688
 51
0.8581674071
  0
ARC
  5
2DB
100
AcDbEntity
  8
_1
100
AcDbCircle
 62
7
  6
BYLAYER
 10
5.3285430846
 20
129.9159748534
 40
36.7046473035
100
AcDbArc
 50
359.1126542514
 51
0.6103316763
  0
ARC
  5
2DC
100
AcDbEntity
  8
_1
100
AcDbCircle
 62
7
  6
BYLAYER
 10
14.1966549245
 20
120.3583228221
 40
27.8361082294
100
AcDbArc
 50
358.4925063735
 51
359.3794938892
  0
ARC
  5
2DD
100
AcDbEntity
  8
_1
100
AcDbCircle
 62
7
  6
BYLAYER
 10
15.4078080222
 20
130.0259504726
 40
26.6247828713
100
AcDbArc
 50
0.6047277617
 51
1.5354185288
  0
ARC
  5
2DE
100
AcDbEntity
  8
_1
100
AcDbCircle
 62
7
  6
BYLAYER
 10
22.8299487833
 20
120.1363291086
 40
19.1999629793
100
AcDbArc
 50
357.342950941
 51
358.4769733578
  0
ARC
  5
2DF
100
AcDbEntity
  8
_1
100
AcDbCircle
 62
7
  6
BYLAYER
 10
24.3786447186
 20
130.2821240092
 40
17.6503099802
100
AcDbArc
 50
1.4844249633
 51
2.7104205793
  0
ARC
  5
2E0
100
AcDbEntity
  8
_1
100
AcDbCircle
 62
7
  6
BYLAYER
 10
44.7825064369
 20
173.4808823532
 40
5.0
100
AcDbArc
 50
180.0
 51
270.0
  0
ARC
  5
2E1
100
AcDbEntity
  8
_1
100
AcDbCircle
 62
7
  6
BYLAYER
 10
44.0075064369
 20
148.1808823532
 40
3.625
100
AcDbArc
 50
136.3983411037
 51
223.6016588963
  0
ARC
  5
2E2
100
AcDbEntity
  8
_1
100
AcDbCircle
 62
7
  6
BYLAYER
 10
51.5325064369
 20
166.8808823532
 40
0.5
100
AcDbArc
 50
90.0
 51
180.0
  0
ARC
  5
2E3
100
AcDbEntity
  8
_1
100
AcDbCircle
 62
7
  6
BYLAYER
 10
56.0325064369
 20
166.8808823532
 40
0.5
100
AcDbArc
 50
0.0
 51
90.0
  0
ARC
  5
2E4
100
AcDbEntity
  8
_1
100
AcDbCircle
 62
7
  6
BYLAYER
 10
71.5325064369
 20
166.8808823532
 40
0.5
100
AcDbArc
 50
90.0
 51
180.0
  0
ARC
  5
2E5
100
AcDbEntity
  8
_1
100
AcDbCircle
 62
7
  6
BYLAYER
 10
76.0325064369
 20
166.8808823532
 40
0.5
100
AcDbArc
 50
0.0
 51
90.0
  0
SPLINE
  5
2E6
100
AcDbEntity
  8
_1
100
AcDbSpline
 62
7
  6
BYLAYER
 70
0
 71
3
 72
12
 73
8
 74
0
 42
0.0000001
 43
0.0000001
 44
0.0000000001
 40
0.0
 40
0.0
 40
0.0
 40
0.0
 40
0.4180751754
 40
0.7253035912
 40
0.9164864012
 40
0.9695712514
 40
1.0
 40
1.0
 40
1.0
 40
1.0
 10
41.9902322827
 20
118.9362190056
 30
0.0
 10
41.9854576202
 20
118.8755940349
 30
0.0
 10
41.9757864019
 20
118.7703570955
 30
0.0
 10
41.9580024876
 20
118.6386637644
 30
0.0
 10
41.9401360952
 20
118.5593857803
 30
0.0
 10
41.9245381206
 20
118.5231565276
 30
0.0
 10
41.9138745267
 20
118.5142158532
 30
0.0
 10
41.9094483984
 20
118.5142158532
 30
0.0
  0
SPLINE
  5
2E7
100
AcDbEntity
  8
_1
100
AcDbSpline
 62
7
  6
BYLAYER
 70
0
 71
3
 72
9
 73
5
 74
0
 42
0.0000001
 43
0.0000001
 44
0.0000000001
 40
0.0
 40
0.0
 40
0.0
 40
0.0
 40
0.2719868335
 40
1.0
 40
1.0
 40
1.0
 40
1.0
 10
42.0092700159
 20
119.2462642443
 30
0.0
 10
42.0079275133
 20
119.2181333255
 30
0.0
 10
42.0026895798
 20
119.1147213965
 30
0.0
 10
41.9961547365
 20
119.0113682731
 30
0.0
 10
41.9902322827
 20
118.9362190047
 30
0.0
  0
SPLINE
  5
2E8
100
AcDbEntity
  8
_1
100
AcDbSpline
 62
7
  6
BYLAYER
 70
0
 71
3
 72
9
 73
5
 74
0
 42
0.0000001
 43
0.0000001
 44
0.0000000001
 40
0.0
 40
0.0
 40
0.0
 40
0.0
 40
0.227313367
 40
1.0
 40
1.0
 40
1.0
 40
1.0
 10
41.9900458533
 20
131.4279076596
 30
0.0
 10
41.9919084634
 20
131.4043610426
 30
0.0
 10
41.9995617718
 20
131.3007317201
 30
0.0
 10
42.0053719356
 20
131.1969722665
 30
0.0
 10
42.0092091387
 20
131.1167740111
 30
0.0
  0
SPLINE
  5
2E9
100
AcDbEntity
  8
_1
100
AcDbSpline
 62
7
  6
BYLAYER
 70
0
 71
3
 72
9
 73
5
 74
0
 42
0.0000001
 43
0.0000001
 44
0.0000000001
 40
0.0
 40
0.0
 40
0.0
 40
0.0
 40
0.2157697894
 40
1.0
 40
1.0
 40
1.0
 40
1.0
 10
41.9664944825
 20
131.6576142214
 30
0.0
 10
41.968742586
 20
131.6411579304
 30
0.0
 10
41.9783083603
 20
131.5647738035
 30
0.0
 10
41.9852885835
 20
131.4880869792
 30
0.0
 10
41.9900458533
 20
131.4279076596
 30
0.0
  0
SPLINE
  5
2EA
100
AcDbEntity
  8
_1
100
AcDbSpline
 62
7
  6
BYLAYER
 70
0
 71
3
 72
11
 73
7
 74
0
 42
0.0000001
 43
0.0000001
 44
0.0000000001
 40
0.0
 40
0.0
 40
0.0
 40
0.0
 40
0.0953220158
 40
0.2865752023
 40
0.5880020824
 40
1.0
 40
1.0
 40
1.0
 40
1.0
 10
41.9094483984
 20
131.8475488532
 30
0.0
 10
41.9158924992
 20
131.8475488532
 30
0.0
 10
41.9305146763
 20
131.8294053627
 30
0.0
 10
41.9415338572
 20
131.7932596111
 30
0.0
 10
41.9557512272
 20
131.7326410281
 30
0.0
 10
41.9627274237
 20
131.6852107931
 30
0.0
 10
41.9664944825
 20
131.6576142203
 30
0.0
  0
SPLINE
  5
2EB
100
AcDbEntity
  8
_1
100
AcDbSpline
 62
7
  6
BYLAYER
 70
0
 71
3
 72
11
 73
7
 74
0
 42
0.0000001
 43
0.0000001
 44
0.0000000001
 40
0.0
 40
0.0
 40
0.0
 40
0.0
 40
0.3579521114
 40
0.6437493097
 40
0.8574232706
 40
1.0
 40
1.0
 40
1.0
 40
1.0
 10
44.1257582123
 20
91.5788665378
 30
0.0
 10
44.0835944625
 20
91.408286216
 30
0.0
 10
44.0047412538
 20
91.1023033392
 30
0.0
 10
43.8871470695
 20
90.6978260244
 30
0.0
 10
43.7834079227
 20
90.4005302804
 30
0.0
 10
43.7116414422
 20
90.2397368877
 30
0.0
 10
43.6737651507
 20
90.1808823532
 30
0.0
  0
SPLINE
  5
2EC
100
AcDbEntity
  8
_1
100
AcDbSpline
 62
7
  6
BYLAYER
 70
0
 71
3
 72
18
 73
14
 74
0
 42
0.0000001
 43
0.0000001
 44
0.0000000001
 40
0.0
 40
0.0
 40
0.0
 40
0.0
 40
0.3976234051
 40
0.5684192177
 40
0.7145036941
 40
0.7771194605
 40
0.8322640934
 40
0.8796540784
 40
0.9190605141
 40
0.9504090535
 40
0.9630930546
 40
0.9738343645
 40
1.0
 40
1.0
 40
1.0
 40
1.0
 10
43.3791931237
 20
152.0266012781
 30
0.0
 10
43.3381812585
 20
151.4717323555
 30
0.0
 10
43.2910922967
 20
150.677476952
 30
0.0
 10
43.2662612616
 20
149.6779306713
 30
0.0
 10
43.2683074486
 20
149.1467827243
 30
0.0
 10
43.2817810077
 20
148.7778125945
 30
0.0
 10
43.2964392531
 20
148.5471348104
 30
0.0
 10
43.3158418623
 20
148.3494739739
 30
0.0
 10
43.3400951196
 20
148.1856894885
 30
0.0
 10
43.3648902336
 20
148.0718718019
 30
0.0
 10
43.3888183019
 20
147.9981748655
 30
0.0
 10
43.4140816042
 20
147.9363506574
 30
0.0
 10
43.4525396955
 20
147.8808823532
 30
0.0
 10
43.4891524847
 20
147.8808823532
 30
0.0
  0
SPLINE
  5
2ED
100
AcDbEntity
  8
_1
100
AcDbSpline
 62
7
  6
BYLAYER
 70
0
 71
3
 72
13
 73
9
 74
0
 42
0.0000001
 43
0.0000001
 44
0.0000000001
 40
0.0
 40
0.0
 40
0.0
 40
0.0
 40
0.341969297
 40
0.6441965906
 40
0.769328642
 40
0.8720689517
 40
0.9496019684
 40
1.0
 40
1.0
 40
1.0
 40
1.0
 10
44.0475666044
 20
93.0340778452
 30
0.0
 10
44.0666190998
 20
92.8687576902
 30
0.0
 10
44.0987263538
 20
92.5568932934
 30
0.0
 10
44.127173509
 20
92.1834880019
 30
0.0
 10
44.1385893265
 20
91.925790106
 30
0.0
 10
44.1411000462
 20
91.7770848581
 30
0.0
 10
44.1377185207
 20
91.6650037341
 30
0.0
 10
44.1316432613
 20
91.6026754629
 30
0.0
 10
44.1257582123
 20
91.5788665378
 30
0.0
  0
SPLINE
  5
2EE
100
AcDbEntity
  8
_1
100
AcDbSpline
 62
7
  6
BYLAYER
 70
0
 71
3
 72
21
 73
17
 74
0
 42
0.0000001
 43
0.0000001
 44
0.0000000001
 40
0.0
 40
0.0
 40
0.0
 40
0.0
 40
0.0051851889
 40
0.0112177097
 40
0.0187529826
 40
0.028130937
 40
0.0529760608
 40
0.0862732193
 40
0.1280126483
 40
0.1779337392
 40
0.2356639158
 40
0.3006965955
 40
0.4502744258
 40
0.6211099712
 40
0.8067158525
 40
1.0
 40
1.0
 40
1.0
 40
1.0
 10
43.0641419752
 20
114.0322646695
 30
0.0
 10
43.0522459405
 20
114.0322646695
 30
0.0
 10
43.0262925952
 20
114.0256938986
 30
0.0
 10
42.9917908618
 20
113.9987485791
 30
0.0
 10
42.9595764906
 20
113.9567030008
 30
0.0
 10
42.9144003465
 20
113.8719057868
 30
0.0
 10
42.8652630193
 20
113.7241855222
 30
0.0
 10
42.8151403227
 20
113.5005126111
 30
0.0
 10
42.7710204288
 20
113.2170458118
 30
0.0
 10
42.7332747415
 20
112.876338369
 30
0.0
 10
42.7026099808
 20
112.4812868849
 30
0.0
 10
42.6700875093
 20
111.857273148
 30
0.0
 10
42.6520069835
 20
110.9729458016
 30
0.0
 10
42.6618252847
 20
109.8119497872
 30
0.0
 10
42.7025776077
 20
108.5513034341
 30
0.0
 10
42.7490585936
 20
107.6832130726
 30
0.0
 10
42.7772513274
 20
107.2406712009
 30
0.0
  0
SPLINE
  5
2EF
100
AcDbEntity
  8
_1
100
AcDbSpline
 62
7
  6
BYLAYER
 70
0
 71
3
 72
8
 73
4
 74
0
 42
0.0000001
 43
0.0000001
 44
0.0000000001
 40
0.0
 40
0.0
 40
0.0
 40
0.0
 40
1.0
 40
1.0
 40
1.0
 40
1.0
 10
43.6623747518
 20
114.7686363382
 30
0.0
 10
43.6700743745
 20
114.5231739281
 30
0.0
 10
43.6779375258
 20
114.2777165929
 30
0.0
 10
43.6859644953
 20
114.0322646695
 30
0.0
  0
SPLINE
  5
2F0
100
AcDbEntity
  8
_1
100
AcDbSpline
 62
7
  6
BYLAYER
 70
0
 71
3
 72
21
 73
17
 74
0
 42
0.0000001
 43
0.0000001
 44
0.0000000001
 40
0.0
 40
0.0
 40
0.0
 40
0.0
 40
0.204489397
 40
0.3960002478
 40
0.5685008244
 40
0.7171802443
 40
0.781235273
 40
0.8377553088
 40
0.886315515
 40
0.9266084223
 40
0.9583419887
 40
0.9812691681
 40
0.9893752727
 40
0.9952129817
 40
0.9987594632
 40
1.0
 40
1.0
 40
1.0
 40
1.0
 10
134.6706306242
 20
146.4877445665
 30
0.0
 10
134.6769694753
 20
146.5692084849
 30
0.0
 10
134.6894629881
 20
146.7269490635
 30
0.0
 10
134.70805831
 20
146.9533495216
 30
0.0
 10
134.7255296724
 20
147.1574650396
 30
0.0
 10
134.7394415692
 20
147.3107699287
 30
0.0
 10
134.7496503869
 20
147.4178717496
 30
0.0
 10
134.7562427798
 20
147.4851375846
 30
0.0
 10
134.7621438517
 20
147.5429116439
 30
0.0
 10
134.7674303507
 20
147.5908457296
 30
0.0
 10
134.7723120542
 20
147.6283728162
 30
0.0
 10
134.7761903119
 20
147.6533710497
 30
0.0
 10
134.7791558199
 20
147.6675207713
 30
0.0
 10
134.7803748097
 20
147.6748755128
 30
0.0
 10
134.7818965075
 20
147.6780491349
 30
0.0
 10
134.781955498
 20
147.6808823532
 30
0.0
 10
134.7824511934
 20
147.6808823532
 30
0.0
  0
SPLINE
  5
2F1
100
AcDbEntity
  8
_1
100
AcDbSpline
 62
7
  6
BYLAYER
 70
0
 71
3
 72
21
 73
17
 74
0
 42
0.0000001
 43
0.0000001
 44
0.0000000001
 40
0.0
 40
0.0
 40
0.0
 40
0.0
 40
0.0012970677
 40
0.0048581769
 40
0.0106954582
 40
0.0187937908
 40
0.0417011536
 40
0.0734253581
 40
0.1137173744
 40
0.162279048
 40
0.2187988519
 40
0.2828514726
 40
0.4315234508
 40
0.6040166827
 40
0.795519263
 40
1.0
 40
1.0
 40
1.0
 40
1.0
 10
134.7824699391
 20
102.6808823532
 30
0.0
 10
134.7819516336
 20
102.6808823532
 30
0.0
 10
134.7815947735
 20
102.6836212441
 30
0.0
 10
134.7802351589
 20
102.6869259223
 30
0.0
 10
134.7789136589
 20
102.6942208272
 30
0.0
 10
134.7760994858
 20
102.708415581
 30
0.0
 10
134.7723175062
 20
102.7333931403
 30
0.0
 10
134.7675110436
 20
102.7709287629
 30
0.0
 10
134.7621972288
 20
102.8188540972
 30
0.0
 10
134.7562517283
 20
102.8766276212
 30
0.0
 10
134.7496326282
 20
102.9438927061
 30
0.0
 10
134.7394264242
 20
103.0509954044
 30
0.0
 10
134.7255384259
 20
103.204301786
 30
0.0
 10
134.7080575915
 20
103.4084157052
 30
0.0
 10
134.689461596
 20
103.6348157643
 30
0.0
 10
134.6769710745
 20
103.7925563204
 30
0.0
 10
134.6706322309
 20
103.8740201399
 30
0.0
  0
SPLINE
  5
2F2
100
AcDbEntity
  8
_1
100
AcDbSpline
 62
7
  6
BYLAYER
 70
0
 71
3
 72
16
 73
12
 74
0
 42
0.0000001
 43
0.0000001
 44
0.0000000001
 40
0.0
 40
0.0
 40
0.0
 40
0.0
 40
0.1938556299
 40
0.3803570212
 40
0.5518338157
 40
0.7020504709
 40
0.825501945
 40
0.9176065916
 40
0.9754149651
 40
0.991331938
 40
1.0
 40
1.0
 40
1.0
 40
1.0
 10
134.782505555
 20
158.6939721565
 30
0.0
 10
134.7824897746
 20
158.7909479771
 30
0.0
 10
134.7809744639
 20
158.9812257039
 30
0.0
 10
134.7746502074
 20
159.2572072253
 30
0.0
 10
134.764619009
 20
159.5112786268
 30
0.0
 10
134.7513125852
 20
159.7334853526
 30
0.0
 10
134.735179683
 20
159.916057837
 30
0.0
 10
134.7178143619
 20
160.0510888638
 30
0.0
 10
134.7000648248
 20
160.1335485404
 30
0.0
 10
134.6852665035
 20
160.1709597577
 30
0.0
 10
134.6749684064
 20
160.1808823532
 30
0.0
 10
134.6706322288
 20
160.1808823532
 30
0.0
  0
SPLINE
  5
2F3
100
AcDbEntity
  8
_1
100
AcDbSpline
 62
7
  6
BYLAYER
 70
0
 71
3
 72
13
 73
9
 74
0
 42
0.0000001
 43
0.0000001
 44
0.0000000001
 40
0.0
 40
0.0
 40
0.0
 40
0.0
 40
0.0514250599
 40
0.1295347408
 40
0.2324062506
 40
0.3573309082
 40
0.6587099077
 40
1.0
 40
1.0
 40
1.0
 40
1.0
 10
134.6706365837
 20
91.5788665365
 30
0.0
 10
134.6793976208
 20
91.6023458949
 30
0.0
 10
134.6934596217
 20
91.6642153906
 30
0.0
 10
134.7112804124
 20
91.775964694
 30
0.0
 10
134.7280802472
 20
91.9241784389
 30
0.0
 10
134.7506768219
 20
92.1810695968
 30
0.0
 10
134.769090892
 20
92.5547307168
 30
0.0
 10
134.7825142409
 20
92.8677591182
 30
0.0
 10
134.7825140098
 20
93.0340778476
 30
0.0
  0
SPLINE
  5
2F4
100
AcDbEntity
  8
_1
100
AcDbSpline
 62
7
  6
BYLAYER
 70
0
 71
3
 72
11
 73
7
 74
0
 42
0.0000001
 43
0.0000001
 44
0.0000000001
 40
0.0
 40
0.0
 40
0.0
 40
0.0
 40
0.2491306466
 40
0.4984348223
 40
0.7488084748
 40
1.0
 40
1.0
 40
1.0
 40
1.0
 10
88.2825064369
 20
158.693972156
 30
0.0
 10
87.4412597016
 20
158.693972156
 30
0.0
 10
85.7574992739
 20
158.7868770289
 30
0.0
 10
83.251511876
 20
159.1363728156
 30
0.0
 10
80.7626722976
 20
159.6242120041
 30
0.0
 10
79.110123577
 20
159.995132823
 30
0.0
 10
78.2825064369
 20
160.1808823532
 30
0.0
  0
LINE
  5
2F5
100
AcDbEntity
  8
_1
100
AcDbLine
 62
7
  6
BYLAYER
 10
78.2825294661
 20
159.5189772171
 11
78.2825064369
 21
159.1350683017
  0
SPLINE
  5
2F6
100
AcDbEntity
  8
_1
100
AcDbSpline
 62
7
  6
BYLAYER
 70
0
 71
3
 72
22
 73
18
 74
0
 42
0.0000001
 43
0.0000001
 44
0.0000000001
 40
0.0
 40
0.0
 40
0.0
 40
0.0
 40
0.0571594139
 40
0.1118295281
 40
0.1653667308
 40
0.2189488025
 40
0.2735095584
 40
0.3297181773
 40
0.3879962047
 40
0.4485548931
 40
0.5114376051
 40
0.5765586191
 40
0.6437351895
 40
0.712712742
 40
0.7831842951
 40
0.8548054558
 40
1.0
 40
1.0
 40
1.0
 40
1.0
 10
88.2825064369
 20
147.6808823532
 30
0.0
 10
87.9690638784
 20
147.6808823532
 30
0.0
 10
87.3546872752
 20
147.7237653554
 30
0.0
 10
86.466693613
 20
147.9234825516
 30
0.0
 10
85.6372069287
 20
148.2473144318
 30
0.0
 10
84.8631763393
 20
148.6852292153
 30
0.0
 10
84.1403972588
 20
149.2272165894
 30
0.0
 10
83.4642194573
 20
149.8637241784
 30
0.0
 10
82.8298641434
 20
150.5857137472
 30
0.0
 10
82.2326855806
 20
151.3844943056
 30
0.0
 10
81.6682241165
 20
152.2515442837
 30
0.0
 10
81.132183287
 20
153.1783952185
 30
0.0
 10
80.6203820769
 20
154.1565739835
 30
0.0
 10
80.1287157054
 20
155.1775825308
 30
0.0
 10
79.6531192322
 20
156.2328901419
 30
0.0
 10
79.0322601441
 20
157.6808401562
 30
0.0
 10
78.5832519178
 20
158.7817929731
 30
0.0
 10
78.2825064369
 20
159.5190050821
 30
0.0
  0
LINE
  5
2F7
100
AcDbEntity
  8
_1
100
AcDbLine
 62
7
  6
BYLAYER
 10
78.2825064369
 20
159.1350650938
 11
78.2825064369
 21
158.9463241472
  0
LINE
  5
2F8
100
AcDbEntity
  8
_1
100
AcDbLine
 62
7
  6
BYLAYER
 10
78.2825069012
 20
159.5190050819
 11
78.2825064369
 21
159.1350650938
  0
SPLINE
  5
2F9
100
AcDbEntity
  8
_1
100
AcDbSpline
 62
7
  6
BYLAYER
 70
0
 71
3
 72
18
 73
14
 74
0
 42
0.0000001
 43
0.0000001
 44
0.0000000001
 40
0.0
 40
0.0
 40
0.0
 40
0.0
 40
0.0645225268
 40
0.1269066574
 40
0.1878386102
 40
0.2479266491
 40
0.3076855957
 40
0.3675288966
 40
0.4885595056
 40
0.6125037901
 40
0.7395595768
 40
0.86910034
 40
1.0
 40
1.0
 40
1.0
 40
1.0
 10
88.2825064369
 20
153.6285231415
 30
0.0
 10
88.0163688277
 20
153.6285231415
 30
0.0
 10
87.4925381989
 20
153.6527760003
 30
0.0
 10
86.7244575972
 20
153.7627175711
 30
0.0
 10
85.9880190731
 20
153.9405427843
 30
0.0
 10
85.2812438063
 20
154.1812362482
 30
0.0
 10
84.6019246976
 20
154.47978014
 30
0.0
 10
83.7267738784
 20
154.949854497
 30
0.0
 10
82.685941334
 20
155.6618338114
 30
0.0
 10
81.5196281449
 20
156.6621276774
 30
0.0
 10
80.4097574014
 20
157.7735054031
 30
0.0
 10
79.3369808008
 20
158.9587203993
 30
0.0
 10
78.6352213018
 20
159.7720900053
 30
0.0
 10
78.2825064369
 20
160.1808823532
 30
0.0
  0
LINE
  5
2FA
100
AcDbEntity
  8
_1
100
AcDbLine
 62
7
  6
BYLAYER
 10
78.2825064369
 20
160.1613169779
 11
78.2825064369
 21
160.1225238928
  0
SPLINE
  5
2FB
100
AcDbEntity
  8
_1
100
AcDbSpline
 62
7
  6
BYLAYER
 70
0
 71
3
 72
9
 73
5
 74
0
 42
0.0000001
 43
0.0000001
 44
0.0000000001
 40
0.0
 40
0.0
 40
0.0
 40
0.0
 40
0.43794522
 40
1.0
 40
1.0
 40
1.0
 40
1.0
 10
78.2825064369
 20
160.1808823532
 30
0.0
 10
78.2829087495
 20
160.1780295618
 30
0.0
 10
78.2831702417
 20
160.1715085667
 30
0.0
 10
78.2826957121
 20
160.1649823693
 30
0.0
 10
78.2825064369
 20
160.1613169779
 30
0.0
  0
LINE
  5
2FC
100
AcDbEntity
  8
_1
100
AcDbLine
 62
7
  6
BYLAYER
 10
78.2825064369
 20
160.0626876581
 11
78.2825064369
 21
160.1225238928
  0
LINE
  5
2FD
100
AcDbEntity
  8
_1
100
AcDbLine
 62
7
  6
BYLAYER
 10
78.2825064369
 20
159.9907007749
 11
78.2825064369
 21
160.0626876581
  0
LINE
  5
2FE
100
AcDbEntity
  8
_1
100
AcDbLine
 62
7
  6
BYLAYER
 10
78.2825064369
 20
159.805377725
 11
78.2825064369
 21
159.9907007749
  0
SPLINE
  5
2FF
100
AcDbEntity
  8
_1
100
AcDbSpline
 62
7
  6
BYLAYER
 70
0
 71
3
 72
12
 73
8
 74
0
 42
0.0000001
 43
0.0000001
 44
0.0000000001
 40
0.0
 40
0.0
 40
0.0
 40
0.0
 40
0.2378266724
 40
0.4548874116
 40
0.6504907949
 40
0.8324800997
 40
1.0
 40
1.0
 40
1.0
 40
1.0
 10
78.2825064369
 20
158.9462473961
 30
0.0
 10
78.2826131695
 20
158.9617224428
 30
0.0
 10
78.2823525311
 20
158.9913378478
 30
0.0
 10
78.2786012319
 20
159.0335662753
 30
0.0
 10
78.2757627168
 20
159.0719927122
 30
0.0
 10
78.2672405971
 20
159.107363997
 30
0.0
 10
78.2763984938
 20
159.1298149806
 30
0.0
 10
78.2825064369
 20
159.1388435394
 30
0.0
  0
SPLINE
  5
300
100
AcDbEntity
  8
_1
100
AcDbSpline
 62
7
  6
BYLAYER
 70
0
 71
3
 72
21
 73
17
 74
0
 42
0.0000001
 43
0.0000001
 44
0.0000000001
 40
0.0
 40
0.0
 40
0.0
 40
0.0
 40
0.0579573813
 40
0.1134301132
 40
0.167708865
 40
0.2219179382
 40
0.2769559773
 40
0.3334755287
 40
0.3918963014
 40
0.4524376815
 40
0.5151570453
 40
0.5799857421
 40
0.6467594432
 40
0.7152424007
 40
0.8561395116
 40
1.0
 40
1.0
 40
1.0
 40
1.0
 10
88.2825064369
 20
147.6808823532
 30
0.0
 10
87.9740856592
 20
147.6808823532
 30
0.0
 10
87.3694237077
 20
147.721759358
 30
0.0
 10
86.4942513278
 20
147.9116641884
 30
0.0
 10
85.6746576082
 20
148.2195351869
 30
0.0
 10
84.9076914665
 20
148.6359581076
 30
0.0
 10
84.1894049498
 20
149.1515089417
 30
0.0
 10
83.5154525332
 20
149.7571288953
 30
0.0
 10
82.8813454771
 20
150.4441977746
 30
0.0
 10
82.2826891336
 20
151.2044099521
 30
0.0
 10
81.7152415781
 20
152.0296243272
 30
0.0
 10
81.1749097657
 20
152.9117631248
 30
0.0
 10
80.6576871641
 20
153.842741985
 30
0.0
 10
79.9873998199
 20
155.1507671705
 30
0.0
 10
79.1948249025
 20
156.8558622283
 30
0.0
 10
78.5887290191
 20
158.2446854418
 30
0.0
 10
78.2825050434
 20
158.9463273398
 30
0.0
  0
ELLIPSE
  5
301
100
AcDbEntity
  8
_1
100
AcDbEllipse
 62
7
  6
BYLAYER
 10
-337.1250395239
 20
150.7030408332
 30
0.0
 11
400.905684634
 21
35.1175265754
 31
0.0
 40
0.0347875628
 41
-0.0030472239
 42
0.3447204724
  0
ENDSEC
  0
SECTION
  2
OBJECTS
  0
DICTIONARY
  5
C
100
AcDbDictionary
280
0
281
1
  3
ACAD_GROUP
350
D
  3
ACAD_MLINESTYLE
350
17
  3
ACAD_LAYOUT
350
1A
  3
ACAD_PLOTSETTINGS
350
19
  3
ACAD_PLOTSTYLENAME
350
E
  0
DICTIONARY
  5
D
102
{ACAD_REACTORS
330
C
102
}
100
AcDbDictionary
280
0
281
1
  0
ACDBDICTIONARYWDFLT
  5
E
102
{ACAD_REACTORS
330
C
102
}
100
AcDbDictionary
281
1
  3
Normal
350
F
100
AcDbDictionaryWithDefault
340
F
  0
DICTIONARY
  5
17
102
{ACAD_REACTORS
330
C
102
}
100
AcDbDictionary
280
0
281
1
  3
Standard
350
18
  0
DICTIONARY
  5
19
102
{ACAD_REACTORS
330
C
102
}
100
AcDbDictionary
281
1
  0
DICTIONARY
  5
1A
102
{ACAD_REACTORS
330
C
102
}
100
AcDbDictionary
281
1
  3
Model
350
302
  3
Layout1
350
303
  0
ACDBPLACEHOLDER
  5
F
102
{ACAD_REACTORS
330
E
102
}
  0
MLINESTYLE
  5
18
102
{ACAD_REACTORS
330
17
102
}
100
AcDbMlineStyle
  2
STANDARD
 70
0
  3

 62
256
 51
90.0
 52
90.0
 71
2
 49
0.5
 62
256
  6
BYLAYER
 49
-0.5
 62
256
  6
BYLAYER
  0
LAYOUT
  5
302
102
{ACAD_REACTORS
330
1A
102
}
100
AcDbPlotSettings
  1

  2
none_device
  4

  6

 40
0.0
 41
0.0
 42
0.0
 43
0.0
 44
210.0
 45
297.0
 46
0.0
 47
0.0
 48
0.0
 49
0.0
140
0.0
141
0.0
142
1.0
143
1.0
 70
1024
 72
1
 73
0
 74
0
  7

 75
0
147
1.0
148
0.0
149
0.0
100
AcDbLayout
  1
Model
 70
0
 71
0
 10
0.0
 20
0.0
 11
210.0
 21
297.0
 12
0.0
 22
0.0
 32
0.0
 14
0.0
 24
0.0
 34
0.0
 15
0.0
 25
0.0
 35
0.0
146
0.0
 13
0.0
 23
0.0
 33
0.0
 16
1.0
 26
0.0
 36
0.0
 17
0.0
 27
1.0
 37
0.0
 76
0
330
211
345
0
346
0
  0
LAYOUT
  5
303
102
{ACAD_REACTORS
330
1A
102
}
100
AcDbPlotSettings
  1

  2
none_device
  4

  6

 40
0.0
 41
0.0
 42
0.0
 43
0.0
 44
210.0
 45
297.0
 46
0.0
 47
0.0
 48
0.0
 49
0.0
140
0.0
141
0.0
142
1.0
143
1.0
 70
0
 72
1
 73
0
 74
0
  7

 75
0
147
1.0
148
0.0
149
0.0
100
AcDbLayout
  1
Layout1
 70
0
 71
1
 10
0.0
 20
0.0
 11
210.0
 21
297.0
 12
0.0
 22
0.0
 32
0.0
 14
0.0
 24
0.0
 34
0.0
 15
0.0
 25
0.0
 35
0.0
146
0.0
 13
0.0
 23
0.0
 33
0.0
 16
1.0
 26
0.0
 36
0.0
 17
0.0
 27
1.0
 37
0.0
 76
0
330
212
345
0
346
0
  0
ENDSEC
  0
EOF
