999
DXF file: C:\Users\sesa63760\Dev\_Creo\CAD\MCADPP0000759_3D-CAD\drw0001_2.dxf
999
Pro/ENGINEER 2019471 by Parametric Technology Corporation
  0
SECTION
  2
HEADER
  9
$ACADVER
  1
AC1024
  9
$DWGCODEPAGE
  3
ANSI_1252
  9
$EXTMAX
 10
235.8532162584
 20
333.5638344226
 30
0.0
  9
$EXTMIN
 10
0.0
 20
0.0
 30
0.0
  9
$LIMMIN
 10
0.0
 20
0.0
  9
$LIMMAX
 10
235.8532162584
 20
333.5638344226
  9
$VIEWCTR
 10
117.9266081292
 20
166.7819172113
  9
$VIEWSIZE
 40
333.5638344226
  9
$CLAYER
  8
0
  9
$LTSCALE
 40
21.7434203179
  9
$CELTYPE
  6
BYLAYER
  9
$DIMSCALE
 40
1.0
  9
$DIMASZ
 40
2.807776384
  9
$DIMEXO
 40
1.0
  9
$DIMDLI
 40
15.0227267651
  9
$DIMEXE
 40
1.0
  9
$DIMCEN
 40
3.5580142338
  9
$DIMLFAC
 40
1.0
  9
$DIMBLK
  1
_FILLED
  9
$DIMALT
 70
0
  9
$DIMALTF
 40
0.0393700787
  9
$DIMTXT
 40
3.9308869376
  9
$DIMTOL
 70
1
  9
$DIMLIM
 70
0
  9
$DIMTFAC
 40
1.0
  9
$DIMTP
 40
0.01
  9
$DIMTM
 40
0.01
  9
$DIMGAP
 40
0.625
  9
$DIMDSEP
 70
46
  9
$AUNITS
 70
0
  9
$PDMODE
 70
3
  9
$PDSIZE
 40
0.3125
  9
$HANDSEED
  5
3A3
  9
$TILEMODE
 70
1
  9
$MEASUREMENT
 70
1
  9
$INSUNITS
 70
4
  0
ENDSEC
  0
SECTION
  2
CLASSES
  0
CLASS
  1
ACDBDICTIONARYWDFLT
  2
AcDbDictionaryWithDefault
  3
AutoCAD 2000
 90
0
 91
1
280
0
281
0
  0
CLASS
  1
ACDBPLACEHOLDER
  2
AcDbPlaceHolder
  3
AutoCAD 2000
 90
0
 91
1
280
0
281
0
  0
CLASS
  1
LAYOUT
  2
AcDbLayout
  3
AutoCAD 2000
 90
0
 91
0
280
0
281
0
  0
ENDSEC
  0
SECTION
  2
TABLES
  0
TABLE
  2
VPORT
  5
8
100
AcDbSymbolTable
 70
2
  0
VPORT
  5
1F4
100
AcDbSymbolTableRecord
100
AcDbViewportTableRecord
  2
*ACTIVE
 70
0
 10
0.0
 20
0.0
 11
1.0
 21
1.0
 12
117.9266081292
 22
166.7819172113
 13
0.0
 23
0.0
 14
1.0
 24
1.0
 15
0.0
 25
0.0
 16
0.0
 26
0.0
 36
1.0
 17
0.0
 27
0.0
 37
0.0
 40
333.5638344226
 41
0.7070707071
 42
50.0
 43
0.0
 44
0.0
 50
0.0
 51
0.0
 71
0
 72
100
 73
1
 74
1
 75
0
 76
0
 77
0
 78
0
  0
ENDTAB
  0
TABLE
  2
LTYPE
  5
5
100
AcDbSymbolTable
 70
6
  0
LTYPE
  5
14
100
AcDbSymbolTableRecord
100
AcDbLinetypeTableRecord
  2
BYBLOCK
 70
0
  3

 72
65
 73
0
 40
0.0
  0
LTYPE
  5
15
100
AcDbSymbolTableRecord
100
AcDbLinetypeTableRecord
  2
BYLAYER
 70
0
  3

 72
65
 73
0
 40
0.0
  0
LTYPE
  5
16
100
AcDbSymbolTableRecord
100
AcDbLinetypeTableRecord
  2
CONTINUOUS
 70
64
  3
Solid line
 72
65
 73
0
 40
0.0
  0
LTYPE
  5
1F5
100
AcDbSymbolTableRecord
100
AcDbLinetypeTableRecord
  2
CENTER
 70
64
  3
____ _ ____ _ ____ _ ____ _ ____ _ ____ _ ____
 72
65
 73
4
 40
0.6
 49
0.375
 74
0
 49
-0.075
 74
0
 49
0.075
 74
0
 49
-0.075
 74
0
  0
LTYPE
  5
1F6
100
AcDbSymbolTableRecord
100
AcDbLinetypeTableRecord
  2
HIDDEN
 70
64
  3
- - - - - - - - - - - - - - - - - - - -
 72
65
 73
2
 40
0.2
 49
0.1
 74
0
 49
-0.1
 74
0
  0
LTYPE
  5
1F7
100
AcDbSymbolTableRecord
100
AcDbLinetypeTableRecord
  2
PHANTOM
 70
64
  3
_____ _ _ _____ _ _ _____ _ _ _____
 72
65
 73
6
 40
0.8
 49
0.45
 74
0
 49
-0.05
 74
0
 49
0.1
 74
0
 49
-0.05
 74
0
 49
0.1
 74
0
 49
-0.05
 74
0
  0
LTYPE
  5
1F8
100
AcDbSymbolTableRecord
100
AcDbLinetypeTableRecord
  2
DOT
 70
64
  3
. . . . . . . . . . . . . . . . . . . .
 72
65
 73
2
 40
0.2
 49
0.1
 74
0
 49
-0.1
 74
0
  0
LTYPE
  5
1F9
100
AcDbSymbolTableRecord
100
AcDbLinetypeTableRecord
  2
DASHED
 70
64
  3
- - - - - - - - - - - - - - - - - - - -
 72
65
 73
2
 40
0.2
 49
0.1
 74
0
 49
-0.1
 74
0
  0
ENDTAB
  0
TABLE
  2
LAYER
  5
2
100
AcDbSymbolTable
 70
36
  0
LAYER
  5
10
100
AcDbSymbolTableRecord
100
AcDbLayerTableRecord
  2
0
 70
0
 62
7
  6
CONTINUOUS
370
-3
390
F
  0
LAYER
  5
1FA
100
AcDbSymbolTableRecord
100
AcDbLayerTableRecord
  2
DEFAULT_1
 70
0
 62
7
  6
CENTER
370
-3
390
F
  0
LAYER
  5
1FB
100
AcDbSymbolTableRecord
100
AcDbLayerTableRecord
  2
DEFAULT_2
 70
0
 62
8
  6
HIDDEN
370
-3
390
F
  0
LAYER
  5
1FC
100
AcDbSymbolTableRecord
100
AcDbLayerTableRecord
  2
DEFAULT_3
 70
0
 62
7
  6
PHANTOM
370
-3
390
F
  0
LAYER
  5
1FD
100
AcDbSymbolTableRecord
100
AcDbLayerTableRecord
  2
00_COMPONENTS
 70
0
 62
7
  6
CONTINUOUS
370
-3
390
F
  0
LAYER
  5
1FE
100
AcDbSymbolTableRecord
100
AcDbLayerTableRecord
  2
01_1_DEFAULT_DATUMS
 70
0
 62
7
  6
CONTINUOUS
370
-3
390
F
  0
LAYER
  5
1FF
100
AcDbSymbolTableRecord
100
AcDbLayerTableRecord
  2
01_PLANES
 70
0
 62
7
  6
CONTINUOUS
370
-3
390
F
  0
LAYER
  5
200
100
AcDbSymbolTableRecord
100
AcDbLayerTableRecord
  2
02_COORD_SYS
 70
0
 62
7
  6
CONTINUOUS
370
-3
390
F
  0
LAYER
  5
201
100
AcDbSymbolTableRecord
100
AcDbLayerTableRecord
  2
03_AXES
 70
0
 62
7
  6
CONTINUOUS
370
-3
390
F
  0
LAYER
  5
202
100
AcDbSymbolTableRecord
100
AcDbLayerTableRecord
  2
04_POINTS
 70
0
 62
7
  6
CONTINUOUS
370
-3
390
F
  0
LAYER
  5
203
100
AcDbSymbolTableRecord
100
AcDbLayerTableRecord
  2
05_CURVES
 70
0
 62
7
  6
CONTINUOUS
370
-3
390
F
  0
LAYER
  5
204
100
AcDbSymbolTableRecord
100
AcDbLayerTableRecord
  2
06_SURFS
 70
0
 62
7
  6
CONTINUOUS
370
-3
390
F
  0
LAYER
  5
205
100
AcDbSymbolTableRecord
100
AcDbLayerTableRecord
  2
07_COSMETICS
 70
0
 62
7
  6
CONTINUOUS
370
-3
390
F
  0
LAYER
  5
206
100
AcDbSymbolTableRecord
100
AcDbLayerTableRecord
  2
10_NOTES
 70
0
 62
7
  6
CONTINUOUS
370
-3
390
F
  0
LAYER
  5
207
100
AcDbSymbolTableRecord
100
AcDbLayerTableRecord
  2
11_NOTES_PUB
 70
0
 62
7
  6
CONTINUOUS
370
-3
390
F
  0
LAYER
  5
208
100
AcDbSymbolTableRecord
100
AcDbLayerTableRecord
  2
13_REF_GTOL
 70
0
 62
7
  6
CONTINUOUS
370
-3
390
F
  0
LAYER
  5
209
100
AcDbSymbolTableRecord
100
AcDbLayerTableRecord
  2
16_MISC
 70
0
 62
7
  6
CONTINUOUS
370
-3
390
F
  0
LAYER
  5
20A
100
AcDbSymbolTableRecord
100
AcDbLayerTableRecord
  2
17_NO_PRINT
 70
0
 62
7
  6
CONTINUOUS
370
-3
390
F
  0
LAYER
  5
20B
100
AcDbSymbolTableRecord
100
AcDbLayerTableRecord
  2
18_DATUM_CAMS_JOINTS
 70
0
 62
7
  6
CONTINUOUS
370
-3
390
F
  0
LAYER
  5
20C
100
AcDbSymbolTableRecord
100
AcDbLayerTableRecord
  2
19_DATUM_FUNCTIONAL
 70
0
 62
7
  6
CONTINUOUS
370
-3
390
F
  0
LAYER
  5
20D
100
AcDbSymbolTableRecord
100
AcDbLayerTableRecord
  2
20_DATUM_KINEMATIC_SCHEME
 70
0
 62
7
  6
CONTINUOUS
370
-3
390
F
  0
ENDTAB
  0
TABLE
  2
STYLE
  5
3
100
AcDbSymbolTable
 70
1
  0
STYLE
  5
11
100
AcDbSymbolTableRecord
100
AcDbTextStyleTableRecord
  2
STANDARD
 70
0
 40
0.0
 41
0.8
 50
0.0
 71
0
 42
0.2
  3
txt
  4

  0
STYLE
  5
20E
100
AcDbSymbolTableRecord
100
AcDbTextStyleTableRecord
  2
TEXTSTYLE_1
 70
0
 40
0.0
 41
0.8
 50
0.0
 71
0
 42
0.2
  3
gdt
  4

  0
ENDTAB
  0
TABLE
  2
VIEW
  5
6
100
AcDbSymbolTable
 70
0
  0
ENDTAB
  0
TABLE
  2
UCS
  5
7
100
AcDbSymbolTable
 70
0
  0
ENDTAB
  0
TABLE
  2
APPID
  5
9
100
AcDbSymbolTable
 70
1
  0
APPID
  5
20F
100
AcDbSymbolTableRecord
100
AcDbRegAppTableRecord
  2
ACAD
 70
0
  0
ENDTAB
  0
TABLE
  2
BLOCK_RECORD
  5
1
100
AcDbSymbolTable
 70
0
  0
BLOCK_RECORD
  5
210
100
AcDbSymbolTableRecord
100
AcDbBlockTableRecord
  2
*Model_Space
  0
BLOCK_RECORD
  5
211
100
AcDbSymbolTableRecord
100
AcDbBlockTableRecord
  2
*Paper_Space
  0
BLOCK_RECORD
  5
212
100
AcDbSymbolTableRecord
100
AcDbBlockTableRecord
  2
_FILLED
  0
ENDTAB
  0
TABLE
  2
DIMSTYLE
  5
A
100
AcDbSymbolTable
 70
1
100
AcDbDimStyleTable
 71
0
  0
DIMSTYLE
105
213
100
AcDbSymbolTableRecord
100
AcDbDimStyleTableRecord
  2
STANDARD
 70
0
  3

  4

 40
1.0
 41
2.807776384
 42
1.0
 43
0.38
 44
1.0
 45
0.0
 46
0.0
 47
0.01
 48
0.01
140
3.9308869376
141
0.09
142
0.0
143
25.4
144
1.0
145
0.0
146
1.0
147
0.625
 71
1
 72
0
 73
0
 74
0
 75
0
 76
0
 77
1
 78
8
 79
2
170
0
171
1
172
0
173
0
174
0
175
0
176
0
177
0
178
0
270
2
179
2
271
2
272
2
273
2
274
2
275
0
280
0
281
0
282
0
283
1
284
8
285
0
286
0
287
3
288
0
340
11
278
46
341
212
342
212
343
212
344
212
  0
ENDTAB
  0
ENDSEC
  0
SECTION
  2
BLOCKS
  0
BLOCK
  5
20
100
AcDbEntity
  8
0
100
AcDbBlockBegin
  2
*Model_Space
 70
0
 10
0.0
 20
0.0
 30
0.0
  3
*Model_Space
  1

  0
ENDBLK
  5
21
100
AcDbEntity
  8
0
100
AcDbBlockEnd
  0
BLOCK
  5
1C
100
AcDbEntity
  8
0
100
AcDbBlockBegin
  2
*Paper_Space
 70
0
 10
0.0
 20
0.0
 30
0.0
  3
*Paper_Space
  1

  0
ENDBLK
  5
1D
100
AcDbEntity
  8
0
100
AcDbBlockEnd
  0
BLOCK
  5
214
100
AcDbEntity
  8
0
100
AcDbBlockBegin
  2
_FILLED
 70
64
 10
0.0
 20
0.0
  3
_FILLED
  1

  0
SOLID
  5
215
100
AcDbEntity
  8
0
  6
BYBLOCK
 62
0
100
AcDbTrace
 10
0.0
 20
0.0
 11
-1.0
 21
0.25
 12
-1.0
 22
-0.25
 13
-1.0
 23
-0.25
  0
ENDBLK
  5
216
100
AcDbEntity
  8
0
  6
BYBLOCK
 62
0
100
AcDbBlockEnd
  0
ENDSEC
  0
SECTION
  2
ENTITIES
  0
LINE
  5
217
100
AcDbEntity
  8
0
100
AcDbLine
 62
7
  6
CONTINUOUS
 10
25.8597235976
 20
181.4350780913
 11
25.8597235976
 21
171.2750780914
  0
LINE
  5
218
100
AcDbEntity
  8
0
100
AcDbLine
 62
7
  6
CONTINUOUS
 10
25.8597235976
 20
171.1850780913
 11
25.8597235976
 21
161.0250780913
  0
LINE
  5
219
100
AcDbEntity
  8
0
100
AcDbLine
 62
7
  6
CONTINUOUS
 10
25.8597235976
 20
160.9350780913
 11
25.8597235976
 21
150.7750780913
  0
LINE
  5
21A
100
AcDbEntity
  8
0
100
AcDbLine
 62
7
  6
CONTINUOUS
 10
26.0600205732
 20
150.7750780913
 11
26.0598944077
 21
160.9350780913
  0
LINE
  5
21B
100
AcDbEntity
  8
0
100
AcDbLine
 62
7
  6
CONTINUOUS
 10
26.0600205732
 20
161.0250780913
 11
26.0598944077
 21
171.1850780913
  0
LINE
  5
21C
100
AcDbEntity
  8
0
100
AcDbLine
 62
7
  6
CONTINUOUS
 10
26.0600205732
 20
171.2750780913
 11
26.0598944077
 21
181.4350780913
  0
LINE
  5
21D
100
AcDbEntity
  8
0
100
AcDbLine
 62
7
  6
CONTINUOUS
 10
26.1597225891
 20
150.7750780913
 11
26.1597225765
 21
160.9350780913
  0
LINE
  5
21E
100
AcDbEntity
  8
0
100
AcDbLine
 62
7
  6
CONTINUOUS
 10
26.1597225891
 20
161.0250780913
 11
26.1597225765
 21
171.1850780913
  0
LINE
  5
21F
100
AcDbEntity
  8
0
100
AcDbLine
 62
7
  6
CONTINUOUS
 10
26.1597225891
 20
171.2750780913
 11
26.1597225765
 21
181.4350780914
  0
LINE
  5
220
100
AcDbEntity
  8
0
100
AcDbLine
 62
7
  6
CONTINUOUS
 10
26.6397235976
 20
150.7750780913
 11
26.6397235976
 21
160.9350780913
  0
LINE
  5
221
100
AcDbEntity
  8
0
100
AcDbLine
 62
7
  6
CONTINUOUS
 10
26.6397235976
 20
161.0250780914
 11
26.6397235976
 21
171.1850780913
  0
LINE
  5
222
100
AcDbEntity
  8
0
100
AcDbLine
 62
7
  6
CONTINUOUS
 10
26.6397235976
 20
171.2750780914
 11
26.6397235976
 21
181.4350780914
  0
LINE
  5
223
100
AcDbEntity
  8
0
100
AcDbLine
 62
7
  6
CONTINUOUS
 10
26.6641193591
 20
181.4350780914
 11
26.6641165205
 21
171.2750780914
  0
LINE
  5
224
100
AcDbEntity
  8
0
100
AcDbLine
 62
7
  6
CONTINUOUS
 10
26.6641193591
 20
171.1850780913
 11
26.6641165205
 21
161.0250780914
  0
LINE
  5
225
100
AcDbEntity
  8
0
100
AcDbLine
 62
7
  6
CONTINUOUS
 10
26.6641193591
 20
160.9350780913
 11
26.6641165205
 21
150.7750780913
  0
LINE
  5
226
100
AcDbEntity
  8
0
100
AcDbLine
 62
7
  6
CONTINUOUS
 10
26.8641672442
 20
150.7750780913
 11
26.8640642731
 21
160.9350780913
  0
LINE
  5
227
100
AcDbEntity
  8
0
100
AcDbLine
 62
7
  6
CONTINUOUS
 10
26.8641672442
 20
161.0250780914
 11
26.8640642731
 21
171.1850780913
  0
LINE
  5
228
100
AcDbEntity
  8
0
100
AcDbLine
 62
7
  6
CONTINUOUS
 10
26.8641672442
 20
171.2750780914
 11
26.8640642731
 21
181.4350780914
  0
LINE
  5
229
100
AcDbEntity
  8
0
100
AcDbLine
 62
7
  6
CONTINUOUS
 10
34.2897720945
 20
160.9350780913
 11
34.2897856408
 21
150.7750780913
  0
LINE
  5
22A
100
AcDbEntity
  8
0
100
AcDbLine
 62
7
  6
CONTINUOUS
 10
34.2897720945
 20
171.1850780913
 11
34.2897856408
 21
161.0250780913
  0
LINE
  5
22B
100
AcDbEntity
  8
0
100
AcDbLine
 62
7
  6
CONTINUOUS
 10
34.2897720945
 20
181.4350780914
 11
34.2897856408
 21
171.2750780914
  0
LINE
  5
22C
100
AcDbEntity
  8
0
100
AcDbLine
 62
7
  6
CONTINUOUS
 10
34.8897226972
 20
150.7750780913
 11
34.8897226972
 21
160.9350780913
  0
LINE
  5
22D
100
AcDbEntity
  8
0
100
AcDbLine
 62
7
  6
CONTINUOUS
 10
34.8897226972
 20
161.0250780913
 11
34.8897226972
 21
171.1850780913
  0
LINE
  5
22E
100
AcDbEntity
  8
0
100
AcDbLine
 62
7
  6
CONTINUOUS
 10
34.8897226972
 20
171.2750780913
 11
34.8897226972
 21
181.4350780914
  0
LINE
  5
22F
100
AcDbEntity
  8
0
100
AcDbLine
 62
7
  6
CONTINUOUS
 10
35.2597098408
 20
181.4350780913
 11
35.2597094843
 21
171.2750780913
  0
LINE
  5
230
100
AcDbEntity
  8
0
100
AcDbLine
 62
7
  6
CONTINUOUS
 10
35.2597098408
 20
171.1850780913
 11
35.2597094843
 21
161.0250780913
  0
LINE
  5
231
100
AcDbEntity
  8
0
100
AcDbLine
 62
7
  6
CONTINUOUS
 10
35.2597098408
 20
160.9350780913
 11
35.2597094843
 21
150.7750780913
  0
LINE
  5
232
100
AcDbEntity
  8
0
100
AcDbLine
 62
7
  6
CONTINUOUS
 10
35.7597230046
 20
150.7750780913
 11
35.759721191
 21
155.8550780913
  0
LINE
  5
233
100
AcDbEntity
  8
0
100
AcDbLine
 62
7
  6
CONTINUOUS
 10
35.7597197184
 20
177.9550780913
 11
35.7597229344
 21
181.4350780913
  0
LINE
  5
234
100
AcDbEntity
  8
0
100
AcDbLine
 62
7
  6
CONTINUOUS
 10
35.7597229344
 20
171.1850780913
 11
35.7597230046
 21
161.0250780913
  0
LINE
  5
235
100
AcDbEntity
  8
0
100
AcDbLine
 62
7
  6
CONTINUOUS
 10
35.7597197184
 20
157.4550780913
 11
35.7597229344
 21
160.9350780913
  0
LINE
  5
236
100
AcDbEntity
  8
0
100
AcDbLine
 62
7
  6
CONTINUOUS
 10
35.7597230046
 20
171.2750780913
 11
35.759721191
 21
176.3550780913
  0
LINE
  5
237
100
AcDbEntity
  8
0
100
AcDbLine
 62
7
  6
CONTINUOUS
 10
36.7397235976
 20
149.3750780918
 11
36.7397235976
 21
152.3150780918
  0
LINE
  5
238
100
AcDbEntity
  8
0
100
AcDbLine
 62
7
  6
CONTINUOUS
 10
36.7397235976
 20
154.3150780918
 11
36.7397235976
 21
155.8550780913
  0
LINE
  5
239
100
AcDbEntity
  8
0
100
AcDbLine
 62
7
  6
CONTINUOUS
 10
36.7397235976
 20
159.3950780918
 11
36.7397235976
 21
162.5650780918
  0
LINE
  5
23A
100
AcDbEntity
  8
0
100
AcDbLine
 62
7
  6
CONTINUOUS
 10
36.7397235976
 20
164.5650780918
 11
36.7397235976
 21
167.6450780918
  0
LINE
  5
23B
100
AcDbEntity
  8
0
100
AcDbLine
 62
7
  6
CONTINUOUS
 10
36.7397235976
 20
169.6450780918
 11
36.7397235976
 21
172.8150780918
  0
LINE
  5
23C
100
AcDbEntity
  8
0
100
AcDbLine
 62
7
  6
CONTINUOUS
 10
36.7397235976
 20
174.8150780918
 11
36.7397235976
 21
176.3550780913
  0
LINE
  5
23D
100
AcDbEntity
  8
0
100
AcDbLine
 62
7
  6
CONTINUOUS
 10
36.7397235976
 20
179.8950780918
 11
36.7397235976
 21
182.8350780918
  0
LINE
  5
23E
100
AcDbEntity
  8
0
100
AcDbLine
 62
7
  6
CONTINUOUS
 10
38.0397235976
 20
179.8950780918
 11
38.0397235976
 21
177.9550780913
  0
LINE
  5
23F
100
AcDbEntity
  8
0
100
AcDbLine
 62
7
  6
CONTINUOUS
 10
38.0397235976
 20
174.8150780918
 11
38.0397235976
 21
172.8150780918
  0
LINE
  5
240
100
AcDbEntity
  8
0
100
AcDbLine
 62
7
  6
CONTINUOUS
 10
38.0397235976
 20
169.6450780918
 11
38.0397235976
 21
167.6450780918
  0
LINE
  5
241
100
AcDbEntity
  8
0
100
AcDbLine
 62
7
  6
CONTINUOUS
 10
38.0397235976
 20
164.5650780918
 11
38.0397235976
 21
162.5650780918
  0
LINE
  5
242
100
AcDbEntity
  8
0
100
AcDbLine
 62
7
  6
CONTINUOUS
 10
38.0397235976
 20
159.3950780918
 11
38.0397235976
 21
157.4550780913
  0
LINE
  5
243
100
AcDbEntity
  8
0
100
AcDbLine
 62
7
  6
CONTINUOUS
 10
38.0397235976
 20
154.3150780918
 11
38.0397235976
 21
152.3150780918
  0
LINE
  5
244
100
AcDbEntity
  8
0
100
AcDbLine
 62
7
  6
CONTINUOUS
 10
38.1137235976
 20
149.3750780918
 11
38.1137235976
 21
155.8550780913
  0
LINE
  5
245
100
AcDbEntity
  8
0
100
AcDbLine
 62
7
  6
CONTINUOUS
 10
38.1137235976
 20
157.4550780913
 11
38.1137235976
 21
176.3550780913
  0
LINE
  5
246
100
AcDbEntity
  8
0
100
AcDbLine
 62
7
  6
CONTINUOUS
 10
38.1137235976
 20
177.9550780913
 11
38.1137235976
 21
182.8350780918
  0
LINE
  5
247
100
AcDbEntity
  8
0
100
AcDbLine
 62
7
  6
CONTINUOUS
 10
38.9289720289
 20
166.1050780913
 11
38.9289720289
 21
167.7050780913
  0
LINE
  5
248
100
AcDbEntity
  8
0
100
AcDbLine
 62
7
  6
CONTINUOUS
 10
39.1585643482
 20
177.9550780913
 11
39.1585643482
 21
176.3550780913
  0
LINE
  5
249
100
AcDbEntity
  8
0
100
AcDbLine
 62
7
  6
CONTINUOUS
 10
39.1585643482
 20
157.4550780913
 11
39.1585643482
 21
155.8550780913
  0
LINE
  5
24A
100
AcDbEntity
  8
0
100
AcDbLine
 62
7
  6
CONTINUOUS
 10
39.7397235976
 20
149.3750780918
 11
39.7397235976
 21
155.8550780913
  0
LINE
  5
24B
100
AcDbEntity
  8
0
100
AcDbLine
 62
7
  6
CONTINUOUS
 10
39.7397235976
 20
157.4550780913
 11
39.7397235976
 21
176.3550780913
  0
LINE
  5
24C
100
AcDbEntity
  8
0
100
AcDbLine
 62
7
  6
CONTINUOUS
 10
39.7397235976
 20
177.9550780913
 11
39.7397235976
 21
182.8350780918
  0
LINE
  5
24D
100
AcDbEntity
  8
0
100
AcDbLine
 62
7
  6
CONTINUOUS
 10
39.8911789819
 20
166.1050780913
 11
39.8911789819
 21
167.7050780913
  0
LINE
  5
24E
100
AcDbEntity
  8
0
100
AcDbLine
 62
7
  6
CONTINUOUS
 10
40.1353573457
 20
155.8550780913
 11
40.135357345
 21
157.4550780913
  0
LINE
  5
24F
100
AcDbEntity
  8
0
100
AcDbLine
 62
7
  6
CONTINUOUS
 10
40.1353573457
 20
176.3550780914
 11
40.135357345
 21
177.9550780914
  0
LINE
  5
250
100
AcDbEntity
  8
0
100
AcDbLine
 62
7
  6
CONTINUOUS
 10
40.1998556961
 20
155.8550780913
 11
40.1998556961
 21
157.4550780913
  0
LINE
  5
251
100
AcDbEntity
  8
0
100
AcDbLine
 62
7
  6
CONTINUOUS
 10
40.1998556961
 20
176.3550780913
 11
40.1998556961
 21
177.9550780913
  0
LINE
  5
252
100
AcDbEntity
  8
0
100
AcDbLine
 62
7
  6
CONTINUOUS
 10
41.8597235976
 20
149.6694989106
 11
41.8597235976
 21
182.6694989106
  0
LINE
  5
253
100
AcDbEntity
  8
0
100
AcDbLine
 62
7
  6
CONTINUOUS
 10
44.3597235976
 20
185.1694989106
 11
44.3597235976
 21
147.1694989106
  0
LINE
  5
254
100
AcDbEntity
  8
0
100
AcDbLine
 62
7
  6
CONTINUOUS
 10
29.7278550071
 20
154.3819721996
 11
32.3566070295
 21
151.7532201772
  0
LINE
  5
255
100
AcDbEntity
  8
0
100
AcDbLine
 62
7
  6
CONTINUOUS
 10
32.8515816191
 20
152.2481948167
 11
30.2228296466
 21
154.8769467892
  0
LINE
  5
256
100
AcDbEntity
  8
0
100
AcDbLine
 62
7
  6
CONTINUOUS
 10
54.1668181725
 20
147.1694989106
 11
54.1668181725
 21
185.1694989106
  0
LINE
  5
257
100
AcDbEntity
  8
0
100
AcDbLine
 62
7
  6
CONTINUOUS
 10
29.7278550073
 20
159.4619721998
 11
32.3566070321
 21
156.8332201791
  0
LINE
  5
258
100
AcDbEntity
  8
0
100
AcDbLine
 62
7
  6
CONTINUOUS
 10
32.8515816188
 20
157.3281948162
 11
30.2228296466
 21
159.9569467892
  0
LINE
  5
259
100
AcDbEntity
  8
0
100
AcDbLine
 62
7
  6
CONTINUOUS
 10
29.7278550071
 20
164.6319721996
 11
32.3566070295
 21
162.0032201772
  0
LINE
  5
25A
100
AcDbEntity
  8
0
100
AcDbLine
 62
7
  6
CONTINUOUS
 10
32.8515816191
 20
162.4981948167
 11
30.2228296466
 21
165.1269467892
  0
LINE
  5
25B
100
AcDbEntity
  8
0
100
AcDbLine
 62
7
  6
CONTINUOUS
 10
58.6496249284
 20
182.6694989106
 11
58.6496249284
 21
149.6694989106
  0
LINE
  5
25C
100
AcDbEntity
  8
0
100
AcDbLine
 62
7
  6
CONTINUOUS
 10
60.4075998404
 20
149.6694989106
 11
60.4075998404
 21
182.6694989106
  0
LINE
  5
25D
100
AcDbEntity
  8
0
100
AcDbLine
 62
7
  6
CONTINUOUS
 10
65.1783839304
 20
183.2214110371
 11
64.8904065963
 21
182.2637738119
  0
LINE
  5
25E
100
AcDbEntity
  8
0
100
AcDbLine
 62
7
  6
CONTINUOUS
 10
29.7278550073
 20
169.7119721998
 11
32.3566070321
 21
167.0832201791
  0
LINE
  5
25F
100
AcDbEntity
  8
0
100
AcDbLine
 62
7
  6
CONTINUOUS
 10
32.8515816188
 20
167.5781948162
 11
30.2228296466
 21
170.2069467892
  0
LINE
  5
260
100
AcDbEntity
  8
0
100
AcDbLine
 62
7
  6
CONTINUOUS
 10
29.7278550071
 20
174.8819721996
 11
32.3566070295
 21
172.2532201772
  0
LINE
  5
261
100
AcDbEntity
  8
0
100
AcDbLine
 62
7
  6
CONTINUOUS
 10
32.8515816191
 20
172.7481948167
 11
30.2228296466
 21
175.3769467892
  0
LINE
  5
262
100
AcDbEntity
  8
0
100
AcDbLine
 62
7
  6
CONTINUOUS
 10
64.8904065963
 20
150.0752240094
 11
65.1783839304
 21
149.1175867842
  0
LINE
  5
263
100
AcDbEntity
  8
0
100
AcDbLine
 62
7
  6
CONTINUOUS
 10
64.8904067754
 20
182.2637737535
 11
64.8904067757
 21
150.0752240679
  0
LINE
  5
264
100
AcDbEntity
  8
0
100
AcDbLine
 62
7
  6
CONTINUOUS
 10
29.7278550073
 20
179.9619721998
 11
32.3566070321
 21
177.3332201791
  0
LINE
  5
265
100
AcDbEntity
  8
0
100
AcDbLine
 62
7
  6
CONTINUOUS
 10
32.8515816188
 20
177.8281948162
 11
30.2228296466
 21
180.4569467892
  0
LINE
  5
266
100
AcDbEntity
  8
0
100
AcDbLine
 62
7
  6
CONTINUOUS
 10
73.6246800367
 20
178.9666322318
 11
73.6246799042
 21
153.3723655324
  0
LINE
  5
267
100
AcDbEntity
  8
0
100
AcDbLine
 62
7
  6
CONTINUOUS
 10
74.4872825206
 20
154.2890459368
 11
74.4872815913
 21
178.0500154263
  0
LINE
  5
268
100
AcDbEntity
  8
0
100
AcDbLine
 62
7
  6
CONTINUOUS
 10
74.7874152995
 20
177.8207369362
 11
74.7874081748
 21
154.5182434967
  0
LINE
  5
269
100
AcDbEntity
  8
0
100
AcDbLine
 62
7
  6
CONTINUOUS
 10
75.6500308508
 20
154.5183086661
 11
75.6500158252
 21
177.8207025562
  0
LINE
  5
26A
100
AcDbEntity
  8
0
100
AcDbLine
 62
7
  6
CONTINUOUS
 10
73.6246805941
 20
178.9666319728
 11
74.0413677166
 21
179.8756819395
  0
LINE
  5
26B
100
AcDbEntity
  8
0
100
AcDbLine
 62
7
  6
CONTINUOUS
 10
74.0413669871
 20
152.4633155475
 11
73.6246798752
 21
153.372365519
  0
LINE
  5
26C
100
AcDbEntity
  8
0
100
AcDbLine
 62
7
  6
CONTINUOUS
 10
77.8597235976
 20
159.1694989106
 11
77.8597235976
 21
173.1694989106
  0
LINE
  5
26D
100
AcDbEntity
  8
0
100
AcDbLine
 62
7
  6
CONTINUOUS
 10
78.8597235976
 20
173.1694989105
 11
78.8597235976
 21
159.1694989107
  0
LINE
  5
26E
100
AcDbEntity
  8
0
100
AcDbLine
 62
7
  6
CONTINUOUS
 10
75.6500156979
 20
177.8207015287
 11
76.2817310479
 21
178.5959019651
  0
LINE
  5
26F
100
AcDbEntity
  8
0
100
AcDbLine
 62
7
  6
CONTINUOUS
 10
76.2816397427
 20
153.7430214523
 11
75.6501437434
 21
154.5184006405
  0
LINE
  5
270
100
AcDbEntity
  8
0
100
AcDbLine
 62
7
  6
CONTINUOUS
 10
90.8597235976
 20
161.1694989106
 11
90.8597235976
 21
171.1694989106
  0
LINE
  5
271
100
AcDbEntity
  8
0
100
AcDbLine
 62
7
  6
CONTINUOUS
 10
44.3597235976
 20
147.1694989106
 11
56.6473178745
 21
147.1694989106
  0
LINE
  5
272
100
AcDbEntity
  8
0
100
AcDbLine
 62
7
  6
CONTINUOUS
 10
36.7397235976
 20
149.3750780918
 11
41.8928968569
 21
149.3750780918
  0
LINE
  5
273
100
AcDbEntity
  8
0
100
AcDbLine
 62
7
  6
CONTINUOUS
 10
41.8597235976
 20
149.6694989106
 11
63.68713373
 21
149.6694989106
  0
LINE
  5
274
100
AcDbEntity
  8
0
100
AcDbLine
 62
7
  6
CONTINUOUS
 10
25.8597302151
 20
150.7750780913
 11
36.7397235976
 21
150.7750780913
  0
LINE
  5
275
100
AcDbEntity
  8
0
100
AcDbLine
 62
7
  6
CONTINUOUS
 10
36.7397235976
 20
152.0600782003
 11
35.7597216955
 21
152.0600782127
  0
LINE
  5
276
100
AcDbEntity
  8
0
100
AcDbLine
 62
7
  6
CONTINUOUS
 10
38.0397235976
 20
152.3150780918
 11
36.7397235976
 21
152.3150780918
  0
LINE
  5
277
100
AcDbEntity
  8
0
100
AcDbLine
 62
7
  6
CONTINUOUS
 10
36.7397235976
 20
154.3150780918
 11
38.0397235976
 21
154.3150780918
  0
LINE
  5
278
100
AcDbEntity
  8
0
100
AcDbLine
 62
7
  6
CONTINUOUS
 10
74.7874117372
 20
154.5182960179
 11
75.6500153609
 21
154.5182960179
  0
LINE
  5
279
100
AcDbEntity
  8
0
100
AcDbLine
 62
7
  6
CONTINUOUS
 10
36.7397235976
 20
154.5700761163
 11
35.7597212279
 21
154.5700760295
  0
LINE
  5
27A
100
AcDbEntity
  8
0
100
AcDbLine
 62
7
  6
CONTINUOUS
 10
35.2597235976
 20
155.8550780913
 11
40.1998556961
 21
155.8550780913
  0
LINE
  5
27B
100
AcDbEntity
  8
0
100
AcDbLine
 62
7
  6
CONTINUOUS
 10
40.1998556961
 20
157.4550780913
 11
35.2597235976
 21
157.4550780913
  0
LINE
  5
27C
100
AcDbEntity
  8
0
100
AcDbLine
 62
7
  6
CONTINUOUS
 10
77.8597235976
 20
159.1694989106
 11
78.8597235976
 21
159.1694989106
  0
LINE
  5
27D
100
AcDbEntity
  8
0
100
AcDbLine
 62
7
  6
CONTINUOUS
 10
36.7397235976
 20
159.3950780918
 11
38.0397235976
 21
159.3950780918
  0
LINE
  5
27E
100
AcDbEntity
  8
0
100
AcDbLine
 62
7
  6
CONTINUOUS
 10
36.7397235976
 20
159.6250780918
 11
41.8597235976
 21
159.6250780918
  0
LINE
  5
27F
100
AcDbEntity
  8
0
100
AcDbLine
 62
7
  6
CONTINUOUS
 10
36.7397235976
 20
159.6500779699
 11
35.7597216262
 21
159.6500779641
  0
LINE
  5
280
100
AcDbEntity
  8
0
100
AcDbLine
 62
7
  6
CONTINUOUS
 10
212.2597235976
 20
160.3294989106
 11
190.8597236391
 21
160.3294989106
  0
LINE
  5
281
100
AcDbEntity
  8
0
100
AcDbLine
 62
7
  6
CONTINUOUS
 10
190.8640897081
 20
160.4294989099
 11
212.3597235976
 21
160.4294989106
  0
LINE
  5
282
100
AcDbEntity
  8
0
100
AcDbLine
 62
7
  6
CONTINUOUS
 10
189.2597235976
 20
160.5611138897
 11
189.3597235976
 21
160.5611138897
  0
LINE
  5
283
100
AcDbEntity
  8
0
100
AcDbLine
 62
7
  6
CONTINUOUS
 10
180.6597235977
 20
170.1132946909
 11
182.1597235976
 21
170.2445276988
  0
LINE
  5
284
100
AcDbEntity
  8
0
100
AcDbLine
 62
7
  6
CONTINUOUS
 10
183.5597235976
 20
170.5677757867
 11
185.0597235976
 21
170.6990087904
  0
LINE
  5
285
100
AcDbEntity
  8
0
100
AcDbLine
 62
7
  6
CONTINUOUS
 10
186.459723598
 20
171.1226388519
 11
187.9597235976
 21
171.2538718658
  0
LINE
  5
286
100
AcDbEntity
  8
0
100
AcDbLine
 62
7
  6
CONTINUOUS
 10
189.3597235976
 20
171.7778839316
 11
190.8640892531
 21
171.9094988932
  0
LINE
  5
287
100
AcDbEntity
  8
0
100
AcDbLine
 62
7
  6
CONTINUOUS
 10
185.0597235976
 20
171.5020646622
 11
183.5504728153
 21
171.3700223283
  0
LINE
  5
288
100
AcDbEntity
  8
0
100
AcDbLine
 62
7
  6
CONTINUOUS
 10
182.1597235976
 20
171.248347538
 11
180.6510080212
 21
171.1163520286
  0
LINE
  5
289
100
AcDbEntity
  8
0
100
AcDbLine
 62
7
  6
CONTINUOUS
 10
186.4504728125
 20
171.6237394523
 11
187.9597235976
 21
171.7557817864
  0
LINE
  5
28A
100
AcDbEntity
  8
0
100
AcDbLine
 62
7
  6
CONTINUOUS
 10
189.35062946
 20
171.8774702814
 11
190.8597236336
 21
172.0094989138
  0
LINE
  5
28B
100
AcDbEntity
  8
0
100
AcDbLine
 62
7
  6
CONTINUOUS
 10
182.1597235976
 20
171.248347538
 11
183.5491103607
 21
171.369892248
  0
LINE
  5
28C
100
AcDbEntity
  8
0
100
AcDbLine
 62
7
  6
CONTINUOUS
 10
185.0597235976
 20
171.5020646622
 11
186.4491103609
 21
171.6236093723
  0
LINE
  5
28D
100
AcDbEntity
  8
0
100
AcDbLine
 62
7
  6
CONTINUOUS
 10
187.9597235976
 20
171.7557817864
 11
189.3491103611
 21
171.8773264965
  0
LINE
  5
28E
100
AcDbEntity
  8
0
100
AcDbLine
 62
7
  6
CONTINUOUS
 10
25.8597302061
 20
160.9350780913
 11
36.7397235976
 21
160.9350780913
  0
LINE
  5
28F
100
AcDbEntity
  8
0
100
AcDbLine
 62
7
  6
CONTINUOUS
 10
25.8597302151
 20
161.0250780913
 11
36.7397235976
 21
161.0250780913
  0
LINE
  5
290
100
AcDbEntity
  8
0
100
AcDbLine
 62
7
  6
CONTINUOUS
 10
78.8597235976
 20
161.1694989106
 11
90.8597235976
 21
161.1694989106
  0
LINE
  5
291
100
AcDbEntity
  8
0
100
AcDbLine
 62
7
  6
CONTINUOUS
 10
186.4597235976
 20
161.2163589489
 11
186.3597235976
 21
161.2163589489
  0
LINE
  5
292
100
AcDbEntity
  8
0
100
AcDbLine
 62
7
  6
CONTINUOUS
 10
207.7397235976
 20
161.3944989106
 11
205.6897235976
 21
161.3944989106
  0
LINE
  5
293
100
AcDbEntity
  8
0
100
AcDbLine
 62
7
  6
CONTINUOUS
 10
204.8097235976
 20
161.3944989106
 11
200.8097235976
 21
161.3944989106
  0
LINE
  5
294
100
AcDbEntity
  8
0
100
AcDbLine
 62
7
  6
CONTINUOUS
 10
183.4597235976
 20
161.7712220244
 11
183.5597235976
 21
161.7712220244
  0
LINE
  5
295
100
AcDbEntity
  8
0
100
AcDbLine
 62
7
  6
CONTINUOUS
 10
180.5597235976
 20
162.2257031162
 11
180.6597235976
 21
162.2257031162
  0
LINE
  5
296
100
AcDbEntity
  8
0
100
AcDbLine
 62
7
  6
CONTINUOUS
 10
36.7397235973
 20
162.3100782003
 11
35.7597216955
 21
162.3100782127
  0
LINE
  5
297
100
AcDbEntity
  8
0
100
AcDbLine
 62
7
  6
CONTINUOUS
 10
212.3597235976
 20
162.3294989106
 11
207.5597235976
 21
162.3294989106
  0
LINE
  5
298
100
AcDbEntity
  8
0
100
AcDbLine
 62
7
  6
CONTINUOUS
 10
41.8597235976
 20
162.3350780918
 11
36.7397235976
 21
162.3350780918
  0
LINE
  5
299
100
AcDbEntity
  8
0
100
AcDbLine
 62
7
  6
CONTINUOUS
 10
207.6347235976
 20
162.4044989106
 11
211.1347235976
 21
162.4044989106
  0
LINE
  5
29A
100
AcDbEntity
  8
0
100
AcDbLine
 62
7
  6
CONTINUOUS
 10
38.0397235976
 20
162.5650780918
 11
36.7397235976
 21
162.5650780918
  0
LINE
  5
29B
100
AcDbEntity
  8
0
100
AcDbLine
 62
7
  6
CONTINUOUS
 10
207.6347235976
 20
162.7544989106
 11
211.1347235976
 21
162.7544989106
  0
LINE
  5
29C
100
AcDbEntity
  8
0
100
AcDbLine
 62
7
  6
CONTINUOUS
 10
207.5597235976
 20
162.8294989106
 11
212.3597235976
 21
162.8294989106
  0
LINE
  5
29D
100
AcDbEntity
  8
0
100
AcDbLine
 62
7
  6
CONTINUOUS
 10
90.8597235976
 20
163.1694989106
 11
180.5597235976
 21
163.1694989106
  0
LINE
  5
29E
100
AcDbEntity
  8
0
100
AcDbLine
 62
7
  6
CONTINUOUS
 10
212.3597235976
 20
163.1694989106
 11
213.2597235976
 21
163.1694989106
  0
LINE
  5
29F
100
AcDbEntity
  8
0
100
AcDbLine
 62
7
  6
CONTINUOUS
 10
212.3597235976
 20
163.3544989106
 11
207.5597235976
 21
163.3544989106
  0
LINE
  5
2A0
100
AcDbEntity
  8
0
100
AcDbLine
 62
7
  6
CONTINUOUS
 10
207.6347235976
 20
163.4294989106
 11
211.1347235976
 21
163.4294989106
  0
LINE
  5
2A1
100
AcDbEntity
  8
0
100
AcDbLine
 62
7
  6
CONTINUOUS
 10
207.6347235976
 20
163.7794989106
 11
211.1347235976
 21
163.7794989106
  0
LINE
  5
2A2
100
AcDbEntity
  8
0
100
AcDbLine
 62
7
  6
CONTINUOUS
 10
207.5597235976
 20
163.8544989106
 11
212.3597235976
 21
163.8544989106
  0
LINE
  5
2A3
100
AcDbEntity
  8
0
100
AcDbLine
 62
7
  6
CONTINUOUS
 10
212.3597235976
 20
164.3794989106
 11
207.5597235976
 21
164.3794989106
  0
LINE
  5
2A4
100
AcDbEntity
  8
0
100
AcDbLine
 62
7
  6
CONTINUOUS
 10
207.6347235976
 20
164.4544989106
 11
211.1347235976
 21
164.4544989106
  0
LINE
  5
2A5
100
AcDbEntity
  8
0
100
AcDbLine
 62
7
  6
CONTINUOUS
 10
36.7397235976
 20
164.5650780918
 11
38.0397235976
 21
164.5650780918
  0
LINE
  5
2A6
100
AcDbEntity
  8
0
100
AcDbLine
 62
7
  6
CONTINUOUS
 10
207.6347235976
 20
164.8044989106
 11
211.1347235976
 21
164.8044989106
  0
LINE
  5
2A7
100
AcDbEntity
  8
0
100
AcDbLine
 62
7
  6
CONTINUOUS
 10
36.7397235976
 20
164.8200761163
 11
35.7597212279
 21
164.8200760295
  0
LINE
  5
2A8
100
AcDbEntity
  8
0
100
AcDbLine
 62
7
  6
CONTINUOUS
 10
207.5597235976
 20
164.8794989106
 11
212.3597235976
 21
164.8794989106
  0
LINE
  5
2A9
100
AcDbEntity
  8
0
100
AcDbLine
 62
7
  6
CONTINUOUS
 10
212.3597235976
 20
165.4044989106
 11
207.5597235976
 21
165.4044989106
  0
LINE
  5
2AA
100
AcDbEntity
  8
0
100
AcDbLine
 62
7
  6
CONTINUOUS
 10
207.6347235976
 20
165.4794989106
 11
211.1347235976
 21
165.4794989106
  0
LINE
  5
2AB
100
AcDbEntity
  8
0
100
AcDbLine
 62
7
  6
CONTINUOUS
 10
207.6347235976
 20
165.8294989106
 11
211.1347235976
 21
165.8294989106
  0
LINE
  5
2AC
100
AcDbEntity
  8
0
100
AcDbLine
 62
7
  6
CONTINUOUS
 10
207.5597235976
 20
165.9044989106
 11
212.3597235976
 21
165.9044989106
  0
LINE
  5
2AD
100
AcDbEntity
  8
0
100
AcDbLine
 62
7
  6
CONTINUOUS
 10
38.9289720289
 20
166.1050780913
 11
39.8911789819
 21
166.1050780913
  0
LINE
  5
2AE
100
AcDbEntity
  8
0
100
AcDbLine
 62
7
  6
CONTINUOUS
 10
212.3597235976
 20
166.4344989106
 11
207.5597235976
 21
166.4344989106
  0
LINE
  5
2AF
100
AcDbEntity
  8
0
100
AcDbLine
 62
7
  6
CONTINUOUS
 10
207.6347235976
 20
166.5044989106
 11
211.1347235976
 21
166.5044989106
  0
LINE
  5
2B0
100
AcDbEntity
  8
0
100
AcDbLine
 62
7
  6
CONTINUOUS
 10
207.6347235976
 20
166.8544989106
 11
211.1347235976
 21
166.8544989106
  0
LINE
  5
2B1
100
AcDbEntity
  8
0
100
AcDbLine
 62
7
  6
CONTINUOUS
 10
207.5597235976
 20
166.9344989106
 11
212.3597235976
 21
166.9344989106
  0
LINE
  5
2B2
100
AcDbEntity
  8
0
100
AcDbLine
 62
7
  6
CONTINUOUS
 10
190.8597236392
 20
160.329498907
 11
180.6510080209
 21
161.2226457928
  0
LINE
  5
2B3
100
AcDbEntity
  8
0
100
AcDbLine
 62
7
  6
CONTINUOUS
 10
190.8640897081
 20
160.4294989099
 11
189.3597235976
 21
160.5611138897
  0
LINE
  5
2B4
100
AcDbEntity
  8
0
100
AcDbLine
 62
7
  6
CONTINUOUS
 10
36.7397235976
 20
167.3900783314
 11
35.759721154
 21
167.3900783462
  0
LINE
  5
2B5
100
AcDbEntity
  8
0
100
AcDbLine
 62
7
  6
CONTINUOUS
 10
212.3597235976
 20
167.4594989106
 11
207.5597235976
 21
167.4594989106
  0
LINE
  5
2B6
100
AcDbEntity
  8
0
100
AcDbLine
 62
7
  6
CONTINUOUS
 10
207.6347235976
 20
167.5294989106
 11
211.1347235976
 21
167.5294989106
  0
LINE
  5
2B7
100
AcDbEntity
  8
0
100
AcDbLine
 62
7
  6
CONTINUOUS
 10
38.0397235976
 20
167.6450780918
 11
36.7397235976
 21
167.6450780918
  0
LINE
  5
2B8
100
AcDbEntity
  8
0
100
AcDbLine
 62
7
  6
CONTINUOUS
 10
39.8911789819
 20
167.7050780913
 11
38.9289720289
 21
167.7050780913
  0
LINE
  5
2B9
100
AcDbEntity
  8
0
100
AcDbLine
 62
7
  6
CONTINUOUS
 10
207.6347235976
 20
167.8794989106
 11
211.1347235976
 21
167.8794989106
  0
LINE
  5
2BA
100
AcDbEntity
  8
0
100
AcDbLine
 62
7
  6
CONTINUOUS
 10
207.5597235976
 20
167.9594989106
 11
212.3597235976
 21
167.9594989106
  0
LINE
  5
2BB
100
AcDbEntity
  8
0
100
AcDbLine
 62
7
  6
CONTINUOUS
 10
212.3597235976
 20
168.4844989106
 11
207.5597235976
 21
168.4844989106
  0
LINE
  5
2BC
100
AcDbEntity
  8
0
100
AcDbLine
 62
7
  6
CONTINUOUS
 10
207.6347235976
 20
168.5544989106
 11
211.1347235976
 21
168.5544989106
  0
LINE
  5
2BD
100
AcDbEntity
  8
0
100
AcDbLine
 62
7
  6
CONTINUOUS
 10
207.6347235976
 20
168.9044989106
 11
211.1347235976
 21
168.9044989106
  0
LINE
  5
2BE
100
AcDbEntity
  8
0
100
AcDbLine
 62
7
  6
CONTINUOUS
 10
207.5597235976
 20
168.9844989106
 11
212.3597235976
 21
168.9844989106
  0
LINE
  5
2BF
100
AcDbEntity
  8
0
100
AcDbLine
 62
7
  6
CONTINUOUS
 10
213.2597235976
 20
169.1694989106
 11
212.3597235976
 21
169.1694989106
  0
LINE
  5
2C0
100
AcDbEntity
  8
0
100
AcDbLine
 62
7
  6
CONTINUOUS
 10
90.8597235976
 20
169.1694989106
 11
180.5597235976
 21
169.1694989106
  0
LINE
  5
2C1
100
AcDbEntity
  8
0
100
AcDbLine
 62
7
  6
CONTINUOUS
 10
212.3597235976
 20
169.5094989106
 11
207.5597235976
 21
169.5094989106
  0
LINE
  5
2C2
100
AcDbEntity
  8
0
100
AcDbLine
 62
7
  6
CONTINUOUS
 10
207.6347235976
 20
169.5794989106
 11
211.1347235976
 21
169.5794989106
  0
LINE
  5
2C3
100
AcDbEntity
  8
0
100
AcDbLine
 62
7
  6
CONTINUOUS
 10
36.7397235976
 20
169.6450780918
 11
38.0397235976
 21
169.6450780918
  0
LINE
  5
2C4
100
AcDbEntity
  8
0
100
AcDbLine
 62
7
  6
CONTINUOUS
 10
36.7397235976
 20
169.8750780918
 11
41.8597235976
 21
169.8750780918
  0
LINE
  5
2C5
100
AcDbEntity
  8
0
100
AcDbLine
 62
7
  6
CONTINUOUS
 10
36.7397235975
 20
169.9000779699
 11
35.7597216262
 21
169.9000779641
  0
LINE
  5
2C6
100
AcDbEntity
  8
0
100
AcDbLine
 62
7
  6
CONTINUOUS
 10
207.6347235976
 20
169.9294989106
 11
211.1347235976
 21
169.9294989106
  0
LINE
  5
2C7
100
AcDbEntity
  8
0
100
AcDbLine
 62
7
  6
CONTINUOUS
 10
207.5597235976
 20
170.0094989106
 11
212.3597235976
 21
170.0094989106
  0
LINE
  5
2C8
100
AcDbEntity
  8
0
100
AcDbLine
 62
7
  6
CONTINUOUS
 10
180.6597235976
 20
170.1132947055
 11
180.5597235976
 21
170.1132947055
  0
LINE
  5
2C9
100
AcDbEntity
  8
0
100
AcDbLine
 62
7
  6
CONTINUOUS
 10
183.5597235976
 20
170.5677757969
 11
183.4597235976
 21
170.5677757969
  0
LINE
  5
2CA
100
AcDbEntity
  8
0
100
AcDbLine
 62
7
  6
CONTINUOUS
 10
200.8097235976
 20
170.9444989106
 11
204.8097235976
 21
170.9444989106
  0
LINE
  5
2CB
100
AcDbEntity
  8
0
100
AcDbLine
 62
7
  6
CONTINUOUS
 10
205.6897235976
 20
170.9444989106
 11
207.7397235976
 21
170.9444989106
  0
LINE
  5
2CC
100
AcDbEntity
  8
0
100
AcDbLine
 62
7
  6
CONTINUOUS
 10
186.3597235976
 20
171.1226388724
 11
186.4597235976
 21
171.1226388724
  0
LINE
  5
2CD
100
AcDbEntity
  8
0
100
AcDbLine
 62
7
  6
CONTINUOUS
 10
78.8597235976
 20
171.1694989106
 11
90.8597235976
 21
171.1694989106
  0
LINE
  5
2CE
100
AcDbEntity
  8
0
100
AcDbLine
 62
7
  6
CONTINUOUS
 10
25.8597302061
 20
171.1850780913
 11
36.7397235976
 21
171.1850780913
  0
LINE
  5
2CF
100
AcDbEntity
  8
0
100
AcDbLine
 62
7
  6
CONTINUOUS
 10
25.8597302151
 20
171.2750780913
 11
36.7397235976
 21
171.2750780913
  0
LINE
  5
2D0
100
AcDbEntity
  8
0
100
AcDbLine
 62
7
  6
CONTINUOUS
 10
189.3597235976
 20
171.7778839317
 11
189.2597235976
 21
171.7778839317
  0
LINE
  5
2D1
100
AcDbEntity
  8
0
100
AcDbLine
 62
7
  6
CONTINUOUS
 10
190.8640892531
 20
171.9094988932
 11
212.3597235976
 21
171.9094989106
  0
LINE
  5
2D2
100
AcDbEntity
  8
0
100
AcDbLine
 62
7
  6
CONTINUOUS
 10
190.8597236335
 20
172.0094989106
 11
212.2597235976
 21
172.0094989106
  0
LINE
  5
2D3
100
AcDbEntity
  8
0
100
AcDbLine
 62
7
  6
CONTINUOUS
 10
36.7397235976
 20
172.5600782003
 11
35.7597216955
 21
172.5600782128
  0
LINE
  5
2D4
100
AcDbEntity
  8
0
100
AcDbLine
 62
7
  6
CONTINUOUS
 10
41.8597235976
 20
172.5850780918
 11
36.7397235976
 21
172.5850780918
  0
LINE
  5
2D5
100
AcDbEntity
  8
0
100
AcDbLine
 62
7
  6
CONTINUOUS
 10
38.0397235976
 20
172.8150780918
 11
36.7397235976
 21
172.8150780918
  0
LINE
  5
2D6
100
AcDbEntity
  8
0
100
AcDbLine
 62
7
  6
CONTINUOUS
 10
78.8597235976
 20
173.1694989106
 11
77.8597235976
 21
173.1694989106
  0
LINE
  5
2D7
100
AcDbEntity
  8
0
100
AcDbLine
 62
7
  6
CONTINUOUS
 10
187.9597235976
 20
161.0851259537
 11
186.4597235978
 21
161.2163589775
  0
LINE
  5
2D8
100
AcDbEntity
  8
0
100
AcDbLine
 62
7
  6
CONTINUOUS
 10
185.0597235976
 20
161.6399890292
 11
183.5597235974
 21
161.7712220352
  0
LINE
  5
2D9
100
AcDbEntity
  8
0
100
AcDbLine
 62
7
  6
CONTINUOUS
 10
182.1597235976
 20
162.0944701211
 11
180.6597235974
 21
162.225703121
  0
LINE
  5
2DA
100
AcDbEntity
  8
0
100
AcDbLine
 62
7
  6
CONTINUOUS
 10
36.7397235976
 20
174.8150780918
 11
38.0397235976
 21
174.8150780918
  0
LINE
  5
2DB
100
AcDbEntity
  8
0
100
AcDbLine
 62
7
  6
CONTINUOUS
 10
36.7397235976
 20
175.0700761163
 11
35.7597212279
 21
175.0700760295
  0
LINE
  5
2DC
100
AcDbEntity
  8
0
100
AcDbLine
 62
7
  6
CONTINUOUS
 10
35.2597235976
 20
176.3550780913
 11
40.1998556961
 21
176.3550780913
  0
LINE
  5
2DD
100
AcDbEntity
  8
0
100
AcDbLine
 62
7
  6
CONTINUOUS
 10
75.6500153609
 20
177.8207018034
 11
74.7874117372
 21
177.8207018034
  0
LINE
  5
2DE
100
AcDbEntity
  8
0
100
AcDbLine
 62
7
  6
CONTINUOUS
 10
40.1998556961
 20
177.9550780913
 11
35.2597235976
 21
177.9550780913
  0
LINE
  5
2DF
100
AcDbEntity
  8
0
100
AcDbLine
 62
7
  6
CONTINUOUS
 10
36.7397235976
 20
179.8950780918
 11
38.0397235976
 21
179.8950780918
  0
LINE
  5
2E0
100
AcDbEntity
  8
0
100
AcDbLine
 62
7
  6
CONTINUOUS
 10
36.7397235976
 20
180.1500779699
 11
35.7597216262
 21
180.1500779641
  0
LINE
  5
2E1
100
AcDbEntity
  8
0
100
AcDbLine
 62
7
  6
CONTINUOUS
 10
25.8597302061
 20
181.4350780913
 11
36.7397235976
 21
181.4350780913
  0
LINE
  5
2E2
100
AcDbEntity
  8
0
100
AcDbLine
 62
7
  6
CONTINUOUS
 10
63.6871337962
 20
182.6694989106
 11
41.8597235976
 21
182.6694989106
  0
LINE
  5
2E3
100
AcDbEntity
  8
0
100
AcDbLine
 62
7
  6
CONTINUOUS
 10
41.8783798908
 20
182.8350780918
 11
36.7397235976
 21
182.8350780918
  0
LINE
  5
2E4
100
AcDbEntity
  8
0
100
AcDbLine
 62
7
  6
CONTINUOUS
 10
44.3597235976
 20
185.1694989106
 11
56.6473178745
 21
185.1694989106
  0
LINE
  5
2E5
100
AcDbEntity
  8
0
100
AcDbLine
 62
7
  6
CONTINUOUS
 10
180.6597235976
 20
170.1132946972
 11
180.6510080237
 21
171.1163520412
  0
LINE
  5
2E6
100
AcDbEntity
  8
0
100
AcDbLine
 62
7
  6
CONTINUOUS
 10
180.5597235976
 20
161.3222652625
 11
180.5597235976
 21
171.0167325588
  0
LINE
  5
2E7
100
AcDbEntity
  8
0
100
AcDbLine
 62
7
  6
CONTINUOUS
 10
180.6597235977
 20
170.1132946909
 11
180.6597235974
 21
162.225703121
  0
LINE
  5
2E8
100
AcDbEntity
  8
0
100
AcDbLine
 62
7
  6
CONTINUOUS
 10
182.1597235976
 20
161.0906502834
 11
182.1597235976
 21
171.248347538
  0
LINE
  5
2E9
100
AcDbEntity
  8
0
100
AcDbLine
 62
7
  6
CONTINUOUS
 10
183.4597235976
 20
161.0660740965
 11
183.4597235976
 21
171.2704496831
  0
LINE
  5
2EA
100
AcDbEntity
  8
0
100
AcDbLine
 62
7
  6
CONTINUOUS
 10
183.5597235976
 20
170.5677757867
 11
183.5597235974
 21
161.7712220352
  0
LINE
  5
2EB
100
AcDbEntity
  8
0
100
AcDbLine
 62
7
  6
CONTINUOUS
 10
180.6510080209
 20
161.2226457929
 11
180.659723597
 21
162.2257031162
  0
LINE
  5
2EC
100
AcDbEntity
  8
0
100
AcDbLine
 62
7
  6
CONTINUOUS
 10
183.5510080224
 20
160.9689286684
 11
183.5597235965
 21
161.7712220245
  0
LINE
  5
2ED
100
AcDbEntity
  8
0
100
AcDbLine
 62
7
  6
CONTINUOUS
 10
189.3510080234
 20
171.8775034003
 11
189.3597235976
 21
171.7778839316
  0
LINE
  5
2EE
100
AcDbEntity
  8
0
100
AcDbLine
 62
7
  6
CONTINUOUS
 10
185.0597235976
 20
160.8369331591
 11
185.0597235976
 21
171.5020646622
  0
LINE
  5
2EF
100
AcDbEntity
  8
0
100
AcDbLine
 62
7
  6
CONTINUOUS
 10
186.3597235976
 20
160.8123569723
 11
186.3597235976
 21
171.5241668073
  0
LINE
  5
2F0
100
AcDbEntity
  8
0
100
AcDbLine
 62
7
  6
CONTINUOUS
 10
186.459723598
 20
171.1226388519
 11
186.4597235978
 21
161.2163589775
  0
LINE
  5
2F1
100
AcDbEntity
  8
0
100
AcDbLine
 62
7
  6
CONTINUOUS
 10
187.9597235976
 20
160.5832160349
 11
187.9597235976
 21
171.7557817864
  0
LINE
  5
2F2
100
AcDbEntity
  8
0
100
AcDbLine
 62
7
  6
CONTINUOUS
 10
189.2597235976
 20
160.5611138897
 11
189.2597235976
 21
171.7773844002
  0
LINE
  5
2F3
100
AcDbEntity
  8
0
100
AcDbLine
 62
7
  6
CONTINUOUS
 10
189.3597235976
 20
171.7778839316
 11
189.3597235976
 21
160.5611138897
  0
LINE
  5
2F4
100
AcDbEntity
  8
0
100
AcDbLine
 62
7
  6
CONTINUOUS
 10
189.3597235976
 20
160.5611138897
 11
189.3510080234
 21
160.4614944198
  0
LINE
  5
2F5
100
AcDbEntity
  8
0
100
AcDbLine
 62
7
  6
CONTINUOUS
 10
190.8640892095
 20
171.9094989106
 11
190.8597234891
 21
172.0094989106
  0
LINE
  5
2F6
100
AcDbEntity
  8
0
100
AcDbLine
 62
7
  6
CONTINUOUS
 10
190.8597235006
 20
160.3294989106
 11
190.8640897081
 21
160.4294989106
  0
LINE
  5
2F7
100
AcDbEntity
  8
0
100
AcDbLine
 62
7
  6
CONTINUOUS
 10
198.7597235976
 20
160.3294989106
 11
198.7597235976
 21
172.0094989106
  0
LINE
  5
2F8
100
AcDbEntity
  8
0
100
AcDbLine
 62
7
  6
CONTINUOUS
 10
198.8597235976
 20
171.9094989106
 11
198.8597235976
 21
160.4294989106
  0
LINE
  5
2F9
100
AcDbEntity
  8
0
100
AcDbLine
 62
7
  6
CONTINUOUS
 10
200.8097235976
 20
161.3944989106
 11
200.8097235976
 21
170.9444989106
  0
LINE
  5
2FA
100
AcDbEntity
  8
0
100
AcDbLine
 62
7
  6
CONTINUOUS
 10
204.8097235976
 20
170.9444989106
 11
204.8097235976
 21
161.3944989106
  0
LINE
  5
2FB
100
AcDbEntity
  8
0
100
AcDbLine
 62
7
  6
CONTINUOUS
 10
205.6897235976
 20
161.3944989106
 11
205.6897235976
 21
170.9444989106
  0
LINE
  5
2FC
100
AcDbEntity
  8
0
100
AcDbLine
 62
7
  6
CONTINUOUS
 10
207.2397235976
 20
170.9444989106
 11
207.2397235976
 21
161.3944989106
  0
LINE
  5
2FD
100
AcDbEntity
  8
0
100
AcDbLine
 62
7
  6
CONTINUOUS
 10
207.5597235976
 20
170.0094989106
 11
207.5597235976
 21
169.5094989106
  0
LINE
  5
2FE
100
AcDbEntity
  8
0
100
AcDbLine
 62
7
  6
CONTINUOUS
 10
207.5597235976
 20
168.9844989106
 11
207.5597235976
 21
168.4844989106
  0
LINE
  5
2FF
100
AcDbEntity
  8
0
100
AcDbLine
 62
7
  6
CONTINUOUS
 10
207.5597235976
 20
167.9594989106
 11
207.5597235976
 21
167.4594989106
  0
LINE
  5
300
100
AcDbEntity
  8
0
100
AcDbLine
 62
7
  6
CONTINUOUS
 10
207.5597235976
 20
166.9344989106
 11
207.5597235976
 21
166.4344989106
  0
LINE
  5
301
100
AcDbEntity
  8
0
100
AcDbLine
 62
7
  6
CONTINUOUS
 10
207.5597235976
 20
165.9044989106
 11
207.5597235976
 21
165.4044989106
  0
LINE
  5
302
100
AcDbEntity
  8
0
100
AcDbLine
 62
7
  6
CONTINUOUS
 10
207.5597235976
 20
164.8794989106
 11
207.5597235976
 21
164.3794989106
  0
LINE
  5
303
100
AcDbEntity
  8
0
100
AcDbLine
 62
7
  6
CONTINUOUS
 10
207.5597235976
 20
163.8544989106
 11
207.5597235976
 21
163.3544989106
  0
LINE
  5
304
100
AcDbEntity
  8
0
100
AcDbLine
 62
7
  6
CONTINUOUS
 10
207.5597235976
 20
162.8294989106
 11
207.5597235976
 21
162.3294989106
  0
LINE
  5
305
100
AcDbEntity
  8
0
100
AcDbLine
 62
7
  6
CONTINUOUS
 10
207.6347235976
 20
169.9294989106
 11
207.6347235976
 21
169.5794989106
  0
LINE
  5
306
100
AcDbEntity
  8
0
100
AcDbLine
 62
7
  6
CONTINUOUS
 10
207.6347235976
 20
168.9044989106
 11
207.6347235976
 21
168.5544989106
  0
LINE
  5
307
100
AcDbEntity
  8
0
100
AcDbLine
 62
7
  6
CONTINUOUS
 10
207.6347235976
 20
167.8794989106
 11
207.6347235976
 21
167.5294989106
  0
LINE
  5
308
100
AcDbEntity
  8
0
100
AcDbLine
 62
7
  6
CONTINUOUS
 10
207.6347235976
 20
166.8544989106
 11
207.6347235976
 21
166.5044989106
  0
LINE
  5
309
100
AcDbEntity
  8
0
100
AcDbLine
 62
7
  6
CONTINUOUS
 10
207.6347235976
 20
165.8294989106
 11
207.6347235976
 21
165.4794989106
  0
LINE
  5
30A
100
AcDbEntity
  8
0
100
AcDbLine
 62
7
  6
CONTINUOUS
 10
207.6347235976
 20
164.8044989106
 11
207.6347235976
 21
164.4544989106
  0
LINE
  5
30B
100
AcDbEntity
  8
0
100
AcDbLine
 62
7
  6
CONTINUOUS
 10
207.6347235976
 20
163.7794989106
 11
207.6347235976
 21
163.4294989106
  0
LINE
  5
30C
100
AcDbEntity
  8
0
100
AcDbLine
 62
7
  6
CONTINUOUS
 10
207.6347235976
 20
162.7544989106
 11
207.6347235976
 21
162.4044989106
  0
LINE
  5
30D
100
AcDbEntity
  8
0
100
AcDbLine
 62
7
  6
CONTINUOUS
 10
207.6656786148
 20
169.9294989106
 11
207.6656786148
 21
169.5794989106
  0
LINE
  5
30E
100
AcDbEntity
  8
0
100
AcDbLine
 62
7
  6
CONTINUOUS
 10
207.6656786148
 20
168.9044989106
 11
207.6656786148
 21
168.5544989106
  0
LINE
  5
30F
100
AcDbEntity
  8
0
100
AcDbLine
 62
7
  6
CONTINUOUS
 10
207.6656786148
 20
167.8794989106
 11
207.6656786148
 21
167.5294989106
  0
LINE
  5
310
100
AcDbEntity
  8
0
100
AcDbLine
 62
7
  6
CONTINUOUS
 10
207.6656786148
 20
166.8544989106
 11
207.6656786148
 21
166.5044989106
  0
LINE
  5
311
100
AcDbEntity
  8
0
100
AcDbLine
 62
7
  6
CONTINUOUS
 10
207.6656786148
 20
165.8294989106
 11
207.6656786148
 21
165.4794989106
  0
LINE
  5
312
100
AcDbEntity
  8
0
100
AcDbLine
 62
7
  6
CONTINUOUS
 10
207.6656786148
 20
164.8044989106
 11
207.6656786148
 21
164.4544989106
  0
LINE
  5
313
100
AcDbEntity
  8
0
100
AcDbLine
 62
7
  6
CONTINUOUS
 10
207.6656786148
 20
163.7794989106
 11
207.6656786148
 21
163.4294989106
  0
LINE
  5
314
100
AcDbEntity
  8
0
100
AcDbLine
 62
7
  6
CONTINUOUS
 10
207.6656786148
 20
162.7544989106
 11
207.6656786148
 21
162.4044989106
  0
LINE
  5
315
100
AcDbEntity
  8
0
100
AcDbLine
 62
7
  6
CONTINUOUS
 10
207.7397235976
 20
170.9444989106
 11
207.7397235976
 21
170.0094989106
  0
LINE
  5
316
100
AcDbEntity
  8
0
100
AcDbLine
 62
7
  6
CONTINUOUS
 10
207.7397235976
 20
169.5094989106
 11
207.7397235976
 21
168.9844989106
  0
LINE
  5
317
100
AcDbEntity
  8
0
100
AcDbLine
 62
7
  6
CONTINUOUS
 10
207.7397235976
 20
168.4844989106
 11
207.7397235976
 21
167.9594989106
  0
LINE
  5
318
100
AcDbEntity
  8
0
100
AcDbLine
 62
7
  6
CONTINUOUS
 10
207.7397235976
 20
167.4594989106
 11
207.7397235976
 21
166.9344989106
  0
LINE
  5
319
100
AcDbEntity
  8
0
100
AcDbLine
 62
7
  6
CONTINUOUS
 10
207.7397235976
 20
166.4344989106
 11
207.7397235976
 21
165.9044989106
  0
LINE
  5
31A
100
AcDbEntity
  8
0
100
AcDbLine
 62
7
  6
CONTINUOUS
 10
207.7397235976
 20
165.4044989106
 11
207.7397235976
 21
164.8794989106
  0
LINE
  5
31B
100
AcDbEntity
  8
0
100
AcDbLine
 62
7
  6
CONTINUOUS
 10
207.7397235976
 20
164.3794989106
 11
207.7397235976
 21
163.8544989106
  0
LINE
  5
31C
100
AcDbEntity
  8
0
100
AcDbLine
 62
7
  6
CONTINUOUS
 10
207.7397235976
 20
163.3544989106
 11
207.7397235976
 21
162.8294989106
  0
LINE
  5
31D
100
AcDbEntity
  8
0
100
AcDbLine
 62
7
  6
CONTINUOUS
 10
207.7397235976
 20
162.3294989106
 11
207.7397235976
 21
161.3944989106
  0
LINE
  5
31E
100
AcDbEntity
  8
0
100
AcDbLine
 62
7
  6
CONTINUOUS
 10
207.909798659
 20
162.4044989106
 11
207.9097986589
 21
162.7544989106
  0
LINE
  5
31F
100
AcDbEntity
  8
0
100
AcDbLine
 62
7
  6
CONTINUOUS
 10
207.909798659
 20
163.4294989106
 11
207.9097986589
 21
163.7794989106
  0
LINE
  5
320
100
AcDbEntity
  8
0
100
AcDbLine
 62
7
  6
CONTINUOUS
 10
207.909798659
 20
164.4544989106
 11
207.9097986589
 21
164.8044989106
  0
LINE
  5
321
100
AcDbEntity
  8
0
100
AcDbLine
 62
7
  6
CONTINUOUS
 10
207.909798659
 20
165.4794989106
 11
207.9097986589
 21
165.8294989106
  0
LINE
  5
322
100
AcDbEntity
  8
0
100
AcDbLine
 62
7
  6
CONTINUOUS
 10
207.909798659
 20
166.5044989106
 11
207.9097986589
 21
166.8544989106
  0
LINE
  5
323
100
AcDbEntity
  8
0
100
AcDbLine
 62
7
  6
CONTINUOUS
 10
207.909798659
 20
167.5294989106
 11
207.9097986589
 21
167.8794989106
  0
LINE
  5
324
100
AcDbEntity
  8
0
100
AcDbLine
 62
7
  6
CONTINUOUS
 10
207.909798659
 20
168.5544989106
 11
207.9097986589
 21
168.9044989106
  0
LINE
  5
325
100
AcDbEntity
  8
0
100
AcDbLine
 62
7
  6
CONTINUOUS
 10
207.909798659
 20
169.5794989106
 11
207.9097986589
 21
169.9294989106
  0
LINE
  5
326
100
AcDbEntity
  8
0
100
AcDbLine
 62
7
  6
CONTINUOUS
 10
207.9890084568
 20
169.9294989106
 11
207.9890084569
 21
169.5794989106
  0
LINE
  5
327
100
AcDbEntity
  8
0
100
AcDbLine
 62
7
  6
CONTINUOUS
 10
207.9890084568
 20
168.9044989106
 11
207.9890084569
 21
168.5544989106
  0
LINE
  5
328
100
AcDbEntity
  8
0
100
AcDbLine
 62
7
  6
CONTINUOUS
 10
207.9890084568
 20
167.8794989106
 11
207.9890084569
 21
167.5294989106
  0
LINE
  5
329
100
AcDbEntity
  8
0
100
AcDbLine
 62
7
  6
CONTINUOUS
 10
207.9890084568
 20
166.8544989106
 11
207.9890084569
 21
166.5044989106
  0
LINE
  5
32A
100
AcDbEntity
  8
0
100
AcDbLine
 62
7
  6
CONTINUOUS
 10
207.9890084568
 20
165.8294989106
 11
207.9890084569
 21
165.4794989106
  0
LINE
  5
32B
100
AcDbEntity
  8
0
100
AcDbLine
 62
7
  6
CONTINUOUS
 10
207.9890084568
 20
164.8044989106
 11
207.9890084569
 21
164.4544989106
  0
LINE
  5
32C
100
AcDbEntity
  8
0
100
AcDbLine
 62
7
  6
CONTINUOUS
 10
207.9890084568
 20
163.7794989106
 11
207.9890084569
 21
163.4294989106
  0
LINE
  5
32D
100
AcDbEntity
  8
0
100
AcDbLine
 62
7
  6
CONTINUOUS
 10
207.9890084568
 20
162.7544989106
 11
207.9890084569
 21
162.4044989106
  0
LINE
  5
32E
100
AcDbEntity
  8
0
100
AcDbLine
 62
7
  6
CONTINUOUS
 10
208.2434943333
 20
162.4044989106
 11
208.2434943333
 21
162.7544989106
  0
LINE
  5
32F
100
AcDbEntity
  8
0
100
AcDbLine
 62
7
  6
CONTINUOUS
 10
208.2434943333
 20
163.4294989106
 11
208.2434943333
 21
163.7794989106
  0
LINE
  5
330
100
AcDbEntity
  8
0
100
AcDbLine
 62
7
  6
CONTINUOUS
 10
208.2434943333
 20
164.4544989106
 11
208.2434943333
 21
164.8044989106
  0
LINE
  5
331
100
AcDbEntity
  8
0
100
AcDbLine
 62
7
  6
CONTINUOUS
 10
208.2434943333
 20
165.4794989106
 11
208.2434943333
 21
165.8294989106
  0
LINE
  5
332
100
AcDbEntity
  8
0
100
AcDbLine
 62
7
  6
CONTINUOUS
 10
208.2434943333
 20
166.5044989106
 11
208.2434943333
 21
166.8544989106
  0
LINE
  5
333
100
AcDbEntity
  8
0
100
AcDbLine
 62
7
  6
CONTINUOUS
 10
208.2434943333
 20
167.5294989106
 11
208.2434943333
 21
167.8794989106
  0
LINE
  5
334
100
AcDbEntity
  8
0
100
AcDbLine
 62
7
  6
CONTINUOUS
 10
208.2434943333
 20
168.5544989106
 11
208.2434943333
 21
168.9044989106
  0
LINE
  5
335
100
AcDbEntity
  8
0
100
AcDbLine
 62
7
  6
CONTINUOUS
 10
208.2434943333
 20
169.5794989106
 11
208.2434943333
 21
169.9294989106
  0
LINE
  5
336
100
AcDbEntity
  8
0
100
AcDbLine
 62
7
  6
CONTINUOUS
 10
210.5259528606
 20
169.9294989106
 11
210.5259528606
 21
169.5794989106
  0
LINE
  5
337
100
AcDbEntity
  8
0
100
AcDbLine
 62
7
  6
CONTINUOUS
 10
210.5259528606
 20
168.9044989106
 11
210.5259528606
 21
168.5544989106
  0
LINE
  5
338
100
AcDbEntity
  8
0
100
AcDbLine
 62
7
  6
CONTINUOUS
 10
210.5259528606
 20
167.8794989106
 11
210.5259528606
 21
167.5294989106
  0
LINE
  5
339
100
AcDbEntity
  8
0
100
AcDbLine
 62
7
  6
CONTINUOUS
 10
210.5259528606
 20
166.8544989106
 11
210.5259528606
 21
166.5044989106
  0
LINE
  5
33A
100
AcDbEntity
  8
0
100
AcDbLine
 62
7
  6
CONTINUOUS
 10
210.5259528606
 20
165.8294989106
 11
210.5259528606
 21
165.4794989106
  0
LINE
  5
33B
100
AcDbEntity
  8
0
100
AcDbLine
 62
7
  6
CONTINUOUS
 10
210.5259528606
 20
164.8044989106
 11
210.5259528606
 21
164.4544989106
  0
LINE
  5
33C
100
AcDbEntity
  8
0
100
AcDbLine
 62
7
  6
CONTINUOUS
 10
210.5259528606
 20
163.7794989106
 11
210.5259528606
 21
163.4294989106
  0
LINE
  5
33D
100
AcDbEntity
  8
0
100
AcDbLine
 62
7
  6
CONTINUOUS
 10
210.5259528606
 20
162.7544989106
 11
210.5259528606
 21
162.4044989106
  0
LINE
  5
33E
100
AcDbEntity
  8
0
100
AcDbLine
 62
7
  6
CONTINUOUS
 10
210.7804387388
 20
162.4044989106
 11
210.7804387388
 21
162.7544989106
  0
LINE
  5
33F
100
AcDbEntity
  8
0
100
AcDbLine
 62
7
  6
CONTINUOUS
 10
210.7804387388
 20
163.4294989106
 11
210.7804387388
 21
163.7794989106
  0
LINE
  5
340
100
AcDbEntity
  8
0
100
AcDbLine
 62
7
  6
CONTINUOUS
 10
210.7804387388
 20
164.4544989106
 11
210.7804387388
 21
164.8044989106
  0
LINE
  5
341
100
AcDbEntity
  8
0
100
AcDbLine
 62
7
  6
CONTINUOUS
 10
210.7804387388
 20
165.4794989106
 11
210.7804387388
 21
165.8294989106
  0
LINE
  5
342
100
AcDbEntity
  8
0
100
AcDbLine
 62
7
  6
CONTINUOUS
 10
210.7804387388
 20
166.5044989106
 11
210.7804387388
 21
166.8544989106
  0
LINE
  5
343
100
AcDbEntity
  8
0
100
AcDbLine
 62
7
  6
CONTINUOUS
 10
210.7804387388
 20
167.5294989106
 11
210.7804387388
 21
167.8794989106
  0
LINE
  5
344
100
AcDbEntity
  8
0
100
AcDbLine
 62
7
  6
CONTINUOUS
 10
210.7804387388
 20
168.5544989106
 11
210.7804387388
 21
168.9044989106
  0
LINE
  5
345
100
AcDbEntity
  8
0
100
AcDbLine
 62
7
  6
CONTINUOUS
 10
210.7804387388
 20
169.5794989106
 11
210.7804387388
 21
169.9294989106
  0
LINE
  5
346
100
AcDbEntity
  8
0
100
AcDbLine
 62
7
  6
CONTINUOUS
 10
210.859648533
 20
169.9294989106
 11
210.859648533
 21
169.5794989106
  0
LINE
  5
347
100
AcDbEntity
  8
0
100
AcDbLine
 62
7
  6
CONTINUOUS
 10
210.859648533
 20
168.9044989106
 11
210.859648533
 21
168.5544989106
  0
LINE
  5
348
100
AcDbEntity
  8
0
100
AcDbLine
 62
7
  6
CONTINUOUS
 10
210.859648533
 20
167.8794989106
 11
210.859648533
 21
167.5294989106
  0
LINE
  5
349
100
AcDbEntity
  8
0
100
AcDbLine
 62
7
  6
CONTINUOUS
 10
210.859648533
 20
166.8544989106
 11
210.859648533
 21
166.5044989106
  0
LINE
  5
34A
100
AcDbEntity
  8
0
100
AcDbLine
 62
7
  6
CONTINUOUS
 10
210.859648533
 20
165.8294989106
 11
210.859648533
 21
165.4794989106
  0
LINE
  5
34B
100
AcDbEntity
  8
0
100
AcDbLine
 62
7
  6
CONTINUOUS
 10
210.859648533
 20
164.8044989106
 11
210.859648533
 21
164.4544989106
  0
LINE
  5
34C
100
AcDbEntity
  8
0
100
AcDbLine
 62
7
  6
CONTINUOUS
 10
210.859648533
 20
163.7794989106
 11
210.859648533
 21
163.4294989106
  0
LINE
  5
34D
100
AcDbEntity
  8
0
100
AcDbLine
 62
7
  6
CONTINUOUS
 10
210.859648533
 20
162.7544989106
 11
210.859648533
 21
162.4044989106
  0
LINE
  5
34E
100
AcDbEntity
  8
0
100
AcDbLine
 62
7
  6
CONTINUOUS
 10
211.1037685835
 20
162.4044989106
 11
211.1037685836
 21
162.7544989106
  0
LINE
  5
34F
100
AcDbEntity
  8
0
100
AcDbLine
 62
7
  6
CONTINUOUS
 10
211.1037685835
 20
163.4294989106
 11
211.1037685836
 21
163.7794989106
  0
LINE
  5
350
100
AcDbEntity
  8
0
100
AcDbLine
 62
7
  6
CONTINUOUS
 10
211.1037685835
 20
164.4544989106
 11
211.1037685836
 21
164.8044989106
  0
LINE
  5
351
100
AcDbEntity
  8
0
100
AcDbLine
 62
7
  6
CONTINUOUS
 10
211.1037685835
 20
165.4794989106
 11
211.1037685836
 21
165.8294989106
  0
LINE
  5
352
100
AcDbEntity
  8
0
100
AcDbLine
 62
7
  6
CONTINUOUS
 10
211.1037685835
 20
166.5044989106
 11
211.1037685836
 21
166.8544989106
  0
LINE
  5
353
100
AcDbEntity
  8
0
100
AcDbLine
 62
7
  6
CONTINUOUS
 10
211.1037685835
 20
167.5294989106
 11
211.1037685836
 21
167.8794989106
  0
LINE
  5
354
100
AcDbEntity
  8
0
100
AcDbLine
 62
7
  6
CONTINUOUS
 10
211.1037685835
 20
168.5544989106
 11
211.1037685836
 21
168.9044989106
  0
LINE
  5
355
100
AcDbEntity
  8
0
100
AcDbLine
 62
7
  6
CONTINUOUS
 10
211.1037685835
 20
169.5794989106
 11
211.1037685836
 21
169.9294989106
  0
LINE
  5
356
100
AcDbEntity
  8
0
100
AcDbLine
 62
7
  6
CONTINUOUS
 10
211.1347235976
 20
169.9294989106
 11
211.1347235976
 21
169.5794989106
  0
LINE
  5
357
100
AcDbEntity
  8
0
100
AcDbLine
 62
7
  6
CONTINUOUS
 10
211.1347235976
 20
168.9044989106
 11
211.1347235976
 21
168.5544989106
  0
LINE
  5
358
100
AcDbEntity
  8
0
100
AcDbLine
 62
7
  6
CONTINUOUS
 10
211.1347235976
 20
167.8794989106
 11
211.1347235976
 21
167.5294989106
  0
LINE
  5
359
100
AcDbEntity
  8
0
100
AcDbLine
 62
7
  6
CONTINUOUS
 10
211.1347235976
 20
166.8544989106
 11
211.1347235976
 21
166.5044989106
  0
LINE
  5
35A
100
AcDbEntity
  8
0
100
AcDbLine
 62
7
  6
CONTINUOUS
 10
211.1347235976
 20
165.8294989106
 11
211.1347235976
 21
165.4794989106
  0
LINE
  5
35B
100
AcDbEntity
  8
0
100
AcDbLine
 62
7
  6
CONTINUOUS
 10
211.1347235976
 20
164.8044989106
 11
211.1347235976
 21
164.4544989106
  0
LINE
  5
35C
100
AcDbEntity
  8
0
100
AcDbLine
 62
7
  6
CONTINUOUS
 10
211.1347235976
 20
163.7794989106
 11
211.1347235976
 21
163.4294989106
  0
LINE
  5
35D
100
AcDbEntity
  8
0
100
AcDbLine
 62
7
  6
CONTINUOUS
 10
211.1347235976
 20
162.7544989106
 11
211.1347235976
 21
162.4044989106
  0
LINE
  5
35E
100
AcDbEntity
  8
0
100
AcDbLine
 62
7
  6
CONTINUOUS
 10
212.3597235976
 20
160.4294989106
 11
212.3597235976
 21
171.9094989106
  0
LINE
  5
35F
100
AcDbEntity
  8
0
100
AcDbLine
 62
7
  6
CONTINUOUS
 10
213.2597235976
 20
163.1694989106
 11
213.2597235976
 21
169.1694989106
  0
ARC
  5
360
100
AcDbEntity
  8
0
100
AcDbCircle
 62
7
  6
CONTINUOUS
 10
45.3482025816
 20
117.2783051467
 40
68.8602157039
100
AcDbArc
 50
64.6230665229
 51
80.1965160592
  0
ARC
  5
361
100
AcDbEntity
  8
0
100
AcDbCircle
 62
7
  6
CONTINUOUS
 10
45.3482025816
 20
117.2783051467
 40
67.8602157039
100
AcDbArc
 50
65.3743928805
 51
73.2630991892
  0
ARC
  5
362
100
AcDbEntity
  8
0
100
AcDbCircle
 62
7
  6
CONTINUOUS
 10
47.6588562709
 20
133.1463452106
 40
52.0523529504
100
AcDbArc
 50
70.6679295408
 51
72.0657116955
  0
ARC
  5
363
100
AcDbEntity
  8
0
100
AcDbCircle
 62
7
  6
CONTINUOUS
 10
44.3597235976
 20
149.6694989106
 40
2.5
100
AcDbArc
 50
180.0
 51
270.0
  0
CIRCLE
  5
364
100
AcDbEntity
  8
0
100
AcDbCircle
 62
7
  6
CONTINUOUS
 10
31.2897235976
 20
163.565071492
 40
1.9999931294
  0
CIRCLE
  5
365
100
AcDbEntity
  8
0
100
AcDbCircle
 62
7
  6
CONTINUOUS
 10
31.2897235976
 20
158.3950714919
 40
1.9999931294
  0
CIRCLE
  5
366
100
AcDbEntity
  8
0
100
AcDbCircle
 62
7
  6
CONTINUOUS
 10
31.2897235976
 20
153.315071492
 40
1.9999931294
  0
CIRCLE
  5
367
100
AcDbEntity
  8
0
100
AcDbCircle
 62
7
  6
CONTINUOUS
 10
31.2897182594
 20
158.3950834295
 40
1.8914725656
  0
CIRCLE
  5
368
100
AcDbEntity
  8
0
100
AcDbCircle
 62
7
  6
CONTINUOUS
 10
31.2897182594
 20
153.3150834295
 40
1.8914725656
  0
CIRCLE
  5
369
100
AcDbEntity
  8
0
100
AcDbCircle
 62
7
  6
CONTINUOUS
 10
31.2897182594
 20
163.5650834295
 40
1.8914725656
  0
ARC
  5
36A
100
AcDbEntity
  8
0
100
AcDbCircle
 62
7
  6
CONTINUOUS
 10
51.6642876798
 20
155.0165725278
 40
32.4940535752
100
AcDbArc
 50
46.5092556998
 51
47.4815313655
  0
ARC
  5
36B
100
AcDbEntity
  8
0
100
AcDbCircle
 62
7
  6
CONTINUOUS
 10
71.8597235976
 20
159.1694989106
 40
7.0
100
AcDbArc
 50
295.3769316956
 51
360.0
  0
ARC
  5
36C
100
AcDbEntity
  8
0
100
AcDbCircle
 62
7
  6
CONTINUOUS
 10
71.8597235976
 20
159.1694989106
 40
6.0
100
AcDbArc
 50
309.1769784547
 51
360.0
  0
ARC
  5
36D
100
AcDbEntity
  8
0
100
AcDbCircle
 62
7
  6
CONTINUOUS
 10
56.6473178745
 20
149.6694989106
 40
2.5
100
AcDbArc
 50
270.0
 51
279.8034839408
  0
CIRCLE
  5
36E
100
AcDbEntity
  8
0
100
AcDbCircle
 62
7
  6
CONTINUOUS
 10
70.8597235976
 20
156.9144989106
 40
1.345
  0
ARC
  5
36F
100
AcDbEntity
  8
0
100
AcDbCircle
 62
7
  6
CONTINUOUS
 10
51.5568540014
 20
177.4375467592
 40
32.6515121287
100
AcDbArc
 50
312.520894458
 51
313.488481389
  0
ARC
  5
370
100
AcDbEntity
  8
0
100
AcDbCircle
 62
7
  6
CONTINUOUS
 10
44.3597235976
 20
182.6694989106
 40
2.5
100
AcDbArc
 50
90.0
 51
180.0
  0
CIRCLE
  5
371
100
AcDbEntity
  8
0
100
AcDbCircle
 62
7
  6
CONTINUOUS
 10
31.2897235976
 20
168.6450714919
 40
1.9999931294
  0
CIRCLE
  5
372
100
AcDbEntity
  8
0
100
AcDbCircle
 62
7
  6
CONTINUOUS
 10
31.2897235976
 20
178.895071492
 40
1.9999931294
  0
CIRCLE
  5
373
100
AcDbEntity
  8
0
100
AcDbCircle
 62
7
  6
CONTINUOUS
 10
31.2897235976
 20
173.815071492
 40
1.9999931294
  0
CIRCLE
  5
374
100
AcDbEntity
  8
0
100
AcDbCircle
 62
7
  6
CONTINUOUS
 10
31.2897182594
 20
168.6450834295
 40
1.8914725656
  0
CIRCLE
  5
375
100
AcDbEntity
  8
0
100
AcDbCircle
 62
7
  6
CONTINUOUS
 10
31.2897182594
 20
178.8950834295
 40
1.8914725656
  0
CIRCLE
  5
376
100
AcDbEntity
  8
0
100
AcDbCircle
 62
7
  6
CONTINUOUS
 10
31.2897182594
 20
173.8150834295
 40
1.8914725656
  0
ARC
  5
377
100
AcDbEntity
  8
0
100
AcDbCircle
 62
7
  6
CONTINUOUS
 10
45.3482025816
 20
215.0606926746
 40
68.8602157039
100
AcDbArc
 50
279.8034839408
 51
295.3769333392
  0
ARC
  5
378
100
AcDbEntity
  8
0
100
AcDbCircle
 62
7
  6
CONTINUOUS
 10
45.3482025816
 20
215.0606926746
 40
67.8602157039
100
AcDbArc
 50
286.7369008111
 51
294.6256069977
  0
ARC
  5
379
100
AcDbEntity
  8
0
100
AcDbCircle
 62
7
  6
CONTINUOUS
 10
47.6414432822
 20
199.2442956462
 40
52.1068485566
100
AcDbArc
 50
287.9350190852
 51
289.3313393747
  0
ARC
  5
37A
100
AcDbEntity
  8
0
100
AcDbCircle
 62
7
  6
CONTINUOUS
 10
71.8597235976
 20
173.1694989106
 40
7.0
100
AcDbArc
 50
0.0
 51
64.6230669472
  0
ARC
  5
37B
100
AcDbEntity
  8
0
100
AcDbCircle
 62
7
  6
CONTINUOUS
 10
71.8597235976
 20
173.1694989106
 40
6.0
100
AcDbArc
 50
0.0
 51
50.8232136145
  0
ARC
  5
37C
100
AcDbEntity
  8
0
100
AcDbCircle
 62
7
  6
CONTINUOUS
 10
56.6473178745
 20
182.6694989106
 40
2.5
100
AcDbArc
 50
80.1965160592
 51
90.0
  0
CIRCLE
  5
37D
100
AcDbEntity
  8
0
100
AcDbCircle
 62
7
  6
CONTINUOUS
 10
70.8597235976
 20
175.4244989106
 40
1.345
  0
ARC
  5
37E
100
AcDbEntity
  8
0
100
AcDbCircle
 62
7
  6
CONTINUOUS
 10
198.7597235976
 20
160.4294989106
 40
0.1
100
AcDbArc
 50
270.0
 51
360.0
  0
ARC
  5
37F
100
AcDbEntity
  8
0
100
AcDbCircle
 62
7
  6
CONTINUOUS
 10
189.3597235976
 20
160.5611138897
 40
0.1
100
AcDbArc
 50
180.0
 51
264.9999999688
  0
ARC
  5
380
100
AcDbEntity
  8
0
100
AcDbCircle
 62
7
  6
CONTINUOUS
 10
186.4597235976
 20
160.8148310139
 40
0.1
100
AcDbArc
 50
180.0000000194
 51
264.9999999856
  0
ARC
  5
381
100
AcDbEntity
  8
0
100
AcDbCircle
 62
7
  6
CONTINUOUS
 10
180.6597235976
 20
161.3222652624
 40
0.1
100
AcDbArc
 50
180.0
 51
264.9999986963
  0
ARC
  5
382
100
AcDbEntity
  8
0
100
AcDbCircle
 62
7
  6
CONTINUOUS
 10
183.5597235976
 20
161.0685481381
 40
0.1
100
AcDbArc
 50
179.99999994
 51
264.9999999856
  0
ARC
  5
383
100
AcDbEntity
  8
0
100
AcDbCircle
 62
7
  6
CONTINUOUS
 10
212.2597235976
 20
160.4294989106
 40
0.1
100
AcDbArc
 50
270.0
 51
360.0
  0
ARC
  5
384
100
AcDbEntity
  8
0
100
AcDbCircle
 62
7
  6
CONTINUOUS
 10
186.4597235976
 20
171.5241668074
 40
0.1
100
AcDbArc
 50
95.3078490383
 51
180.0000000515
  0
ARC
  5
385
100
AcDbEntity
  8
0
100
AcDbCircle
 62
7
  6
CONTINUOUS
 10
183.5597235976
 20
171.2704496832
 40
0.1
100
AcDbArc
 50
95.3078539476
 51
180.0000000368
  0
ARC
  5
386
100
AcDbEntity
  8
0
100
AcDbCircle
 62
7
  6
CONTINUOUS
 10
180.6597235976
 20
171.0167325589
 40
0.1
100
AcDbArc
 50
95.0000013037
 51
180.0
  0
ARC
  5
387
100
AcDbEntity
  8
0
100
AcDbCircle
 62
7
  6
CONTINUOUS
 10
212.2597235976
 20
171.9094989106
 40
0.1
100
AcDbArc
 50
0.0
 51
90.0
  0
ARC
  5
388
100
AcDbEntity
  8
0
100
AcDbCircle
 62
7
  6
CONTINUOUS
 10
198.7597235976
 20
171.9094989106
 40
0.1
100
AcDbArc
 50
0.0
 51
90.0
  0
ARC
  5
389
100
AcDbEntity
  8
0
100
AcDbCircle
 62
7
  6
CONTINUOUS
 10
189.3597235976
 20
171.7778839316
 40
0.1
100
AcDbArc
 50
95.2177285287
 51
180.2558477802
  0
SPLINE
  5
38A
100
AcDbEntity
  8
0
100
AcDbSpline
 62
7
  6
CONTINUOUS
 70
0
 71
3
 72
25
 73
21
 74
0
 42
0.0000001
 43
0.0000001
 44
0.0000000001
 40
0.0
 40
0.0
 40
0.0
 40
0.0
 40
0.1947580853
 40
0.382239732
 40
0.5550056843
 40
0.6338400958
 40
0.7066082801
 40
0.7725706863
 40
0.8311141964
 40
0.881659677
 40
0.9237015472
 40
0.9414119276
 40
0.9568525254
 40
0.9699764902
 40
0.9807482821
 40
0.9891508854
 40
0.995169156
 40
0.9972795936
 40
0.9987886597
 40
1.0
 40
1.0
 40
1.0
 40
1.0
 10
183.5597235975
 20
170.5677757909
 30
0.0
 10
183.5592450005
 20
170.619859257
 30
0.0
 10
183.5580731103
 20
170.7220779982
 30
0.0
 10
183.5563986616
 20
170.8704979887
 30
0.0
 10
183.5551622338
 20
170.9879186002
 30
0.0
 10
183.5542189789
 20
171.0746618704
 30
0.0
 10
183.5535831713
 20
171.1328434831
 30
0.0
 10
183.5530039453
 20
171.1855988753
 30
0.0
 10
183.5524948337
 20
171.2324113679
 30
0.0
 10
183.5520726819
 20
171.2728275386
 30
0.0
 10
183.5517796233
 20
171.3023231774
 30
0.0
 10
183.5515622286
 20
171.3224325449
 30
0.0
 10
183.5514105434
 20
171.3348046165
 30
0.0
 10
183.5512644528
 20
171.3453314972
 30
0.0
 10
183.5510936758
 20
171.3539458833
 30
0.0
 10
183.550976338
 20
171.3607383209
 30
0.0
 10
183.5507612212
 20
171.3650394536
 30
0.0
 10
183.5507566644
 20
171.3677735387
 30
0.0
 10
183.5504911886
 20
171.3687838561
 30
0.0
 10
183.5507955407
 20
171.3700505631
 30
0.0
 10
183.5504728153
 20
171.3700223283
 30
0.0
  0
SPLINE
  5
38B
100
AcDbEntity
  8
0
100
AcDbSpline
 62
7
  6
CONTINUOUS
 70
0
 71
3
 72
22
 73
18
 74
0
 42
0.0000001
 43
0.0000001
 44
0.0000000001
 40
0.0
 40
0.0
 40
0.0
 40
0.0
 40
0.0012145287
 40
0.0048416895
 40
0.010866108
 40
0.0192721745
 40
0.0300442535
 40
0.0431651158
 40
0.0763020997
 40
0.1183245691
 40
0.1688515366
 40
0.2273804558
 40
0.2933311951
 40
0.4449202837
 40
0.6176934554
 40
0.8052026761
 40
1.0
 40
1.0
 40
1.0
 40
1.0
 10
186.4510080233
 20
160.7152115441
 30
0.0
 10
186.4508058786
 20
160.7152292292
 30
0.0
 10
186.4512842279
 20
160.7164879551
 30
0.0
 10
186.4508532437
 20
160.717870258
 30
0.0
 10
186.4511603489
 20
160.7211327171
 30
0.0
 10
186.4511192438
 20
160.7252345825
 30
0.0
 10
186.4512596208
 20
160.7306717928
 30
0.0
 10
186.4514123173
 20
160.7401787058
 30
0.0
 10
186.4516966205
 20
160.7549384217
 30
0.0
 10
186.45207098
 20
160.7759284756
 30
0.0
 10
186.4525176462
 20
160.8011678462
 30
0.0
 10
186.4530206725
 20
160.8304020083
 30
0.0
 10
186.4538039907
 20
160.8765196752
 30
0.0
 10
186.4548939961
 20
160.9417217725
 30
0.0
 10
186.4564535538
 20
161.027228315
 30
0.0
 10
186.4581793156
 20
161.1199518802
 30
0.0
 10
186.459252463
 20
161.1838166919
 30
0.0
 10
186.4597235953
 20
161.2163589491
 30
0.0
  0
SPLINE
  5
38C
100
AcDbEntity
  8
0
100
AcDbSpline
 62
7
  6
CONTINUOUS
 70
0
 71
3
 72
22
 73
18
 74
0
 42
0.0000001
 43
0.0000001
 44
0.0000000001
 40
0.0
 40
0.0
 40
0.0
 40
0.0
 40
0.19480336
 40
0.3823189477
 40
0.5550988575
 40
0.7066937836
 40
0.7726465286
 40
0.8311777007
 40
0.8817088099
 40
0.9237353378
 40
0.9568708188
 40
0.9699873099
 40
0.9807521888
 40
0.9891487504
 40
0.9951623334
 40
0.9987796652
 40
1.0
 40
1.0
 40
1.0
 40
1.0
 10
186.4597235978
 20
171.1226388612
 30
0.0
 10
186.4592529162
 20
171.1551809396
 30
0.0
 10
186.4581801638
 20
171.2190454885
 30
0.0
 10
186.4564542067
 20
171.3117688444
 30
0.0
 10
186.454895028
 20
171.397275427
 30
0.0
 10
186.4538045997
 20
171.4624775463
 30
0.0
 10
186.4530161076
 20
171.5085951456
 30
0.0
 10
186.4525120701
 20
171.5378295585
 30
0.0
 10
186.4520847797
 20
171.5630702718
 30
0.0
 10
186.4517285308
 20
171.5840604603
 30
0.0
 10
186.4514631493
 20
171.5988209079
 30
0.0
 10
186.4512270734
 20
171.6083218487
 30
0.0
 10
186.4510979356
 20
171.6137590831
 30
0.0
 10
186.4508796578
 20
171.617841069
 30
0.0
 10
186.4508890277
 20
171.6211249681
 30
0.0
 10
186.450495674
 20
171.6224489073
 30
0.0
 10
186.450675916
 20
171.6237572216
 30
0.0
 10
186.4504728125
 20
171.6237394523
 30
0.0
  0
SPLINE
  5
38D
100
AcDbEntity
  8
0
100
AcDbSpline
 62
7
  6
CONTINUOUS
 70
0
 71
3
 72
13
 73
9
 74
0
 42
0.0000001
 43
0.0000001
 44
0.0000000001
 40
0.0
 40
0.0
 40
0.0
 40
0.0
 40
0.2762423713
 40
0.5390305625
 40
0.6627338889
 40
0.780415397
 40
0.8925041029
 40
1.0
 40
1.0
 40
1.0
 40
1.0
 10
58.6496249283
 20
149.6694989106
 30
0.0
 10
58.6496249283
 20
149.3877070833
 30
0.0
 10
58.5805379468
 20
148.8354145151
 30
0.0
 10
58.3206875303
 20
148.2005842298
 30
0.0
 10
58.0196036754
 20
147.7810711727
 30
0.0
 10
57.7613966428
 20
147.5265426506
 30
0.0
 10
57.4736518716
 20
147.3341060084
 30
0.0
 10
57.2638651127
 20
147.249882474
 30
0.0
 10
57.1581438318
 20
147.2207737884
 30
0.0
  0
SPLINE
  5
38E
100
AcDbEntity
  8
0
100
AcDbSpline
 62
7
  6
CONTINUOUS
 70
0
 71
3
 72
13
 73
9
 74
0
 42
0.0000001
 43
0.0000001
 44
0.0000000001
 40
0.0
 40
0.0
 40
0.0
 40
0.0
 40
0.1074958971
 40
0.2195846031
 40
0.3372661111
 40
0.4609694375
 40
0.7237576287
 40
1.0
 40
1.0
 40
1.0
 40
1.0
 10
57.1581438337
 20
185.1182240324
 30
0.0
 10
57.2638651145
 20
185.0891153467
 30
0.0
 10
57.4736518732
 20
185.004891812
 30
0.0
 10
57.761396644
 20
184.8124551696
 30
0.0
 10
58.0196036763
 20
184.5579266476
 30
0.0
 10
58.3206875307
 20
184.1384135905
 30
0.0
 10
58.5805379469
 20
183.5035833055
 30
0.0
 10
58.6496249283
 20
182.9512907378
 30
0.0
 10
58.6496249283
 20
182.6694989106
 30
0.0
  0
SPLINE
  5
38F
100
AcDbEntity
  8
0
100
AcDbSpline
 62
7
  6
CONTINUOUS
 70
0
 71
3
 72
13
 73
9
 74
0
 42
0.0000001
 43
0.0000001
 44
0.0000000001
 40
0.0
 40
0.0
 40
0.0
 40
0.0
 40
0.1289666548
 40
0.2582852211
 40
0.3874862509
 40
0.5160081153
 40
0.7667812548
 40
1.0
 40
1.0
 40
1.0
 40
1.0
 10
63.6871300898
 20
182.6694989106
 30
0.0
 10
63.5583256991
 20
182.7917666982
 30
0.0
 10
63.2960261453
 20
183.0322324591
 30
0.0
 10
62.87923669
 20
183.366258798
 30
0.0
 10
62.4358407614
 20
183.6633222939
 30
0.0
 10
61.820596985
 20
183.9995022191
 30
0.0
 10
61.0323233271
 20
184.3089632218
 30
0.0
 10
60.386396342
 20
184.4771529562
 30
0.0
 10
60.0726679564
 20
184.5458261808
 30
0.0
  0
SPLINE
  5
390
100
AcDbEntity
  8
0
100
AcDbSpline
 62
7
  6
CONTINUOUS
 70
0
 71
3
 72
13
 73
9
 74
0
 42
0.0000001
 43
0.0000001
 44
0.0000000001
 40
0.0
 40
0.0
 40
0.0
 40
0.0
 40
0.2332188366
 40
0.4839919889
 40
0.612513835
 40
0.741714839
 40
0.8710333772
 40
1.0
 40
1.0
 40
1.0
 40
1.0
 10
60.0726744483
 20
147.7931731764
 30
0.0
 10
60.3864025068
 20
147.8618463858
 30
0.0
 10
61.0323286309
 20
148.0300363545
 30
0.0
 10
61.8206010586
 20
148.3394975515
 30
0.0
 10
62.4358437427
 20
148.6756773507
 30
0.0
 10
62.8792386972
 20
148.9727407854
 30
0.0
 10
63.2960273899
 20
149.3067666513
 30
0.0
 10
63.5583269936
 20
149.5472314903
 30
0.0
 10
63.68713133
 20
149.6694989106
 30
0.0
  0
SPLINE
  5
391
100
AcDbEntity
  8
0
100
AcDbSpline
 62
7
  6
CONTINUOUS
 70
0
 71
3
 72
14
 73
10
 74
0
 42
0.0000001
 43
0.0000001
 44
0.0000000001
 40
0.0
 40
0.0
 40
0.0
 40
0.0
 40
0.2954788708
 40
0.4547651187
 40
0.6078798087
 40
0.7436062717
 40
0.8541733695
 40
0.9367620276
 40
1.0
 40
1.0
 40
1.0
 40
1.0
 10
74.0279159389
 20
178.5905464002
 30
0.0
 10
74.0753212232
 20
178.7098908498
 30
0.0
 10
74.1614819352
 20
178.88879373
 30
0.0
 10
74.303025214
 20
179.1121126954
 30
0.0
 10
74.421970617
 20
179.2668459777
 30
0.0
 10
74.5449349688
 20
179.3901600339
 30
0.0
 10
74.6616313497
 20
179.4743021437
 30
0.0
 10
74.7683526316
 20
179.513587998
 30
0.0
 10
74.8348921607
 20
179.5058328148
 30
0.0
 10
74.859723407
 20
179.4940543214
 30
0.0
  0
SPLINE
  5
392
100
AcDbEntity
  8
0
100
AcDbSpline
 62
7
  6
CONTINUOUS
 70
0
 71
3
 72
10
 73
6
 74
0
 42
0.0000001
 43
0.0000001
 44
0.0000000001
 40
0.0
 40
0.0
 40
0.0
 40
0.0
 40
0.2637381803
 40
0.5217451705
 40
1.0
 40
1.0
 40
1.0
 40
1.0
 10
60.4075998404
 20
182.6694989106
 30
0.0
 10
60.4075998404
 20
182.8558060393
 30
0.0
 10
60.376643874
 20
183.2254993574
 30
0.0
 10
60.1999646703
 20
183.9107075334
 30
0.0
 10
59.9340455855
 20
184.3794291716
 30
0.0
 10
59.7027953191
 20
184.6257250983
 30
0.0
  0
SPLINE
  5
393
100
AcDbEntity
  8
0
100
AcDbSpline
 62
7
  6
CONTINUOUS
 70
0
 71
3
 72
15
 73
11
 74
0
 42
0.0000001
 43
0.0000001
 44
0.0000000001
 40
0.0
 40
0.0
 40
0.0
 40
0.0
 40
0.1527384649
 40
0.3155027122
 40
0.4791637541
 40
0.6316518351
 40
0.7620737675
 40
0.8654432875
 40
0.9416107811
 40
1.0
 40
1.0
 40
1.0
 40
1.0
 10
74.0279157134
 20
153.7484510327
 30
0.0
 10
74.0524297324
 20
153.6867361672
 30
0.0
 10
74.1079806571
 20
153.5611657493
 30
0.0
 10
74.2062688969
 20
153.3772296636
 30
0.0
 10
74.3201574354
 20
153.202609182
 30
0.0
 10
74.4412543305
 20
153.0503046362
 30
0.0
 10
74.5629737529
 20
152.9337040095
 30
0.0
 10
74.6755003097
 20
152.8578481018
 30
0.0
 10
74.7759777005
 20
152.8251661358
 30
0.0
 10
74.8367868054
 20
152.8340637159
 30
0.0
 10
74.8597228672
 20
152.8449432438
 30
0.0
  0
SPLINE
  5
394
100
AcDbEntity
  8
0
100
AcDbSpline
 62
7
  6
CONTINUOUS
 70
0
 71
3
 72
11
 73
7
 74
0
 42
0.0000001
 43
0.0000001
 44
0.0000000001
 40
0.0
 40
0.0
 40
0.0
 40
0.0
 40
0.2343918167
 40
0.4867966387
 40
0.7466686976
 40
1.0
 40
1.0
 40
1.0
 40
1.0
 10
75.8431886657
 20
178.7452336811
 30
0.0
 10
75.7258636784
 20
178.7452866367
 30
0.0
 10
75.4808653364
 20
178.6913278991
 30
0.0
 10
75.1604454556
 20
178.487072649
 30
0.0
 10
74.9114220527
 20
178.1882302472
 30
0.0
 10
74.8133119159
 20
177.9448668841
 30
0.0
 10
74.7874205492
 20
177.8207331296
 30
0.0
  0
SPLINE
  5
395
100
AcDbEntity
  8
0
100
AcDbSpline
 62
7
  6
CONTINUOUS
 70
0
 71
3
 72
13
 73
9
 74
0
 42
0.0000001
 43
0.0000001
 44
0.0000000001
 40
0.0
 40
0.0
 40
0.0
 40
0.0
 40
0.2238630376
 40
0.3515903843
 40
0.4855644923
 40
0.6219552885
 40
0.7558818356
 40
1.0
 40
1.0
 40
1.0
 40
1.0
 10
74.4872939627
 20
178.0500039473
 30
0.0
 10
74.5074980721
 20
178.1603742347
 30
0.0
 10
74.5665711167
 20
178.3299023202
 30
0.0
 10
74.6951791684
 20
178.5372664641
 30
0.0
 10
74.8258296949
 20
178.6893427963
 30
0.0
 10
74.9835277564
 20
178.8184204655
 30
0.0
 10
75.2086187933
 20
178.9456847867
 30
0.0
 10
75.3999857829
 20
178.9903825514
 30
0.0
 10
75.5223423211
 20
178.9903251464
 30
0.0
  0
SPLINE
  5
396
100
AcDbEntity
  8
0
100
AcDbSpline
 62
7
  6
CONTINUOUS
 70
0
 71
3
 72
9
 73
5
 74
0
 42
0.0000001
 43
0.0000001
 44
0.0000000001
 40
0.0
 40
0.0
 40
0.0
 40
0.0
 40
0.5352519294
 40
1.0
 40
1.0
 40
1.0
 40
1.0
 10
75.5223381039
 20
178.9903281619
 30
0.0
 10
75.5997246575
 20
178.9902920069
 30
0.0
 10
75.7455583232
 20
178.9686343393
 30
0.0
 10
75.8769183511
 20
178.9024583049
 30
0.0
 10
75.9315726438
 20
178.8633708934
 30
0.0
  0
SPLINE
  5
397
100
AcDbEntity
  8
0
100
AcDbSpline
 62
7
  6
CONTINUOUS
 70
0
 71
3
 72
9
 73
5
 74
0
 42
0.0000001
 43
0.0000001
 44
0.0000000001
 40
0.0
 40
0.0
 40
0.0
 40
0.0
 40
0.5104817815
 40
1.0
 40
1.0
 40
1.0
 40
1.0
 10
75.8431864178
 20
178.7452228034
 30
0.0
 10
75.9231982943
 20
178.7451866876
 30
0.0
 10
76.0813456005
 20
178.72145552
 30
0.0
 10
76.2222520111
 20
178.6443717021
 30
0.0
 10
76.2817301532
 20
178.5959026942
 30
0.0
  0
SPLINE
  5
398
100
AcDbEntity
  8
0
100
AcDbSpline
 62
7
  6
CONTINUOUS
 70
0
 71
3
 72
9
 73
5
 74
0
 42
0.0000001
 43
0.0000001
 44
0.0000000001
 40
0.0
 40
0.0
 40
0.0
 40
0.0
 40
0.2704683713
 40
1.0
 40
1.0
 40
1.0
 40
1.0
 10
74.0278947084
 20
178.5905196361
 30
0.0
 10
74.0743433974
 20
178.5464537629
 30
0.0
 10
74.2406389794
 20
178.3777992873
 30
0.0
 10
74.3883108398
 20
178.1914508494
 30
0.0
 10
74.4872672914
 20
178.0499184273
 30
0.0
  0
SPLINE
  5
399
100
AcDbEntity
  8
0
100
AcDbSpline
 62
7
  6
CONTINUOUS
 70
0
 71
3
 72
9
 73
5
 74
0
 42
0.0000001
 43
0.0000001
 44
0.0000000001
 40
0.0
 40
0.0
 40
0.0
 40
0.0
 40
0.2529282017
 40
1.0
 40
1.0
 40
1.0
 40
1.0
 10
74.7874081748
 20
154.5182434967
 30
0.0
 10
74.7627148222
 20
154.4981416672
 30
0.0
 10
74.6644528679
 20
154.4194456846
 30
0.0
 10
74.5637990583
 20
154.3437295792
 30
0.0
 10
74.4872825206
 20
154.2890459368
 30
0.0
  0
SPLINE
  5
39A
100
AcDbEntity
  8
0
100
AcDbSpline
 62
7
  6
CONTINUOUS
 70
0
 71
3
 72
9
 73
5
 74
0
 42
0.0000001
 43
0.0000001
 44
0.0000000001
 40
0.0
 40
0.0
 40
0.0
 40
0.0
 40
0.2471500367
 40
1.0
 40
1.0
 40
1.0
 40
1.0
 10
74.4872815913
 20
178.0500154263
 30
0.0
 10
74.5125935562
 20
178.0319145649
 30
0.0
 10
74.6144186312
 20
177.9578533494
 30
0.0
 10
74.7138857743
 20
177.8805574041
 30
0.0
 10
74.7874152995
 20
177.8207369362
 30
0.0
  0
SPLINE
  5
39B
100
AcDbEntity
  8
0
100
AcDbSpline
 62
7
  6
CONTINUOUS
 70
0
 71
3
 72
11
 73
7
 74
0
 42
0.0000001
 43
0.0000001
 44
0.0000000001
 40
0.0
 40
0.0
 40
0.0
 40
0.0
 40
0.2533548894
 40
0.5132445263
 40
0.7656430365
 40
1.0
 40
1.0
 40
1.0
 40
1.0
 10
74.7874610355
 20
154.5182883948
 30
0.0
 10
74.8133393987
 20
154.3940787214
 30
0.0
 10
74.911575235
 20
154.1505975286
 30
0.0
 10
75.1607763123
 20
153.8516408545
 30
0.0
 10
75.4814339342
 20
153.647438481
 30
0.0
 10
75.726575215
 20
153.5935897122
 30
0.0
 10
75.8439380012
 20
153.593770668
 30
0.0
  0
SPLINE
  5
39C
100
AcDbEntity
  8
0
100
AcDbSpline
 62
7
  6
CONTINUOUS
 70
0
 71
3
 72
9
 73
5
 74
0
 42
0.0000001
 43
0.0000001
 44
0.0000000001
 40
0.0
 40
0.0
 40
0.0
 40
0.0
 40
0.5104489356
 40
1.0
 40
1.0
 40
1.0
 40
1.0
 10
75.8439380012
 20
153.593770668
 30
0.0
 10
75.9238011603
 20
153.593893805
 30
0.0
 10
76.0816386718
 20
153.6176773127
 30
0.0
 10
76.2222648582
 20
153.694654092
 30
0.0
 10
76.28164512
 20
153.7430335286
 30
0.0
  0
SPLINE
  5
39D
100
AcDbEntity
  8
0
100
AcDbSpline
 62
7
  6
CONTINUOUS
 70
0
 71
3
 72
9
 73
5
 74
0
 42
0.0000001
 43
0.0000001
 44
0.0000000001
 40
0.0
 40
0.0
 40
0.0
 40
0.0
 40
0.464812301
 40
1.0
 40
1.0
 40
1.0
 40
1.0
 10
75.931458386
 20
153.4755423103
 30
0.0
 10
75.8769007996
 20
153.4365379392
 30
0.0
 10
75.7458236766
 20
153.3704841142
 30
0.0
 10
75.6003121723
 20
153.3487646686
 30
0.0
 10
75.5230918572
 20
153.3486537735
 30
0.0
  0
SPLINE
  5
39E
100
AcDbEntity
  8
0
100
AcDbSpline
 62
7
  6
CONTINUOUS
 70
0
 71
3
 72
11
 73
7
 74
0
 42
0.0000001
 43
0.0000001
 44
0.0000000001
 40
0.0
 40
0.0
 40
0.0
 40
0.0
 40
0.2336003957
 40
0.4848010578
 40
0.7446297659
 40
1.0
 40
1.0
 40
1.0
 40
1.0
 10
75.5230891258
 20
153.3486543176
 30
0.0
 10
75.4061512378
 20
153.3484815378
 30
0.0
 10
75.1619292321
 20
153.4030285392
 30
0.0
 10
74.8449706142
 20
153.6115344747
 30
0.0
 10
74.6023232194
 20
153.9164685325
 30
0.0
 10
74.510383533
 20
154.1633556857
 30
0.0
 10
74.4873614494
 20
154.2891013413
 30
0.0
  0
SPLINE
  5
39F
100
AcDbEntity
  8
0
100
AcDbSpline
 62
7
  6
CONTINUOUS
 70
0
 71
3
 72
9
 73
5
 74
0
 42
0.0000001
 43
0.0000001
 44
0.0000000001
 40
0.0
 40
0.0
 40
0.0
 40
0.0
 40
0.2212410775
 40
1.0
 40
1.0
 40
1.0
 40
1.0
 10
74.4872664895
 20
154.2890805391
 30
0.0
 10
74.4572634881
 20
154.2461697706
 30
0.0
 10
74.3180841514
 20
154.0548122104
 30
0.0
 10
74.1616006832
 20
153.8753254728
 30
0.0
 10
74.0278941803
 20
153.7484783822
 30
0.0
  0
SPLINE
  5
3A0
100
AcDbEntity
  8
0
100
AcDbSpline
 62
7
  6
CONTINUOUS
 70
0
 71
3
 72
10
 73
6
 74
0
 42
0.0000001
 43
0.0000001
 44
0.0000000001
 40
0.0
 40
0.0
 40
0.0
 40
0.0
 40
0.4782548295
 40
0.7362618197
 40
1.0
 40
1.0
 40
1.0
 40
1.0
 10
59.7027953191
 20
147.713272723
 30
0.0
 10
59.9340455829
 20
147.9595686521
 30
0.0
 10
60.1999646709
 20
148.4282902873
 30
0.0
 10
60.3766438738
 20
149.113498464
 30
0.0
 10
60.4075998404
 20
149.483191782
 30
0.0
 10
60.4075998404
 20
149.6694989106
 30
0.0
  0
ENDSEC
  0
SECTION
  2
OBJECTS
  0
DICTIONARY
  5
C
100
AcDbDictionary
280
0
281
1
  3
ACAD_GROUP
350
D
  3
ACAD_MLINESTYLE
350
17
  3
ACAD_LAYOUT
350
1A
  3
ACAD_PLOTSETTINGS
350
19
  3
ACAD_PLOTSTYLENAME
350
E
  0
DICTIONARY
  5
D
102
{ACAD_REACTORS
330
C
102
}
100
AcDbDictionary
280
0
281
1
  0
ACDBDICTIONARYWDFLT
  5
E
102
{ACAD_REACTORS
330
C
102
}
100
AcDbDictionary
281
1
  3
Normal
350
F
100
AcDbDictionaryWithDefault
340
F
  0
DICTIONARY
  5
17
102
{ACAD_REACTORS
330
C
102
}
100
AcDbDictionary
280
0
281
1
  3
Standard
350
18
  0
DICTIONARY
  5
19
102
{ACAD_REACTORS
330
C
102
}
100
AcDbDictionary
281
1
  0
DICTIONARY
  5
1A
102
{ACAD_REACTORS
330
C
102
}
100
AcDbDictionary
281
1
  3
Model
350
3A1
  3
Layout1
350
3A2
  0
ACDBPLACEHOLDER
  5
F
102
{ACAD_REACTORS
330
E
102
}
  0
MLINESTYLE
  5
18
102
{ACAD_REACTORS
330
17
102
}
100
AcDbMlineStyle
  2
STANDARD
 70
0
  3

 62
256
 51
90.0
 52
90.0
 71
2
 49
0.5
 62
256
  6
BYLAYER
 49
-0.5
 62
256
  6
BYLAYER
  0
LAYOUT
  5
3A1
102
{ACAD_REACTORS
330
1A
102
}
100
AcDbPlotSettings
  1

  2
none_device
  4

  6

 40
0.0
 41
0.0
 42
0.0
 43
0.0
 44
210.0
 45
297.0
 46
0.0
 47
0.0
 48
0.0
 49
0.0
140
0.0
141
0.0
142
1.0
143
1.0
 70
1024
 72
1
 73
0
 74
0
  7

 75
0
147
1.0
148
0.0
149
0.0
100
AcDbLayout
  1
Model
 70
0
 71
0
 10
0.0
 20
0.0
 11
210.0
 21
297.0
 12
0.0
 22
0.0
 32
0.0
 14
0.0
 24
0.0
 34
0.0
 15
0.0
 25
0.0
 35
0.0
146
0.0
 13
0.0
 23
0.0
 33
0.0
 16
1.0
 26
0.0
 36
0.0
 17
0.0
 27
1.0
 37
0.0
 76
0
330
210
345
0
346
0
  0
LAYOUT
  5
3A2
102
{ACAD_REACTORS
330
1A
102
}
100
AcDbPlotSettings
  1

  2
none_device
  4

  6

 40
0.0
 41
0.0
 42
0.0
 43
0.0
 44
210.0
 45
297.0
 46
0.0
 47
0.0
 48
0.0
 49
0.0
140
0.0
141
0.0
142
1.0
143
1.0
 70
0
 72
1
 73
0
 74
0
  7

 75
0
147
1.0
148
0.0
149
0.0
100
AcDbLayout
  1
Layout1
 70
0
 71
1
 10
0.0
 20
0.0
 11
210.0
 21
297.0
 12
0.0
 22
0.0
 32
0.0
 14
0.0
 24
0.0
 34
0.0
 15
0.0
 25
0.0
 35
0.0
146
0.0
 13
0.0
 23
0.0
 33
0.0
 16
1.0
 26
0.0
 36
0.0
 17
0.0
 27
1.0
 37
0.0
 76
0
330
211
345
0
346
0
  0
ENDSEC
  0
EOF
