999
DXF file: C:\Users\sesa63760\Dev\_Creo\CAD\MCADID0005597_3D-CAD\drw0001_6.dxf
999
Pro/ENGINEER 2019471 by Parametric Technology Corporation
  0
SECTION
  2
HEADER
  9
$ACADVER
  1
AC1024
  9
$DWGCODEPAGE
  3
ANSI_1252
  9
$EXTMAX
 10
195.9297570895
 20
277.1006564551
 30
0.0
  9
$EXTMIN
 10
0.0
 20
0.0
 30
0.0
  9
$LIMMIN
 10
0.0
 20
0.0
  9
$LIMMAX
 10
195.9297570895
 20
277.1006564551
  9
$VIEWCTR
 10
97.9648785447
 20
138.5503282276
  9
$VIEWSIZE
 40
277.1006564551
  9
$CLAYER
  8
0
  9
$LTSCALE
 40
18.062857606
  9
$CELTYPE
  6
BYLAYER
  9
$DIMSCALE
 40
1.0
  9
$DIMASZ
 40
2.3324971082
  9
$DIMEXO
 40
1.0
  9
$DIMDLI
 40
12.4797925278
  9
$DIMEXE
 40
1.0
  9
$DIMCEN
 40
2.9557403355
  9
$DIMLFAC
 40
1.0
  9
$DIMBLK
  1
_FILLED
  9
$DIMALT
 70
0
  9
$DIMALTF
 40
0.0393700787
  9
$DIMTXT
 40
3.2654959515
  9
$DIMTOL
 70
1
  9
$DIMLIM
 70
0
  9
$DIMTFAC
 40
1.0
  9
$DIMTP
 40
0.01
  9
$DIMTM
 40
0.01
  9
$DIMGAP
 40
0.625
  9
$DIMDSEP
 70
46
  9
$AUNITS
 70
0
  9
$PDMODE
 70
3
  9
$PDSIZE
 40
0.3125
  9
$HANDSEED
  5
299
  9
$TILEMODE
 70
1
  9
$MEASUREMENT
 70
1
  9
$INSUNITS
 70
4
  0
ENDSEC
  0
SECTION
  2
CLASSES
  0
CLASS
  1
ACDBDICTIONARYWDFLT
  2
AcDbDictionaryWithDefault
  3
AutoCAD 2000
 90
0
 91
1
280
0
281
0
  0
CLASS
  1
ACDBPLACEHOLDER
  2
AcDbPlaceHolder
  3
AutoCAD 2000
 90
0
 91
1
280
0
281
0
  0
CLASS
  1
LAYOUT
  2
AcDbLayout
  3
AutoCAD 2000
 90
0
 91
0
280
0
281
0
  0
ENDSEC
  0
SECTION
  2
TABLES
  0
TABLE
  2
VPORT
  5
8
100
AcDbSymbolTable
 70
2
  0
VPORT
  5
1F4
100
AcDbSymbolTableRecord
100
AcDbViewportTableRecord
  2
*ACTIVE
 70
0
 10
0.0
 20
0.0
 11
1.0
 21
1.0
 12
97.9648785447
 22
138.5503282276
 13
0.0
 23
0.0
 14
1.0
 24
1.0
 15
0.0
 25
0.0
 16
0.0
 26
0.0
 36
1.0
 17
0.0
 27
0.0
 37
0.0
 40
277.1006564551
 41
0.7070707071
 42
50.0
 43
0.0
 44
0.0
 50
0.0
 51
0.0
 71
0
 72
100
 73
1
 74
1
 75
0
 76
0
 77
0
 78
0
  0
ENDTAB
  0
TABLE
  2
LTYPE
  5
5
100
AcDbSymbolTable
 70
6
  0
LTYPE
  5
14
100
AcDbSymbolTableRecord
100
AcDbLinetypeTableRecord
  2
BYBLOCK
 70
0
  3

 72
65
 73
0
 40
0.0
  0
LTYPE
  5
15
100
AcDbSymbolTableRecord
100
AcDbLinetypeTableRecord
  2
BYLAYER
 70
0
  3

 72
65
 73
0
 40
0.0
  0
LTYPE
  5
16
100
AcDbSymbolTableRecord
100
AcDbLinetypeTableRecord
  2
CONTINUOUS
 70
64
  3
Solid line
 72
65
 73
0
 40
0.0
  0
LTYPE
  5
1F5
100
AcDbSymbolTableRecord
100
AcDbLinetypeTableRecord
  2
CENTER
 70
64
  3
____ _ ____ _ ____ _ ____ _ ____ _ ____ _ ____
 72
65
 73
4
 40
0.6
 49
0.375
 74
0
 49
-0.075
 74
0
 49
0.075
 74
0
 49
-0.075
 74
0
  0
LTYPE
  5
1F6
100
AcDbSymbolTableRecord
100
AcDbLinetypeTableRecord
  2
HIDDEN
 70
64
  3
- - - - - - - - - - - - - - - - - - - -
 72
65
 73
2
 40
0.2
 49
0.1
 74
0
 49
-0.1
 74
0
  0
LTYPE
  5
1F7
100
AcDbSymbolTableRecord
100
AcDbLinetypeTableRecord
  2
PHANTOM
 70
64
  3
_____ _ _ _____ _ _ _____ _ _ _____
 72
65
 73
6
 40
0.8
 49
0.45
 74
0
 49
-0.05
 74
0
 49
0.1
 74
0
 49
-0.05
 74
0
 49
0.1
 74
0
 49
-0.05
 74
0
  0
LTYPE
  5
1F8
100
AcDbSymbolTableRecord
100
AcDbLinetypeTableRecord
  2
DOT
 70
64
  3
. . . . . . . . . . . . . . . . . . . .
 72
65
 73
2
 40
0.2
 49
0.1
 74
0
 49
-0.1
 74
0
  0
LTYPE
  5
1F9
100
AcDbSymbolTableRecord
100
AcDbLinetypeTableRecord
  2
DASHED
 70
64
  3
- - - - - - - - - - - - - - - - - - - -
 72
65
 73
2
 40
0.2
 49
0.1
 74
0
 49
-0.1
 74
0
  0
ENDTAB
  0
TABLE
  2
LAYER
  5
2
100
AcDbSymbolTable
 70
36
  0
LAYER
  5
10
100
AcDbSymbolTableRecord
100
AcDbLayerTableRecord
  2
0
 70
0
 62
7
  6
CONTINUOUS
370
-3
390
F
  0
LAYER
  5
1FA
100
AcDbSymbolTableRecord
100
AcDbLayerTableRecord
  2
DEFAULT_1
 70
0
 62
7
  6
CENTER
370
-3
390
F
  0
LAYER
  5
1FB
100
AcDbSymbolTableRecord
100
AcDbLayerTableRecord
  2
DEFAULT_2
 70
0
 62
7
  6
HIDDEN
370
-3
390
F
  0
LAYER
  5
1FC
100
AcDbSymbolTableRecord
100
AcDbLayerTableRecord
  2
DEFAULT_3
 70
0
 62
7
  6
PHANTOM
370
-3
390
F
  0
LAYER
  5
1FD
100
AcDbSymbolTableRecord
100
AcDbLayerTableRecord
  2
00_COMPONENTS
 70
0
 62
7
  6
CONTINUOUS
370
-3
390
F
  0
LAYER
  5
1FE
100
AcDbSymbolTableRecord
100
AcDbLayerTableRecord
  2
01_1_DEFAULT_DATUMS
 70
0
 62
7
  6
CONTINUOUS
370
-3
390
F
  0
LAYER
  5
1FF
100
AcDbSymbolTableRecord
100
AcDbLayerTableRecord
  2
01_PLANES
 70
0
 62
7
  6
CONTINUOUS
370
-3
390
F
  0
LAYER
  5
200
100
AcDbSymbolTableRecord
100
AcDbLayerTableRecord
  2
02_COORD_SYS
 70
0
 62
7
  6
CONTINUOUS
370
-3
390
F
  0
LAYER
  5
201
100
AcDbSymbolTableRecord
100
AcDbLayerTableRecord
  2
03_AXES
 70
0
 62
7
  6
CONTINUOUS
370
-3
390
F
  0
LAYER
  5
202
100
AcDbSymbolTableRecord
100
AcDbLayerTableRecord
  2
04_POINTS
 70
0
 62
7
  6
CONTINUOUS
370
-3
390
F
  0
LAYER
  5
203
100
AcDbSymbolTableRecord
100
AcDbLayerTableRecord
  2
05_CURVES
 70
0
 62
7
  6
CONTINUOUS
370
-3
390
F
  0
LAYER
  5
204
100
AcDbSymbolTableRecord
100
AcDbLayerTableRecord
  2
06_SURFS
 70
0
 62
7
  6
CONTINUOUS
370
-3
390
F
  0
LAYER
  5
205
100
AcDbSymbolTableRecord
100
AcDbLayerTableRecord
  2
07_COSMETICS
 70
0
 62
7
  6
CONTINUOUS
370
-3
390
F
  0
LAYER
  5
206
100
AcDbSymbolTableRecord
100
AcDbLayerTableRecord
  2
10_NOTES
 70
0
 62
7
  6
CONTINUOUS
370
-3
390
F
  0
LAYER
  5
207
100
AcDbSymbolTableRecord
100
AcDbLayerTableRecord
  2
11_NOTES_PUB
 70
0
 62
7
  6
CONTINUOUS
370
-3
390
F
  0
LAYER
  5
208
100
AcDbSymbolTableRecord
100
AcDbLayerTableRecord
  2
13_REF_GTOL
 70
0
 62
7
  6
CONTINUOUS
370
-3
390
F
  0
LAYER
  5
209
100
AcDbSymbolTableRecord
100
AcDbLayerTableRecord
  2
16_MISC
 70
0
 62
7
  6
CONTINUOUS
370
-3
390
F
  0
LAYER
  5
20A
100
AcDbSymbolTableRecord
100
AcDbLayerTableRecord
  2
17_NO_PRINT
 70
0
 62
7
  6
CONTINUOUS
370
-3
390
F
  0
LAYER
  5
20B
100
AcDbSymbolTableRecord
100
AcDbLayerTableRecord
  2
18_DATUM_CAMS_JOINTS
 70
0
 62
7
  6
CONTINUOUS
370
-3
390
F
  0
LAYER
  5
20C
100
AcDbSymbolTableRecord
100
AcDbLayerTableRecord
  2
19_DATUM_FUNCTIONAL
 70
0
 62
7
  6
CONTINUOUS
370
-3
390
F
  0
LAYER
  5
20D
100
AcDbSymbolTableRecord
100
AcDbLayerTableRecord
  2
20_DATUM_KINEMATIC_SCHEME
 70
0
 62
7
  6
CONTINUOUS
370
-3
390
F
  0
ENDTAB
  0
TABLE
  2
STYLE
  5
3
100
AcDbSymbolTable
 70
1
  0
STYLE
  5
11
100
AcDbSymbolTableRecord
100
AcDbTextStyleTableRecord
  2
STANDARD
 70
0
 40
0.0
 41
1.0
 50
0.0
 71
0
 42
0.2
  3
ARIAL.TTF
  4

  0
STYLE
  5
20E
100
AcDbSymbolTableRecord
100
AcDbTextStyleTableRecord
  2
TEXTSTYLE_1
 70
0
 40
0.0
 41
0.8
 50
0.0
 71
0
 42
0.2
  3
gdt
  4

  0
ENDTAB
  0
TABLE
  2
VIEW
  5
6
100
AcDbSymbolTable
 70
0
  0
ENDTAB
  0
TABLE
  2
UCS
  5
7
100
AcDbSymbolTable
 70
0
  0
ENDTAB
  0
TABLE
  2
APPID
  5
9
100
AcDbSymbolTable
 70
1
  0
APPID
  5
20F
100
AcDbSymbolTableRecord
100
AcDbRegAppTableRecord
  2
ACAD
 70
0
  0
ENDTAB
  0
TABLE
  2
BLOCK_RECORD
  5
1
100
AcDbSymbolTable
 70
0
  0
BLOCK_RECORD
  5
210
100
AcDbSymbolTableRecord
100
AcDbBlockTableRecord
  2
*Model_Space
  0
BLOCK_RECORD
  5
211
100
AcDbSymbolTableRecord
100
AcDbBlockTableRecord
  2
*Paper_Space
  0
BLOCK_RECORD
  5
212
100
AcDbSymbolTableRecord
100
AcDbBlockTableRecord
  2
_FILLED
  0
ENDTAB
  0
TABLE
  2
DIMSTYLE
  5
A
100
AcDbSymbolTable
 70
1
100
AcDbDimStyleTable
 71
0
  0
DIMSTYLE
105
213
100
AcDbSymbolTableRecord
100
AcDbDimStyleTableRecord
  2
STANDARD
 70
0
  3

  4

 40
1.0
 41
2.3324971082
 42
1.0
 43
0.38
 44
1.0
 45
0.0
 46
0.0
 47
0.01
 48
0.01
140
3.2654959515
141
0.09
142
0.0
143
25.4
144
1.0
145
0.0
146
1.0
147
0.625
 71
1
 72
0
 73
0
 74
0
 75
0
 76
0
 77
1
 78
8
 79
2
170
0
171
1
172
0
173
0
174
0
175
0
176
0
177
0
178
0
270
2
179
2
271
2
272
2
273
2
274
2
275
0
280
0
281
0
282
0
283
1
284
8
285
0
286
0
287
3
288
0
340
11
278
46
341
212
342
212
343
212
344
212
  0
ENDTAB
  0
ENDSEC
  0
SECTION
  2
BLOCKS
  0
BLOCK
  5
20
100
AcDbEntity
  8
0
100
AcDbBlockBegin
  2
*Model_Space
 70
0
 10
0.0
 20
0.0
 30
0.0
  3
*Model_Space
  1

  0
ENDBLK
  5
21
100
AcDbEntity
  8
0
100
AcDbBlockEnd
  0
BLOCK
  5
1C
100
AcDbEntity
  8
0
100
AcDbBlockBegin
  2
*Paper_Space
 70
0
 10
0.0
 20
0.0
 30
0.0
  3
*Paper_Space
  1

  0
ENDBLK
  5
1D
100
AcDbEntity
  8
0
100
AcDbBlockEnd
  0
BLOCK
  5
214
100
AcDbEntity
  8
0
100
AcDbBlockBegin
  2
_FILLED
 70
64
 10
0.0
 20
0.0
  3
_FILLED
  1

  0
SOLID
  5
215
100
AcDbEntity
  8
0
  6
BYBLOCK
 62
0
100
AcDbTrace
 10
0.0
 20
0.0
 11
-1.0
 21
0.25
 12
-1.0
 22
-0.25
 13
-1.0
 23
-0.25
  0
ENDBLK
  5
216
100
AcDbEntity
  8
0
  6
BYBLOCK
 62
0
100
AcDbBlockEnd
  0
ENDSEC
  0
SECTION
  2
ENTITIES
  0
LINE
  5
217
100
AcDbEntity
  8
0
100
AcDbLine
 62
7
  6
BYLAYER
 10
22.1607209955
 20
163.8003321137
 11
22.1607209955
 21
162.100332798
  0
LINE
  5
218
100
AcDbEntity
  8
0
100
AcDbLine
 62
7
  6
BYLAYER
 10
22.1607209955
 20
161.800332798
 11
22.1607209955
 21
159.800332798
  0
LINE
  5
219
100
AcDbEntity
  8
0
100
AcDbLine
 62
7
  6
BYLAYER
 10
22.4607209956
 20
162.100332798
 11
22.4607209956
 21
161.800332798
  0
LINE
  5
21A
100
AcDbEntity
  8
0
100
AcDbLine
 62
7
  6
BYLAYER
 10
48.1607209955
 20
153.800332798
 11
48.1607208874
 21
163.8003329731
  0
LINE
  5
21B
100
AcDbEntity
  8
0
100
AcDbLine
 62
7
  6
BYLAYER
 10
50.1809230093
 20
163.8004258333
 11
50.1809230152
 21
169.8003327976
  0
LINE
  5
21C
100
AcDbEntity
  8
0
100
AcDbLine
 62
7
  6
BYLAYER
 10
62.1607209955
 20
153.800332798
 11
62.1607209955
 21
159.800332798
  0
LINE
  5
21D
100
AcDbEntity
  8
0
100
AcDbLine
 62
7
  6
BYLAYER
 10
97.2111137964
 20
107.300332798
 11
171.160694228
 21
107.300332798
  0
LINE
  5
21E
100
AcDbEntity
  8
0
100
AcDbLine
 62
7
  6
BYLAYER
 10
97.2111137961
 20
113.300332798
 11
177.1607209955
 21
113.300332798
  0
LINE
  5
21F
100
AcDbEntity
  8
0
100
AcDbLine
 62
7
  6
BYLAYER
 10
177.1607209955
 20
115.300332798
 11
97.2111137961
 21
115.300332798
  0
LINE
  5
220
100
AcDbEntity
  8
0
100
AcDbLine
 62
7
  6
BYLAYER
 10
97.2111137961
 20
115.600332798
 11
177.1607209955
 21
115.600332798
  0
LINE
  5
221
100
AcDbEntity
  8
0
100
AcDbLine
 62
7
  6
BYLAYER
 10
81.6353683885
 20
151.3627394484
 11
81.6222535196
 21
151.8635760851
  0
LINE
  5
222
100
AcDbEntity
  8
0
100
AcDbLine
 62
7
  6
BYLAYER
 10
81.4541897479
 20
120.5219619556
 11
77.9176450437
 21
140.5787036407
  0
LINE
  5
223
100
AcDbEntity
  8
0
100
AcDbLine
 62
7
  6
BYLAYER
 10
86.1677452693
 20
168.9963807035
 11
86.167342662
 21
168.9773363699
  0
LINE
  5
224
100
AcDbEntity
  8
0
100
AcDbLine
 62
7
  6
BYLAYER
 10
81.4541897479
 20
120.5219619553
 11
87.363036266
 21
121.5638510213
  0
LINE
  5
225
100
AcDbEntity
  8
0
100
AcDbLine
 62
7
  6
BYLAYER
 10
151.1607200583
 20
125.5394414066
 11
101.1438252603
 21
125.5394414066
  0
LINE
  5
226
100
AcDbEntity
  8
0
100
AcDbLine
 62
7
  6
BYLAYER
 10
87.363036266
 20
121.5638510214
 11
83.8264915618
 21
141.6205927068
  0
LINE
  5
227
100
AcDbEntity
  8
0
100
AcDbLine
 62
7
  6
BYLAYER
 10
85.7961070678
 20
141.967889062
 11
89.332651772
 21
121.9111473767
  0
LINE
  5
228
100
AcDbEntity
  8
0
100
AcDbLine
 62
7
  6
BYLAYER
 10
89.628094098
 20
121.9632418299
 11
86.0915493937
 21
142.0199835153
  0
LINE
  5
229
100
AcDbEntity
  8
0
100
AcDbLine
 62
7
  6
BYLAYER
 10
89.4719696208
 20
162.806925559
 11
95.9903952134
 21
125.8664424754
  0
LINE
  5
22A
100
AcDbEntity
  8
0
100
AcDbLine
 62
7
  6
BYLAYER
 10
87.7067144469
 20
162.4956570746
 11
94.2165975767
 21
125.5550958582
  0
LINE
  5
22B
100
AcDbEntity
  8
0
100
AcDbLine
 62
7
  6
BYLAYER
 10
99.9896314883
 20
120.6488540614
 11
99.9561752957
 21
122.508970956
  0
LINE
  5
22C
100
AcDbEntity
  8
0
100
AcDbLine
 62
7
  6
BYLAYER
 10
97.2111137961
 20
113.300332798
 11
97.2111137961
 21
107.300332798
  0
LINE
  5
22D
100
AcDbEntity
  8
0
100
AcDbLine
 62
7
  6
BYLAYER
 10
92.2085511378
 20
169.800332798
 11
92.8676874911
 21
165.7193042898
  0
LINE
  5
22E
100
AcDbEntity
  8
0
100
AcDbLine
 62
7
  6
BYLAYER
 10
92.51236954
 20
167.9285055565
 11
92.8676874911
 21
165.7193042898
  0
LINE
  5
22F
100
AcDbEntity
  8
0
100
AcDbLine
 62
7
  6
BYLAYER
 10
83.8264915618
 20
141.6205927067
 11
77.9176450437
 21
140.5787036407
  0
LWPOLYLINE
  5
230
100
AcDbEntity
  8
0
100
AcDbPolyline
 62
7
  6
BYLAYER
 90
7
 70
0
 10
89.7590833035
 20
169.5966093709
 10
89.7590636106
 20
169.5966461835
 10
89.6284179072
 20
169.5331776487
 10
89.4917379677
 20
169.4811775023
 10
89.0864636925
 20
169.3552047266
 10
88.5088216082
 20
169.2154895017
 10
88.3690352885
 20
169.1870901803
  0
LINE
  5
231
100
AcDbEntity
  8
0
100
AcDbLine
 62
7
  6
BYLAYER
 10
28.160747763
 20
153.800332798
 11
62.1607209955
 21
153.800332798
  0
LINE
  5
232
100
AcDbEntity
  8
0
100
AcDbLine
 62
7
  6
BYLAYER
 10
22.1607209955
 20
159.800332798
 11
62.1607209955
 21
159.800332798
  0
LINE
  5
233
100
AcDbEntity
  8
0
100
AcDbLine
 62
7
  6
BYLAYER
 10
82.5818008501
 20
169.6628355362
 11
82.5334799119
 21
169.6843674079
  0
LINE
  5
234
100
AcDbEntity
  8
0
100
AcDbLine
 62
7
  6
BYLAYER
 10
89.4719696208
 20
162.806925559
 11
87.7077613866
 21
162.4958417672
  0
LINE
  5
235
100
AcDbEntity
  8
0
100
AcDbLine
 62
7
  6
BYLAYER
 10
89.3880924463
 20
163.2382935658
 11
87.6316084807
 21
162.9317084158
  0
LINE
  5
236
100
AcDbEntity
  8
0
100
AcDbLine
 62
7
  6
BYLAYER
 10
62.1607209955
 20
161.800332798
 11
22.1607209955
 21
161.800332798
  0
LINE
  5
237
100
AcDbEntity
  8
0
100
AcDbLine
 62
7
  6
BYLAYER
 10
22.1607209955
 20
162.100332798
 11
62.1607209955
 21
162.100332798
  0
LINE
  5
238
100
AcDbEntity
  8
0
100
AcDbLine
 62
7
  6
BYLAYER
 10
50.1809230424
 20
163.8003273818
 11
22.1607209955
 21
163.800332798
  0
LINE
  5
239
100
AcDbEntity
  8
0
100
AcDbLine
 62
7
  6
BYLAYER
 10
84.2705063625
 20
169.2108499228
 11
84.2702742206
 21
169.2108950903
  0
LWPOLYLINE
  5
23A
100
AcDbEntity
  8
0
100
AcDbPolyline
 62
7
  6
BYLAYER
 90
7
 70
0
 10
84.2705063625
 20
169.2108499228
 10
83.9861658829
 20
169.2697835175
 10
83.5261169288
 20
169.3781597771
 10
83.1462964153
 20
169.4800281631
 10
82.8523940859
 20
169.5680072887
 10
82.7390298197
 20
169.6051679823
 10
82.5818008501
 20
169.6628355362
  0
LINE
  5
23B
100
AcDbEntity
  8
0
100
AcDbLine
 62
7
  6
BYLAYER
 10
87.7382232641
 20
169.0648550233
 11
87.6945850187
 21
169.077492672
  0
LINE
  5
23C
100
AcDbEntity
  8
0
100
AcDbLine
 62
7
  6
BYLAYER
 10
88.3689767592
 20
169.1871463865
 11
88.3693403297
 21
169.1872178634
  0
LWPOLYLINE
  5
23D
100
AcDbEntity
  8
0
100
AcDbPolyline
 62
7
  6
BYLAYER
 90
4
 70
0
 10
88.3693403297
 20
169.1872178634
 10
88.2215011236
 20
169.1591244857
 10
87.8382570332
 20
169.0965884336
 10
87.6945850187
 20
169.077492672
  0
LINE
  5
23E
100
AcDbEntity
  8
0
100
AcDbLine
 62
7
  6
BYLAYER
 10
84.2702742206
 20
169.2108950903
 11
84.218419039
 21
169.2038775296
  0
LINE
  5
23F
100
AcDbEntity
  8
0
100
AcDbLine
 62
7
  6
BYLAYER
 10
87.6945850187
 20
169.077492672
 11
87.6944156846
 21
169.0774711907
  0
LWPOLYLINE
  5
240
100
AcDbEntity
  8
0
100
AcDbPolyline
 62
7
  6
BYLAYER
 90
4
 70
0
 10
87.6944274812
 20
169.0774431073
 10
87.2952107503
 20
169.0337045408
 10
86.60211561
 20
168.9956160329
 10
86.1677439477
 20
168.9963593188
  0
LINE
  5
241
100
AcDbEntity
  8
0
100
AcDbLine
 62
7
  6
BYLAYER
 10
89.1163098754
 20
169.5055685199
 11
83.0609765133
 21
169.5055685199
  0
LINE
  5
242
100
AcDbEntity
  8
0
100
AcDbLine
 62
7
  6
BYLAYER
 10
157.1607276109
 20
169.800332798
 11
28.3980739242
 21
169.800332798
  0
LWPOLYLINE
  5
243
100
AcDbEntity
  8
0
100
AcDbPolyline
 62
7
  6
BYLAYER
 90
4
 70
0
 10
86.1677452604
 20
168.9963806978
 10
85.6334693633
 20
169.0229223422
 10
84.8160409077
 20
169.1160730509
 10
84.2703425097
 20
169.2109483288
  0
LINE
  5
244
100
AcDbEntity
  8
0
100
AcDbLine
 62
7
  6
BYLAYER
 10
167.3198672869
 20
167.0007049856
 11
167.3635526499
 21
166.9972393249
  0
LINE
  5
245
100
AcDbEntity
  8
0
100
AcDbLine
 62
7
  6
BYLAYER
 10
88.3693403297
 20
169.1872178634
 11
88.4330595846
 21
169.1804043095
  0
LINE
  5
246
100
AcDbEntity
  8
0
100
AcDbLine
 62
7
  6
BYLAYER
 10
167.3559434338
 20
166.9979224294
 11
167.3635526499
 21
166.9972393249
  0
LINE
  5
247
100
AcDbEntity
  8
0
100
AcDbLine
 62
7
  6
BYLAYER
 10
171.2756862326
 20
163.7069208596
 11
171.2748982577
 21
163.7056890373
  0
LINE
  5
248
100
AcDbEntity
  8
0
100
AcDbLine
 62
7
  6
BYLAYER
 10
151.1607209955
 20
107.300332798
 11
151.1607209955
 21
154.8903765748
  0
LINE
  5
249
100
AcDbEntity
  8
0
100
AcDbLine
 62
7
  6
BYLAYER
 10
167.379040336
 20
166.9874238018
 11
167.3635526219
 21
166.9972395049
  0
LINE
  5
24A
100
AcDbEntity
  8
0
100
AcDbLine
 62
7
  6
BYLAYER
 10
167.3063116666
 20
167.0359611282
 11
167.3635526412
 21
166.9972393257
  0
LINE
  5
24B
100
AcDbEntity
  8
0
100
AcDbLine
 62
7
  6
BYLAYER
 10
167.3635526499
 20
166.9972393249
 11
167.5210755055
 21
166.8900269801
  0
LWPOLYLINE
  5
24C
100
AcDbEntity
  8
0
100
AcDbPolyline
 62
7
  6
BYLAYER
 90
5
 70
0
 10
171.2756719871
 20
163.7069523346
 10
170.6206166582
 20
164.3561742473
 10
169.0535095439
 20
165.7384659511
 10
168.4004770081
 20
166.2518877877
 10
167.5210755055
 20
166.8900269801
  0
LINE
  5
24D
100
AcDbEntity
  8
0
100
AcDbLine
 62
7
  6
BYLAYER
 10
176.8607209954
 20
115.600332798
 11
176.8607209954
 21
115.300332798
  0
LINE
  5
24E
100
AcDbEntity
  8
0
100
AcDbLine
 62
7
  6
BYLAYER
 10
177.1607209955
 20
115.300332798
 11
177.1607209955
 21
113.300332798
  0
LINE
  5
24F
100
AcDbEntity
  8
0
100
AcDbLine
 62
7
  6
BYLAYER
 10
177.1607209955
 20
115.600332798
 11
177.1607209955
 21
149.8003391262
  0
LWPOLYLINE
  5
250
100
AcDbEntity
  8
0
100
AcDbPolyline
 62
7
  6
BYLAYER
 90
5
 70
0
 10
175.0840071249
 20
158.6734241976
 10
174.8668950219
 20
159.04634062
 10
174.2146021511
 20
160.0802529965
 10
173.0644128567
 20
161.6643658573
 10
171.2756474719
 20
163.7069401329
  0
LINE
  5
251
100
AcDbEntity
  8
0
100
AcDbLine
 62
7
  6
BYLAYER
 10
171.2756719871
 20
163.7069523346
 11
171.2756862326
 21
163.7069208596
  0
ARC
  5
252
100
AcDbEntity
  8
0
100
AcDbCircle
 62
7
  6
BYLAYER
 10
75.6367282946
 20
-1718.4671454044
 40
1887.6909245255
100
AcDbArc
 50
89.4937865739
 51
89.6115987842
  0
ARC
  5
253
100
AcDbEntity
  8
0
100
AcDbCircle
 62
7
  6
BYLAYER
 10
13.6664662288
 20
-614.9010194312
 40
781.9740870295
100
AcDbArc
 50
78.7704885364
 51
79.8730558642
  0
ARC
  5
254
100
AcDbEntity
  8
0
100
AcDbCircle
 62
7
  6
BYLAYER
 10
57.6692561224
 20
-293.5026344027
 40
457.4166075398
100
AcDbArc
 50
85.5226804947
 51
86.0131932835
  0
ARC
  5
255
100
AcDbEntity
  8
0
100
AcDbCircle
 62
7
  6
BYLAYER
 10
62.1607209955
 20
137.800332798
 40
24.3
100
AcDbArc
 50
9.9999999999
 51
90.0
  0
ARC
  5
256
100
AcDbEntity
  8
0
100
AcDbCircle
 62
7
  6
BYLAYER
 10
62.1607209955
 20
137.800332798
 40
24.0
100
AcDbArc
 50
10.0000000001
 51
90.0
  0
ARC
  5
257
100
AcDbEntity
  8
0
100
AcDbCircle
 62
7
  6
BYLAYER
 10
62.1607209955
 20
137.800332798
 40
22.0
100
AcDbArc
 50
10.0000000002
 51
90.0
  0
ARC
  5
258
100
AcDbEntity
  8
0
100
AcDbCircle
 62
7
  6
BYLAYER
 10
68.8651420489
 20
159.0560923663
 40
20.9448181288
100
AcDbArc
 50
10.3160887599
 51
11.5181557194
  0
ARC
  5
259
100
AcDbEntity
  8
0
100
AcDbCircle
 62
7
  6
BYLAYER
 10
87.5374353003
 20
185.9139662457
 40
17.0364642341
100
AcDbArc
 50
258.7658087153
 51
258.9272399301
  0
ARC
  5
25A
100
AcDbEntity
  8
0
100
AcDbCircle
 62
7
  6
BYLAYER
 10
62.1607209955
 20
137.800332798
 40
16.0
100
AcDbArc
 50
9.9999999999
 51
89.9999999998
  0
ARC
  5
25B
100
AcDbEntity
  8
0
100
AcDbCircle
 62
7
  6
BYLAYER
 10
86.241240797
 20
180.1816843135
 40
11.2172144514
100
AcDbArc
 50
277.4616442682
 51
277.6949174832
  0
ARC
  5
25C
100
AcDbEntity
  8
0
100
AcDbCircle
 62
7
  6
BYLAYER
 10
86.2890521046
 20
179.5965978642
 40
10.6345575302
100
AcDbArc
 50
281.3052005368
 51
281.6309877138
  0
ARC
  5
25D
100
AcDbEntity
  8
0
100
AcDbCircle
 62
7
  6
BYLAYER
 10
86.4054037434
 20
178.8537390718
 40
9.8792003627
100
AcDbArc
 50
268.6192099574
 51
277.5177697657
  0
ARC
  5
25E
100
AcDbEntity
  8
0
100
AcDbCircle
 62
7
  6
BYLAYER
 10
86.7535648349
 20
177.135805515
 40
8.1307670342
100
AcDbArc
 50
276.9911306372
 51
278.760581611
  0
ARC
  5
25F
100
AcDbEntity
  8
0
100
AcDbCircle
 62
7
  6
BYLAYER
 10
86.9598730386
 20
177.1822303961
 40
8.1306272862
100
AcDbArc
 50
284.9993589951
 51
286.5487566949
  0
ARC
  5
260
100
AcDbEntity
  8
0
100
AcDbCircle
 62
7
  6
BYLAYER
 10
28.1607209955
 20
159.800332798
 40
6.0
100
AcDbArc
 50
180.0
 51
270.0
  0
ARC
  5
261
100
AcDbEntity
  8
0
100
AcDbCircle
 62
7
  6
BYLAYER
 10
150.3131804339
 20
141.9614411837
 40
30.2903562718
100
AcDbArc
 50
55.3305621771
 51
55.7206752913
  0
ARC
  5
262
100
AcDbEntity
  8
0
100
AcDbCircle
 62
7
  6
BYLAYER
 10
152.3631656835
 20
145.2462754364
 40
26.4284579456
100
AcDbArc
 50
46.6678411342
 51
49.4047408382
  0
ARC
  5
263
100
AcDbEntity
  8
0
100
AcDbCircle
 62
7
  6
BYLAYER
 10
152.75369361
 20
145.6936437769
 40
25.8346395131
100
AcDbArc
 50
49.4167834374
 51
51.2806039261
  0
ARC
  5
264
100
AcDbEntity
  8
0
100
AcDbCircle
 62
7
  6
BYLAYER
 10
152.9688848073
 20
145.9595120294
 40
25.4926006193
100
AcDbArc
 50
51.2841860474
 51
51.9919936725
  0
ARC
  5
265
100
AcDbEntity
  8
0
100
AcDbCircle
 62
7
  6
BYLAYER
 10
153.151613104
 20
146.1961027781
 40
25.1936660865
100
AcDbArc
 50
51.9881054066
 51
52.9083808711
  0
ARC
  5
266
100
AcDbEntity
  8
0
100
AcDbCircle
 62
7
  6
BYLAYER
 10
153.5526022609
 20
146.4916618352
 40
24.7063582753
100
AcDbArc
 50
44.1664994416
 51
46.6923400543
  0
ARC
  5
267
100
AcDbEntity
  8
0
100
AcDbCircle
 62
7
  6
BYLAYER
 10
153.9174522424
 20
147.2269493575
 40
23.9095199836
100
AcDbArc
 50
52.8824856658
 51
55.2229011045
  0
ARC
  5
268
100
AcDbEntity
  8
0
100
AcDbCircle
 62
7
  6
BYLAYER
 10
97.2111137961
 20
123.300332798
 40
16.0
100
AcDbArc
 50
189.9999999991
 51
270.0
  0
ARC
  5
269
100
AcDbEntity
  8
0
100
AcDbCircle
 62
7
  6
BYLAYER
 10
97.2111137961
 20
123.300332798
 40
10.0
100
AcDbArc
 50
189.9999999995
 51
270.0
  0
ARC
  5
26A
100
AcDbEntity
  8
0
100
AcDbCircle
 62
7
  6
BYLAYER
 10
97.2111137961
 20
123.300332798
 40
8.0
100
AcDbArc
 50
189.9999999996
 51
270.0
  0
ARC
  5
26B
100
AcDbEntity
  8
0
100
AcDbCircle
 62
7
  6
BYLAYER
 10
97.2111137961
 20
123.300332798
 40
7.7
100
AcDbArc
 50
190.0000000003
 51
270.0
  0
ARC
  5
26C
100
AcDbEntity
  8
0
100
AcDbCircle
 62
7
  6
BYLAYER
 10
171.1607209955
 20
113.300332798
 40
6.0
100
AcDbArc
 50
270.0
 51
360.0
  0
SPLINE
  5
26D
100
AcDbEntity
  8
0
100
AcDbSpline
 62
7
  6
BYLAYER
 70
0
 71
3
 72
17
 73
13
 74
0
 42
0.0000001
 43
0.0000001
 44
0.0000000001
 40
0.0
 40
0.0
 40
0.0
 40
0.0
 40
0.0196693723
 40
0.0441508146
 40
0.0778392467
 40
0.1202178833
 40
0.1707499735
 40
0.2941027221
 40
0.4433311788
 40
0.6139403728
 40
0.8015352116
 40
1.0
 40
1.0
 40
1.0
 40
1.0
 10
25.7680052133
 20
169.3021613182
 30
0.0
 10
25.7518431207
 20
169.2950843506
 30
0.0
 10
25.840336506
 20
169.3301954922
 30
0.0
 10
25.8793051854
 20
169.3433627194
 30
0.0
 10
25.9749911966
 20
169.3781876565
 30
0.0
 10
26.0783772897
 20
169.4133302344
 30
0.0
 10
26.2647642503
 20
169.4739008012
 30
0.0
 10
26.5419912614
 20
169.5544799039
 30
0.0
 10
26.9291574312
 20
169.647639516
 30
0.0
 10
27.3771336745
 20
169.7289862075
 30
0.0
 10
27.8736265479
 20
169.7859869526
 30
0.0
 10
28.220046812
 20
169.8003913446
 30
0.0
 10
28.3980714888
 20
169.8003326703
 30
0.0
  0
SPLINE
  5
26E
100
AcDbEntity
  8
0
100
AcDbSpline
 62
7
  6
BYLAYER
 70
0
 71
3
 72
13
 73
9
 74
0
 42
0.0000001
 43
0.0000001
 44
0.0000000001
 40
0.0
 40
0.0
 40
0.0
 40
0.0
 40
0.2331220999
 40
0.3569026651
 40
0.4842785444
 40
0.6138097764
 40
0.7439382471
 40
1.0
 40
1.0
 40
1.0
 40
1.0
 10
22.1607209955
 20
163.8003325706
 30
0.0
 10
22.1607209758
 20
164.3402656549
 30
0.0
 10
22.2752283169
 20
165.1721991275
 30
0.0
 10
22.6519632228
 20
166.2315864538
 30
0.0
 10
23.0673519066
 20
167.0131434207
 30
0.0
 10
23.6020714887
 20
167.7370990917
 30
0.0
 10
24.4521302265
 20
168.5808980373
 30
0.0
 10
25.2247117328
 20
169.0643451559
 30
0.0
 10
25.7680052133
 20
169.3021613182
 30
0.0
  0
SPLINE
  5
26F
100
AcDbEntity
  8
0
100
AcDbSpline
 62
7
  6
BYLAYER
 70
0
 71
3
 72
9
 73
5
 74
0
 42
0.0000001
 43
0.0000001
 44
0.0000000001
 40
0.0
 40
0.0
 40
0.0
 40
0.0
 40
0.4835568893
 40
1.0
 40
1.0
 40
1.0
 40
1.0
 10
177.1607209955
 20
149.8003409669
 30
0.0
 10
177.1607203873
 20
151.2761465812
 30
0.0
 10
176.8214260755
 20
154.3371737336
 30
0.0
 10
175.7898727566
 20
157.2444564734
 30
0.0
 10
175.0922682241
 20
158.6578465077
 30
0.0
  0
SPLINE
  5
270
100
AcDbEntity
  8
0
100
AcDbSpline
 62
7
  6
BYLAYER
 70
0
 71
3
 72
9
 73
5
 74
0
 42
0.0000001
 43
0.0000001
 44
0.0000000001
 40
0.0
 40
0.0
 40
0.0
 40
0.0
 40
0.5177736523
 40
1.0
 40
1.0
 40
1.0
 40
1.0
 10
167.3063116739
 20
167.0359611239
 30
0.0
 10
165.7283066971
 20
167.9646960142
 30
0.0
 10
162.4162520508
 20
169.344849825
 30
0.0
 10
158.8660568514
 20
169.8003311259
 30
0.0
 10
157.160740403
 20
169.800332798
 30
0.0
  0
SPLINE
  5
271
100
AcDbEntity
  8
0
100
AcDbSpline
 62
7
  6
BYLAYER
 70
0
 71
3
 72
16
 73
12
 74
0
 42
0.0000001
 43
0.0000001
 44
0.0000000001
 40
0.0
 40
0.0
 40
0.0
 40
0.0
 40
0.1109429012
 40
0.2312808895
 40
0.3565055032
 40
0.484107359
 40
0.6127411819
 40
0.7417571265
 40
0.8063054733
 40
0.8708670037
 40
1.0
 40
1.0
 40
1.0
 40
1.0
 10
99.9556903274
 20
122.5089709451
 30
0.0
 10
99.9988354902
 20
122.6213497354
 30
0.0
 10
100.093308461
 20
122.8538557445
 30
0.0
 10
100.2365993222
 20
123.213152107
 30
0.0
 10
100.3840727576
 20
123.5902371679
 30
0.0
 10
100.5349899633
 20
123.9756427736
 30
0.0
 10
100.6820704469
 20
124.3669367566
 30
0.0
 10
100.8101674356
 20
124.6922194431
 30
0.0
 10
100.9125171096
 20
124.9529342136
 30
0.0
 10
101.0148114359
 20
125.213745853
 30
0.0
 10
101.0989657582
 20
125.4067034617
 30
0.0
 10
101.143825255
 20
125.5394414071
 30
0.0
  0
SPLINE
  5
272
100
AcDbEntity
  8
0
100
AcDbSpline
 62
7
  6
BYLAYER
 70
0
 71
3
 72
19
 73
15
 74
0
 42
0.0000001
 43
0.0000001
 44
0.0000000001
 40
0.0
 40
0.0
 40
0.0
 40
0.0
 40
0.0624992181
 40
0.1249980196
 40
0.2499943533
 40
0.3749890085
 40
0.4999825012
 40
0.6249769584
 40
0.6874760954
 40
0.7499776851
 40
0.8124818777
 40
0.8749879863
 40
0.9374935725
 40
1.0
 40
1.0
 40
1.0
 40
1.0
 10
99.9561752957
 20
122.508970956
 30
0.0
 10
101.0230147381
 20
122.5102582617
 30
0.0
 10
103.1566892042
 20
122.5096791749
 30
0.0
 10
107.4240060762
 20
122.5072243676
 30
0.0
 10
112.7580921864
 20
122.4964125716
 30
0.0
 10
119.1588996477
 20
122.4686768969
 30
0.0
 10
125.5595309888
 20
122.4177070883
 30
0.0
 10
130.8931526877
 20
122.3441330174
 30
0.0
 10
135.1594220593
 20
122.2477823245
 30
0.0
 10
138.358861697
 20
122.1597233977
 30
0.0
 10
141.5582559019
 20
122.0662553713
 30
0.0
 10
144.7580655439
 20
121.9842310898
 30
0.0
 10
147.958629819
 20
121.9352969912
 30
0.0
 10
150.0925253951
 20
121.9236118833
 30
0.0
 10
151.1594767605
 20
121.9185694265
 30
0.0
  0
SPLINE
  5
273
100
AcDbEntity
  8
0
100
AcDbSpline
 62
7
  6
BYLAYER
 70
0
 71
3
 72
16
 73
12
 74
0
 42
0.0000001
 43
0.0000001
 44
0.0000000001
 40
0.0
 40
0.0
 40
0.0
 40
0.0
 40
0.0625430391
 40
0.1251067137
 40
0.2500989633
 40
0.3750833005
 40
0.5000614916
 40
0.6250402214
 40
0.7500215011
 40
0.8750078377
 40
1.0
 40
1.0
 40
1.0
 40
1.0
 10
99.9898162814
 20
120.6489778605
 30
0.0
 10
99.818386097
 20
120.6458939128
 30
0.0
 10
99.4749049317
 20
120.6633756934
 30
0.0
 10
98.7960195929
 20
120.7626423832
 30
0.0
 10
97.9646773446
 20
120.987319012
 30
0.0
 10
97.0293371047
 20
121.4261373671
 30
0.0
 10
96.1849211761
 20
122.0216410168
 30
0.0
 10
95.4597076789
 20
122.7577654035
 30
0.0
 10
94.8757086182
 20
123.610077811
 30
0.0
 10
94.4480714891
 20
124.5504083298
 30
0.0
 10
94.275872955
 20
125.2176033489
 30
0.0
 10
94.2165975767
 20
125.5550958582
 30
0.0
  0
SPLINE
  5
274
100
AcDbEntity
  8
0
100
AcDbSpline
 62
7
  6
BYLAYER
 70
0
 71
3
 72
9
 73
5
 74
0
 42
0.0000001
 43
0.0000001
 44
0.0000000001
 40
0.0
 40
0.0
 40
0.0
 40
0.0
 40
0.2669783124
 40
1.0
 40
1.0
 40
1.0
 40
1.0
 10
94.2176798984
 20
125.555287074
 30
0.0
 10
94.3754226036
 20
125.5830695368
 30
0.0
 10
94.9662831194
 20
125.6870375318
 30
0.0
 10
95.5569449589
 20
125.7921671338
 30
0.0
 10
95.9903952134
 20
125.8664424754
 30
0.0
  0
SPLINE
  5
275
100
AcDbEntity
  8
0
100
AcDbSpline
 62
7
  6
BYLAYER
 70
0
 71
3
 72
15
 73
11
 74
0
 42
0.0000001
 43
0.0000001
 44
0.0000000001
 40
0.0
 40
0.0
 40
0.0
 40
0.0
 40
0.1662110622
 40
0.3297651849
 40
0.4862403346
 40
0.6297083345
 40
0.7544281744
 40
0.8571936243
 40
0.9382558357
 40
1.0
 40
1.0
 40
1.0
 40
1.0
 10
87.6316084807
 20
162.9317084158
 30
0.0
 10
87.605234519
 20
163.2712083738
 30
0.0
 10
87.5604895806
 20
163.9454278694
 30
0.0
 10
87.5245711901
 20
164.941094761
 30
0.0
 10
87.5157110572
 20
165.8907555917
 30
0.0
 10
87.5372742159
 20
166.7607797366
 30
0.0
 10
87.5955006424
 20
167.5189652967
 30
0.0
 10
87.6741658126
 20
168.1461684799
 30
0.0
 10
87.729458193
 20
168.6464384111
 30
0.0
 10
87.7413744751
 20
168.9389937798
 30
0.0
 10
87.7432064556
 20
169.0654781011
 30
0.0
  0
SPLINE
  5
276
100
AcDbEntity
  8
0
100
AcDbSpline
 62
7
  6
BYLAYER
 70
0
 71
3
 72
9
 73
5
 74
0
 42
0.0000001
 43
0.0000001
 44
0.0000000001
 40
0.0
 40
0.0
 40
0.0
 40
0.0
 40
0.2573680366
 40
1.0
 40
1.0
 40
1.0
 40
1.0
 10
87.9919287729
 20
169.0998968968
 30
0.0
 10
88.0248195072
 20
169.1050027903
 30
0.0
 10
88.1524693181
 20
169.1257852148
 30
0.0
 10
88.2796201234
 20
169.1495567045
 30
0.0
 10
88.3737991893
 20
169.1683840451
 30
0.0
  0
SPLINE
  5
277
100
AcDbEntity
  8
0
100
AcDbSpline
 62
7
  6
BYLAYER
 70
0
 71
3
 72
9
 73
5
 74
0
 42
0.0000001
 43
0.0000001
 44
0.0000000001
 40
0.0
 40
0.0
 40
0.0
 40
0.0
 40
0.245347872
 40
1.0
 40
1.0
 40
1.0
 40
1.0
 10
92.8676874911
 20
165.7193042898
 30
0.0
 10
92.896780821
 20
165.5376462301
 30
0.0
 10
93.0152414745
 20
164.7972169659
 30
0.0
 10
93.1332176663
 20
164.0567101802
 30
0.0
 10
93.2219580277
 20
163.4978390694
 30
0.0
  0
LINE
  5
278
100
AcDbEntity
  8
0
100
AcDbLine
 62
7
  6
BYLAYER
 10
93.2219580277
 20
163.4978390694
 11
93.3671794531
 21
162.581545431
  0
LINE
  5
279
100
AcDbEntity
  8
0
100
AcDbLine
 62
7
  6
BYLAYER
 10
93.3671794531
 20
162.581545431
 11
93.377229961
 21
162.5180009754
  0
SPLINE
  5
27A
100
AcDbEntity
  8
0
100
AcDbSpline
 62
7
  6
BYLAYER
 70
0
 71
3
 72
15
 73
11
 74
0
 42
0.0000001
 43
0.0000001
 44
0.0000000001
 40
0.0
 40
0.0
 40
0.0
 40
0.0
 40
0.1598858255
 40
0.3183179553
 40
0.4717473826
 40
0.6152477012
 40
0.7435399533
 40
0.851777506
 40
0.9369150506
 40
1.0
 40
1.0
 40
1.0
 40
1.0
 10
89.3880898776
 20
163.2383049412
 30
0.0
 10
89.3231571176
 20
163.5553201177
 30
0.0
 10
89.2021103444
 20
164.1881166986
 30
0.0
 10
89.0085876159
 20
165.1231340343
 30
0.0
 10
88.8032188037
 20
166.0216485688
 30
0.0
 10
88.5867743294
 20
166.8548618046
 30
0.0
 10
88.3481922847
 20
167.5868760738
 30
0.0
 10
88.0995572056
 20
168.1889940207
 30
0.0
 10
87.8860231007
 20
168.6619987167
 30
0.0
 10
87.7802436063
 20
168.9433013211
 30
0.0
 10
87.7432068052
 20
169.0654906925
 30
0.0
  0
SPLINE
  5
27B
100
AcDbEntity
  8
0
100
AcDbSpline
 62
7
  6
BYLAYER
 70
0
 71
3
 72
9
 73
5
 74
0
 42
0.0000001
 43
0.0000001
 44
0.0000000001
 40
0.0
 40
0.0
 40
0.0
 40
0.0
 40
0.5817968873
 40
1.0
 40
1.0
 40
1.0
 40
1.0
 10
89.1163300129
 20
169.5056094581
 30
0.0
 10
89.2005281625
 20
169.5055951474
 30
0.0
 10
89.3451754806
 20
169.5036413667
 30
0.0
 10
89.4899322842
 20
169.4938196262
 30
0.0
 10
89.5497109935
 20
169.484358904
 30
0.0
  0
SPLINE
  5
27C
100
AcDbEntity
  8
0
100
AcDbSpline
 62
7
  6
BYLAYER
 70
0
 71
3
 72
9
 73
5
 74
0
 42
0.0000001
 43
0.0000001
 44
0.0000000001
 40
0.0
 40
0.0
 40
0.0
 40
0.0
 40
0.5125000829
 40
1.0
 40
1.0
 40
1.0
 40
1.0
 10
82.8730424842
 20
169.5665590447
 30
0.0
 10
82.8595134087
 20
169.6302216777
 30
0.0
 10
82.7929478973
 20
169.7508141226
 30
0.0
 10
82.6624855583
 20
169.8001818619
 30
0.0
 10
82.6005761909
 20
169.8002767224
 30
0.0
  0
SPLINE
  5
27D
100
AcDbEntity
  8
0
100
AcDbSpline
 62
7
  6
BYLAYER
 70
0
 71
3
 72
12
 73
8
 74
0
 42
0.0000001
 43
0.0000001
 44
0.0000000001
 40
0.0
 40
0.0
 40
0.0
 40
0.0
 40
0.3795962714
 40
0.7059522251
 40
0.9206200089
 40
0.9769310859
 40
1.0
 40
1.0
 40
1.0
 40
1.0
 10
149.007666162
 20
168.0479896551
 30
0.0
 10
151.3310996305
 20
167.948718022
 30
0.0
 10
155.6512234486
 20
167.7429622092
 30
0.0
 10
161.2823804078
 20
167.4252184806
 30
0.0
 10
164.9342454738
 20
167.1872800475
 30
0.0
 10
166.730498217
 20
167.0504344174
 30
0.0
 10
167.2151768375
 20
167.0105189206
 30
0.0
 10
167.3559434338
 20
166.9979224294
 30
0.0
  0
LINE
  5
27E
100
AcDbEntity
  8
0
100
AcDbLine
 62
7
  6
BYLAYER
 10
167.5435740206
 20
166.8736715118
 11
167.555091187
 21
166.8656853113
  0
SPLINE
  5
27F
100
AcDbEntity
  8
0
100
AcDbSpline
 62
7
  6
BYLAYER
 70
0
 71
3
 72
10
 73
6
 74
0
 42
0.0000001
 43
0.0000001
 44
0.0000000001
 40
0.0
 40
0.0
 40
0.0
 40
0.0
 40
0.279697946
 40
0.5488544754
 40
1.0
 40
1.0
 40
1.0
 40
1.0
 10
171.2749205844
 20
163.7057134347
 30
0.0
 10
171.6598268825
 20
163.3128678819
 30
0.0
 10
172.3857560101
 20
162.5128666726
 30
0.0
 10
173.6199940359
 20
160.9812631063
 30
0.0
 10
174.4144602518
 20
159.804209193
 30
0.0
 10
174.8685814277
 20
159.042150813
 30
0.0
  0
SPLINE
  5
280
100
AcDbEntity
  8
0
100
AcDbSpline
 62
7
  6
BYLAYER
 70
0
 71
3
 72
9
 73
5
 74
0
 42
0.0000001
 43
0.0000001
 44
0.0000000001
 40
0.0
 40
0.0
 40
0.0
 40
0.0
 40
0.3073255734
 40
1.0
 40
1.0
 40
1.0
 40
1.0
 10
174.8685814277
 20
159.042150813
 30
0.0
 10
174.8878992195
 20
159.0097337271
 30
0.0
 10
174.9504989672
 20
158.9040995327
 30
0.0
 10
175.0123087674
 20
158.7979934035
 30
0.0
 10
175.0543769497
 20
158.7240720431
 30
0.0
  0
SPLINE
  5
281
100
AcDbEntity
  8
0
100
AcDbSpline
 62
7
  6
BYLAYER
 70
0
 71
3
 72
11
 73
7
 74
0
 42
0.0000001
 43
0.0000001
 44
0.0000000001
 40
0.0
 40
0.0
 40
0.0
 40
0.0
 40
0.4198299402
 40
0.7376952685
 40
0.9367054646
 40
1.0
 40
1.0
 40
1.0
 40
1.0
 10
175.0543769497
 20
158.7240720431
 30
0.0
 10
175.0597520689
 20
158.7146269923
 30
0.0
 10
175.0686309243
 20
158.6992786349
 30
0.0
 10
175.0823046616
 20
158.6741501326
 30
0.0
 10
175.0865893959
 20
158.6683079778
 30
0.0
 10
175.093191812
 20
158.6550108652
 30
0.0
 10
175.0928336273
 20
158.6566096308
 30
0.0
  0
SPLINE
  5
282
100
AcDbEntity
  8
0
100
AcDbSpline
 62
7
  6
BYLAYER
 70
0
 71
3
 72
31
 73
27
 74
0
 42
0.0000001
 43
0.0000001
 44
0.0000000001
 40
0.0
 40
0.0
 40
0.0
 40
0.0
 40
0.2184322712
 40
0.4152950407
 40
0.5046942967
 40
0.5876066614
 40
0.6636908017
 40
0.732650089
 40
0.794208111
 40
0.8480910725
 40
0.8940760795
 40
0.9140517585
 40
0.9319871881
 40
0.9478605925
 40
0.9616504975
 40
0.9733414655
 40
0.9829236261
 40
0.9869208842
 40
0.9903873328
 40
0.9933220915
 40
0.9957245674
 40
0.9975941783
 40
0.9989303421
 40
0.9993981995
 40
0.9997324768
 40
1.0
 40
1.0
 40
1.0
 40
1.0
 10
165.9477778965
 20
152.1021584646
 30
0.0
 10
166.7653143771
 20
151.9400499238
 30
0.0
 10
168.3191944568
 20
151.6294968913
 30
0.0
 10
170.2065052764
 20
151.2467920476
 30
0.0
 10
171.5864972696
 20
150.9642056158
 30
0.0
 10
172.5147950551
 20
150.7730094368
 30
0.0
 10
173.3665229015
 20
150.5966640295
 30
0.0
 10
174.138310478
 20
150.4361035988
 30
0.0
 10
174.8270378987
 20
150.2921990245
 30
0.0
 10
175.4298631098
 20
150.1657733931
 30
0.0
 10
175.8773436128
 20
150.0716256205
 30
0.0
 10
176.1905712715
 20
150.005577941
 30
0.0
 10
176.3913660663
 20
149.9631854706
 30
0.0
 10
176.5690595494
 20
149.9256309104
 30
0.0
 10
176.7234363721
 20
149.8929806122
 30
0.0
 10
176.8543260883
 20
149.8652844781
 30
0.0
 10
176.9486545468
 20
149.8453097136
 30
0.0
 10
177.0122866569
 20
149.8318327316
 30
0.0
 10
177.0510922022
 20
149.8236001336
 30
0.0
 10
177.0839791249
 20
149.8166515132
 30
0.0
 10
177.1108072509
 20
149.8108932928
 30
0.0
 10
177.1319244221
 20
149.8065844413
 30
0.0
 10
177.1452533117
 20
149.8033956389
 30
0.0
 10
177.1537484219
 20
149.8020725514
 30
0.0
 10
177.1568383852
 20
149.8005699572
 30
0.0
 10
177.1608287386
 20
149.8013560307
 30
0.0
 10
177.1607209955
 20
149.8003409669
 30
0.0
  0
SPLINE
  5
283
100
AcDbEntity
  8
0
100
AcDbSpline
 62
7
  6
BYLAYER
 70
0
 71
3
 72
15
 73
11
 74
0
 42
0.0000001
 43
0.0000001
 44
0.0000000001
 40
0.0
 40
0.0
 40
0.0
 40
0.0
 40
0.1249241661
 40
0.2500173477
 40
0.3749894983
 40
0.4374461325
 40
0.4999736453
 40
0.6250916345
 40
0.7500744965
 40
1.0
 40
1.0
 40
1.0
 40
1.0
 10
50.1809230423
 20
163.8004258333
 30
0.0
 10
51.741216004
 20
163.8004270584
 30
0.0
 10
54.863914413
 20
163.7995540514
 30
0.0
 10
59.5474968691
 20
163.8024884663
 30
0.0
 10
63.4508913892
 20
163.799689035
 30
0.0
 10
66.5727556207
 20
163.7754112737
 30
0.0
 10
69.6961617736
 20
163.7268762563
 30
0.0
 10
73.5996762368
 20
163.6258902739
 30
0.0
 10
79.8407072021
 20
163.3927647122
 30
0.0
 10
84.5167379012
 20
163.13563125
 30
0.0
 10
87.6316109835
 20
162.931575473
 30
0.0
  0
SPLINE
  5
284
100
AcDbEntity
  8
0
100
AcDbSpline
 62
7
  6
BYLAYER
 70
0
 71
3
 72
8
 73
4
 74
0
 42
0.0000001
 43
0.0000001
 44
0.0000000001
 40
0.0
 40
0.0
 40
0.0
 40
0.0
 40
1.0
 40
1.0
 40
1.0
 40
1.0
 10
87.6316139583
 20
162.931620884
 30
0.0
 10
87.6569638312
 20
162.7863544689
 30
0.0
 10
87.6811094455
 20
162.6408787372
 30
0.0
 10
87.7067144469
 20
162.4956570746
 30
0.0
  0
SPLINE
  5
285
100
AcDbEntity
  8
0
100
AcDbSpline
 62
7
  6
BYLAYER
 70
0
 71
3
 72
14
 73
10
 74
0
 42
0.0000001
 43
0.0000001
 44
0.0000000001
 40
0.0
 40
0.0
 40
0.0
 40
0.0
 40
0.2500634834
 40
0.3750949236
 40
0.5001164594
 40
0.6251109234
 40
0.7500555978
 40
0.8750090024
 40
1.0
 40
1.0
 40
1.0
 40
1.0
 10
99.9898186583
 20
120.6488524177
 30
0.0
 10
104.2557860431
 20
120.7296835683
 30
0.0
 10
110.654593619
 20
120.8593514141
 30
0.0
 10
119.1853217695
 20
121.0688491035
 30
0.0
 10
125.5821043282
 20
121.2483961757
 30
0.0
 10
131.9766026803
 20
121.4544749996
 30
0.0
 10
138.3693425881
 20
121.6779406958
 30
0.0
 10
144.7633161799
 20
121.863089129
 30
0.0
 10
149.0280496433
 20
121.9184825804
 30
0.0
 10
151.1607209949
 20
121.9185642889
 30
0.0
  0
SPLINE
  5
286
100
AcDbEntity
  8
0
100
AcDbSpline
 62
7
  6
BYLAYER
 70
0
 71
3
 72
9
 73
5
 74
0
 42
0.0000001
 43
0.0000001
 44
0.0000000001
 40
0.0
 40
0.0
 40
0.0
 40
0.0
 40
0.4820665341
 40
1.0
 40
1.0
 40
1.0
 40
1.0
 10
84.265490138
 20
169.1946514136
 30
0.0
 10
84.5676396605
 20
169.1355248125
 30
0.0
 10
85.1984937802
 20
169.0321082875
 30
0.0
 10
85.8366469194
 20
168.9851073888
 30
0.0
 10
86.1673446536
 20
168.9774073805
 30
0.0
  0
SPLINE
  5
287
100
AcDbEntity
  8
0
100
AcDbSpline
 62
7
  6
BYLAYER
 70
0
 71
3
 72
9
 73
5
 74
0
 42
0.0000001
 43
0.0000001
 44
0.0000000001
 40
0.0
 40
0.0
 40
0.0
 40
0.0
 40
0.5000857016
 40
1.0
 40
1.0
 40
1.0
 40
1.0
 10
93.3772305757
 20
162.5180010882
 30
0.0
 10
103.066308245
 20
161.7597931688
 30
0.0
 10
122.3964744076
 20
159.6431671901
 30
0.0
 10
141.5965608683
 20
156.5977856747
 30
0.0
 10
151.1607187204
 20
154.8903742358
 30
0.0
  0
SPLINE
  5
288
100
AcDbEntity
  8
0
100
AcDbSpline
 62
7
  6
BYLAYER
 70
0
 71
3
 72
13
 73
9
 74
0
 42
0.0000001
 43
0.0000001
 44
0.0000000001
 40
0.0
 40
0.0
 40
0.0
 40
0.0
 40
0.2497986241
 40
0.3750312367
 40
0.5000473556
 40
0.6251676481
 40
0.7504047054
 40
1.0
 40
1.0
 40
1.0
 40
1.0
 10
101.1438253026
 20
125.5394414463
 30
0.0
 10
100.8686918143
 20
125.539433019
 30
0.0
 10
100.4509002504
 20
125.5851711828
 30
0.0
 10
99.9333473622
 20
125.7820514991
 30
0.0
 10
99.5825015723
 20
126.0071485417
 30
0.0
 10
99.2907859126
 20
126.3051077657
 30
0.0
 10
98.9967655033
 20
126.7747916846
 30
0.0
 10
98.8809365279
 20
127.1802160034
 30
0.0
 10
98.8373505474
 20
127.4516483447
 30
0.0
  0
SPLINE
  5
289
100
AcDbEntity
  8
0
100
AcDbSpline
 62
7
  6
BYLAYER
 70
0
 71
3
 72
14
 73
10
 74
0
 42
0.0000001
 43
0.0000001
 44
0.0000000001
 40
0.0
 40
0.0
 40
0.0
 40
0.0
 40
0.2499799082
 40
0.4999087219
 40
0.6249819564
 40
0.7499947448
 40
0.8124497088
 40
0.8749826228
 40
1.0
 40
1.0
 40
1.0
 40
1.0
 10
92.3144367542
 20
169.1501042369
 30
0.0
 10
97.0392627136
 20
169.1084196073
 30
0.0
 10
106.4876724036
 20
168.9916189176
 30
0.0
 10
118.2989326676
 20
168.7788829787
 30
0.0
 10
127.7478739964
 20
168.5784404553
 30
0.0
 10
133.653710221
 20
168.4374892683
 30
0.0
 10
138.377539168
 20
168.3153618993
 30
0.0
 10
143.1012471077
 20
168.1861597552
 30
0.0
 10
146.6450473403
 20
168.0915830774
 30
0.0
 10
149.0076692517
 20
168.048032911
 30
0.0
  0
SPLINE
  5
28A
100
AcDbEntity
  8
0
100
AcDbSpline
 62
7
  6
BYLAYER
 70
0
 71
3
 72
11
 73
7
 74
0
 42
0.0000001
 43
0.0000001
 44
0.0000000001
 40
0.0
 40
0.0
 40
0.0
 40
0.0
 40
0.1762223623
 40
0.4206950919
 40
0.7038834347
 40
1.0
 40
1.0
 40
1.0
 40
1.0
 10
149.0076692517
 20
168.048032911
 30
0.0
 10
149.3010858252
 20
167.3173768665
 30
0.0
 10
149.8999937174
 20
165.5318609528
 30
0.0
 10
150.5996623279
 20
162.4602543743
 30
0.0
 10
151.0624276326
 20
158.8032953287
 30
0.0
 10
151.1607212947
 20
156.2134367759
 30
0.0
 10
151.1607218422
 20
154.8903736785
 30
0.0
  0
SPLINE
  5
28B
100
AcDbEntity
  8
0
100
AcDbSpline
 62
7
  6
BYLAYER
 70
0
 71
3
 72
9
 73
5
 74
0
 42
0.0000001
 43
0.0000001
 44
0.0000000001
 40
0.0
 40
0.0
 40
0.0
 40
0.0
 40
0.2207660321
 40
1.0
 40
1.0
 40
1.0
 40
1.0
 10
148.170827625
 20
169.800332798
 30
0.0
 10
148.2455790162
 20
169.6784462223
 30
0.0
 10
148.5565771506
 20
169.1097644463
 30
0.0
 10
148.8195992833
 20
168.5164126978
 30
0.0
 10
149.0076670073
 20
168.0480787689
 30
0.0
  0
SPLINE
  5
28C
100
AcDbEntity
  8
0
100
AcDbSpline
 62
7
  6
BYLAYER
 70
0
 71
3
 72
9
 73
5
 74
0
 42
0.0000001
 43
0.0000001
 44
0.0000000001
 40
0.0
 40
0.0
 40
0.0
 40
0.0
 40
0.2671767879
 40
1.0
 40
1.0
 40
1.0
 40
1.0
 10
88.4330608863
 20
169.1804065233
 30
0.0
 10
88.4896173899
 20
169.1920258122
 30
0.0
 10
88.7009894154
 20
169.23699437
 30
0.0
 10
88.9111868346
 20
169.2875999126
 30
0.0
 10
89.0641463657
 20
169.328623974
 30
0.0
  0
SPLINE
  5
28D
100
AcDbEntity
  8
0
100
AcDbSpline
 62
7
  6
BYLAYER
 70
0
 71
3
 72
9
 73
5
 74
0
 42
0.0000001
 43
0.0000001
 44
0.0000000001
 40
0.0
 40
0.0
 40
0.0
 40
0.0
 40
0.2789720048
 40
1.0
 40
1.0
 40
1.0
 40
1.0
 10
89.27572907
 20
169.3883923871
 30
0.0
 10
89.3101604573
 20
169.3986497442
 30
0.0
 10
89.4332955371
 20
169.4363559576
 30
0.0
 10
89.5553711567
 20
169.4776619754
 30
0.0
 10
89.6422283614
 20
169.5104957657
 30
0.0
  0
SPLINE
  5
28E
100
AcDbEntity
  8
0
100
AcDbSpline
 62
7
  6
BYLAYER
 70
0
 71
3
 72
20
 73
16
 74
0
 42
0.0000001
 43
0.0000001
 44
0.0000000001
 40
0.0
 40
0.0
 40
0.0
 40
0.0
 40
0.1747230159
 40
0.2427897689
 40
0.2977549412
 40
0.3397701908
 40
0.3698762278
 40
0.3912430097
 40
0.4117612301
 40
0.4401327281
 40
0.4802600274
 40
0.5334962331
 40
0.6003809292
 40
0.7749586907
 40
1.0
 40
1.0
 40
1.0
 40
1.0
 10
89.6422283614
 20
169.5104957657
 30
0.0
 10
89.6993227897
 20
169.532078621
 30
0.0
 10
89.7781347789
 20
169.5637322277
 30
0.0
 10
89.8714933234
 20
169.6097128417
 30
0.0
 10
89.9214200272
 20
169.6386820789
 30
0.0
 10
89.9571215012
 20
169.6653603111
 30
0.0
 10
89.9795758094
 20
169.6893355319
 30
0.0
 10
89.9878921432
 20
169.715228593
 30
0.0
 10
89.9743798235
 20
169.7382535312
 30
0.0
 10
89.9467680658
 20
169.7536479784
 30
0.0
 10
89.906324176
 20
169.7669889751
 30
0.0
 10
89.8512708506
 20
169.7777930458
 30
0.0
 10
89.7490802911
 20
169.790486249
 30
0.0
 10
89.5861540457
 20
169.7987583573
 30
0.0
 10
89.4465697614
 20
169.8003326302
 30
0.0
 10
89.3679539583
 20
169.8003327981
 30
0.0
  0
SPLINE
  5
28F
100
AcDbEntity
  8
0
100
AcDbSpline
 62
7
  6
BYLAYER
 70
0
 71
3
 72
10
 73
6
 74
0
 42
0.0000001
 43
0.0000001
 44
0.0000000001
 40
0.0
 40
0.0
 40
0.0
 40
0.0
 40
0.5341970448
 40
0.7626747624
 40
1.0
 40
1.0
 40
1.0
 40
1.0
 10
89.1163285734
 20
169.5055681665
 30
0.0
 10
89.117283709
 20
169.580824158
 30
0.0
 10
89.1556971684
 20
169.6940942492
 30
0.0
 10
89.2679584033
 20
169.7837659845
 30
0.0
 10
89.3345012422
 20
169.8002162957
 30
0.0
 10
89.367937518
 20
169.8002719299
 30
0.0
  0
SPLINE
  5
290
100
AcDbEntity
  8
0
100
AcDbSpline
 62
7
  6
BYLAYER
 70
0
 71
3
 72
19
 73
15
 74
0
 42
0.0000001
 43
0.0000001
 44
0.0000000001
 40
0.0
 40
0.0
 40
0.0
 40
0.0
 40
0.2016383208
 40
0.2810382552
 40
0.3461955417
 40
0.3972684462
 40
0.434717615
 40
0.4599056032
 40
0.4773671087
 40
0.4977044929
 40
0.5286942911
 40
0.6304370122
 40
0.7876464427
 40
1.0
 40
1.0
 40
1.0
 40
1.0
 10
82.6005997652
 20
169.8003327987
 30
0.0
 10
82.5625002506
 20
169.8003330508
 30
0.0
 10
82.509389442
 20
169.7998716269
 30
0.0
 10
82.4440279
 20
169.7966460803
 30
0.0
 10
82.4072355211
 20
169.793285917
 30
0.0
 10
82.3784185214
 20
169.7888775548
 30
0.0
 10
82.3578548608
 20
169.7829791146
 30
0.0
 10
82.3437951913
 20
169.7761961285
 30
0.0
 10
82.3380333665
 20
169.7642366078
 30
0.0
 10
82.344967847
 20
169.7517924493
 30
0.0
 10
82.3665857868
 20
169.7330015286
 30
0.0
 10
82.4155937262
 20
169.7068155623
 30
0.0
 10
82.497150903
 20
169.671831444
 30
0.0
 10
82.562769507
 20
169.6475577473
 30
0.0
 10
82.6005702727
 20
169.6341022646
 30
0.0
  0
SPLINE
  5
291
100
AcDbEntity
  8
0
100
AcDbSpline
 62
7
  6
BYLAYER
 70
0
 71
3
 72
9
 73
5
 74
0
 42
0.0000001
 43
0.0000001
 44
0.0000000001
 40
0.0
 40
0.0
 40
0.0
 40
0.0
 40
0.2165277341
 40
1.0
 40
1.0
 40
1.0
 40
1.0
 10
82.6005702727
 20
169.6341022646
 30
0.0
 10
82.6235977703
 20
169.6259054439
 30
0.0
 10
82.7302737936
 20
169.5889687937
 30
0.0
 10
82.8379543169
 20
169.5549921554
 30
0.0
 10
82.9225676454
 20
169.5292491608
 30
0.0
  0
SPLINE
  5
292
100
AcDbEntity
  8
0
100
AcDbSpline
 62
7
  6
BYLAYER
 70
0
 71
3
 72
9
 73
5
 74
0
 42
0.0000001
 43
0.0000001
 44
0.0000000001
 40
0.0
 40
0.0
 40
0.0
 40
0.0
 40
0.2061320029
 40
1.0
 40
1.0
 40
1.0
 40
1.0
 10
82.9225676454
 20
169.5292491608
 30
0.0
 10
83.0104095191
 20
169.5025239046
 30
0.0
 10
83.4380819346
 20
169.3779446496
 30
0.0
 10
83.8719079907
 20
169.2745600998
 30
0.0
 10
84.218396431
 20
169.2039364889
 30
0.0
  0
SPLINE
  5
293
100
AcDbEntity
  8
0
100
AcDbSpline
 62
7
  6
BYLAYER
 70
0
 71
3
 72
15
 73
11
 74
0
 42
0.0000001
 43
0.0000001
 44
0.0000000001
 40
0.0
 40
0.0
 40
0.0
 40
0.0
 40
0.250551671
 40
0.3757257249
 40
0.5008359321
 40
0.6257735596
 40
0.750627447
 40
0.8130318617
 40
0.8753896013
 40
1.0
 40
1.0
 40
1.0
 40
1.0
 10
84.218396431
 20
169.2039364889
 30
0.0
 10
81.3756412059
 20
169.2163992915
 30
0.0
 10
77.1126031805
 20
169.2247174435
 30
0.0
 10
71.4300835644
 20
169.2118542822
 30
0.0
 10
67.1728203595
 20
169.1910755146
 30
0.0
 10
62.9193283098
 20
169.1514267663
 30
0.0
 10
59.3772880765
 20
169.1177191584
 30
0.0
 10
56.5451918725
 20
169.096560471
 30
0.0
 10
53.7158584198
 20
169.0806485876
 30
0.0
 10
51.5944374368
 20
169.0646007651
 30
0.0
 10
50.1809230152
 20
169.0342063998
 30
0.0
  0
SPLINE
  5
294
100
AcDbEntity
  8
0
100
AcDbSpline
 62
7
  6
BYLAYER
 70
0
 71
3
 72
18
 73
14
 74
0
 42
0.0000001
 43
0.0000001
 44
0.0000000001
 40
0.0
 40
0.0
 40
0.0
 40
0.0
 40
0.0650402753
 40
0.1300928377
 40
0.1950716648
 40
0.2601269103
 40
0.3251825791
 40
0.3901105724
 40
0.5193279417
 40
0.6466600319
 40
0.7706262044
 40
0.8892793881
 40
1.0
 40
1.0
 40
1.0
 40
1.0
 10
98.8373503518
 20
127.451651335
 30
0.0
 10
98.7750507116
 20
127.4183081709
 30
0.0
 10
98.6510013882
 20
127.3502757581
 30
0.0
 10
98.4742605582
 20
127.2332607889
 30
0.0
 10
98.2952694167
 20
127.1193346164
 30
0.0
 10
98.1049423199
 20
127.0255897658
 30
0.0
 10
97.9158082829
 20
126.9301560291
 30
0.0
 10
97.666576155
 20
126.7990209935
 30
0.0
 10
97.3590086618
 20
126.6335120095
 30
0.0
 10
96.999265039
 20
126.4297910197
 30
0.0
 10
96.6508580851
 20
126.2294034316
 30
0.0
 10
96.3173236106
 20
126.0393825874
 30
0.0
 10
96.0981157499
 20
125.9206944913
 30
0.0
 10
95.9907258999
 20
125.8665007402
 30
0.0
  0
SPLINE
  5
295
100
AcDbEntity
  8
0
100
AcDbSpline
 62
7
  6
BYLAYER
 70
0
 71
3
 72
9
 73
5
 74
0
 42
0.0000001
 43
0.0000001
 44
0.0000000001
 40
0.0
 40
0.0
 40
0.0
 40
0.0
 40
0.2500173849
 40
1.0
 40
1.0
 40
1.0
 40
1.0
 10
93.377230564
 20
162.5180009274
 30
0.0
 10
93.8392171368
 20
159.5966916617
 30
0.0
 10
95.6592638009
 20
147.9079070479
 30
0.0
 10
97.4307257152
 20
136.2114529591
 30
0.0
 10
98.8373503518
 20
127.451651335
 30
0.0
  0
SPLINE
  5
296
100
AcDbEntity
  8
0
100
AcDbSpline
 62
7
  6
BYLAYER
 70
0
 71
3
 72
14
 73
10
 74
0
 42
0.0000001
 43
0.0000001
 44
0.0000000001
 40
0.0
 40
0.0
 40
0.0
 40
0.0
 40
0.2487875489
 40
0.3738651217
 40
0.4990988029
 40
0.6243748818
 40
0.7496444783
 40
0.8748778994
 40
1.0
 40
1.0
 40
1.0
 40
1.0
 10
99.9556886374
 20
122.5090631851
 30
0.0
 10
99.4846695769
 20
122.478819123
 30
0.0
 10
98.7610301177
 20
122.598737264
 30
0.0
 10
97.8945923252
 20
122.9864569013
 30
0.0
 10
97.3062380307
 20
123.3968918292
 30
0.0
 10
96.804394146
 20
123.9088273612
 30
0.0
 10
96.4064447885
 20
124.505418147
 30
0.0
 10
96.1253687096
 20
125.1645102102
 30
0.0
 10
96.0217033949
 20
125.631158263
 30
0.0
 10
95.9908117679
 20
125.8665158669
 30
0.0
  0
ENDSEC
  0
SECTION
  2
OBJECTS
  0
DICTIONARY
  5
C
100
AcDbDictionary
280
0
281
1
  3
ACAD_GROUP
350
D
  3
ACAD_MLINESTYLE
350
17
  3
ACAD_LAYOUT
350
1A
  3
ACAD_PLOTSETTINGS
350
19
  3
ACAD_PLOTSTYLENAME
350
E
  0
DICTIONARY
  5
D
102
{ACAD_REACTORS
330
C
102
}
100
AcDbDictionary
280
0
281
1
  0
ACDBDICTIONARYWDFLT
  5
E
102
{ACAD_REACTORS
330
C
102
}
100
AcDbDictionary
281
1
  3
Normal
350
F
100
AcDbDictionaryWithDefault
340
F
  0
DICTIONARY
  5
17
102
{ACAD_REACTORS
330
C
102
}
100
AcDbDictionary
280
0
281
1
  3
Standard
350
18
  0
DICTIONARY
  5
19
102
{ACAD_REACTORS
330
C
102
}
100
AcDbDictionary
281
1
  0
DICTIONARY
  5
1A
102
{ACAD_REACTORS
330
C
102
}
100
AcDbDictionary
281
1
  3
Model
350
297
  3
Layout1
350
298
  0
ACDBPLACEHOLDER
  5
F
102
{ACAD_REACTORS
330
E
102
}
  0
MLINESTYLE
  5
18
102
{ACAD_REACTORS
330
17
102
}
100
AcDbMlineStyle
  2
STANDARD
 70
0
  3

 62
256
 51
90.0
 52
90.0
 71
2
 49
0.5
 62
256
  6
BYLAYER
 49
-0.5
 62
256
  6
BYLAYER
  0
LAYOUT
  5
297
102
{ACAD_REACTORS
330
1A
102
}
100
AcDbPlotSettings
  1

  2
none_device
  4

  6

 40
0.0
 41
0.0
 42
0.0
 43
0.0
 44
210.0
 45
297.0
 46
0.0
 47
0.0
 48
0.0
 49
0.0
140
0.0
141
0.0
142
1.0
143
1.0
 70
1024
 72
1
 73
0
 74
0
  7

 75
0
147
1.0
148
0.0
149
0.0
100
AcDbLayout
  1
Model
 70
0
 71
0
 10
0.0
 20
0.0
 11
210.0
 21
297.0
 12
0.0
 22
0.0
 32
0.0
 14
0.0
 24
0.0
 34
0.0
 15
0.0
 25
0.0
 35
0.0
146
0.0
 13
0.0
 23
0.0
 33
0.0
 16
1.0
 26
0.0
 36
0.0
 17
0.0
 27
1.0
 37
0.0
 76
0
330
210
345
0
346
0
  0
LAYOUT
  5
298
102
{ACAD_REACTORS
330
1A
102
}
100
AcDbPlotSettings
  1

  2
none_device
  4

  6

 40
0.0
 41
0.0
 42
0.0
 43
0.0
 44
210.0
 45
297.0
 46
0.0
 47
0.0
 48
0.0
 49
0.0
140
0.0
141
0.0
142
1.0
143
1.0
 70
0
 72
1
 73
0
 74
0
  7

 75
0
147
1.0
148
0.0
149
0.0
100
AcDbLayout
  1
Layout1
 70
0
 71
1
 10
0.0
 20
0.0
 11
210.0
 21
297.0
 12
0.0
 22
0.0
 32
0.0
 14
0.0
 24
0.0
 34
0.0
 15
0.0
 25
0.0
 35
0.0
146
0.0
 13
0.0
 23
0.0
 33
0.0
 16
1.0
 26
0.0
 36
0.0
 17
0.0
 27
1.0
 37
0.0
 76
0
330
211
345
0
346
0
  0
ENDSEC
  0
EOF
