999
DXF file: Y:\001_SCHNEIDER_PARIS\maxime fuentes - génération CAD 2D\TRAVAIL\XACB04_2D-Views\xacb04_2d-views_2.dxf
999
Pro/ENGINEER 2018260 by Parametric Technology Corporation
  0
SECTION
  2
HEADER
  9
$ACADVER
  1
AC1027
  9
$DWGCODEPAGE
  3
ANSI_1252
  9
$EXTMAX
 10
558.8
 20
431.8
 30
0.0
  9
$EXTMIN
 10
0.0
 20
0.0
 30
0.0
  9
$LIMMIN
 10
0.0
 20
0.0
  9
$LIMMAX
 10
558.8
 20
431.8
  9
$VIEWCTR
 10
279.4
 20
215.9
  9
$VIEWSIZE
 40
431.8
  9
$CLAYER
  8
0
  9
$LTSCALE
 40
30.734
  9
$CELTYPE
  6
BYLAYER
  9
$DIMSCALE
 40
1.0
  9
$DIMASZ
 40
3.5
  9
$DIMEXO
 40
1.0
  9
$DIMDLI
 40
21.2344
  9
$DIMEXE
 40
3.0
  9
$DIMCEN
 40
5.0292
  9
$DIMLFAC
 40
1.0
  9
$DIMBLK
  1
_FILLED
  9
$DIMALT
 70
0
  9
$DIMALTF
 40
0.0393700787
  9
$DIMTXT
 40
4.0
  9
$DIMTOL
 70
1
  9
$DIMLIM
 70
0
  9
$DIMTFAC
 40
1.0
  9
$DIMTP
 40
0.0001
  9
$DIMTM
 40
0.0001
  9
$DIMGAP
 40
0.625
  9
$DIMDSEP
 70
46
  9
$AUNITS
 70
0
  9
$PDMODE
 70
0
  9
$PDSIZE
 40
0.01
  9
$HANDSEED
  5
4C6
  9
$TILEMODE
 70
1
  9
$MEASUREMENT
 70
1
  9
$INSUNITS
 70
4
  0
ENDSEC
  0
SECTION
  2
CLASSES
  0
CLASS
  1
ACDBDICTIONARYWDFLT
  2
AcDbDictionaryWithDefault
  3
AutoCAD 2000
 90
0
 91
1
280
0
281
0
  0
CLASS
  1
ACDBPLACEHOLDER
  2
AcDbPlaceHolder
  3
AutoCAD 2000
 90
0
 91
1
280
0
281
0
  0
CLASS
  1
LAYOUT
  2
AcDbLayout
  3
AutoCAD 2000
 90
0
 91
0
280
0
281
0
  0
ENDSEC
  0
SECTION
  2
TABLES
  0
TABLE
  2
VPORT
  5
8
100
AcDbSymbolTable
 70
2
  0
VPORT
  5
1F4
100
AcDbSymbolTableRecord
100
AcDbViewportTableRecord
  2
*ACTIVE
 70
0
 10
0.0
 20
0.0
 11
1.0
 21
1.0
 12
279.4
 22
215.9
 13
0.0
 23
0.0
 14
1.0
 24
1.0
 15
0.0
 25
0.0
 16
0.0
 26
0.0
 36
1.0
 17
0.0
 27
0.0
 37
0.0
 40
431.8
 41
1.2941176471
 42
50.0
 43
0.0
 44
0.0
 50
0.0
 51
0.0
 71
0
 72
100
 73
1
 74
1
 75
0
 76
0
 77
0
 78
0
  0
ENDTAB
  0
TABLE
  2
LTYPE
  5
5
100
AcDbSymbolTable
 70
6
  0
LTYPE
  5
14
100
AcDbSymbolTableRecord
100
AcDbLinetypeTableRecord
  2
BYBLOCK
 70
0
  3

 72
65
 73
0
 40
0.0
  0
LTYPE
  5
15
100
AcDbSymbolTableRecord
100
AcDbLinetypeTableRecord
  2
BYLAYER
 70
0
  3

 72
65
 73
0
 40
0.0
  0
LTYPE
  5
16
100
AcDbSymbolTableRecord
100
AcDbLinetypeTableRecord
  2
CONTINUOUS
 70
64
  3
Solid line
 72
65
 73
0
 40
0.0
  0
LTYPE
  5
1F5
100
AcDbSymbolTableRecord
100
AcDbLinetypeTableRecord
  2
CENTER
 70
64
  3
____ _ ____ _ ____ _ ____ _ ____ _ ____ _ ____
 72
65
 73
4
 40
0.6
 49
0.375
 74
0
 49
-0.075
 74
0
 49
0.075
 74
0
 49
-0.075
 74
0
  0
LTYPE
  5
1F6
100
AcDbSymbolTableRecord
100
AcDbLinetypeTableRecord
  2
HIDDEN
 70
64
  3
- - - - - - - - - - - - - - - - - - - -
 72
65
 73
2
 40
0.2
 49
0.1
 74
0
 49
-0.1
 74
0
  0
LTYPE
  5
1F7
100
AcDbSymbolTableRecord
100
AcDbLinetypeTableRecord
  2
PHANTOM
 70
64
  3
_____ _ _ _____ _ _ _____ _ _ _____
 72
65
 73
6
 40
0.8
 49
0.45
 74
0
 49
-0.05
 74
0
 49
0.1
 74
0
 49
-0.05
 74
0
 49
0.1
 74
0
 49
-0.05
 74
0
  0
LTYPE
  5
1F8
100
AcDbSymbolTableRecord
100
AcDbLinetypeTableRecord
  2
DOT
 70
64
  3
. . . . . . . . . . . . . . . . . . . .
 72
65
 73
2
 40
0.2
 49
0.1
 74
0
 49
-0.1
 74
0
  0
LTYPE
  5
1F9
100
AcDbSymbolTableRecord
100
AcDbLinetypeTableRecord
  2
DASHED
 70
64
  3
- - - - - - - - - - - - - - - - - - - -
 72
65
 73
2
 40
0.2
 49
0.1
 74
0
 49
-0.1
 74
0
  0
ENDTAB
  0
TABLE
  2
LAYER
  5
2
100
AcDbSymbolTable
 70
36
  0
LAYER
  5
10
100
AcDbSymbolTableRecord
100
AcDbLayerTableRecord
  2
0
 70
0
 62
7
  6
CONTINUOUS
370
-3
390
F
  0
LAYER
  5
1FA
100
AcDbSymbolTableRecord
100
AcDbLayerTableRecord
  2
DEFAULT_1
 70
0
 62
7
  6
CENTER
370
-3
390
F
  0
LAYER
  5
1FB
100
AcDbSymbolTableRecord
100
AcDbLayerTableRecord
  2
DEFAULT_2
 70
0
 62
8
  6
HIDDEN
370
-3
390
F
  0
LAYER
  5
1FC
100
AcDbSymbolTableRecord
100
AcDbLayerTableRecord
  2
DEFAULT_3
 70
0
 62
7
  6
PHANTOM
370
-3
390
F
  0
LAYER
  5
1FD
100
AcDbSymbolTableRecord
100
AcDbLayerTableRecord
  2
01_ALL_DTM_PLN
 70
0
 62
7
  6
CONTINUOUS
370
-3
390
F
  0
LAYER
  5
1FE
100
AcDbSymbolTableRecord
100
AcDbLayerTableRecord
  2
01__ASM_ALL_DTM_PLN
 70
0
 62
7
  6
CONTINUOUS
370
-3
390
F
  0
LAYER
  5
1FF
100
AcDbSymbolTableRecord
100
AcDbLayerTableRecord
  2
01__ASM_DEF_DTM_PLN
 70
0
 62
7
  6
CONTINUOUS
370
-3
390
F
  0
LAYER
  5
200
100
AcDbSymbolTableRecord
100
AcDbLayerTableRecord
  2
01___PRT_ALL_DTM_PLN
 70
0
 62
7
  6
CONTINUOUS
370
-3
390
F
  0
LAYER
  5
201
100
AcDbSymbolTableRecord
100
AcDbLayerTableRecord
  2
01___PRT_DEF_DTM_PLN
 70
0
 62
7
  6
CONTINUOUS
370
-3
390
F
  0
LAYER
  5
202
100
AcDbSymbolTableRecord
100
AcDbLayerTableRecord
  2
02_ALL_AXES
 70
0
 62
7
  6
CONTINUOUS
370
-3
390
F
  0
LAYER
  5
203
100
AcDbSymbolTableRecord
100
AcDbLayerTableRecord
  2
02__ASM_ALL_AXES
 70
0
 62
7
  6
CONTINUOUS
370
-3
390
F
  0
LAYER
  5
204
100
AcDbSymbolTableRecord
100
AcDbLayerTableRecord
  2
02___PRT_ALL_AXES
 70
0
 62
7
  6
CONTINUOUS
370
-3
390
F
  0
LAYER
  5
205
100
AcDbSymbolTableRecord
100
AcDbLayerTableRecord
  2
03_ALL_CURVES
 70
0
 62
7
  6
CONTINUOUS
370
-3
390
F
  0
LAYER
  5
206
100
AcDbSymbolTableRecord
100
AcDbLayerTableRecord
  2
03__ASM_ALL_CURVES
 70
0
 62
7
  6
CONTINUOUS
370
-3
390
F
  0
LAYER
  5
207
100
AcDbSymbolTableRecord
100
AcDbLayerTableRecord
  2
03___PRT_ALL_CURVES
 70
0
 62
7
  6
CONTINUOUS
370
-3
390
F
  0
LAYER
  5
208
100
AcDbSymbolTableRecord
100
AcDbLayerTableRecord
  2
04_ALL_DTM_PNT
 70
0
 62
7
  6
CONTINUOUS
370
-3
390
F
  0
LAYER
  5
209
100
AcDbSymbolTableRecord
100
AcDbLayerTableRecord
  2
04__ASM_ALL_DTM_PNT
 70
0
 62
7
  6
CONTINUOUS
370
-3
390
F
  0
LAYER
  5
20A
100
AcDbSymbolTableRecord
100
AcDbLayerTableRecord
  2
04___PRT_ALL_DTM_PNT
 70
0
 62
7
  6
CONTINUOUS
370
-3
390
F
  0
LAYER
  5
20B
100
AcDbSymbolTableRecord
100
AcDbLayerTableRecord
  2
05_ALL_DTM_CSYS
 70
0
 62
7
  6
CONTINUOUS
370
-3
390
F
  0
LAYER
  5
20C
100
AcDbSymbolTableRecord
100
AcDbLayerTableRecord
  2
05__ASM_ALL_DTM_CSYS
 70
0
 62
7
  6
CONTINUOUS
370
-3
390
F
  0
LAYER
  5
20D
100
AcDbSymbolTableRecord
100
AcDbLayerTableRecord
  2
05__ASM_DEF_DTM_CSYS
 70
0
 62
7
  6
CONTINUOUS
370
-3
390
F
  0
LAYER
  5
20E
100
AcDbSymbolTableRecord
100
AcDbLayerTableRecord
  2
05___PRT_ALL_DTM_CSYS
 70
0
 62
7
  6
CONTINUOUS
370
-3
390
F
  0
LAYER
  5
20F
100
AcDbSymbolTableRecord
100
AcDbLayerTableRecord
  2
05___PRT_DEF_DTM_CSYS
 70
0
 62
7
  6
CONTINUOUS
370
-3
390
F
  0
LAYER
  5
210
100
AcDbSymbolTableRecord
100
AcDbLayerTableRecord
  2
06_ALL_SURFS
 70
0
 62
7
  6
CONTINUOUS
370
-3
390
F
  0
LAYER
  5
211
100
AcDbSymbolTableRecord
100
AcDbLayerTableRecord
  2
06__ASM_ALL_SURFS
 70
0
 62
7
  6
CONTINUOUS
370
-3
390
F
  0
LAYER
  5
212
100
AcDbSymbolTableRecord
100
AcDbLayerTableRecord
  2
06___PRT_ALL_SURFS
 70
0
 62
7
  6
CONTINUOUS
370
-3
390
F
  0
LAYER
  5
213
100
AcDbSymbolTableRecord
100
AcDbLayerTableRecord
  2
07__ASM_ALL_SKELETONS
 70
0
 62
7
  6
CONTINUOUS
370
-3
390
F
  0
LAYER
  5
214
100
AcDbSymbolTableRecord
100
AcDbLayerTableRecord
  2
CLOSED_SHELL
 70
0
 62
7
  6
CONTINUOUS
370
-3
390
F
  0
ENDTAB
  0
TABLE
  2
STYLE
  5
3
100
AcDbSymbolTable
 70
1
  0
STYLE
  5
11
100
AcDbSymbolTableRecord
100
AcDbTextStyleTableRecord
  2
STANDARD
 70
0
 40
0.0
 41
0.6
 50
0.0
 71
0
 42
0.2
  3
txt
  4

  0
STYLE
  5
215
100
AcDbSymbolTableRecord
100
AcDbTextStyleTableRecord
  2
TEXTSTYLE_1
 70
0
 40
0.0
 41
0.8
 50
0.0
 71
0
 42
0.2
  3
gdt
  4

  0
ENDTAB
  0
TABLE
  2
VIEW
  5
6
100
AcDbSymbolTable
 70
0
  0
ENDTAB
  0
TABLE
  2
UCS
  5
7
100
AcDbSymbolTable
 70
0
  0
ENDTAB
  0
TABLE
  2
APPID
  5
9
100
AcDbSymbolTable
 70
1
  0
APPID
  5
216
100
AcDbSymbolTableRecord
100
AcDbRegAppTableRecord
  2
ACAD
 70
0
  0
ENDTAB
  0
TABLE
  2
BLOCK_RECORD
  5
1
100
AcDbSymbolTable
 70
0
  0
BLOCK_RECORD
  5
217
100
AcDbSymbolTableRecord
100
AcDbBlockTableRecord
  2
*Model_Space
  0
BLOCK_RECORD
  5
218
100
AcDbSymbolTableRecord
100
AcDbBlockTableRecord
  2
*Paper_Space
  0
BLOCK_RECORD
  5
219
100
AcDbSymbolTableRecord
100
AcDbBlockTableRecord
  2
_FILLED
  0
ENDTAB
  0
TABLE
  2
DIMSTYLE
  5
A
100
AcDbSymbolTable
 70
1
100
AcDbDimStyleTable
 71
0
  0
DIMSTYLE
105
21A
100
AcDbSymbolTableRecord
100
AcDbDimStyleTableRecord
  2
STANDARD
 70
0
  3

  4

 40
1.0
 41
3.5
 42
1.0
 43
0.38
 44
3.0
 45
0.0
 46
0.0
 47
0.0001
 48
0.0001
140
4.0
141
0.09
142
0.0
143
25.4
144
1.0
145
0.0
146
1.0
147
0.625
 71
1.0
 72
0.0
 73
0
 74
0
 75
0
 76
0
 77
1
 78
8
 79
2
170
0
171
3
172
0
173
0
174
0
175
0
176
0
177
0
178
0
270
2
179
4
271
4
272
4
273
2
274
2
275
0
280
0
281
0
282
0
283
1
284
8
285
0
286
0
287
3
288
0
340
11
278
46
341
219
342
219
343
219
344
219
  0
ENDTAB
  0
ENDSEC
  0
SECTION
  2
BLOCKS
  0
BLOCK
  5
20
100
AcDbEntity
  8
0
100
AcDbBlockBegin
  2
*Model_Space
 70
0
 10
0.0
 20
0.0
 30
0.0
  3
*Model_Space
  1

  0
ENDBLK
  5
21
100
AcDbEntity
  8
0
100
AcDbBlockEnd
  0
BLOCK
  5
1C
100
AcDbEntity
  8
0
100
AcDbBlockBegin
  2
*Paper_Space
 70
0
 10
0.0
 20
0.0
 30
0.0
  3
*Paper_Space
  1

  0
ENDBLK
  5
1D
100
AcDbEntity
  8
0
100
AcDbBlockEnd
  0
BLOCK
  5
21B
100
AcDbEntity
  8
0
100
AcDbBlockBegin
  2
_FILLED
 70
64
 10
0.0
 20
0.0
  3
_FILLED
  1

  0
SOLID
  5
21C
100
AcDbEntity
  8
0
  6
BYBLOCK
 62
0
100
AcDbTrace
 10
0.0
 20
0.0
 11
-1.0
 21
0.2857142857
 12
-1.0
 22
-0.2857142857
 13
-1.0
 23
-0.2857142857
  0
ENDBLK
  5
21D
100
AcDbEntity
  8
0
  6
BYBLOCK
 62
0
100
AcDbBlockEnd
  0
ENDSEC
  0
SECTION
  2
ENTITIES
  0
LINE
  5
21E
100
AcDbEntity
  8
0
100
AcDbLine
 62
9
  6
CONTINUOUS
 10
206.6196110748
 20
-56.7001175819
 11
206.6169935963
 21
-56.7001752568
  0
LINE
  5
21F
100
AcDbEntity
  8
0
100
AcDbLine
 62
7
  6
CONTINUOUS
 10
211.1822699707
 20
-61.310651404
 11
220.3740681373
 21
-61.3088024299
  0
LINE
  5
220
100
AcDbEntity
  8
0
100
AcDbLine
 62
7
  6
CONTINUOUS
 10
224.5737024113
 20
-61.3079576534
 11
236.8434371491
 21
-61.3054895377
  0
LINE
  5
221
100
AcDbEntity
  8
0
100
AcDbLine
 62
7
  6
CONTINUOUS
 10
272.1056744784
 20
-61.2983963702
 11
284.373700151
 21
-61.2959285982
  0
LINE
  5
222
100
AcDbEntity
  8
0
100
AcDbLine
 62
7
  6
CONTINUOUS
 10
288.5736999914
 20
-61.2950837482
 11
297.7651325913
 21
-61.2932348476
  0
LINE
  5
223
100
AcDbEntity
  8
0
100
AcDbLine
 62
7
  6
CONTINUOUS
 10
236.8434329683
 20
-61.2847056143
 11
272.1056702976
 21
-61.2776124469
  0
LINE
  5
224
100
AcDbEntity
  8
0
100
AcDbLine
 62
9
  6
CONTINUOUS
 10
236.8431260718
 20
-60.8885443307
 11
272.1060012184
 21
-60.881451035
  0
LINE
  5
225
100
AcDbEntity
  8
0
100
AcDbLine
 62
9
  6
CONTINUOUS
 10
215.7091796991
 20
-60.1070337489
 11
231.0057875819
 21
-60.1039567631
  0
LINE
  5
226
100
AcDbEntity
  8
0
100
AcDbLine
 62
9
  6
CONTINUOUS
 10
277.95412832
 20
-60.0945130693
 11
293.2507289294
 21
-60.091436085
  0
LINE
  5
227
100
AcDbEntity
  8
0
100
AcDbLine
 62
9
  6
CONTINUOUS
 10
277.9543717759
 20
-59.7788184591
 11
293.2507476289
 21
-59.77574152
  0
LINE
  5
228
100
AcDbEntity
  8
0
100
AcDbLine
 62
9
  6
CONTINUOUS
 10
215.7091707804
 20
-59.7913387711
 11
231.0055012292
 21
-59.7882618411
  0
LINE
  5
229
100
AcDbEntity
  8
0
100
AcDbLine
 62
9
  6
CONTINUOUS
 10
272.1060384719
 20
-59.2973990427
 11
236.8431633067
 21
-59.3044923384
  0
LINE
  5
22A
100
AcDbEntity
  8
0
100
AcDbLine
 62
9
  6
CONTINUOUS
 10
292.7299357324
 20
-58.5089560283
 11
277.9545337149
 21
-58.511928171
  0
LINE
  5
22B
100
AcDbEntity
  8
0
100
AcDbLine
 62
9
  6
CONTINUOUS
 10
231.0057168832
 20
-58.5213721003
 11
216.23018201
 21
-58.5243442697
  0
LINE
  5
22C
100
AcDbEntity
  8
0
100
AcDbLine
 62
9
  6
CONTINUOUS
 10
220.358466778
 20
-56.1858241781
 11
218.7419090903
 21
-56.1861493315
  0
LINE
  5
22D
100
AcDbEntity
  8
0
100
AcDbLine
 62
7
  6
CONTINUOUS
 10
299.4143309793
 20
-53.7020273921
 11
298.9396029908
 21
-53.7021227195
  0
LINE
  5
22E
100
AcDbEntity
  8
0
100
AcDbLine
 62
9
  6
CONTINUOUS
 10
298.9396029908
 20
-53.7021227195
 11
298.0698653703
 21
-53.7022974984
  0
LINE
  5
22F
100
AcDbEntity
  8
0
100
AcDbLine
 62
9
  6
CONTINUOUS
 10
209.5425956155
 20
-53.720105593
 11
210.8876571825
 21
-53.7199434043
  0
LINE
  5
230
100
AcDbEntity
  8
0
100
AcDbLine
 62
9
  6
CONTINUOUS
 10
290.2223339264
 20
-56.1718641373
 11
288.6062750777
 21
-56.1720944602
  0
LINE
  5
231
100
AcDbEntity
  8
0
100
AcDbLine
 62
9
  6
CONTINUOUS
 10
302.3285101059
 20
-56.680943059
 11
302.326076794
 21
-56.6808903903
  0
LINE
  5
232
100
AcDbEntity
  8
0
100
AcDbLine
 62
9
  6
CONTINUOUS
 10
213.3875386918
 20
-58.7499305685
 11
213.6405418428
 21
-58.6790953555
  0
LINE
  5
233
100
AcDbEntity
  8
0
100
AcDbLine
 62
9
  6
CONTINUOUS
 10
213.1438796099
 20
-58.8256674306
 11
213.3894495638
 21
-58.7569323687
  0
LINE
  5
234
100
AcDbEntity
  8
0
100
AcDbLine
 62
9
  6
CONTINUOUS
 10
212.6762457491
 20
-58.9615084553
 11
213.1451582034
 21
-58.8303607141
  0
LINE
  5
235
100
AcDbEntity
  8
0
100
AcDbLine
 62
9
  6
CONTINUOUS
 10
215.7084520989
 20
-60.1070148584
 11
214.6191077314
 21
-60.4099249287
  0
LINE
  5
236
100
AcDbEntity
  8
0
100
AcDbLine
 62
9
  6
CONTINUOUS
 10
206.6260815642
 20
-56.6977659446
 11
206.6166779683
 21
-56.7000268279
  0
LINE
  5
237
100
AcDbEntity
  8
0
100
AcDbLine
 62
9
  6
CONTINUOUS
 10
302.3280581771
 20
-56.6811581064
 11
302.319134352
 21
-56.6789893972
  0
LINE
  5
238
100
AcDbEntity
  8
0
100
AcDbLine
 62
9
  6
CONTINUOUS
 10
294.8465771779
 20
-60.5347222034
 11
293.2507189708
 21
-60.0914360869
  0
LINE
  5
239
100
AcDbEntity
  8
0
100
AcDbLine
 62
9
  6
CONTINUOUS
 10
294.8468603104
 20
-60.5347145977
 11
293.2516249678
 21
-60.091413268
  0
LINE
  5
23A
100
AcDbEntity
  8
0
100
AcDbLine
 62
9
  6
CONTINUOUS
 10
234.5042723194
 20
-59.0843188242
 11
234.8460606334
 21
-59.2552488783
  0
LINE
  5
23B
100
AcDbEntity
  8
0
100
AcDbLine
 62
9
  6
CONTINUOUS
 10
286.7269584439
 20
-15.993733793
 11
285.1062544629
 21
-15.9940597851
  0
LINE
  5
23C
100
AcDbEntity
  8
0
100
AcDbLine
 62
9
  6
CONTINUOUS
 10
223.8420457455
 20
-16.006370025
 11
222.2217126446
 21
-16.0066959829
  0
LINE
  5
23D
100
AcDbEntity
  8
0
100
AcDbLine
 62
9
  6
CONTINUOUS
 10
239.4684618574
 20
-2.4765338627
 11
269.4684607233
 21
-2.4704992197
  0
LINE
  5
23E
100
AcDbEntity
  8
0
100
AcDbLine
 62
9
  6
CONTINUOUS
 10
230.8669724288
 20
-1.4782640588
 11
239.4680732323
 21
-1.4765339063
  0
LINE
  5
23F
100
AcDbEntity
  8
0
100
AcDbLine
 62
9
  6
CONTINUOUS
 10
278.0691397689
 20
-1.4687792
 11
269.4680720982
 21
-1.4704992582
  0
LINE
  5
240
100
AcDbEntity
  8
0
100
AcDbLine
 62
9
  6
CONTINUOUS
 10
269.4676721365
 20
0.3579278265
 11
239.4676732706
 21
0.3518931834
  0
LINE
  5
241
100
AcDbEntity
  8
0
100
AcDbLine
 62
9
  6
CONTINUOUS
 10
276.6541309031
 20
1.3593734563
 11
269.4672835114
 21
1.3579277876
  0
LINE
  5
242
100
AcDbEntity
  8
0
100
AcDbLine
 62
9
  6
CONTINUOUS
 10
239.4672846455
 20
1.3518931445
 11
232.2804372538
 21
1.3504474759
  0
LINE
  5
243
100
AcDbEntity
  8
0
100
AcDbLine
 62
7
  6
CONTINUOUS
 10
239.4639834594
 20
18.6950385627
 11
269.4639823253
 21
18.7010732058
  0
LINE
  5
244
100
AcDbEntity
  8
0
100
AcDbLine
 62
9
  6
CONTINUOUS
 10
276.6541308632
 20
1.3593200291
 11
279.4829383721
 21
-0.0542607307
  0
LINE
  5
245
100
AcDbEntity
  8
0
100
AcDbLine
 62
7
  6
CONTINUOUS
 10
239.4478508469
 20
98.8950369394
 11
269.4478497128
 21
98.9010715825
  0
LINE
  5
246
100
AcDbEntity
  8
0
100
AcDbLine
 62
7
  6
CONTINUOUS
 10
269.4458783961
 20
108.7010713849
 11
239.4458795302
 21
108.6950367419
  0
LINE
  5
247
100
AcDbEntity
  8
0
100
AcDbLine
 62
9
  6
CONTINUOUS
 10
244.4574663163
 20
295.1821846801
 11
244.4574014738
 21
295.1820953602
  0
LINE
  5
248
100
AcDbEntity
  8
0
100
AcDbLine
 62
7
  6
CONTINUOUS
 10
222.8356288649
 20
265.4131421134
 11
244.4574014738
 21
295.1820953602
  0
LWPOLYLINE
  5
249
100
AcDbEntity
  8
0
100
AcDbPolyline
 62
7
  6
CONTINUOUS
 90
3
 70
0
 10
225.15299894
 20
261.3525484503
 10
225.3922804317
 20
261.9449036056
 10
226.0720928729
 20
263.0625463341
  0
LWPOLYLINE
  5
24A
100
AcDbEntity
  8
0
100
AcDbPolyline
 62
7
  6
CONTINUOUS
 90
6
 70
0
 10
222.8356965723
 20
265.413235377
 10
222.0344046
 20
264.1509272666
 10
221.3234816233
 20
262.6291301019
 10
220.8106673011
 20
261.0057328653
 10
220.5065594953
 20
259.3148365803
 10
220.4164260067
 20
257.7405130336
  0
LINE
  5
24B
100
AcDbEntity
  8
0
100
AcDbLine
 62
7
  6
CONTINUOUS
 10
226.0721696634
 20
263.0626521024
 11
247.6939422721
 21
292.8316053491
  0
LWPOLYLINE
  5
24C
100
AcDbEntity
  8
0
100
AcDbPolyline
 62
9
  6
CONTINUOUS
 90
4
 70
0
 10
241.7535744336
 20
257.3431212527
 10
241.7704605659
 20
257.3512058615
 10
241.787357393
 20
257.3512092604
 10
241.8042616583
 20
257.3592938729
  0
LINE
  5
24D
100
AcDbEntity
  8
0
100
AcDbLine
 62
9
  6
CONTINUOUS
 10
241.7535744336
 20
257.3431212526
 11
241.8042616582
 21
257.359293873
  0
LINE
  5
24E
100
AcDbEntity
  8
0
100
AcDbLine
 62
7
  6
CONTINUOUS
 10
218.4113446659
 20
248.6908090312
 11
206.8265951997
 21
245.1452276229
  0
LINE
  5
24F
100
AcDbEntity
  8
0
100
AcDbLine
 62
9
  6
CONTINUOUS
 10
278.0691370872
 20
-1.468774157
 11
277.4322111867
 21
-0.1969822558
  0
LINE
  5
250
100
AcDbEntity
  8
0
100
AcDbLine
 62
7
  6
CONTINUOUS
 10
205.4724308027
 20
-54.9866667477
 11
205.4124421565
 21
243.2346746487
  0
LINE
  5
251
100
AcDbEntity
  8
0
100
AcDbLine
 62
9
  6
CONTINUOUS
 10
209.482926416
 20
242.9131715548
 11
209.5425956155
 21
-53.720105593
  0
LINE
  5
252
100
AcDbEntity
  8
0
100
AcDbLine
 62
9
  6
CONTINUOUS
 10
210.8279879571
 20
242.9134625654
 11
210.8876571615
 21
-53.7198389929
  0
LINE
  5
253
100
AcDbEntity
  8
0
100
AcDbLine
 62
9
  6
CONTINUOUS
 10
215.1853793774
 20
-56.4715862878
 11
215.124893253
 21
244.2228669209
  0
LINE
  5
254
100
AcDbEntity
  8
0
100
AcDbLine
 62
9
  6
CONTINUOUS
 10
218.681442591
 20
244.410741748
 11
218.7419090903
 21
-56.1861493315
  0
LINE
  5
255
100
AcDbEntity
  8
0
100
AcDbLine
 62
9
  6
CONTINUOUS
 10
220.358466778
 20
-56.1858241781
 11
220.2978183064
 21
245.3157051721
  0
LINE
  5
256
100
AcDbEntity
  8
0
100
AcDbLine
 62
7
  6
CONTINUOUS
 10
220.4144734167
 20
264.9312701684
 11
220.4179936251
 21
247.4312705229
  0
LINE
  5
257
100
AcDbEntity
  8
0
100
AcDbLine
 62
9
  6
CONTINUOUS
 10
220.9180873413
 20
247.4313711088
 11
220.9175123855
 21
250.2896470196
  0
LINE
  5
258
100
AcDbEntity
  8
0
100
AcDbLine
 62
9
  6
CONTINUOUS
 10
220.915290171
 20
261.3369335954
 11
220.9143728204
 21
265.4313707361
  0
LINE
  5
259
100
AcDbEntity
  8
0
100
AcDbLine
 62
9
  6
CONTINUOUS
 10
222.1784722386
 20
198.9541794059
 11
222.2217126446
 21
-16.0066959829
  0
LINE
  5
25A
100
AcDbEntity
  8
0
100
AcDbLine
 62
9
  6
CONTINUOUS
 10
215.7091796991
 20
-60.1070337489
 11
215.709196921
 21
-59.7913387658
  0
LWPOLYLINE
  5
25B
100
AcDbEntity
  8
0
100
AcDbPolyline
 62
7
  6
CONTINUOUS
 90
4
 70
0
 10
224.4164259257
 20
257.7413176528
 10
224.5172892146
 20
259.1411636265
 10
224.8466757733
 20
260.5942277555
 10
224.9172100793
 20
260.7688395046
  0
LINE
  5
25C
100
AcDbEntity
  8
0
100
AcDbLine
 62
9
  6
CONTINUOUS
 10
283.6961094876
 20
-19.0495908016
 11
278.5678512793
 21
-2.2981389686
  0
LINE
  5
25D
100
AcDbEntity
  8
0
100
AcDbLine
 62
9
  6
CONTINUOUS
 10
236.3060938153
 20
261.4344666005
 11
236.308036941
 21
256.4344667933
  0
LINE
  5
25E
100
AcDbEntity
  8
0
100
AcDbLine
 62
9
  6
CONTINUOUS
 10
223.8420457442
 20
-16.0063632444
 11
223.7988053364
 21
198.9545208765
  0
LINE
  5
25F
100
AcDbEntity
  8
0
100
AcDbLine
 62
7
  6
CONTINUOUS
 10
224.4164259257
 20
257.7413176528
 11
224.4174939052
 21
252.4320750905
  0
LINE
  5
260
100
AcDbEntity
  8
0
100
AcDbLine
 62
7
  6
CONTINUOUS
 10
224.916965099
 20
260.9321756126
 11
224.9205243051
 21
247.4321759682
  0
LINE
  5
261
100
AcDbEntity
  8
0
100
AcDbLine
 62
7
  6
CONTINUOUS
 10
225.4166594195
 20
247.4322759766
 11
225.4166664168
 21
247.3974900775
  0
LINE
  5
262
100
AcDbEntity
  8
0
100
AcDbLine
 62
9
  6
CONTINUOUS
 10
225.4206180214
 20
247.4322765557
 11
225.4154029822
 21
261.9829181357
  0
LINE
  5
263
100
AcDbEntity
  8
0
100
AcDbLine
 62
9
  6
CONTINUOUS
 10
227.4678469254
 20
247.3979025872
 11
227.467839928
 21
247.4326885813
  0
LINE
  5
264
100
AcDbEntity
  8
0
100
AcDbLine
 62
9
  6
CONTINUOUS
 10
227.5398227521
 20
265.0833234402
 11
227.5411240346
 21
261.43270359
  0
LINE
  5
265
100
AcDbEntity
  8
0
100
AcDbLine
 62
9
  6
CONTINUOUS
 10
228.4177546602
 20
190.2308625785
 11
228.4562003396
 21
-0.8940056021
  0
LINE
  5
266
100
AcDbEntity
  8
0
100
AcDbLine
 62
9
  6
CONTINUOUS
 10
232.2804372538
 20
1.3504474759
 11
232.2428395389
 21
188.2598327152
  0
LINE
  5
267
100
AcDbEntity
  8
0
100
AcDbLine
 62
7
  6
CONTINUOUS
 10
236.5630380215
 20
265.4345184648
 11
236.5606311616
 21
277.3997323454
  0
LINE
  5
268
100
AcDbEntity
  8
0
100
AcDbLine
 62
9
  6
CONTINUOUS
 10
237.1676259086
 20
264.4346400326
 11
237.1675253312
 21
264.9346400224
  0
LINE
  5
269
100
AcDbEntity
  8
0
100
AcDbLine
 62
9
  6
CONTINUOUS
 10
238.277477471
 20
247.4348627744
 11
238.2774844683
 21
247.4000767897
  0
LINE
  5
26A
100
AcDbEntity
  8
0
100
AcDbLine
 62
7
  6
CONTINUOUS
 10
239.4293421954
 20
190.9070296595
 11
239.4297469178
 21
188.8950351193
  0
LINE
  5
26B
100
AcDbEntity
  8
0
100
AcDbLine
 62
7
  6
CONTINUOUS
 10
239.4458795302
 20
108.6950367419
 11
239.4478508469
 21
98.8950369394
  0
LINE
  5
26C
100
AcDbEntity
  8
0
100
AcDbLine
 62
7
  6
CONTINUOUS
 10
239.4684618574
 20
-2.4765338648
 11
239.4639834594
 21
18.6950385627
  0
LINE
  5
26D
100
AcDbEntity
  8
0
100
AcDbLine
 62
9
  6
CONTINUOUS
 10
236.8434329683
 20
-61.2847056143
 11
236.8431643871
 21
-59.3044923382
  0
LINE
  5
26E
100
AcDbEntity
  8
0
100
AcDbLine
 62
9
  6
CONTINUOUS
 10
231.0055854679
 20
-58.5213721267
 11
231.0057875819
 21
-60.1039567631
  0
LINE
  5
26F
100
AcDbEntity
  8
0
100
AcDbLine
 62
7
  6
CONTINUOUS
 10
238.3642747114
 20
373.9735239346
 11
236.693091626
 21
284.4921588303
  0
LINE
  5
270
100
AcDbEntity
  8
0
100
AcDbLine
 62
7
  6
CONTINUOUS
 10
236.5626148031
 20
277.5059438968
 11
236.5606311616
 21
277.3997323454
  0
LINE
  5
271
100
AcDbEntity
  8
0
100
AcDbLine
 62
9
  6
CONTINUOUS
 10
228.4177546602
 20
190.2308625785
 11
223.7988053364
 21
198.9545208765
  0
LINE
  5
272
100
AcDbEntity
  8
0
100
AcDbLine
 62
9
  6
CONTINUOUS
 10
225.4539749026
 20
201.1723695672
 11
230.3299378441
 21
191.9632980678
  0
LINE
  5
273
100
AcDbEntity
  8
0
100
AcDbLine
 62
9
  6
CONTINUOUS
 10
280.4803286954
 20
-0.8835333378
 11
285.1062544725
 21
-15.994116637
  0
LINE
  5
274
100
AcDbEntity
  8
0
100
AcDbLine
 62
7
  6
CONTINUOUS
 10
240.3907167616
 20
376.4005047893
 11
240.3882735563
 21
388.5464025765
  0
LINE
  5
275
100
AcDbEntity
  8
0
100
AcDbLine
 62
7
  6
CONTINUOUS
 10
241.8870959454
 20
394.4008061568
 11
241.8846527401
 21
406.5467039448
  0
LINE
  5
276
100
AcDbEntity
  8
0
100
AcDbLine
 62
7
  6
CONTINUOUS
 10
243.3834751292
 20
412.4011075249
 11
243.3810319239
 21
424.5470053131
  0
LINE
  5
277
100
AcDbEntity
  8
0
100
AcDbLine
 62
7
  6
CONTINUOUS
 10
244.879854313
 20
430.4014088927
 11
244.8774111077
 21
442.5473066805
  0
LINE
  5
278
100
AcDbEntity
  8
0
100
AcDbLine
 62
9
  6
CONTINUOUS
 10
267.032979784
 20
257.36436875
 11
268.4477738278
 21
261.7873244892
  0
LINE
  5
279
100
AcDbEntity
  8
0
100
AcDbLine
 62
9
  6
CONTINUOUS
 10
232.2428395389
 20
188.2598327152
 11
276.6165331881
 21
188.2687586957
  0
LINE
  5
27A
100
AcDbEntity
  8
0
100
AcDbLine
 62
7
  6
CONTINUOUS
 10
239.4297469178
 20
188.8950351193
 11
269.4297457836
 21
188.9010697623
  0
LINE
  5
27B
100
AcDbEntity
  8
0
100
AcDbLine
 62
7
  6
CONTINUOUS
 10
239.4293421954
 20
190.9070296595
 11
269.4293410613
 21
190.9130643026
  0
LINE
  5
27C
100
AcDbEntity
  8
0
100
AcDbLine
 62
9
  6
CONTINUOUS
 10
278.3482619884
 20
191.7332086383
 11
230.5104039396
 21
191.7235858247
  0
LINE
  5
27D
100
AcDbEntity
  8
0
100
AcDbLine
 62
9
  6
CONTINUOUS
 10
232.2428396267
 20
188.2599445332
 11
228.7789899105
 21
189.9911802249
  0
LINE
  5
27E
100
AcDbEntity
  8
0
100
AcDbLine
 62
7
  6
CONTINUOUS
 10
270.4181344788
 20
373.9799717215
 11
272.1251178816
 21
284.5097036962
  0
LINE
  5
27F
100
AcDbEntity
  8
0
100
AcDbLine
 62
7
  6
CONTINUOUS
 10
272.2584263961
 20
277.5224368578
 11
272.2606304393
 21
277.4069135707
  0
LINE
  5
280
100
AcDbEntity
  8
0
100
AcDbLine
 62
9
  6
CONTINUOUS
 10
272.5295761233
 20
256.441752929
 11
272.5276329976
 21
261.4417527361
  0
LINE
  5
281
100
AcDbEntity
  8
0
100
AcDbLine
 62
7
  6
CONTINUOUS
 10
263.8798539286
 20
430.4052308335
 11
263.8774107233
 21
442.5511286211
  0
LINE
  5
282
100
AcDbEntity
  8
0
100
AcDbLine
 62
7
  6
CONTINUOUS
 10
265.3834746841
 20
412.4055329296
 11
265.3810314788
 21
424.551430718
  0
LINE
  5
283
100
AcDbEntity
  8
0
100
AcDbLine
 62
7
  6
CONTINUOUS
 10
266.8870954396
 20
394.4058350251
 11
266.8846522343
 21
406.5517328141
  0
LINE
  5
284
100
AcDbEntity
  8
0
100
AcDbLine
 62
7
  6
CONTINUOUS
 10
268.3907161951
 20
376.4061371228
 11
268.3882729898
 21
388.5520349101
  0
LINE
  5
285
100
AcDbEntity
  8
0
100
AcDbLine
 62
7
  6
CONTINUOUS
 10
269.4293410613
 20
190.9130643031
 11
269.4297457836
 21
188.9010697623
  0
LINE
  5
286
100
AcDbEntity
  8
0
100
AcDbLine
 62
7
  6
CONTINUOUS
 10
269.4684607233
 20
-2.4704992207
 11
269.4639823253
 21
18.7010732058
  0
LINE
  5
287
100
AcDbEntity
  8
0
100
AcDbLine
 62
7
  6
CONTINUOUS
 10
269.4478497128
 20
98.9010715825
 11
269.4458783961
 21
108.7010713849
  0
LINE
  5
288
100
AcDbEntity
  8
0
100
AcDbLine
 62
9
  6
CONTINUOUS
 10
270.5617544954
 20
247.4065709248
 11
270.561747498
 21
247.4413569095
  0
LINE
  5
289
100
AcDbEntity
  8
0
100
AcDbLine
 62
9
  6
CONTINUOUS
 10
271.6634195483
 20
264.9415790363
 11
271.6635201257
 21
264.4415790465
  0
LINE
  5
28A
100
AcDbEntity
  8
0
100
AcDbLine
 62
7
  6
CONTINUOUS
 10
272.2630372992
 20
265.44169969
 11
272.2606304393
 21
277.4069135707
  0
LINE
  5
28B
100
AcDbEntity
  8
0
100
AcDbLine
 62
9
  6
CONTINUOUS
 10
272.1060395337
 20
-59.2973990424
 11
272.1056702976
 21
-61.2776124469
  0
LINE
  5
28C
100
AcDbEntity
  8
0
100
AcDbLine
 62
9
  6
CONTINUOUS
 10
279.4768225161
 20
189.6989686141
 11
278.6643921798
 21
189.2931639713
  0
LINE
  5
28D
100
AcDbEntity
  8
0
100
AcDbLine
 62
9
  6
CONTINUOUS
 10
285.0630140562
 20
198.9668190085
 11
286.6837180371
 21
198.9671450007
  0
LINE
  5
28E
100
AcDbEntity
  8
0
100
AcDbLine
 62
9
  6
CONTINUOUS
 10
222.1784722386
 20
198.9541794059
 11
223.7988053394
 21
198.9545053638
  0
LINE
  5
28F
100
AcDbEntity
  8
0
100
AcDbLine
 62
9
  6
CONTINUOUS
 10
240.3865080073
 20
261.7816798315
 11
241.8042616583
 21
257.3592938728
  0
LINE
  5
290
100
AcDbEntity
  8
0
100
AcDbLine
 62
9
  6
CONTINUOUS
 10
276.6165331881
 20
188.2687586957
 11
276.6541309031
 21
1.3593734563
  0
LINE
  5
291
100
AcDbEntity
  8
0
100
AcDbLine
 62
9
  6
CONTINUOUS
 10
280.4803286954
 20
-0.8835333378
 11
280.4418860112
 21
190.2416148785
  0
LINE
  5
292
100
AcDbEntity
  8
0
100
AcDbLine
 62
9
  6
CONTINUOUS
 10
281.2905406041
 20
261.4435155419
 11
281.289238797
 21
265.0964040664
  0
LINE
  5
293
100
AcDbEntity
  8
0
100
AcDbLine
 62
9
  6
CONTINUOUS
 10
281.3673328266
 20
247.4435307218
 11
281.367339824
 21
247.4087447277
  0
LINE
  5
294
100
AcDbEntity
  8
0
100
AcDbLine
 62
7
  6
CONTINUOUS
 10
283.4166574728
 20
247.4439429534
 11
283.4166644702
 21
247.4091570541
  0
LINE
  5
295
100
AcDbEntity
  8
0
100
AcDbLine
 62
9
  6
CONTINUOUS
 10
283.4154009162
 20
261.994331598
 11
283.4206158288
 21
247.4439435323
  0
LINE
  5
296
100
AcDbEntity
  8
0
100
AcDbLine
 62
7
  6
CONTINUOUS
 10
283.9205220747
 20
247.4440440996
 11
283.9169628686
 21
260.944043744
  0
LINE
  5
297
100
AcDbEntity
  8
0
100
AcDbLine
 62
7
  6
CONTINUOUS
 10
284.4164236224
 20
257.7533869385
 11
284.4174916018
 21
252.4441443766
  0
LINE
  5
298
100
AcDbEntity
  8
0
100
AcDbLine
 62
9
  6
CONTINUOUS
 10
285.0630139827
 20
198.9671747985
 11
285.1062544725
 21
-15.994116637
  0
LINE
  5
299
100
AcDbEntity
  8
0
100
AcDbLine
 62
9
  6
CONTINUOUS
 10
286.7269584439
 20
-15.993733793
 11
286.6837180371
 21
198.9671450007
  0
LINE
  5
29A
100
AcDbEntity
  8
0
100
AcDbLine
 62
9
  6
CONTINUOUS
 10
287.9143702875
 20
265.4448481057
 11
287.915287385
 21
261.3516693546
  0
LINE
  5
29B
100
AcDbEntity
  8
0
100
AcDbLine
 62
9
  6
CONTINUOUS
 10
287.9175089097
 20
250.3078116296
 11
287.9180848084
 21
247.4448484783
  0
LINE
  5
29C
100
AcDbEntity
  8
0
100
AcDbLine
 62
7
  6
CONTINUOUS
 10
288.414470846
 20
264.9449486927
 11
288.4179910544
 21
247.4449490472
  0
LINE
  5
29D
100
AcDbEntity
  8
0
100
AcDbLine
 62
9
  6
CONTINUOUS
 10
288.5456266062
 20
245.3294343357
 11
288.6062750777
 21
-56.1720944602
  0
LINE
  5
29E
100
AcDbEntity
  8
0
100
AcDbLine
 62
9
  6
CONTINUOUS
 10
290.2223339264
 20
-56.1718641373
 11
290.161867421
 21
244.4250568714
  0
LINE
  5
29F
100
AcDbEntity
  8
0
100
AcDbLine
 62
9
  6
CONTINUOUS
 10
277.9544560142
 20
-58.5119281866
 11
277.9543717759
 21
-59.7788184591
  0
LINE
  5
2A0
100
AcDbEntity
  8
0
100
AcDbLine
 62
9
  6
CONTINUOUS
 10
223.8420457442
 20
-16.0063632444
 11
228.4562003396
 21
-0.8940056021
  0
LINE
  5
2A1
100
AcDbEntity
  8
0
100
AcDbLine
 62
9
  6
CONTINUOUS
 10
230.3689387551
 20
-2.3078344181
 11
225.2537015783
 21
-19.0613462569
  0
LINE
  5
2A2
100
AcDbEntity
  8
0
100
AcDbLine
 62
9
  6
CONTINUOUS
 10
276.6166147545
 20
188.2687586318
 11
278.3482620255
 21
191.7330537007
  0
LINE
  5
2A3
100
AcDbEntity
  8
0
100
AcDbLine
 62
9
  6
CONTINUOUS
 10
278.5288385932
 20
191.9729950717
 11
283.4070895612
 21
201.1840278403
  0
LINE
  5
2A4
100
AcDbEntity
  8
0
100
AcDbLine
 62
9
  6
CONTINUOUS
 10
285.0630139827
 20
198.9671747985
 11
280.4418860112
 21
190.2416148785
  0
LWPOLYLINE
  5
2A5
100
AcDbEntity
  8
0
100
AcDbPolyline
 62
7
  6
CONTINUOUS
 90
6
 70
0
 10
288.4164235063
 20
257.7541915579
 10
288.3272098421
 20
259.3151400279
 10
288.0241618547
 20
261.0061993178
 10
287.5124395507
 20
262.6299475098
 10
286.8026108526
 20
264.1522964933
 10
285.9946696256
 20
265.425761219
  0
LINE
  5
2A6
100
AcDbEntity
  8
0
100
AcDbLine
 62
9
  6
CONTINUOUS
 10
293.7142682858
 20
244.2387019452
 11
293.7747544123
 21
-56.4557612825
  0
LINE
  5
2A7
100
AcDbEntity
  8
0
100
AcDbLine
 62
9
  6
CONTINUOUS
 10
298.0698653672
 20
-53.7022817883
 11
298.0101961705
 21
242.930981337
  0
LINE
  5
2A8
100
AcDbEntity
  8
0
100
AcDbLine
 62
9
  6
CONTINUOUS
 10
299.4143309793
 20
-53.7020273921
 11
299.3546617782
 21
242.9312576875
  0
LINE
  5
2A9
100
AcDbEntity
  8
0
100
AcDbLine
 62
7
  6
CONTINUOUS
 10
303.4724271073
 20
-54.9670005872
 11
303.412438444
 21
243.2544259578
  0
LINE
  5
2AA
100
AcDbEntity
  8
0
100
AcDbLine
 62
9
  6
CONTINUOUS
 10
293.2507498486
 20
-59.7757415196
 11
293.2507289294
 21
-60.091436085
  0
LINE
  5
2AB
100
AcDbEntity
  8
0
100
AcDbLine
 62
9
  6
CONTINUOUS
 10
298.8750463927
 20
242.9311607269
 11
299.3546617782
 21
242.9312576875
  0
LINE
  5
2AC
100
AcDbEntity
  8
0
100
AcDbLine
 62
7
  6
CONTINUOUS
 10
298.0101961695
 20
242.9309862813
 11
298.8750463927
 21
242.9311607269
  0
LINE
  5
2AD
100
AcDbEntity
  8
0
100
AcDbLine
 62
9
  6
CONTINUOUS
 10
210.8279879613
 20
242.9134420924
 11
209.482926416
 21
242.9131715548
  0
LINE
  5
2AE
100
AcDbEntity
  8
0
100
AcDbLine
 62
7
  6
CONTINUOUS
 10
283.4430602639
 20
261.9488340873
 11
283.678434866
 21
261.3649802605
  0
LWPOLYLINE
  5
2AF
100
AcDbEntity
  8
0
100
AcDbPolyline
 62
7
  6
CONTINUOUS
 90
4
 70
0
 10
283.9172144176
 20
260.7726803534
 10
283.9878443611
 20
260.5974806402
 10
284.3163698172
 20
259.143939371
 10
284.4164235874
 20
257.753386939
  0
LINE
  5
2B0
100
AcDbEntity
  8
0
100
AcDbLine
 62
9
  6
CONTINUOUS
 10
232.2803814174
 20
1.3504475176
 11
230.8670123217
 21
-1.4781565471
  0
LINE
  5
2B1
100
AcDbEntity
  8
0
100
AcDbLine
 62
7
  6
CONTINUOUS
 10
225.4206180214
 20
247.4322765557
 11
238.277477472
 21
247.4348627744
  0
LINE
  5
2B2
100
AcDbEntity
  8
0
100
AcDbLine
 62
7
  6
CONTINUOUS
 10
254.4208659658
 20
247.4381100941
 11
283.4206158288
 21
247.4439435323
  0
LINE
  5
2B3
100
AcDbEntity
  8
0
100
AcDbLine
 62
7
  6
CONTINUOUS
 10
290.4113419417
 20
248.7052921745
 11
288.4177376111
 21
248.7048911515
  0
LINE
  5
2B4
100
AcDbEntity
  8
0
100
AcDbLine
 62
7
  6
CONTINUOUS
 10
220.4177401818
 20
248.6912126272
 11
218.4113446636
 21
248.6908090312
  0
LINE
  5
2B5
100
AcDbEntity
  8
0
100
AcDbLine
 62
9
  6
CONTINUOUS
 10
238.2764786943
 20
252.400076688
 11
270.5607487214
 21
252.4065708231
  0
LINE
  5
2B6
100
AcDbEntity
  8
0
100
AcDbLine
 62
9
  6
CONTINUOUS
 10
288.4174914506
 20
252.4449489957
 11
284.4174916018
 21
252.4441443766
  0
LINE
  5
2B7
100
AcDbEntity
  8
0
100
AcDbLine
 62
9
  6
CONTINUOUS
 10
224.4174939052
 20
252.4320750905
 11
220.4174940213
 21
252.4312704713
  0
LINE
  5
2B8
100
AcDbEntity
  8
0
100
AcDbLine
 62
7
  6
CONTINUOUS
 10
250.7350698465
 20
253.4025827102
 11
258.8921297526
 21
253.4042235442
  0
LINE
  5
2B9
100
AcDbEntity
  8
0
100
AcDbLine
 62
9
  6
CONTINUOUS
 10
224.9187139122
 20
256.4321757866
 11
236.3080369405
 21
256.4344667933
  0
LINE
  5
2BA
100
AcDbEntity
  8
0
100
AcDbLine
 62
9
  6
CONTINUOUS
 10
272.5295761238
 20
256.441752929
 11
283.9187116817
 21
256.444043918
  0
LINE
  5
2BB
100
AcDbEntity
  8
0
100
AcDbLine
 62
9
  6
CONTINUOUS
 10
220.4164260067
 20
257.7405130336
 11
224.4164259257
 21
257.7413176528
  0
LINE
  5
2BC
100
AcDbEntity
  8
0
100
AcDbLine
 62
9
  6
CONTINUOUS
 10
284.4164236224
 20
257.7533869385
 11
288.4164235063
 21
257.7541915575
  0
LINE
  5
2BD
100
AcDbEntity
  8
0
100
AcDbLine
 62
7
  6
CONTINUOUS
 10
283.4168623101
 20
261.4439431563
 11
272.5276329978
 21
261.4417527358
  0
LINE
  5
2BE
100
AcDbEntity
  8
0
100
AcDbLine
 62
7
  6
CONTINUOUS
 10
236.3060938143
 20
261.4344666002
 11
225.4168645027
 21
261.4322761797
  0
LINE
  5
2BF
100
AcDbEntity
  8
0
100
AcDbLine
 62
7
  6
CONTINUOUS
 10
249.9899497372
 20
261.4372190771
 11
258.8456517797
 21
261.4390004439
  0
LINE
  5
2C0
100
AcDbEntity
  8
0
100
AcDbLine
 62
9
  6
CONTINUOUS
 10
281.7636664228
 20
264.4436108321
 11
264.7255936742
 21
264.4401833333
  0
LINE
  5
2C1
100
AcDbEntity
  8
0
100
AcDbLine
 62
9
  6
CONTINUOUS
 10
244.1078138249
 20
264.4360359684
 11
227.0671956819
 21
264.4326083757
  0
LINE
  5
2C2
100
AcDbEntity
  8
0
100
AcDbLine
 62
7
  6
CONTINUOUS
 10
301.9976958584
 20
245.1655365756
 11
290.4113419416
 21
248.7052921745
  0
LINE
  5
2C3
100
AcDbEntity
  8
0
100
AcDbLine
 62
9
  6
CONTINUOUS
 10
267.0329797842
 20
257.3643687501
 11
267.0836735111
 21
257.348216523
  0
LWPOLYLINE
  5
2C4
100
AcDbEntity
  8
0
100
AcDbPolyline
 62
9
  6
CONTINUOUS
 90
4
 70
0
 10
267.0329797842
 20
257.36436875
 10
267.0498873003
 20
257.356290939
 10
267.0667841273
 20
257.3562943378
 10
267.0836735111
 20
257.3482165231
  0
LINE
  5
2C5
100
AcDbEntity
  8
0
100
AcDbLine
 62
9
  6
CONTINUOUS
 10
261.1302210923
 20
292.8343974519
 11
261.1302860378
 21
292.8343081338
  0
LINE
  5
2C6
100
AcDbEntity
  8
0
100
AcDbLine
 62
7
  6
CONTINUOUS
 10
261.1302860378
 20
292.8343081338
 11
282.7590124532
 21
263.0740549313
  0
LINE
  5
2C7
100
AcDbEntity
  8
0
100
AcDbLine
 62
7
  6
CONTINUOUS
 10
264.3658809499
 20
295.1861000457
 11
285.9946073652
 21
265.4258468432
  0
LINE
  5
2C8
100
AcDbEntity
  8
0
100
AcDbLine
 62
7
  6
CONTINUOUS
 10
282.7589585899
 20
263.0741290017
 11
283.4430602639
 21
261.9488340873
  0
LINE
  5
2C9
100
AcDbEntity
  8
0
100
AcDbLine
 62
9
  6
CONTINUOUS
 10
220.4144734167
 20
264.9312701689
 11
222.5300232864
 21
264.9316957119
  0
LINE
  5
2CA
100
AcDbEntity
  8
0
100
AcDbLine
 62
9
  6
CONTINUOUS
 10
227.4304085286
 20
264.9326814478
 11
281.4003367628
 21
264.9435377566
  0
LINE
  5
2CB
100
AcDbEntity
  8
0
100
AcDbLine
 62
9
  6
CONTINUOUS
 10
286.2999877947
 20
264.9445233448
 11
288.414470846
 21
264.9449486932
  0
LINE
  5
2CC
100
AcDbEntity
  8
0
100
AcDbLine
 62
7
  6
CONTINUOUS
 10
287.9143702875
 20
265.4448481052
 11
285.9946036207
 21
265.444461935
  0
LINE
  5
2CD
100
AcDbEntity
  8
0
100
AcDbLine
 62
7
  6
CONTINUOUS
 10
222.8356928466
 20
265.4317572184
 11
220.9143728204
 21
265.4313707357
  0
LINE
  5
2CE
100
AcDbEntity
  8
0
100
AcDbLine
 62
7
  6
CONTINUOUS
 10
227.793621382
 20
265.432754529
 11
281.037007096
 21
265.4434646904
  0
LINE
  5
2CF
100
AcDbEntity
  8
0
100
AcDbLine
 62
7
  6
CONTINUOUS
 10
236.5606311616
 20
277.3997323454
 11
272.2606304393
 21
277.4069135707
  0
LINE
  5
2D0
100
AcDbEntity
  8
0
100
AcDbLine
 62
9
  6
CONTINUOUS
 10
229.4525159731
 20
-0.064334115
 11
230.7237110879
 21
0.5722259957
  0
LINE
  5
2D1
100
AcDbEntity
  8
0
100
AcDbLine
 62
9
  6
CONTINUOUS
 10
238.364274714
 20
373.9735240737
 11
270.4181344761
 21
373.9799718606
  0
LINE
  5
2D2
100
AcDbEntity
  8
0
100
AcDbLine
 62
9
  6
CONTINUOUS
 10
239.5800361354
 20
375.4183880667
 11
269.2017918706
 21
375.4243466242
  0
LINE
  5
2D3
100
AcDbEntity
  8
0
100
AcDbLine
 62
9
  6
CONTINUOUS
 10
268.3907161951
 20
376.4061371228
 11
240.3907167616
 21
376.4005047893
  0
LINE
  5
2D4
100
AcDbEntity
  8
0
100
AcDbLine
 62
9
  6
CONTINUOUS
 10
240.3882735563
 20
388.5464025765
 11
268.3882729898
 21
388.5520349101
  0
LINE
  5
2D5
100
AcDbEntity
  8
0
100
AcDbLine
 62
9
  6
CONTINUOUS
 10
269.3878228454
 20
390.7883037032
 11
239.3878241093
 21
390.7822690603
  0
LINE
  5
2D6
100
AcDbEntity
  8
0
100
AcDbLine
 62
7
  6
CONTINUOUS
 10
240.3872972403
 20
393.4005044448
 11
268.387296318
 21
393.4061367785
  0
LINE
  5
2D7
100
AcDbEntity
  8
0
100
AcDbLine
 62
9
  6
CONTINUOUS
 10
266.8870954396
 20
394.4058350251
 11
241.8870959454
 21
394.4008061568
  0
LINE
  5
2D8
100
AcDbEntity
  8
0
100
AcDbLine
 62
9
  6
CONTINUOUS
 10
241.8846527401
 20
406.5467039448
 11
266.8846522343
 21
406.5517328141
  0
LINE
  5
2D9
100
AcDbEntity
  8
0
100
AcDbLine
 62
9
  6
CONTINUOUS
 10
267.8842020082
 20
408.7880015341
 11
240.8842033744
 21
408.7825703559
  0
LINE
  5
2DA
100
AcDbEntity
  8
0
100
AcDbLine
 62
7
  6
CONTINUOUS
 10
241.8836881849
 20
411.4008058154
 11
266.8836755889
 21
411.4058346825
  0
LINE
  5
2DB
100
AcDbEntity
  8
0
100
AcDbLine
 62
9
  6
CONTINUOUS
 10
265.3834746841
 20
412.4055329296
 11
243.3834751292
 21
412.4011075249
  0
LINE
  5
2DC
100
AcDbEntity
  8
0
100
AcDbLine
 62
9
  6
CONTINUOUS
 10
274.1038327521
 20
-59.24735199
 11
274.4480005991
 21
-59.0762839694
  0
LWPOLYLINE
  5
2DD
100
AcDbEntity
  8
0
100
AcDbPolyline
 62
9
  6
CONTINUOUS
 90
3
 70
0
 10
213.475858829
 20
-58.7263137783
 10
213.5616492829
 20
-58.7000762229
 10
213.6400082124
 20
-58.677141237
  0
LWPOLYLINE
  5
2DE
100
AcDbEntity
  8
0
100
AcDbPolyline
 62
9
  6
CONTINUOUS
 90
4
 70
0
 10
213.1445685282
 20
-58.8281941319
 10
213.2251546138
 20
-58.8039806726
 10
213.3064748689
 20
-58.7791009229
 10
213.475858829
 20
-58.7263137783
  0
LWPOLYLINE
  5
2DF
100
AcDbEntity
  8
0
100
AcDbPolyline
 62
9
  6
CONTINUOUS
 90
3
 70
0
 10
212.8293139841
 20
-58.9191097457
 10
212.9854201655
 20
-58.8746626014
 10
213.1445685282
 20
-58.8281941319
  0
LINE
  5
2E0
100
AcDbEntity
  8
0
100
AcDbLine
 62
9
  6
CONTINUOUS
 10
243.3810319239
 20
424.5470053131
 11
265.3810314788
 21
424.551430718
  0
LINE
  5
2E1
100
AcDbEntity
  8
0
100
AcDbLine
 62
9
  6
CONTINUOUS
 10
266.3805811124
 20
426.7876993125
 11
242.380582699
 21
426.7828715983
  0
LINE
  5
2E2
100
AcDbEntity
  8
0
100
AcDbLine
 62
7
  6
CONTINUOUS
 10
243.3800556914
 20
429.4011071805
 11
265.3800548597
 21
429.4055325854
  0
LINE
  5
2E3
100
AcDbEntity
  8
0
100
AcDbLine
 62
9
  6
CONTINUOUS
 10
263.8798539286
 20
430.4052308335
 11
244.879854313
 21
430.4014088927
  0
LINE
  5
2E4
100
AcDbEntity
  8
0
100
AcDbLine
 62
9
  6
CONTINUOUS
 10
244.8774111077
 20
442.5473066815
 11
263.8774107233
 21
442.5511286221
  0
LINE
  5
2E5
100
AcDbEntity
  8
0
100
AcDbLine
 62
9
  6
CONTINUOUS
 10
264.8769591143
 20
444.7873961038
 11
243.8769631259
 21
444.7831718544
  0
LINE
  5
2E6
100
AcDbEntity
  8
0
100
AcDbLine
 62
7
  6
CONTINUOUS
 10
244.8764348489
 20
447.4014085488
 11
263.8764053982
 21
447.4052304836
  0
ARC
  5
2E7
100
AcDbEntity
  8
0
100
AcDbCircle
 62
9
  6
CONTINUOUS
 10
175.4763917164
 20
69.812327815
 40
134.0252711074
100
AcDbArc
 50
285.1445994483
 51
285.4135638138
  0
ARC
  5
2E8
100
AcDbEntity
  8
0
100
AcDbCircle
 62
9
  6
CONTINUOUS
 10
207.3151466726
 20
-50.3684688024
 40
9.6956498517
100
AcDbArc
 50
283.0626855169
 51
283.8884536109
  0
ARC
  5
2E9
100
AcDbEntity
  8
0
100
AcDbCircle
 62
9
  6
CONTINUOUS
 10
208.0389380794
 20
-63.0131483808
 40
7.9426465951
100
AcDbArc
 50
43.4009391597
 51
70.4716801539
  0
ARC
  5
2EA
100
AcDbEntity
  8
0
100
AcDbCircle
 62
7
  6
CONTINUOUS
 10
204.4130127778
 20
-61.3580216896
 40
5.152965787
100
AcDbArc
 50
64.1106372823
 51
64.6769877634
  0
ARC
  5
2EB
100
AcDbEntity
  8
0
100
AcDbCircle
 62
7
  6
CONTINUOUS
 10
204.4143719784
 20
-61.3552192292
 40
5.1498511104
100
AcDbArc
 50
63.6588373133
 51
64.1106276917
  0
ARC
  5
2EC
100
AcDbEntity
  8
0
100
AcDbCircle
 62
7
  6
CONTINUOUS
 10
204.4737031712
 20
-61.3120008643
 40
5.0
100
AcDbArc
 50
16.6234878984
 51
64.6235476413
  0
ARC
  5
2ED
100
AcDbEntity
  8
0
100
AcDbCircle
 62
9
  6
CONTINUOUS
 10
215.6803355927
 20
-56.9306946493
 40
2.857708364
100
AcDbArc
 50
254.3942737459
 51
267.7531709128
  0
ARC
  5
2EE
100
AcDbEntity
  8
0
100
AcDbCircle
 62
9
  6
CONTINUOUS
 10
215.7809357337
 20
-57.7801661342
 40
2.3351361247
100
AcDbArc
 50
229.6816400432
 51
247.1995555479
  0
ARC
  5
2EF
100
AcDbEntity
  8
0
100
AcDbCircle
 62
9
  6
CONTINUOUS
 10
215.7403416785
 20
-57.8325251635
 40
2.2689504957
100
AcDbArc
 50
215.0111561576
 51
229.6077349076
  0
ARC
  5
2F0
100
AcDbEntity
  8
0
100
AcDbCircle
 62
9
  6
CONTINUOUS
 10
215.8511712608
 20
-57.6034337898
 40
2.0880377442
100
AcDbArc
 50
153.7390503307
 51
158.2117128371
  0
ARC
  5
2F1
100
AcDbEntity
  8
0
100
AcDbCircle
 62
9
  6
CONTINUOUS
 10
215.7184088479
 20
-58.0587795093
 40
2.0482486002
100
AcDbArc
 50
264.5484122623
 51
269.7418311382
  0
ARC
  5
2F2
100
AcDbEntity
  8
0
100
AcDbCircle
 62
7
  6
CONTINUOUS
 10
207.488849862
 20
-54.9661643274
 40
2.0258253896
100
AcDbArc
 50
223.1904213813
 51
242.9520780594
  0
ARC
  5
2F3
100
AcDbEntity
  8
0
100
AcDbCircle
 62
7
  6
CONTINUOUS
 10
207.4953960819
 20
-54.8872514371
 40
2.0231522283
100
AcDbArc
 50
182.7429775613
 51
201.5070182698
  0
ARC
  5
2F4
100
AcDbEntity
  8
0
100
AcDbCircle
 62
7
  6
CONTINUOUS
 10
211.1970150961
 20
-59.3022998681
 40
2.0172527039
100
AcDbArc
 50
196.6886204022
 51
214.8854070202
  0
ARC
  5
2F5
100
AcDbEntity
  8
0
100
AcDbCircle
 62
7
  6
CONTINUOUS
 10
211.2205735797
 20
-59.3042355922
 40
2.0147391945
100
AcDbArc
 50
195.9457335446
 51
214.3677155277
  0
ARC
  5
2F6
100
AcDbEntity
  8
0
100
AcDbCircle
 62
7
  6
CONTINUOUS
 10
207.4733237188
 20
-54.9860587902
 40
2.0008930279
100
AcDbArc
 50
180.0214453429
 51
223.0793677443
  0
ARC
  5
2F7
100
AcDbEntity
  8
0
100
AcDbCircle
 62
7
  6
CONTINUOUS
 10
211.1822618886
 20
-59.3097742875
 40
2.0008771165
100
AcDbArc
 50
214.9514589119
 51
270.0002314322
  0
ARC
  5
2F8
100
AcDbEntity
  8
0
100
AcDbCircle
 62
7
  6
CONTINUOUS
 10
211.2072598943
 20
-59.3103251988
 40
2.00031361
100
AcDbArc
 50
214.4390103219
 51
269.5159311422
  0
ARC
  5
2F9
100
AcDbEntity
  8
0
100
AcDbCircle
 62
7
  6
CONTINUOUS
 10
207.4575946917
 20
-55.0214424803
 40
1.9623822212
100
AcDbArc
 50
243.0309025433
 51
244.6213740167
  0
ARC
  5
2FA
100
AcDbEntity
  8
0
100
AcDbCircle
 62
7
  6
CONTINUOUS
 10
207.4347553988
 20
-54.8922365863
 40
1.9623435555
100
AcDbArc
 50
180.0151926027
 51
182.682321375
  0
ARC
  5
2FB
100
AcDbEntity
  8
0
100
AcDbCircle
 62
9
  6
CONTINUOUS
 10
215.7077974036
 20
-57.896277022
 40
1.8950620747
100
AcDbArc
 50
265.7785931701
 51
270.0415230062
  0
ARC
  5
2FC
100
AcDbEntity
  8
0
100
AcDbCircle
 62
9
  6
CONTINUOUS
 10
256.4716620217
 20
-9945.4050827076
 40
9889.2851973812
100
AcDbArc
 50
89.8138206243
 51
90.2092303164
  0
ARC
  5
2FD
100
AcDbEntity
  8
0
100
AcDbCircle
 62
9
  6
CONTINUOUS
 10
256.4537308189
 20
-9858.0651678033
 40
9799.9455918111
100
AcDbArc
 50
89.8135528194
 51
90.2094981179
  0
ARC
  5
2FE
100
AcDbEntity
  8
0
100
AcDbCircle
 62
9
  6
CONTINUOUS
 10
254.5171892514
 20
-249.0768677044
 40
452.9297077244
100
AcDbArc
 50
86.3142368396
 51
90.0105938212
  0
ARC
  5
2FF
100
AcDbEntity
  8
0
100
AcDbCircle
 62
9
  6
CONTINUOUS
 10
254.4832542331
 20
-247.7795136668
 40
451.6323486914
100
AcDbArc
 50
90.0063191288
 51
93.714126053
  0
ARC
  5
300
100
AcDbEntity
  8
0
100
AcDbCircle
 62
9
  6
CONTINUOUS
 10
254.5199917832
 20
-243.5239941496
 40
445.6452504405
100
AcDbArc
 50
86.283433882
 51
93.7396181953
  0
ARC
  5
301
100
AcDbEntity
  8
0
100
AcDbCircle
 62
9
  6
CONTINUOUS
 10
236.4828407572
 20
-17.097823183
 40
42.2048016267
100
AcDbArc
 50
268.6200909465
 51
269.4862371754
  0
ARC
  5
302
100
AcDbEntity
  8
0
100
AcDbCircle
 62
9
  6
CONTINUOUS
 10
249.962832525
 20
-23.2913906166
 40
25.0960391249
100
AcDbArc
 50
172.6615994329
 51
173.5583234316
  0
CIRCLE
  5
303
100
AcDbEntity
  8
0
100
AcDbCircle
 62
7
  6
CONTINUOUS
 10
254.4527319097
 20
73.6980547531
 40
11.15
  0
CIRCLE
  5
304
100
AcDbEntity
  8
0
100
AcDbCircle
 62
7
  6
CONTINUOUS
 10
254.4607781004
 20
33.6980555623
 40
11.15
  0
ARC
  5
305
100
AcDbEntity
  8
0
100
AcDbCircle
 62
9
  6
CONTINUOUS
 10
236.0899192951
 20
-21.5167788299
 40
11.110094449
100
AcDbArc
 50
170.6419403161
 51
172.6002179817
  0
ARC
  5
306
100
AcDbEntity
  8
0
100
AcDbCircle
 62
9
  6
CONTINUOUS
 10
232.2796421991
 20
-2.8906414825
 40
1.9976115053
100
AcDbArc
 50
135.0059432133
 51
163.0371277628
  0
ARC
  5
307
100
AcDbEntity
  8
0
100
AcDbCircle
 62
9
  6
CONTINUOUS
 10
231.143572953
 20
-59.6118686564
 40
0.5013477627
100
AcDbArc
 50
270.1920380233
 51
337.0112527939
  0
ARC
  5
308
100
AcDbEntity
  8
0
100
AcDbCircle
 62
9
  6
CONTINUOUS
 10
232.4054399339
 20
-60.7295651001
 40
0.5000147847
100
AcDbArc
 50
270.1038011917
 51
347.8692851884
  0
ARC
  5
309
100
AcDbEntity
  8
0
100
AcDbCircle
 62
9
  6
CONTINUOUS
 10
130.9168354435
 20
486.9655221308
 40
332.3213408716
100
AcDbArc
 50
296.5537492564
 51
296.6701935917
  0
ARC
  5
30A
100
AcDbEntity
  8
0
100
AcDbCircle
 62
9
  6
CONTINUOUS
 10
136.5842186126
 20
211.2046139598
 40
280.6673802613
100
AcDbArc
 50
285.3958969116
 51
285.5500682314
  0
ARC
  5
30B
100
AcDbEntity
  8
0
100
AcDbCircle
 62
9
  6
CONTINUOUS
 10
155.5695092904
 20
149.479930393
 40
218.0368613572
100
AcDbArc
 50
285.1085081627
 51
285.4472989784
  0
ARC
  5
30C
100
AcDbEntity
  8
0
100
AcDbCircle
 62
9
  6
CONTINUOUS
 10
235.7284467606
 20
125.7492550006
 40
187.0320608793
100
AcDbArc
 50
269.4034795615
 51
269.8388012325
  0
ARC
  5
30D
100
AcDbEntity
  8
0
100
AcDbCircle
 62
7
  6
CONTINUOUS
 10
227.1044678955
 20
281.6973437626
 40
34.4886311068
100
AcDbArc
 50
259.6927313188
 51
261.1655478674
  0
ARC
  5
30E
100
AcDbEntity
  8
0
100
AcDbCircle
 62
7
  6
CONTINUOUS
 10
224.406496976
 20
267.3051865794
 40
19.8452840907
100
AcDbArc
 50
258.1237526951
 51
258.5103185954
  0
ARC
  5
30F
100
AcDbEntity
  8
0
100
AcDbCircle
 62
7
  6
CONTINUOUS
 10
225.4174938319
 20
252.4322762453
 40
4.9999999996
100
AcDbArc
 50
180.0115253198
 51
264.3021208133
  0
ARC
  5
310
100
AcDbEntity
  8
0
100
AcDbCircle
 62
9
  6
CONTINUOUS
 10
221.2088156248
 20
243.9386722474
 40
2.5757358808
100
AcDbArc
 50
140.0711836563
 51
153.5864259735
  0
ARC
  5
311
100
AcDbEntity
  8
0
100
AcDbCircle
 62
9
  6
CONTINUOUS
 10
221.1297492012
 20
243.9776478836
 40
2.4876005658
100
AcDbArc
 50
153.5800187113
 51
161.457862096
  0
ARC
  5
312
100
AcDbEntity
  8
0
100
AcDbCircle
 62
9
  6
CONTINUOUS
 10
221.0262044146
 20
244.0128870388
 40
2.3782092692
100
AcDbArc
 50
161.4698264517
 51
170.3687722693
  0
ARC
  5
313
100
AcDbEntity
  8
0
100
AcDbCircle
 62
9
  6
CONTINUOUS
 10
220.9541741208
 20
244.3279765637
 40
2.108228929
100
AcDbArc
 50
107.5354361574
 51
117.3633030501
  0
ARC
  5
314
100
AcDbEntity
  8
0
100
AcDbCircle
 62
9
  6
CONTINUOUS
 10
220.8241093961
 20
244.2123639406
 40
1.2225443656
100
AcDbArc
 50
106.312002544
 51
115.4988749994
  0
ARC
  5
315
100
AcDbEntity
  8
0
100
AcDbCircle
 62
7
  6
CONTINUOUS
 10
225.4174938325
 20
252.4322762455
 40
1.0000000002
100
AcDbArc
 50
180.0115253343
 51
239.8625659058
  0
ARC
  5
316
100
AcDbEntity
  8
0
100
AcDbCircle
 62
7
  6
CONTINUOUS
 10
225.4169650801
 20
260.9322761901
 40
0.5
100
AcDbArc
 50
90.0115253194
 51
180.011525327
  0
ARC
  5
317
100
AcDbEntity
  8
0
100
AcDbCircle
 62
7
  6
CONTINUOUS
 10
220.9116613421
 20
264.9313704683
 40
0.5
100
AcDbArc
 50
90.0115253194
 51
180.0115252879
  0
ARC
  5
318
100
AcDbEntity
  8
0
100
AcDbCircle
 62
9
  6
CONTINUOUS
 10
236.7317652832
 20
379.4372952662
 40
440.7220150278
100
AcDbArc
 50
269.8011549509
 51
270.0145170659
  0
ARC
  5
319
100
AcDbEntity
  8
0
100
AcDbCircle
 62
7
  6
CONTINUOUS
 10
237.388273617
 20
388.5457991122
 40
3.0
100
AcDbArc
 50
0.0115253193
 51
48.2012020061
  0
ARC
  5
31A
100
AcDbEntity
  8
0
100
AcDbCircle
 62
9
  6
CONTINUOUS
 10
254.4445098564
 20
239.4824874664
 40
261.6128596388
100
AcDbArc
 50
270.0062331585
 51
276.4703555391
  0
ARC
  5
31B
100
AcDbEntity
  8
0
100
AcDbCircle
 62
9
  6
CONTINUOUS
 10
254.4233820904
 20
237.0940338457
 40
257.8108783909
100
AcDbArc
 50
263.5034310802
 51
276.5196185508
  0
ARC
  5
31C
100
AcDbEntity
  8
0
100
AcDbCircle
 62
9
  6
CONTINUOUS
 10
237.8149211549
 20
150.5118057778
 40
98.0894170848
100
AcDbArc
 50
104.8348944484
 51
105.9582658876
  0
CIRCLE
  5
31D
100
AcDbEntity
  8
0
100
AcDbCircle
 62
7
  6
CONTINUOUS
 10
254.4426741712
 20
123.6980537415
 40
11.15
  0
CIRCLE
  5
31E
100
AcDbEntity
  8
0
100
AcDbCircle
 62
7
  6
CONTINUOUS
 10
254.4346279805
 20
163.6980529321
 40
11.15
  0
ARC
  5
31F
100
AcDbEntity
  8
0
100
AcDbCircle
 62
7
  6
CONTINUOUS
 10
238.8846528008
 20
406.5461004805
 40
3.0
100
AcDbArc
 50
0.0115253194
 51
48.2011999246
  0
ARC
  5
320
100
AcDbEntity
  8
0
100
AcDbCircle
 62
7
  6
CONTINUOUS
 10
241.8774111684
 20
442.5467032162
 40
3.0
100
AcDbArc
 50
0.0115253194
 51
48.2011644724
  0
ARC
  5
321
100
AcDbEntity
  8
0
100
AcDbCircle
 62
7
  6
CONTINUOUS
 10
240.3810319846
 20
424.5464018488
 40
3.0
100
AcDbArc
 50
0.0115253194
 51
48.2011963167
  0
ARC
  5
322
100
AcDbEntity
  8
0
100
AcDbCircle
 62
7
  6
CONTINUOUS
 10
241.8839780465
 20
409.9008058436
 40
1.5
100
AcDbArc
 50
90.0115253194
 51
228.2012104266
  0
ARC
  5
323
100
AcDbEntity
  8
0
100
AcDbCircle
 62
7
  6
CONTINUOUS
 10
240.3875988627
 20
391.9005044753
 40
1.5
100
AcDbArc
 50
90.0115748801
 51
228.2012104265
  0
ARC
  5
324
100
AcDbEntity
  8
0
100
AcDbCircle
 62
7
  6
CONTINUOUS
 10
239.864013176
 20
373.9455143312
 40
1.5
100
AcDbArc
 50
100.9130186822
 51
178.930044459
  0
ARC
  5
325
100
AcDbEntity
  8
0
100
AcDbCircle
 62
7
  6
CONTINUOUS
 10
244.8767364141
 20
445.9014085793
 40
1.5
100
AcDbArc
 50
90.0115253194
 51
228.2012104266
  0
ARC
  5
326
100
AcDbEntity
  8
0
100
AcDbCircle
 62
7
  6
CONTINUOUS
 10
243.3803572303
 20
427.901107211
 40
1.5
100
AcDbArc
 50
90.0115253194
 51
228.2012104188
  0
ARC
  5
327
100
AcDbEntity
  8
0
100
AcDbCircle
 62
7
  6
CONTINUOUS
 10
242.3737874519
 20
412.4160201435
 40
1.0174802865
100
AcDbArc
 50
305.4500159819
 51
307.8178590734
  0
ARC
  5
328
100
AcDbEntity
  8
0
100
AcDbCircle
 62
7
  6
CONTINUOUS
 10
240.8864765566
 20
394.4042982838
 40
1.0037096072
100
AcDbArc
 50
270.0416448824
 51
287.051495629
  0
ARC
  5
329
100
AcDbEntity
  8
0
100
AcDbCircle
 62
7
  6
CONTINUOUS
 10
243.8792364995
 20
430.4048903287
 40
1.003698913
100
AcDbArc
 50
270.0415542912
 51
287.053632037
  0
ARC
  5
32A
100
AcDbEntity
  8
0
100
AcDbCircle
 62
7
  6
CONTINUOUS
 10
242.382858999
 20
412.4045772697
 40
1.0036872195
100
AcDbArc
 50
270.0414592048
 51
287.0563479471
  0
ARC
  5
32B
100
AcDbEntity
  8
0
100
AcDbCircle
 62
7
  6
CONTINUOUS
 10
239.3907167818
 20
376.4003036345
 40
1.0
100
AcDbArc
 50
280.9130651276
 51
0.0115253194
  0
ARC
  5
32C
100
AcDbEntity
  8
0
100
AcDbCircle
 62
9
  6
CONTINUOUS
 10
252.4314879382
 20
10138.9129661217
 40
9892.6035020333
100
AcDbArc
 50
269.8339558485
 51
270.1890967934
  0
ARC
  5
32D
100
AcDbEntity
  8
0
100
AcDbCircle
 62
9
  6
CONTINUOUS
 10
252.4748288873
 20
10084.9939980867
 40
9837.6846662357
100
AcDbArc
 50
270.0113346845
 51
270.1901418875
  0
ARC
  5
32E
100
AcDbEntity
  8
0
100
AcDbCircle
 62
9
  6
CONTINUOUS
 10
252.3641291301
 20
10051.2983196719
 40
9803.9890110821
100
AcDbArc
 50
269.8326014871
 51
270.0120205848
  0
ARC
  5
32F
100
AcDbEntity
  8
0
100
AcDbCircle
 62
9
  6
CONTINUOUS
 10
339.2347418159
 20
90.7450238445
 40
155.7182513045
100
AcDbArc
 50
254.5899495615
 51
254.8208877472
  0
ARC
  5
330
100
AcDbEntity
  8
0
100
AcDbCircle
 62
9
  6
CONTINUOUS
 10
334.2659232981
 20
79.0773616438
 40
145.0683655345
100
AcDbArc
 50
254.6190649634
 51
254.9312077553
  0
ARC
  5
331
100
AcDbEntity
  8
0
100
AcDbCircle
 62
9
  6
CONTINUOUS
 10
272.099570108
 20
12.6205931734
 40
71.9179925069
100
AcDbArc
 50
270.0051532299
 51
270.5937743761
  0
ARC
  5
332
100
AcDbEntity
  8
0
100
AcDbCircle
 62
9
  6
CONTINUOUS
 10
317.1241918948
 20
9.29671586
 40
71.3221264122
100
AcDbArc
 50
254.831289371
 51
255.2336524859
  0
ARC
  5
333
100
AcDbEntity
  8
0
100
AcDbCircle
 62
9
  6
CONTINUOUS
 10
300.92242974
 20
-62.9928041709
 40
7.9414085674
100
AcDbArc
 50
109.5671925368
 51
136.6271569604
  0
ARC
  5
334
100
AcDbEntity
  8
0
100
AcDbCircle
 62
7
  6
CONTINUOUS
 10
304.5344080766
 20
-61.3378813096
 40
5.1529652506
100
AcDbArc
 50
115.3460723334
 51
115.9125883953
  0
ARC
  5
335
100
AcDbEntity
  8
0
100
AcDbCircle
 62
7
  6
CONTINUOUS
 10
304.5330399017
 20
-61.3350633649
 40
5.1498327253
100
AcDbArc
 50
115.9125975092
 51
116.3695728449
  0
ARC
  5
336
100
AcDbEntity
  8
0
100
AcDbCircle
 62
7
  6
CONTINUOUS
 10
304.4736993908
 20
-61.2918853875
 40
5.0
100
AcDbArc
 50
115.399502995
 51
163.3995627396
  0
ARC
  5
337
100
AcDbEntity
  8
0
100
AcDbCircle
 62
9
  6
CONTINUOUS
 10
293.1816033285
 20
-57.7699117435
 40
2.3288169732
100
AcDbArc
 50
289.963216317
 51
305.170353816
  0
ARC
  5
338
100
AcDbEntity
  8
0
100
AcDbCircle
 62
9
  6
CONTINUOUS
 10
293.2406492489
 20
-58.0443391241
 40
2.0471003128
100
AcDbArc
 50
270.2821186761
 51
275.4802155376
  0
ARC
  5
339
100
AcDbEntity
  8
0
100
AcDbCircle
 62
7
  6
CONTINUOUS
 10
301.4492090093
 20
-54.8686203623
 40
2.0233552539
100
AcDbArc
 50
338.5565071157
 51
357.2863182768
  0
ARC
  5
33A
100
AcDbEntity
  8
0
100
AcDbCircle
 62
7
  6
CONTINUOUS
 10
297.7496139762
 20
-59.2849054399
 40
2.0172150663
100
AcDbArc
 50
325.1354956491
 51
343.3345855844
  0
ARC
  5
33B
100
AcDbEntity
  8
0
100
AcDbCircle
 62
7
  6
CONTINUOUS
 10
297.7259914431
 20
-59.2868214969
 40
2.0147719724
100
AcDbArc
 50
325.6610150633
 51
344.0771961187
  0
ARC
  5
33C
100
AcDbEntity
  8
0
100
AcDbCircle
 62
7
  6
CONTINUOUS
 10
301.4702801181
 20
-54.9665573954
 40
2.0021470382
100
AcDbArc
 50
316.9695901957
 51
359.9873171056
  0
ARC
  5
33D
100
AcDbEntity
  8
0
100
AcDbCircle
 62
7
  6
CONTINUOUS
 10
297.7643452291
 20
-59.2923763785
 40
2.0008586241
100
AcDbArc
 50
270.0225465848
 51
325.0698918337
  0
ARC
  5
33E
100
AcDbEntity
  8
0
100
AcDbCircle
 62
7
  6
CONTINUOUS
 10
297.7393122894
 20
-59.2928784114
 40
2.0003576996
100
AcDbArc
 50
270.3338660136
 51
325.5890401689
  0
ARC
  5
33F
100
AcDbEntity
  8
0
100
AcDbCircle
 62
9
  6
CONTINUOUS
 10
276.6561918687
 20
-2.8829410057
 40
1.9990986642
100
AcDbArc
 50
17.0096098124
 51
45.0243150174
  0
ARC
  5
340
100
AcDbEntity
  8
0
100
AcDbCircle
 62
7
  6
CONTINUOUS
 10
301.5071516876
 20
-54.8733202199
 40
1.9652560068
100
AcDbArc
 50
357.3432069695
 51
0.0079855246
  0
ARC
  5
341
100
AcDbEntity
  8
0
100
AcDbCircle
 62
7
  6
CONTINUOUS
 10
301.4878412135
 20
-55.0037122147
 40
1.9610617847
100
AcDbArc
 50
295.4016374261
 51
296.9934975512
  0
ARC
  5
342
100
AcDbEntity
  8
0
100
AcDbCircle
 62
9
  6
CONTINUOUS
 10
293.2513277307
 20
-57.8805686376
 40
1.8951448359
100
AcDbArc
 50
269.9824619681
 51
274.2475154931
  0
ARC
  5
343
100
AcDbEntity
  8
0
100
AcDbCircle
 62
9
  6
CONTINUOUS
 10
277.8162083127
 20
-59.6024112552
 40
0.5014172147
100
AcDbArc
 50
203.0028758405
 51
269.8178448145
  0
ARC
  5
344
100
AcDbEntity
  8
0
100
AcDbCircle
 62
9
  6
CONTINUOUS
 10
276.5449011214
 20
-60.7206745444
 40
0.500028882
100
AcDbArc
 50
192.1635783514
 51
269.9324600531
  0
ARC
  5
345
100
AcDbEntity
  8
0
100
AcDbCircle
 62
9
  6
CONTINUOUS
 10
269.3255305766
 20
144.2264203752
 40
104.6158417463
100
AcDbArc
 50
74.0975934039
 51
75.1558541489
  0
ARC
  5
346
100
AcDbEntity
  8
0
100
AcDbCircle
 62
7
  6
CONTINUOUS
 10
284.4462725551
 20
267.1353317581
 40
19.6619030178
100
AcDbArc
 50
281.5469613346
 51
281.9388568083
  0
ARC
  5
347
100
AcDbEntity
  8
0
100
AcDbCircle
 62
7
  6
CONTINUOUS
 10
283.41749164
 20
252.4439432219
 40
4.9999999996
100
AcDbArc
 50
275.7385356587
 51
0.0115253192
  0
ARC
  5
348
100
AcDbEntity
  8
0
100
AcDbCircle
 62
9
  6
CONTINUOUS
 10
287.6288253422
 20
243.9483237058
 40
2.582758758
100
AcDbArc
 50
26.4334937254
 51
39.9855619406
  0
ARC
  5
349
100
AcDbEntity
  8
0
100
AcDbCircle
 62
9
  6
CONTINUOUS
 10
287.7148787388
 20
243.9918205136
 40
2.4863321141
100
AcDbArc
 50
18.5351842742
 51
26.4185682203
  0
ARC
  5
34A
100
AcDbEntity
  8
0
100
AcDbCircle
 62
9
  6
CONTINUOUS
 10
287.8162340865
 20
244.026377339
 40
2.379236047
100
AcDbArc
 50
9.6467451659
 51
18.5217762172
  0
ARC
  5
34B
100
AcDbEntity
  8
0
100
AcDbCircle
 62
9
  6
CONTINUOUS
 10
287.8893309442
 20
244.3413375708
 40
2.1083295217
100
AcDbArc
 50
62.6604567633
 51
72.49172572
  0
ARC
  5
34C
100
AcDbEntity
  8
0
100
AcDbCircle
 62
9
  6
CONTINUOUS
 10
288.0188176587
 20
244.2250528326
 40
1.2235955704
100
AcDbArc
 50
64.4980620571
 51
73.6866849632
  0
ARC
  5
34D
100
AcDbEntity
  8
0
100
AcDbCircle
 62
7
  6
CONTINUOUS
 10
283.4174916395
 20
252.4439432221
 40
1.0000000002
100
AcDbArc
 50
300.4288432982
 51
0.0115253048
  0
ARC
  5
34E
100
AcDbEntity
  8
0
100
AcDbCircle
 62
7
  6
CONTINUOUS
 10
287.9144708649
 20
264.9448481158
 40
0.5
100
AcDbArc
 50
0.0115252679
 51
90.0115253194
  0
ARC
  5
34F
100
AcDbEntity
  8
0
100
AcDbCircle
 62
7
  6
CONTINUOUS
 10
283.4169628875
 20
260.9439431667
 40
0.5
100
AcDbArc
 50
0.0115253121
 51
90.0115253194
  0
ARC
  5
350
100
AcDbEntity
  8
0
100
AcDbCircle
 62
7
  6
CONTINUOUS
 10
266.8839775407
 20
409.9058347128
 40
1.5
100
AcDbArc
 50
311.8218402122
 51
90.0115253194
  0
ARC
  5
351
100
AcDbEntity
  8
0
100
AcDbCircle
 62
7
  6
CONTINUOUS
 10
266.8774106626
 20
442.5517320854
 40
3.0
100
AcDbArc
 50
131.8218861663
 51
180.0115253194
  0
ARC
  5
352
100
AcDbEntity
  8
0
100
AcDbCircle
 62
7
  6
CONTINUOUS
 10
263.8767360297
 20
445.9052305199
 40
1.5
100
AcDbArc
 50
311.8218402122
 51
90.0115253194
  0
ARC
  5
353
100
AcDbEntity
  8
0
100
AcDbCircle
 62
7
  6
CONTINUOUS
 10
265.3803567852
 20
427.9055326159
 40
1.5
100
AcDbArc
 50
311.8218402199
 51
90.0115253194
  0
ARC
  5
354
100
AcDbEntity
  8
0
100
AcDbCircle
 62
9
  6
CONTINUOUS
 10
264.8964343319
 20
430.4211258495
 40
1.0269258685
100
AcDbArc
 50
209.6791209648
 51
219.0532323349
  0
ARC
  5
355
100
AcDbEntity
  8
0
100
AcDbCircle
 62
9
  6
CONTINUOUS
 10
266.3992217318
 20
412.4204611162
 40
1.0250304987
100
AcDbArc
 50
209.5385574922
 51
220.3528136386
  0
ARC
  5
356
100
AcDbEntity
  8
0
100
AcDbCircle
 62
9
  6
CONTINUOUS
 10
266.3913365241
 20
412.4247013805
 40
1.0224880231
100
AcDbArc
 50
230.6825392848
 51
241.6266275696
  0
ARC
  5
357
100
AcDbEntity
  8
0
100
AcDbCircle
 62
9
  6
CONTINUOUS
 10
264.8860320122
 20
430.4229587797
 40
1.020826933
100
AcDbArc
 50
229.6951229788
 51
241.1022855832
  0
ARC
  5
358
100
AcDbEntity
  8
0
100
AcDbCircle
 62
9
  6
CONTINUOUS
 10
264.8785872682
 20
430.4086092797
 40
1.0046666109
100
AcDbArc
 50
241.0785266577
 51
246.5979738537
  0
ARC
  5
359
100
AcDbEntity
  8
0
100
AcDbCircle
 62
7
  6
CONTINUOUS
 10
264.8804702603
 20
430.4091148243
 40
1.0036989108
100
AcDbArc
 50
252.9694185496
 51
269.981496347
  0
ARC
  5
35A
100
AcDbEntity
  8
0
100
AcDbCircle
 62
7
  6
CONTINUOUS
 10
266.3840893367
 20
412.4094052332
 40
1.0036872187
100
AcDbArc
 50
252.9667027175
 51
269.9815914325
  0
ARC
  5
35B
100
AcDbEntity
  8
0
100
AcDbCircle
 62
9
  6
CONTINUOUS
 10
266.3787843548
 20
412.4078979609
 40
1.0021810657
100
AcDbArc
 50
250.5183178026
 51
269.9768143285
  0
ARC
  5
35C
100
AcDbEntity
  8
0
100
AcDbCircle
 62
9
  6
CONTINUOUS
 10
264.8742149857
 20
430.4069558841
 40
1.0015412718
100
AcDbArc
 50
256.4079385841
 51
269.9774134197
  0
ARC
  5
35D
100
AcDbEntity
  8
0
100
AcDbCircle
 62
9
  6
CONTINUOUS
 10
266.3807150944
 20
412.4042448118
 40
0.999441516
100
AcDbArc
 50
241.6050835983
 51
247.5854971596
  0
ARC
  5
35E
100
AcDbEntity
  8
0
100
AcDbCircle
 62
9
  6
CONTINUOUS
 10
266.3719311496
 20
412.4061974321
 40
0.994255456
100
AcDbArc
 50
199.6631844475
 51
209.5987635707
  0
ARC
  5
35F
100
AcDbEntity
  8
0
100
AcDbCircle
 62
9
  6
CONTINUOUS
 10
264.8656126006
 20
430.4030982563
 40
0.9915253216
100
AcDbArc
 50
187.3599649802
 51
209.7350046819
  0
ARC
  5
360
100
AcDbEntity
  8
0
100
AcDbCircle
 62
9
  6
CONTINUOUS
 10
266.3671397438
 20
412.4028277531
 40
0.9886108199
100
AcDbArc
 50
185.1870586941
 51
199.5727198817
  0
ARC
  5
361
100
AcDbEntity
  8
0
100
AcDbCircle
 62
9
  6
CONTINUOUS
 10
264.8701987639
 20
430.3928734765
 40
0.9869374274
100
AcDbArc
 50
249.8898666026
 51
256.4155428029
  0
ARC
  5
362
100
AcDbEntity
  8
0
100
AcDbCircle
 62
9
  6
CONTINUOUS
 10
266.3684105089
 20
412.3963756743
 40
0.9860476383
100
AcDbArc
 50
225.7854090033
 51
230.6702792055
  0
ARC
  5
363
100
AcDbEntity
  8
0
100
AcDbCircle
 62
9
  6
CONTINUOUS
 10
264.8637177944
 20
430.394904511
 40
0.9849989668
100
AcDbArc
 50
219.067793642
 51
229.6293975527
  0
ARC
  5
364
100
AcDbEntity
  8
0
100
AcDbCircle
 62
9
  6
CONTINUOUS
 10
266.3639351201
 20
412.3908516801
 40
0.9789677194
100
AcDbArc
 50
220.3693942736
 51
225.7476893861
  0
ARC
  5
365
100
AcDbEntity
  8
0
100
AcDbCircle
 62
9
  6
CONTINUOUS
 10
264.8655024699
 20
430.3790404358
 40
0.9723330941
100
AcDbArc
 50
246.6135472362
 51
249.8694676411
  0
ARC
  5
366
100
AcDbEntity
  8
0
100
AcDbCircle
 62
9
  6
CONTINUOUS
 10
266.3693580265
 20
412.3778559224
 40
0.9707159176
100
AcDbArc
 50
247.6112811353
 51
250.4514710201
  0
ARC
  5
367
100
AcDbEntity
  8
0
100
AcDbCircle
 62
9
  6
CONTINUOUS
 10
264.8436678967
 20
430.4008089203
 40
0.9694683027
100
AcDbArc
 50
179.7387305591
 51
187.3919205005
  0
ARC
  5
368
100
AcDbEntity
  8
0
100
AcDbCircle
 62
9
  6
CONTINUOUS
 10
266.340535458
 20
412.4008680738
 40
0.9619384196
100
AcDbArc
 50
179.7222055444
 51
185.2140750007
  0
ARC
  5
369
100
AcDbEntity
  8
0
100
AcDbCircle
 62
7
  6
CONTINUOUS
 10
269.8846521736
 20
406.5523362784
 40
3.0
100
AcDbArc
 50
131.8218507254
 51
180.0115253194
  0
ARC
  5
36A
100
AcDbEntity
  8
0
100
AcDbCircle
 62
7
  6
CONTINUOUS
 10
271.3882729291
 20
388.5526383744
 40
3.0
100
AcDbArc
 50
131.8218486326
 51
180.0115253194
  0
ARC
  5
36B
100
AcDbEntity
  8
0
100
AcDbCircle
 62
7
  6
CONTINUOUS
 10
268.3875982962
 20
391.9061368088
 40
1.5
100
AcDbArc
 50
311.8218402121
 51
90.0115253194
  0
ARC
  5
36C
100
AcDbEntity
  8
0
100
AcDbCircle
 62
7
  6
CONTINUOUS
 10
268.9184074041
 20
373.9513587612
 40
1.5
100
AcDbArc
 50
1.0930061797
 51
79.1100319565
  0
ARC
  5
36D
100
AcDbEntity
  8
0
100
AcDbCircle
 62
9
  6
CONTINUOUS
 10
267.903340468
 20
394.4207581281
 40
1.0249362615
100
AcDbArc
 50
209.3224561735
 51
220.49074398
  0
ARC
  5
36E
100
AcDbEntity
  8
0
100
AcDbCircle
 62
9
  6
CONTINUOUS
 10
267.8955562143
 20
394.4250230418
 40
1.0224837111
100
AcDbArc
 50
230.5624860114
 51
241.7636725769
  0
ARC
  5
36F
100
AcDbEntity
  8
0
100
AcDbCircle
 62
7
  6
CONTINUOUS
 10
267.8877133425
 20
394.4097297105
 40
1.0037096061
100
AcDbArc
 50
252.9715548379
 51
269.9814057707
  0
ARC
  5
370
100
AcDbEntity
  8
0
100
AcDbCircle
 62
9
  6
CONTINUOUS
 10
267.883096012
 20
394.4083690205
 40
1.0023498958
100
AcDbArc
 50
250.4587223444
 51
269.9768289877
  0
ARC
  5
371
100
AcDbEntity
  8
0
100
AcDbCircle
 62
7
  6
CONTINUOUS
 10
269.3907161749
 20
376.4063382776
 40
1.0
100
AcDbArc
 50
180.0115253194
 51
259.1099855111
  0
ARC
  5
372
100
AcDbEntity
  8
0
100
AcDbCircle
 62
9
  6
CONTINUOUS
 10
267.8848189218
 20
394.4042692912
 40
0.9991197309
100
AcDbArc
 50
241.7430737198
 51
247.5892265647
  0
ARC
  5
373
100
AcDbEntity
  8
0
100
AcDbCircle
 62
9
  6
CONTINUOUS
 10
267.8755354674
 20
394.4062955468
 40
0.9936115442
100
AcDbArc
 50
199.7843148289
 51
209.3805346168
  0
ARC
  5
374
100
AcDbEntity
  8
0
100
AcDbCircle
 62
9
  6
CONTINUOUS
 10
267.8712594396
 20
394.4031367467
 40
0.9885199002
100
AcDbArc
 50
184.5299185708
 51
199.6959242406
  0
ARC
  5
375
100
AcDbEntity
  8
0
100
AcDbCircle
 62
9
  6
CONTINUOUS
 10
267.8723464263
 20
394.3964149524
 40
0.9856455046
100
AcDbArc
 50
225.7879936124
 51
230.548095039
  0
ARC
  5
376
100
AcDbEntity
  8
0
100
AcDbCircle
 62
9
  6
CONTINUOUS
 10
267.867746903
 20
394.3908100752
 40
0.9784210007
100
AcDbArc
 50
220.5104187065
 51
225.7521791423
  0
ARC
  5
377
100
AcDbEntity
  8
0
100
AcDbCircle
 62
9
  6
CONTINUOUS
 10
267.8736193217
 20
394.3782105516
 40
0.9707594019
100
AcDbArc
 50
247.6139565857
 51
250.3904495643
  0
ARC
  5
378
100
AcDbEntity
  8
0
100
AcDbCircle
 62
9
  6
CONTINUOUS
 10
267.8420831961
 20
394.4011066221
 40
0.9592744991
100
AcDbArc
 50
179.7177056867
 51
184.5466751295
  0
ARC
  5
379
100
AcDbEntity
  8
0
100
AcDbCircle
 62
7
  6
CONTINUOUS
 10
268.3810314181
 20
424.5520341823
 40
3.0
100
AcDbArc
 50
131.821854322
 51
180.0115253194
  0
ARC
  5
37A
100
AcDbEntity
  8
0
100
AcDbCircle
 62
9
  6
CONTINUOUS
 10
385.3843183428
 20
258.0318657344
 40
329.2519491662
100
AcDbArc
 50
254.4521652716
 51
254.5833189883
  0
ARC
  5
37B
100
AcDbEntity
  8
0
100
AcDbCircle
 62
9
  6
CONTINUOUS
 10
394.4776637572
 20
298.596904329
 40
372.6957944723
100
AcDbArc
 50
254.4946048399
 51
254.6451002588
  0
SPLINE
  5
37C
100
AcDbEntity
  8
0
100
AcDbSpline
 62
9
  6
CONTINUOUS
 70
0
 71
3
 72
11
 73
7
 74
0
 42
0.0000001
 43
0.0000001
 44
0.0000000001
 40
0.0
 40
0.0
 40
0.0
 40
0.0
 40
0.2242682409
 40
0.4643676595
 40
0.7252628445
 40
1.0
 40
1.0
 40
1.0
 40
1.0
 10
271.2621479601
 20
265.4414983344
 30
0.0
 10
271.3148771366
 20
265.4415089404
 30
0.0
 10
271.4254932267
 20
265.4130254638
 30
0.0
 10
271.5578978467
 20
265.2980105119
 30
0.0
 10
271.643787641
 20
265.1330860995
 30
0.0
 10
271.6634065544
 20
265.0061742902
 30
0.0
 10
271.663419548
 20
264.9415790363
 30
0.0
  0
SPLINE
  5
37D
100
AcDbEntity
  8
0
100
AcDbSpline
 62
9
  6
CONTINUOUS
 70
0
 71
3
 72
9
 73
5
 74
0
 42
0.0000001
 43
0.0000001
 44
0.0000000001
 40
0.0
 40
0.0
 40
0.0
 40
0.0
 40
0.4998783952
 40
1.0
 40
1.0
 40
1.0
 40
1.0
 10
241.7535744337
 20
257.3431212523
 30
0.0
 10
240.8742627073
 20
257.0636550016
 30
0.0
 10
239.0795407391
 20
256.6073589037
 30
0.0
 10
237.231139044
 20
256.4357217761
 30
0.0
 10
236.3080369405
 20
256.434466793
 30
0.0
  0
SPLINE
  5
37E
100
AcDbEntity
  8
0
100
AcDbSpline
 62
9
  6
CONTINUOUS
 70
0
 71
3
 72
10
 73
6
 74
0
 42
0.0000001
 43
0.0000001
 44
0.0000000001
 40
0.0
 40
0.0
 40
0.0
 40
0.0
 40
0.49854045
 40
0.7482917108
 40
1.0
 40
1.0
 40
1.0
 40
1.0
 10
249.9899491122
 20
261.4372200515
 30
0.0
 10
248.7074807564
 20
260.6146892879
 30
0.0
 10
246.7381077377
 20
259.442496336
 30
0.0
 10
243.973765904
 20
258.134127495
 30
0.0
 10
242.5368374571
 20
257.5939440516
 30
0.0
 10
241.8042616583
 20
257.3592938728
 30
0.0
  0
SPLINE
  5
37F
100
AcDbEntity
  8
0
100
AcDbSpline
 62
9
  6
CONTINUOUS
 70
0
 71
3
 72
10
 73
6
 74
0
 42
0.0000001
 43
0.0000001
 44
0.0000000001
 40
0.0
 40
0.0
 40
0.0
 40
0.0
 40
0.2517082892
 40
0.50145955
 40
1.0
 40
1.0
 40
1.0
 40
1.0
 10
267.0329797842
 20
257.36436875
 30
0.0
 10
266.3003096426
 20
257.5987241875
 30
0.0
 10
264.8631639911
 20
258.1383294972
 30
0.0
 10
262.0982960119
 20
259.4455861112
 30
0.0
 10
260.1284515681
 20
260.6169866706
 30
0.0
 10
258.8456524042
 20
261.4390014184
 30
0.0
  0
SPLINE
  5
380
100
AcDbEntity
  8
0
100
AcDbSpline
 62
9
  6
CONTINUOUS
 70
0
 71
3
 72
9
 73
5
 74
0
 42
0.0000001
 43
0.0000001
 44
0.0000000001
 40
0.0
 40
0.0
 40
0.0
 40
0.0
 40
0.5001216048
 40
1.0
 40
1.0
 40
1.0
 40
1.0
 10
272.5295761238
 20
256.4417529286
 30
0.0
 10
271.6064735902
 20
256.4426365388
 30
0.0
 10
269.7580029934
 20
256.6135300229
 30
0.0
 10
267.9630975982
 20
257.0691040501
 30
0.0
 10
267.083673511
 20
257.3482165227
 30
0.0
  0
SPLINE
  5
381
100
AcDbEntity
  8
0
100
AcDbSpline
 62
9
  6
CONTINUOUS
 70
0
 71
3
 72
14
 73
10
 74
0
 42
0.0000001
 43
0.0000001
 44
0.0000000001
 40
0.0
 40
0.0
 40
0.0
 40
0.0
 40
0.2736578325
 40
0.4064794011
 40
0.5345930091
 40
0.6573920975
 40
0.775061627
 40
0.8886776289
 40
1.0
 40
1.0
 40
1.0
 40
1.0
 10
237.1676259086
 20
264.4346400325
 30
0.0
 10
237.1677038628
 20
264.0471063991
 30
0.0
 10
237.0776250574
 20
263.4653105954
 30
0.0
 10
236.78000925
 20
262.7662831069
 30
0.0
 10
236.4813321071
 20
262.3084617649
 30
0.0
 10
236.1158122877
 20
261.9310746379
 30
0.0
 10
235.696512796
 20
261.6487672876
 30
0.0
 10
235.2393620413
 20
261.4739177243
 30
0.0
 10
234.9195212131
 20
261.4341877226
 30
0.0
 10
234.7618748467
 20
261.434156009
 30
0.0
  0
SPLINE
  5
382
100
AcDbEntity
  8
0
100
AcDbSpline
 62
9
  6
CONTINUOUS
 70
0
 71
3
 72
9
 73
5
 74
0
 42
0.0000001
 43
0.0000001
 44
0.0000000001
 40
0.0
 40
0.0
 40
0.0
 40
0.0
 40
0.2398093398
 40
1.0
 40
1.0
 40
1.0
 40
1.0
 10
240.3865079981
 20
261.7816798301
 30
0.0
 10
240.651839469
 20
261.8196477289
 30
0.0
 10
241.7571708635
 20
261.9856596403
 30
0.0
 10
242.858493468
 20
262.1773427347
 30
0.0
 10
243.6943601238
 20
262.3298358059
 30
0.0
  0
SPLINE
  5
383
100
AcDbEntity
  8
0
100
AcDbSpline
 62
9
  6
CONTINUOUS
 70
0
 71
3
 72
9
 73
5
 74
0
 42
0.0000001
 43
0.0000001
 44
0.0000000001
 40
0.0
 40
0.0
 40
0.0
 40
0.0
 40
0.4745754443
 40
1.0
 40
1.0
 40
1.0
 40
1.0
 10
236.3060938139
 20
261.4344666
 30
0.0
 10
236.9543114622
 20
261.4350230166
 30
0.0
 10
238.3202248784
 20
261.5105837439
 30
0.0
 10
239.6760725697
 20
261.6800192909
 30
0.0
 10
240.386507998
 20
261.78167983
 30
0.0
  0
SPLINE
  5
384
100
AcDbEntity
  8
0
100
AcDbSpline
 62
9
  6
CONTINUOUS
 70
0
 71
3
 72
13
 73
9
 74
0
 42
0.0000001
 43
0.0000001
 44
0.0000000001
 40
0.0
 40
0.0
 40
0.0
 40
0.0
 40
0.2595001492
 40
0.5155169466
 40
0.6410069847
 40
0.7640251971
 40
0.8839156227
 40
1.0
 40
1.0
 40
1.0
 40
1.0
 10
254.4178007583
 20
261.4381097605
 30
0.0
 10
255.2820532201
 20
261.7904905529
 30
0.0
 10
257.0079373342
 20
262.4680168397
 30
0.0
 10
259.1713712732
 20
263.2674437653
 30
0.0
 10
260.9046963942
 20
263.8061172263
 30
0.0
 10
262.1881866938
 20
264.1383073524
 30
0.0
 10
263.4591334886
 20
264.3729902228
 30
0.0
 10
264.3080797903
 20
264.4396304165
 30
0.0
 10
264.7255936742
 20
264.4401833333
 30
0.0
  0
SPLINE
  5
385
100
AcDbEntity
  8
0
100
AcDbSpline
 62
9
  6
CONTINUOUS
 70
0
 71
3
 72
13
 73
9
 74
0
 42
0.0000001
 43
0.0000001
 44
0.0000000001
 40
0.0
 40
0.0
 40
0.0
 40
0.0
 40
0.1160954023
 40
0.2359999479
 40
0.3590175853
 40
0.4845097377
 40
0.7405186175
 40
1.0
 40
1.0
 40
1.0
 40
1.0
 10
244.1078138249
 20
264.4360359684
 30
0.0
 10
244.5254022337
 20
264.4360745476
 30
0.0
 10
245.3745265902
 20
264.3688829355
 30
0.0
 10
246.6457093398
 20
264.1347876135
 30
0.0
 10
247.9296123395
 20
263.8034271119
 30
0.0
 10
249.6630803247
 20
263.2648187801
 30
0.0
 10
251.8275223549
 20
262.4678998855
 30
0.0
 10
253.5535322929
 20
261.790476807
 30
0.0
 10
254.4178007583
 20
261.4381097605
 30
0.0
  0
SPLINE
  5
386
100
AcDbEntity
  8
0
100
AcDbSpline
 62
9
  6
CONTINUOUS
 70
0
 71
3
 72
14
 73
10
 74
0
 42
0.0000001
 43
0.0000001
 44
0.0000000001
 40
0.0
 40
0.0
 40
0.0
 40
0.0
 40
0.111340028
 40
0.2249705561
 40
0.3426491398
 40
0.465450692
 40
0.5935602111
 40
0.7263720922
 40
1.0
 40
1.0
 40
1.0
 40
1.0
 10
274.0711496513
 20
261.4420632574
 30
0.0
 10
273.9134599444
 20
261.4420315397
 30
0.0
 10
273.5935208279
 20
261.4816313353
 30
0.0
 10
273.1361760667
 20
261.6562926311
 30
0.0
 10
272.7166458856
 20
261.9384275276
 30
0.0
 10
272.3508695351
 20
262.3156660176
 30
0.0
 10
272.051921489
 20
262.7733681597
 30
0.0
 10
271.7539410538
 20
263.4722698463
 30
0.0
 10
271.6635980803
 20
264.0540427279
 30
0.0
 10
271.6635201256
 20
264.4415790463
 30
0.0
  0
SPLINE
  5
387
100
AcDbEntity
  8
0
100
AcDbSpline
 62
9
  6
CONTINUOUS
 70
0
 71
3
 72
9
 73
5
 74
0
 42
0.0000001
 43
0.0000001
 44
0.0000000001
 40
0.0
 40
0.0
 40
0.0
 40
0.0
 40
0.5254273686
 40
1.0
 40
1.0
 40
1.0
 40
1.0
 10
268.4477738372
 20
261.7873244877
 30
0.0
 10
269.1581317546
 20
261.68595054
 30
0.0
 10
270.5138152519
 20
261.5170606321
 30
0.0
 10
271.8795284133
 20
261.4420483918
 30
0.0
 10
272.5276329972
 20
261.4417527356
 30
0.0
  0
SPLINE
  5
388
100
AcDbEntity
  8
0
100
AcDbSpline
 62
9
  6
CONTINUOUS
 70
0
 71
3
 72
9
 73
5
 74
0
 42
0.0000001
 43
0.0000001
 44
0.0000000001
 40
0.0
 40
0.0
 40
0.0
 40
0.0
 40
0.2603074148
 40
1.0
 40
1.0
 40
1.0
 40
1.0
 10
265.1401787932
 20
262.3341497349
 30
0.0
 10
265.4263766204
 20
262.2820489181
 30
0.0
 10
266.526403184
 20
262.085134707
 30
0.0
 10
267.629435694
 20
261.9041081066
 30
0.0
 10
268.4477738371
 20
261.7873244879
 30
0.0
  0
SPLINE
  5
389
100
AcDbEntity
  8
0
100
AcDbSpline
 62
9
  6
CONTINUOUS
 70
0
 71
3
 72
10
 73
6
 74
0
 42
0.0000001
 43
0.0000001
 44
0.0000000001
 40
0.0
 40
0.0
 40
0.0
 40
0.0
 40
0.237056102
 40
0.4912403391
 40
1.0
 40
1.0
 40
1.0
 40
1.0
 10
265.140206703
 20
262.3342067636
 30
0.0
 10
265.067200904
 20
262.4885304197
 30
0.0
 10
264.942849599
 20
262.8212742984
 30
0.0
 10
264.7723877179
 20
263.5219814556
 30
0.0
 10
264.725667375
 20
264.0737893771
 30
0.0
 10
264.7255936731
 20
264.4401833333
 30
0.0
  0
SPLINE
  5
38A
100
AcDbEntity
  8
0
100
AcDbSpline
 62
7
  6
CONTINUOUS
 70
0
 71
3
 72
9
 73
5
 74
0
 42
0.0000001
 43
0.0000001
 44
0.0000000001
 40
0.0
 40
0.0
 40
0.0
 40
0.0
 40
0.4954319419
 40
1.0
 40
1.0
 40
1.0
 40
1.0
 10
262.1593313204
 20
261.8035241808
 30
0.0
 10
261.6166285938
 20
261.7081224317
 30
0.0
 10
260.5187543326
 20
261.5301103171
 30
0.0
 10
259.4068370966
 20
261.4391148437
 30
0.0
 10
258.8456515624
 20
261.4390019579
 30
0.0
  0
SPLINE
  5
38B
100
AcDbEntity
  8
0
100
AcDbSpline
 62
7
  6
CONTINUOUS
 70
0
 71
3
 72
9
 73
5
 74
0
 42
0.0000001
 43
0.0000001
 44
0.0000000001
 40
0.0
 40
0.0
 40
0.0
 40
0.0
 40
0.2338293829
 40
1.0
 40
1.0
 40
1.0
 40
1.0
 10
265.1396690367
 20
262.3342425343
 30
0.0
 10
264.9064127507
 20
262.2986326236
 30
0.0
 10
263.9105480553
 20
262.1351489055
 30
0.0
 10
262.9208032297
 20
261.9373833793
 30
0.0
 10
262.1593313204
 20
261.8035241808
 30
0.0
  0
SPLINE
  5
38C
100
AcDbEntity
  8
0
100
AcDbSpline
 62
9
  6
CONTINUOUS
 70
0
 71
3
 72
10
 73
6
 74
0
 42
0.0000001
 43
0.0000001
 44
0.0000000001
 40
0.0
 40
0.0
 40
0.0
 40
0.0
 40
0.5087739639
 40
0.76295677
 40
1.0
 40
1.0
 40
1.0
 40
1.0
 10
244.107813826
 20
264.4360359684
 30
0.0
 10
244.1078875275
 20
264.0696440589
 30
0.0
 10
244.0614236172
 20
263.5178295836
 30
0.0
 10
243.8913614259
 20
262.8170516487
 30
0.0
 10
243.7672285744
 20
262.4842515885
 30
0.0
 10
243.6943322103
 20
262.3298928232
 30
0.0
  0
SPLINE
  5
38D
100
AcDbEntity
  8
0
100
AcDbSpline
 62
7
  6
CONTINUOUS
 70
0
 71
3
 72
9
 73
5
 74
0
 42
0.0000001
 43
0.0000001
 44
0.0000000001
 40
0.0
 40
0.0
 40
0.0
 40
0.0
 40
0.2641498587
 40
1.0
 40
1.0
 40
1.0
 40
1.0
 10
246.6758445019
 20
261.8004356819
 30
0.0
 10
246.4132667136
 20
261.8464815595
 30
0.0
 10
245.4205629817
 20
262.0280960965
 30
0.0
 10
244.429035914
 20
262.2181767261
 30
0.0
 10
243.6948595463
 20
262.32992692
 30
0.0
  0
SPLINE
  5
38E
100
AcDbEntity
  8
0
100
AcDbSpline
 62
7
  6
CONTINUOUS
 70
0
 71
3
 72
9
 73
5
 74
0
 42
0.0000001
 43
0.0000001
 44
0.0000000001
 40
0.0
 40
0.0
 40
0.0
 40
0.0
 40
0.5045265337
 40
1.0
 40
1.0
 40
1.0
 40
1.0
 10
249.9899498557
 20
261.4372205284
 30
0.0
 10
249.4287607886
 20
261.4371076432
 30
0.0
 10
248.3166764602
 20
261.5273003486
 30
0.0
 10
247.2186804811
 20
261.7052434754
 30
0.0
 10
246.6758445019
 20
261.8004356819
 30
0.0
  0
SPLINE
  5
38F
100
AcDbEntity
  8
0
100
AcDbSpline
 62
9
  6
CONTINUOUS
 70
0
 71
3
 72
11
 73
7
 74
0
 42
0.0000001
 43
0.0000001
 44
0.0000000001
 40
0.0
 40
0.0
 40
0.0
 40
0.0
 40
0.2242354519
 40
0.4643233354
 40
0.7252326978
 40
1.0
 40
1.0
 40
1.0
 40
1.0
 10
237.5684838416
 20
265.4347206929
 30
0.0
 10
237.515768524
 20
265.4347100882
 30
0.0
 10
237.4051873556
 20
265.4061782845
 30
0.0
 10
237.2728686559
 20
265.2911061652
 30
0.0
 10
237.1870734748
 20
265.1261497589
 30
0.0
 10
237.1675123379
 20
264.9992348286
 30
0.0
 10
237.1675253315
 20
264.9346400223
 30
0.0
  0
SPLINE
  5
390
100
AcDbEntity
  8
0
100
AcDbSpline
 62
7
  6
CONTINUOUS
 70
0
 71
3
 72
15
 73
11
 74
0
 42
0.0000001
 43
0.0000001
 44
0.0000000001
 40
0.0
 40
0.0
 40
0.0
 40
0.0
 40
0.1195500049
 40
0.2434185862
 40
0.370748548
 40
0.4999759916
 40
0.6292073356
 40
0.7565483555
 40
0.8804328757
 40
1.0
 40
1.0
 40
1.0
 40
1.0
 10
261.1302210921
 20
292.8343974516
 30
0.0
 10
260.7681133117
 20
293.3326431191
 30
0.0
 10
259.8946179485
 20
294.2540989866
 30
0.0
 10
258.2701834805
 20
295.2911084399
 30
0.0
 10
256.4035902796
 20
295.9434907486
 30
0.0
 10
254.4117514444
 20
296.1655063258
 30
0.0
 10
252.4199473006
 20
295.9426705662
 30
0.0
 10
250.5534631669
 20
295.2895019097
 30
0.0
 10
248.9292116015
 20
294.2517908423
 30
0.0
 10
248.0558915864
 20
293.3299387394
 30
0.0
 10
247.6938774296
 20
292.8315160289
 30
0.0
  0
SPLINE
  5
391
100
AcDbEntity
  8
0
100
AcDbSpline
 62
7
  6
CONTINUOUS
 70
0
 71
3
 72
15
 73
11
 74
0
 42
0.0000001
 43
0.0000001
 44
0.0000000001
 40
0.0
 40
0.0
 40
0.0
 40
0.0
 40
0.1226085574
 40
0.2470631603
 40
0.373082031
 40
0.4999912188
 40
0.6269018851
 40
0.7529248194
 40
0.8773850838
 40
1.0
 40
1.0
 40
1.0
 40
1.0
 10
264.3659458951
 20
295.1860107272
 30
0.0
 10
263.8138319257
 20
295.9456972297
 30
0.0
 10
262.5004673974
 20
297.3399452757
 30
0.0
 10
260.0767099006
 20
298.9015361368
 30
0.0
 10
257.3266258538
 20
299.8724065495
 30
0.0
 10
254.410998961
 20
300.2010077845
 30
0.0
 10
251.4954737729
 20
299.8712419068
 30
0.0
 10
248.7456841692
 20
298.8992945573
 30
0.0
 10
246.322376487
 20
297.3367910565
 30
0.0
 10
245.0093871281
 20
295.942071722
 30
0.0
 10
244.4574663163
 20
295.1821846794
 30
0.0
  0
SPLINE
  5
392
100
AcDbEntity
  8
0
100
AcDbSpline
 62
9
  6
CONTINUOUS
 70
0
 71
3
 72
9
 73
5
 74
0
 42
0.0000001
 43
0.0000001
 44
0.0000000001
 40
0.0
 40
0.0
 40
0.0
 40
0.0
 40
0.2723778198
 40
1.0
 40
1.0
 40
1.0
 40
1.0
 10
264.4152069761
 20
295.0179570046
 30
0.0
 10
264.4151970627
 20
295.0340018524
 30
0.0
 10
264.4118615885
 20
295.0927428596
 30
0.0
 10
264.3911444393
 20
295.1513385082
 30
0.0
 10
264.3659458954
 20
295.1860107276
 30
0.0
  0
SPLINE
  5
393
100
AcDbEntity
  8
0
100
AcDbSpline
 62
9
  6
CONTINUOUS
 70
0
 71
3
 72
9
 73
5
 74
0
 42
0.0000001
 43
0.0000001
 44
0.0000000001
 40
0.0
 40
0.0
 40
0.0
 40
0.0
 40
0.2361102141
 40
1.0
 40
1.0
 40
1.0
 40
1.0
 10
244.4574014737
 20
295.1820953601
 30
0.0
 10
244.4492230074
 20
295.1708240248
 30
0.0
 10
244.4187899357
 20
295.1199501441
 30
0.0
 10
244.4082851939
 20
295.0589870758
 30
0.0
 10
244.4083130311
 20
295.0139325221
 30
0.0
  0
SPLINE
  5
394
100
AcDbEntity
  8
0
100
AcDbSpline
 62
9
  6
CONTINUOUS
 70
0
 71
3
 72
21
 73
17
 74
0
 42
0.0000001
 43
0.0000001
 44
0.0000000001
 40
0.0
 40
0.0
 40
0.0
 40
0.0
 40
0.0387906229
 40
0.0873325096
 40
0.1457265533
 40
0.213084836
 40
0.3680413352
 40
0.5356742228
 40
0.6183366627
 40
0.6970354273
 40
0.7695927293
 40
0.8341108391
 40
0.8892455916
 40
0.9344044233
 40
0.9702920679
 40
1.0
 40
1.0
 40
1.0
 40
1.0
 10
244.4083130311
 20
295.0139325221
 30
0.0
 10
244.4083473016
 20
294.9584656622
 30
0.0
 10
244.4333096575
 20
294.8338950035
 30
0.0
 10
244.518331174
 20
294.6428509299
 30
0.0
 10
244.6519812075
 20
294.4316312461
 30
0.0
 10
244.9021839653
 20
294.1170993573
 30
0.0
 10
245.3039693206
 20
293.7273327004
 30
0.0
 10
245.7670672315
 20
293.3767413167
 30
0.0
 10
246.1668824433
 20
293.1282982851
 30
0.0
 10
246.4623098735
 20
292.9708653095
 30
0.0
 10
246.7450115172
 20
292.846413617
 30
0.0
 10
247.0060193089
 20
292.7588554771
 30
0.0
 10
247.2374618975
 20
292.7105191498
 30
0.0
 10
247.4332519152
 20
292.7029913149
 30
0.0
 10
247.590708956
 20
292.7374482532
 30
0.0
 10
247.6689134149
 20
292.7971459058
 30
0.0
 10
247.6938774292
 20
292.8315160293
 30
0.0
  0
SPLINE
  5
395
100
AcDbEntity
  8
0
100
AcDbSpline
 62
9
  6
CONTINUOUS
 70
0
 71
3
 72
21
 73
17
 74
0
 42
0.0000001
 43
0.0000001
 44
0.0000000001
 40
0.0
 40
0.0
 40
0.0
 40
0.0
 40
0.0297287221
 40
0.0655729882
 40
0.1106799316
 40
0.1657780137
 40
0.2302629202
 40
0.302765209
 40
0.3814289385
 40
0.4640825554
 40
0.6317712197
 40
0.7867993454
 40
0.8542168651
 40
0.9126482278
 40
0.961182217
 40
1.0
 40
1.0
 40
1.0
 40
1.0
 10
261.1302860378
 20
292.8343081338
 30
0.0
 10
261.1552967336
 20
292.7999285419
 30
0.0
 10
261.2334496936
 20
292.7402018736
 30
0.0
 10
261.3908573246
 20
292.7058776862
 30
0.0
 10
261.5864675014
 20
292.7132922552
 30
0.0
 10
261.8177858933
 20
292.7615727508
 30
0.0
 10
262.0786584838
 20
292.8490694949
 30
0.0
 10
262.3612476871
 20
292.9734393745
 30
0.0
 10
262.65657804
 20
293.1308452621
 30
0.0
 10
263.056435297
 20
293.3793658493
 30
0.0
 10
263.5196724978
 20
293.7301816561
 30
0.0
 10
263.9215887002
 20
294.1203054659
 30
0.0
 10
264.171843013
 20
294.4351711226
 30
0.0
 10
264.3054658542
 20
294.6465964754
 30
0.0
 10
264.3904112344
 20
294.8377961052
 30
0.0
 10
264.4152412749
 20
294.9624442851
 30
0.0
 10
264.4152069761
 20
295.0179570046
 30
0.0
  0
SPLINE
  5
396
100
AcDbEntity
  8
0
100
AcDbSpline
 62
9
  6
CONTINUOUS
 70
0
 71
3
 72
10
 73
6
 74
0
 42
0.0000001
 43
0.0000001
 44
0.0000000001
 40
0.0
 40
0.0
 40
0.0
 40
0.0
 40
0.2407724992
 40
0.4841233233
 40
1.0
 40
1.0
 40
1.0
 40
1.0
 10
226.0721696634
 20
263.0626521024
 30
0.0
 10
226.0552184758
 20
263.0392904459
 30
0.0
 10
226.011761826
 20
262.9986013785
 30
0.0
 10
225.9016078082
 20
262.9481781374
 30
0.0
 10
225.8088415733
 20
262.9388552593
 30
0.0
 10
225.7469986353
 20
262.9388428174
 30
0.0
  0
SPLINE
  5
397
100
AcDbEntity
  8
0
100
AcDbSpline
 62
9
  6
CONTINUOUS
 70
0
 71
3
 72
10
 73
6
 74
0
 42
0.0000001
 43
0.0000001
 44
0.0000000001
 40
0.0
 40
0.0
 40
0.0
 40
0.0
 40
0.5158601441
 40
0.7592294517
 40
1.0
 40
1.0
 40
1.0
 40
1.0
 10
283.0845333904
 20
262.9503765361
 30
0.0
 10
283.0226465734
 20
262.9503640892
 30
0.0
 10
282.9298109539
 20
262.9596528556
 30
0.0
 10
282.8195392358
 20
263.0100272666
 30
0.0
 10
282.7760049505
 20
263.0506971192
 30
0.0
 10
282.759012453
 20
263.0740549312
 30
0.0
  0
SPLINE
  5
398
100
AcDbEntity
  8
0
100
AcDbSpline
 62
9
  6
CONTINUOUS
 70
0
 71
3
 72
9
 73
5
 74
0
 42
0.0000001
 43
0.0000001
 44
0.0000000001
 40
0.0
 40
0.0
 40
0.0
 40
0.0
 40
0.2434519148
 40
1.0
 40
1.0
 40
1.0
 40
1.0
 10
283.0845333903
 20
262.9503765362
 30
0.0
 10
283.1888406207
 20
262.8068540038
 30
0.0
 10
283.5970776341
 20
262.2028162775
 30
0.0
 10
283.9227918478
 20
261.5436327934
 30
0.0
 10
284.1194484123
 20
261.0285412785
 30
0.0
  0
SPLINE
  5
399
100
AcDbEntity
  8
0
100
AcDbSpline
 62
9
  6
CONTINUOUS
 70
0
 71
3
 72
9
 73
5
 74
0
 42
0.0000001
 43
0.0000001
 44
0.0000000001
 40
0.0
 40
0.0
 40
0.0
 40
0.0
 40
0.5007745993
 40
1.0
 40
1.0
 40
1.0
 40
1.0
 10
284.1194484123
 20
261.0285412785
 30
0.0
 10
284.3184736391
 20
260.5072456591
 30
0.0
 10
284.6169904043
 20
259.4261496027
 30
0.0
 10
284.7161124043
 20
258.3097175552
 30
0.0
 10
284.7162243007
 20
257.7534472248
 30
0.0
  0
SPLINE
  5
39A
100
AcDbEntity
  8
0
100
AcDbSpline
 62
9
  6
CONTINUOUS
 70
0
 71
3
 72
19
 73
15
 74
0
 42
0.0000001
 43
0.0000001
 44
0.0000000001
 40
0.0
 40
0.0
 40
0.0
 40
0.0
 40
0.0259304668
 40
0.0586850922
 40
0.1026720565
 40
0.1602826627
 40
0.232364402
 40
0.3166346747
 40
0.4095051496
 40
0.5056788513
 40
0.6872315292
 40
0.8321827575
 40
0.9338568651
 40
1.0
 40
1.0
 40
1.0
 40
1.0
 10
285.9946073649
 20
265.425846843
 30
0.0
 10
286.0154938843
 20
265.3971363257
 30
0.0
 10
286.0472692961
 20
265.320159979
 30
0.0
 10
286.044280077
 20
265.1768775187
 30
0.0
 10
285.9895413778
 20
264.9997040694
 30
0.0
 10
285.8780610952
 20
264.7885407362
 30
0.0
 10
285.7065191915
 20
264.5502382977
 30
0.0
 10
285.4804396469
 20
264.294023014
 30
0.0
 10
285.2090282671
 20
264.0357855616
 30
0.0
 10
284.8174820864
 20
263.7125388216
 30
0.0
 10
284.3359471616
 20
263.3884264382
 30
0.0
 10
283.8113008345
 20
263.1228896384
 30
0.0
 10
283.4044617526
 20
262.9847306303
 30
0.0
 10
283.1750968139
 20
262.9503947506
 30
0.0
 10
283.0845333903
 20
262.9503765362
 30
0.0
  0
SPLINE
  5
39B
100
AcDbEntity
  8
0
100
AcDbSpline
 62
9
  6
CONTINUOUS
 70
0
 71
3
 72
9
 73
5
 74
0
 42
0.0000001
 43
0.0000001
 44
0.0000000001
 40
0.0
 40
0.0
 40
0.0
 40
0.0
 40
0.4992226463
 40
1.0
 40
1.0
 40
1.0
 40
1.0
 10
224.1170199969
 20
257.7412574056
 30
0.0
 10
224.1169080866
 20
258.297596535
 30
0.0
 10
224.2156294303
 20
259.4142142137
 30
0.0
 10
224.5138537035
 20
260.4955462214
 30
0.0
 10
224.7127601881
 20
261.0169676045
 30
0.0
  0
SPLINE
  5
39C
100
AcDbEntity
  8
0
100
AcDbSpline
 62
9
  6
CONTINUOUS
 70
0
 71
3
 72
9
 73
5
 74
0
 42
0.0000001
 43
0.0000001
 44
0.0000000001
 40
0.0
 40
0.0
 40
0.0
 40
0.0
 40
0.2563585692
 40
1.0
 40
1.0
 40
1.0
 40
1.0
 10
224.7127601881
 20
261.0169676045
 30
0.0
 10
224.7793401056
 20
261.1915028528
 30
0.0
 10
225.0605287022
 20
261.8638809922
 30
0.0
 10
225.4285557929
 20
262.5004092877
 30
0.0
 10
225.7469986352
 20
262.9388428174
 30
0.0
  0
SPLINE
  5
39D
100
AcDbEntity
  8
0
100
AcDbSpline
 62
9
  6
CONTINUOUS
 70
0
 71
3
 72
19
 73
15
 74
0
 42
0.0000001
 43
0.0000001
 44
0.0000000001
 40
0.0
 40
0.0
 40
0.0
 40
0.0
 40
0.0661132098
 40
0.1677604911
 40
0.3126953723
 40
0.494249949
 40
0.5904325161
 40
0.6833163098
 40
0.7676028479
 40
0.8397014771
 40
0.8973267816
 40
0.9413232169
 40
0.9740787925
 40
1.0
 40
1.0
 40
1.0
 40
1.0
 10
225.7469986353
 20
262.9388428174
 30
0.0
 10
225.6564800578
 20
262.9388246064
 30
0.0
 10
225.427190083
 20
262.9730763646
 30
0.0
 10
225.0204241019
 20
263.1110783556
 30
0.0
 10
224.49576654
 20
263.3764099935
 30
0.0
 10
224.0141390548
 20
263.7003227501
 30
0.0
 10
223.6224420171
 20
264.0234036657
 30
0.0
 10
223.3508770907
 20
264.2815319129
 30
0.0
 10
223.1246200346
 20
264.5376549158
 30
0.0
 10
222.9528903262
 20
264.7758857994
 30
0.0
 10
222.8412195844
 20
264.9869986858
 30
0.0
 10
222.7862977214
 20
265.1641397907
 30
0.0
 10
222.7831254606
 20
265.3074094422
 30
0.0
 10
222.8147861768
 20
265.3844172983
 30
0.0
 10
222.8356288652
 20
265.4131421132
 30
0.0
  0
SPLINE
  5
39E
100
AcDbEntity
  8
0
100
AcDbSpline
 62
7
  6
CONTINUOUS
 70
0
 71
3
 72
9
 73
5
 74
0
 42
0.0000001
 43
0.0000001
 44
0.0000000001
 40
0.0
 40
0.0
 40
0.0
 40
0.0
 40
0.2446076832
 40
1.0
 40
1.0
 40
1.0
 40
1.0
 10
264.5865048277
 20
429.4494295488
 30
0.0
 10
264.5615029148
 20
429.4571004505
 30
0.0
 10
264.460569402
 20
429.4925193722
 30
0.0
 10
264.3655777764
 20
429.5446146891
 30
0.0
 10
264.2997676054
 20
429.5914296325
 30
0.0
  0
SPLINE
  5
39F
100
AcDbEntity
  8
0
100
AcDbSpline
 62
7
  6
CONTINUOUS
 70
0
 71
3
 72
9
 73
5
 74
0
 42
0.0000001
 43
0.0000001
 44
0.0000000001
 40
0.0
 40
0.0
 40
0.0
 40
0.0
 40
0.519342951
 40
1.0
 40
1.0
 40
1.0
 40
1.0
 10
264.2997676054
 20
429.5914296325
 30
0.0
 10
264.1668382819
 20
429.6859906805
 30
0.0
 10
263.9531439574
 20
429.9360079562
 30
0.0
 10
263.8790613364
 20
430.2542527803
 30
0.0
 10
263.8798539286
 20
430.4052308337
 30
0.0
  0
SPLINE
  5
3A0
100
AcDbEntity
  8
0
100
AcDbSpline
 62
7
  6
CONTINUOUS
 70
0
 71
3
 72
9
 73
5
 74
0
 42
0.0000001
 43
0.0000001
 44
0.0000000001
 40
0.0
 40
0.0
 40
0.0
 40
0.0
 40
0.2446084439
 40
1.0
 40
1.0
 40
1.0
 40
1.0
 10
242.6772525529
 20
411.4450354676
 30
0.0
 10
242.7022503652
 20
411.4527173811
 30
0.0
 10
242.8031650508
 20
411.4881804141
 30
0.0
 10
242.8981307654
 20
411.5403161407
 30
0.0
 10
242.9639183993
 20
411.5871585155
 30
0.0
  0
SPLINE
  5
3A1
100
AcDbEntity
  8
0
100
AcDbSpline
 62
7
  6
CONTINUOUS
 70
0
 71
3
 72
9
 73
5
 74
0
 42
0.0000001
 43
0.0000001
 44
0.0000000001
 40
0.0
 40
0.0
 40
0.0
 40
0.0
 40
0.5198228816
 40
1.0
 40
1.0
 40
1.0
 40
1.0
 10
242.9976588624
 20
411.6122474165
 30
0.0
 10
243.1210429019
 20
411.7080224575
 30
0.0
 10
243.3169043075
 20
411.9527461441
 30
0.0
 10
243.3842905994
 20
412.2568286613
 30
0.0
 10
243.3834751292
 20
412.4011075252
 30
0.0
  0
SPLINE
  5
3A2
100
AcDbEntity
  8
0
100
AcDbSpline
 62
7
  6
CONTINUOUS
 70
0
 71
3
 72
9
 73
5
 74
0
 42
0.0000001
 43
0.0000001
 44
0.0000000001
 40
0.0
 40
0.0
 40
0.0
 40
0.0
 40
0.2446084439
 40
1.0
 40
1.0
 40
1.0
 40
1.0
 10
266.0900818401
 20
411.449745072
 30
0.0
 10
266.0650809393
 20
411.4574169281
 30
0.0
 10
265.9641519948
 20
411.4928393592
 30
0.0
 10
265.8691653131
 20
411.544936876
 30
0.0
 10
265.8033588395
 20
411.59175278
 30
0.0
  0
SPLINE
  5
3A3
100
AcDbEntity
  8
0
100
AcDbSpline
 62
7
  6
CONTINUOUS
 70
0
 71
3
 72
9
 73
5
 74
0
 42
0.0000001
 43
0.0000001
 44
0.0000000001
 40
0.0
 40
0.0
 40
0.0
 40
0.0
 40
0.5193434204
 40
1.0
 40
1.0
 40
1.0
 40
1.0
 10
265.8033588395
 20
411.59175278
 30
0.0
 10
265.6704377902
 20
411.6863151951
 30
0.0
 10
265.4567589074
 20
411.9363280399
 30
0.0
 10
265.3826821223
 20
412.2545606666
 30
0.0
 10
265.3834746841
 20
412.4055329296
 30
0.0
  0
SPLINE
  5
3A4
100
AcDbEntity
  8
0
100
AcDbSpline
 62
7
  6
CONTINUOUS
 70
0
 71
3
 72
9
 73
5
 74
0
 42
0.0000001
 43
0.0000001
 44
0.0000000001
 40
0.0
 40
0.0
 40
0.0
 40
0.0
 40
0.2446070967
 40
1.0
 40
1.0
 40
1.0
 40
1.0
 10
241.1807954116
 20
393.4447101497
 30
0.0
 10
241.205795034
 20
393.4523903619
 30
0.0
 10
241.3067178836
 20
393.487847139
 30
0.0
 10
241.4016924255
 20
393.5399789613
 30
0.0
 10
241.4674866563
 20
393.5868196378
 30
0.0
  0
SPLINE
  5
3A5
100
AcDbEntity
  8
0
100
AcDbSpline
 62
7
  6
CONTINUOUS
 70
0
 71
3
 72
9
 73
5
 74
0
 42
0.0000001
 43
0.0000001
 44
0.0000000001
 40
0.0
 40
0.0
 40
0.0
 40
0.0
 40
0.5193426249
 40
1.0
 40
1.0
 40
1.0
 40
1.0
 10
241.4674866563
 20
393.5868196378
 30
0.0
 10
241.6003843965
 20
393.6814331015
 30
0.0
 10
241.8139901738
 20
393.9315397967
 30
0.0
 10
241.8879493043
 20
394.2498239254
 30
0.0
 10
241.8870959454
 20
394.4008061567
 30
0.0
  0
SPLINE
  5
3A6
100
AcDbEntity
  8
0
100
AcDbSpline
 62
7
  6
CONTINUOUS
 70
0
 71
3
 72
9
 73
5
 74
0
 42
0.0000001
 43
0.0000001
 44
0.0000000001
 40
0.0
 40
0.0
 40
0.0
 40
0.0
 40
0.2446070967
 40
1.0
 40
1.0
 40
1.0
 40
1.0
 10
267.5937805602
 20
393.4500232487
 30
0.0
 10
267.5687778501
 20
393.4576934027
 30
0.0
 10
267.4678407445
 20
393.4931095749
 30
0.0
 10
267.3728452375
 20
393.5452031839
 30
0.0
 10
267.3070321679
 20
393.592017387
 30
0.0
  0
SPLINE
  5
3A7
100
AcDbEntity
  8
0
100
AcDbSpline
 62
7
  6
CONTINUOUS
 70
0
 71
3
 72
9
 73
5
 74
0
 42
0.0000001
 43
0.0000001
 44
0.0000000001
 40
0.0
 40
0.0
 40
0.0
 40
0.0
 40
0.5193426249
 40
1.0
 40
1.0
 40
1.0
 40
1.0
 10
267.3070321679
 20
393.592017387
 30
0.0
 10
267.1740963752
 20
393.6865773768
 30
0.0
 10
266.9603899959
 20
393.9365981155
 30
0.0
 10
266.8863028226
 20
394.2548524627
 30
0.0
 10
266.8870954396
 20
394.4058350245
 30
0.0
  0
SPLINE
  5
3A8
100
AcDbEntity
  8
0
100
AcDbSpline
 62
7
  6
CONTINUOUS
 70
0
 71
3
 72
9
 73
5
 74
0
 42
0.0000001
 43
0.0000001
 44
0.0000000001
 40
0.0
 40
0.0
 40
0.0
 40
0.0
 40
0.2446076833
 40
1.0
 40
1.0
 40
1.0
 40
1.0
 10
244.1735879986
 20
429.4453233936
 30
0.0
 10
244.1985868233
 20
429.4530043532
 30
0.0
 10
244.2995060787
 20
429.4884638784
 30
0.0
 10
244.3944767381
 20
429.5405974071
 30
0.0
 10
244.4602680698
 20
429.5874388227
 30
0.0
  0
SPLINE
  5
3A9
100
AcDbEntity
  8
0
100
AcDbSpline
 62
7
  6
CONTINUOUS
 70
0
 71
3
 72
9
 73
5
 74
0
 42
0.0000001
 43
0.0000001
 44
0.0000000001
 40
0.0
 40
0.0
 40
0.0
 40
0.0
 40
0.5193429509
 40
1.0
 40
1.0
 40
1.0
 40
1.0
 10
244.4602680698
 20
429.5874388227
 30
0.0
 10
244.5931593397
 20
429.6820533416
 30
0.0
 10
244.8067530627
 20
429.9321565679
 30
0.0
 10
244.880707645
 20
430.2504311702
 30
0.0
 10
244.8798543131
 20
430.4014088925
 30
0.0
  0
SPLINE
  5
3AA
100
AcDbEntity
  8
0
100
AcDbSpline
 62
9
  6
CONTINUOUS
 70
0
 71
3
 72
16
 73
12
 74
0
 42
0.0000001
 43
0.0000001
 44
0.0000000001
 40
0.0
 40
0.0
 40
0.0
 40
0.0
 40
0.00472908
 40
0.0176253605
 40
0.0395638702
 40
0.0711609551
 40
0.1641390155
 40
0.2935679155
 40
0.4535348781
 40
0.6326733251
 40
1.0
 40
1.0
 40
1.0
 40
1.0
 10
254.03425246
 20
393.4032332863
 30
0.0
 10
254.0358309216
 20
393.4032391877
 30
0.0
 10
254.0373393309
 20
393.4113242231
 30
0.0
 10
254.039675212
 20
393.4221214736
 30
0.0
 10
254.0418189292
 20
393.4454764056
 30
0.0
 10
254.045464761
 20
393.4934306594
 30
0.0
 10
254.0492228103
 20
393.578762121
 30
0.0
 10
254.0532051636
 20
393.7060314398
 30
0.0
 10
254.0563399158
 20
393.8624997113
 30
0.0
 10
254.0594557275
 20
394.0982287633
 30
0.0
 10
254.0602448149
 20
394.2806482823
 30
0.0
 10
254.0602026746
 20
394.4032545948
 30
0.0
  0
SPLINE
  5
3AB
100
AcDbEntity
  8
0
100
AcDbSpline
 62
9
  6
CONTINUOUS
 70
0
 71
3
 72
16
 73
12
 74
0
 42
0.0000001
 43
0.0000001
 44
0.0000000001
 40
0.0
 40
0.0
 40
0.0
 40
0.0
 40
0.0048956994
 40
0.0178526669
 40
0.0398222287
 40
0.0714345527
 40
0.1644122148
 40
0.2938127286
 40
0.4537309118
 40
0.6328079042
 40
1.0
 40
1.0
 40
1.0
 40
1.0
 10
254.0267707145
 20
411.4032321647
 30
0.0
 10
254.0284054006
 20
411.4032374439
 30
0.0
 10
254.0304389919
 20
411.4111189668
 30
0.0
 10
254.0328266709
 20
411.4221931475
 30
0.0
 10
254.0354275303
 20
411.4454184185
 30
0.0
 10
254.0394732441
 20
411.4934599768
 30
0.0
 10
254.0438278903
 20
411.578726892
 30
0.0
 10
254.0483236613
 20
411.7060327983
 30
0.0
 10
254.0519068685
 20
411.8624923887
 30
0.0
 10
254.0554515522
 20
412.0982263464
 30
0.0
 10
254.056356207
 20
412.2806472285
 30
0.0
 10
254.056311667
 20
412.4032542052
 30
0.0
  0
SPLINE
  5
3AC
100
AcDbEntity
  8
0
100
AcDbSpline
 62
9
  6
CONTINUOUS
 70
0
 71
3
 72
16
 73
12
 74
0
 42
0.0000001
 43
0.0000001
 44
0.0000000001
 40
0.0
 40
0.0
 40
0.0
 40
0.0
 40
0.0051367458
 40
0.0181847041
 40
0.0402011134
 40
0.0718366275
 40
0.1648145346
 40
0.294173597
 40
0.4540200268
 40
0.633006449
 40
1.0
 40
1.0
 40
1.0
 40
1.0
 10
254.0181611553
 20
429.4032308277
 30
0.0
 10
254.0198772747
 20
429.4032353698
 30
0.0
 10
254.0225477913
 20
429.4108428224
 30
0.0
 10
254.0250763828
 20
429.4222798087
 30
0.0
 10
254.0282385865
 20
429.4453413228
 30
0.0
 10
254.0328369925
 20
429.4934933155
 30
0.0
 10
254.0379566864
 20
429.5786787942
 30
0.0
 10
254.0431376776
 20
429.7060321374
 30
0.0
 10
254.047307448
 20
429.8624815362
 30
0.0
 10
254.0514178111
 20
430.0982220214
 30
0.0
 10
254.05247398
 20
430.2806456582
 30
0.0
 10
254.0524262823
 20
430.4032538169
 30
0.0
  0
SPLINE
  5
3AD
100
AcDbEntity
  8
0
100
AcDbSpline
 62
7
  6
CONTINUOUS
 70
0
 71
3
 72
8
 73
4
 74
0
 42
0.0000001
 43
0.0000001
 44
0.0000000001
 40
0.0
 40
0.0
 40
0.0
 40
0.0
 40
1.0
 40
1.0
 40
1.0
 40
1.0
 10
302.3779463257
 20
-56.7511320877
 30
0.0
 10
302.5845885219
 20
-56.6458776588
 30
0.0
 10
302.7754455179
 20
-56.5021852969
 30
0.0
 10
302.9338328395
 20
-56.3327953669
 30
0.0
  0
SPLINE
  5
3AE
100
AcDbEntity
  8
0
100
AcDbSpline
 62
7
  6
CONTINUOUS
 70
0
 71
3
 72
9
 73
5
 74
0
 42
0.0000001
 43
0.0000001
 44
0.0000000001
 40
0.0
 40
0.0
 40
0.0
 40
0.0
 40
0.5000001358
 40
1.0
 40
1.0
 40
1.0
 40
1.0
 10
205.4124421529
 20
243.2346927334
 30
0.0
 10
205.4123582124
 20
243.6519856482
 30
0.0
 10
205.6885003699
 20
244.5092588864
 30
0.0
 10
206.4273616715
 20
245.0243015568
 30
0.0
 10
206.8263961113
 20
245.1463864059
 30
0.0
  0
SPLINE
  5
3AF
100
AcDbEntity
  8
0
100
AcDbSpline
 62
7
  6
CONTINUOUS
 70
0
 71
3
 72
9
 73
5
 74
0
 42
0.0000001
 43
0.0000001
 44
0.0000000001
 40
0.0
 40
0.0
 40
0.0
 40
0.0
 40
0.5000000618
 40
1.0
 40
1.0
 40
1.0
 40
1.0
 10
301.9976958584
 20
245.1655365756
 30
0.0
 10
302.3967797092
 20
245.0436125123
 30
0.0
 10
303.1358532036
 20
244.5288801239
 30
0.0
 10
303.4123545037
 20
243.6717187854
 30
0.0
 10
303.412438444
 20
243.2544259578
 30
0.0
  0
SPLINE
  5
3B0
100
AcDbEntity
  8
0
100
AcDbSpline
 62
7
  6
CONTINUOUS
 70
0
 71
3
 72
18
 73
14
 74
0
 42
0.0000001
 43
0.0000001
 44
0.0000000001
 40
0.0
 40
0.0
 40
0.0
 40
0.0
 40
0.0054290216
 40
0.0200151977
 40
0.0439838959
 40
0.0770894998
 40
0.1190305665
 40
0.1694781047
 40
0.29374866
 40
0.4450522651
 40
0.6177450875
 40
0.8054205359
 40
1.0
 40
1.0
 40
1.0
 40
1.0
 10
235.3752725566
 20
-59.2262019313
 30
0.0
 10
235.3752691757
 20
-59.2223961186
 30
0.0
 10
235.3949588661
 20
-59.2194046161
 30
0.0
 10
235.4199069482
 20
-59.2139645318
 30
0.0
 10
235.4730022643
 20
-59.2095640975
 30
0.0
 10
235.5409055562
 20
-59.2044715364
 30
0.0
 10
235.629260628
 20
-59.1997835143
 30
0.0
 10
235.7807688605
 20
-59.1932215985
 30
0.0
 10
236.0093620192
 20
-59.1862580571
 30
0.0
 10
236.323475463
 20
-59.1796266352
 30
0.0
 10
236.6821522158
 20
-59.1746578717
 30
0.0
 10
237.0711610697
 20
-59.1715652206
 30
0.0
 10
237.3391285242
 20
-59.1708250351
 30
0.0
 10
237.475531237
 20
-59.1707975971
 30
0.0
  0
SPLINE
  5
3B1
100
AcDbEntity
  8
0
100
AcDbSpline
 62
7
  6
CONTINUOUS
 70
0
 71
3
 72
18
 73
14
 74
0
 42
0.0000001
 43
0.0000001
 44
0.0000000001
 40
0.0
 40
0.0
 40
0.0
 40
0.0
 40
0.0054290216
 40
0.0200151977
 40
0.0439838959
 40
0.0770894998
 40
0.1190305665
 40
0.1694781047
 40
0.29374866
 40
0.4450522651
 40
0.6177450875
 40
0.8054205359
 40
1.0
 40
1.0
 40
1.0
 40
1.0
 10
269.3752712713
 20
-59.2193626692
 30
0.0
 10
269.3752678904
 20
-59.2155568565
 30
0.0
 10
269.3949575807
 20
-59.2125653539
 30
0.0
 10
269.4199056629
 20
-59.2071252697
 30
0.0
 10
269.473000979
 20
-59.2027248354
 30
0.0
 10
269.5409042709
 20
-59.1976322742
 30
0.0
 10
269.6292593427
 20
-59.1929442521
 30
0.0
 10
269.7807675751
 20
-59.1863823364
 30
0.0
 10
270.0093607338
 20
-59.179418795
 30
0.0
 10
270.3234741777
 20
-59.172787373
 30
0.0
 10
270.6821509305
 20
-59.1678186096
 30
0.0
 10
271.0711597843
 20
-59.1647259585
 30
0.0
 10
271.3391272388
 20
-59.163985773
 30
0.0
 10
271.4755299517
 20
-59.1639583349
 30
0.0
  0
SPLINE
  5
3B2
100
AcDbEntity
  8
0
100
AcDbSpline
 62
7
  6
CONTINUOUS
 70
0
 71
3
 72
21
 73
17
 74
0
 42
0.0000001
 43
0.0000001
 44
0.0000000001
 40
0.0
 40
0.0
 40
0.0
 40
0.0
 40
0.0017562387
 40
0.0055771543
 40
0.0117108841
 40
0.0201895837
 40
0.0441281081
 40
0.0772259354
 40
0.1191940416
 40
0.1696124759
 40
0.2280261142
 40
0.2938587349
 40
0.4452233749
 40
0.6178515326
 40
0.8052357387
 40
1.0
 40
1.0
 40
1.0
 40
1.0
 10
242.2284061331
 20
-58.779865418
 30
0.0
 10
242.2284030072
 20
-58.7726823919
 30
0.0
 10
242.2523460031
 20
-58.7575982624
 30
0.0
 10
242.2950602168
 20
-58.7459161284
 30
0.0
 10
242.3707653334
 20
-58.7299958912
 30
0.0
 10
242.5258355608
 20
-58.7081026106
 30
0.0
 10
242.7933995133
 20
-58.6818500953
 30
0.0
 10
243.1969601179
 20
-58.6534507856
 30
0.0
 10
243.7096048688
 20
-58.6256589789
 30
0.0
 10
244.3257614981
 20
-58.5990933368
 30
0.0
 10
245.039726845
 20
-58.5740844579
 30
0.0
 10
246.1665092321
 20
-58.5416698092
 30
0.0
 10
247.7605734207
 20
-58.5082260963
 30
0.0
 10
249.8519175914
 20
-58.4791979078
 30
0.0
 10
252.1208972989
 20
-58.4611104826
 30
0.0
 10
253.6838887532
 20
-58.4568335694
 30
0.0
 10
254.4804757094
 20
-58.4566733321
 30
0.0
  0
SPLINE
  5
3B3
100
AcDbEntity
  8
0
100
AcDbSpline
 62
7
  6
CONTINUOUS
 70
0
 71
3
 72
18
 73
14
 74
0
 42
0.0000001
 43
0.0000001
 44
0.0000000001
 40
0.0
 40
0.0
 40
0.0
 40
0.0
 40
0.0054290216
 40
0.0200151976
 40
0.0439838958
 40
0.0770894998
 40
0.1190305665
 40
0.1694781047
 40
0.2937486599
 40
0.4450522651
 40
0.6177450874
 40
0.8054205358
 40
1.0
 40
1.0
 40
1.0
 40
1.0
 10
235.3814653343
 20
-58.3361850786
 30
0.0
 10
235.3814619533
 20
-58.3323792659
 30
0.0
 10
235.4011516437
 20
-58.3293877633
 30
0.0
 10
235.4260997258
 20
-58.3239476791
 30
0.0
 10
235.4791950419
 20
-58.3195472448
 30
0.0
 10
235.5470983338
 20
-58.3144546836
 30
0.0
 10
235.6354534056
 20
-58.3097666615
 30
0.0
 10
235.786961638
 20
-58.3032047458
 30
0.0
 10
236.0155547968
 20
-58.2962412044
 30
0.0
 10
236.3296682406
 20
-58.2896097824
 30
0.0
 10
236.6883449934
 20
-58.284641019
 30
0.0
 10
237.0773538473
 20
-58.2815483679
 30
0.0
 10
237.3453213018
 20
-58.2808081824
 30
0.0
 10
237.4817240147
 20
-58.2807807443
 30
0.0
  0
SPLINE
  5
3B4
100
AcDbEntity
  8
0
100
AcDbSpline
 62
7
  6
CONTINUOUS
 70
0
 71
3
 72
18
 73
14
 74
0
 42
0.0000001
 43
0.0000001
 44
0.0000000001
 40
0.0
 40
0.0
 40
0.0
 40
0.0
 40
0.0054290216
 40
0.0200151976
 40
0.0439838958
 40
0.0770894998
 40
0.1190305665
 40
0.1694781047
 40
0.2937486599
 40
0.4450522651
 40
0.6177450874
 40
0.8054205358
 40
1.0
 40
1.0
 40
1.0
 40
1.0
 10
269.3814640489
 20
-58.3293458164
 30
0.0
 10
269.381460668
 20
-58.3255400037
 30
0.0
 10
269.4011503584
 20
-58.3225485012
 30
0.0
 10
269.4260984405
 20
-58.3171084169
 30
0.0
 10
269.4791937566
 20
-58.3127079826
 30
0.0
 10
269.5470970484
 20
-58.3076154215
 30
0.0
 10
269.6354521202
 20
-58.3029273994
 30
0.0
 10
269.7869603527
 20
-58.2963654837
 30
0.0
 10
270.0155535114
 20
-58.2894019422
 30
0.0
 10
270.3296669553
 20
-58.2827705203
 30
0.0
 10
270.6883437081
 20
-58.2778017568
 30
0.0
 10
271.077352562
 20
-58.2747091057
 30
0.0
 10
271.3453200164
 20
-58.2739689202
 30
0.0
 10
271.4817227293
 20
-58.2739414822
 30
0.0
  0
SPLINE
  5
3B5
100
AcDbEntity
  8
0
100
AcDbSpline
 62
7
  6
CONTINUOUS
 70
0
 71
3
 72
9
 73
5
 74
0
 42
0.0000001
 43
0.0000001
 44
0.0000000001
 40
0.0
 40
0.0
 40
0.0
 40
0.0
 40
0.4996715476
 40
1.0
 40
1.0
 40
1.0
 40
1.0
 10
302.2456930558
 20
-56.7210822742
 30
0.0
 10
301.6278099248
 20
-57.0273935602
 30
0.0
 10
300.5020931574
 20
-57.9056809232
 30
0.0
 10
299.85210685
 20
-59.1752762357
 30
0.0
 10
299.6634619865
 20
-59.839558283
 30
0.0
  0
SPLINE
  5
3B6
100
AcDbEntity
  8
0
100
AcDbSpline
 62
7
  6
CONTINUOUS
 70
0
 71
3
 72
9
 73
5
 74
0
 42
0.0000001
 43
0.0000001
 44
0.0000000001
 40
0.0
 40
0.0
 40
0.0
 40
0.0
 40
0.5000069465
 40
1.0
 40
1.0
 40
1.0
 40
1.0
 10
205.4124427415
 20
243.2317662679
 30
0.0
 10
205.4123587124
 20
243.6493190458
 30
0.0
 10
205.6883856537
 20
244.5070301316
 30
0.0
 10
206.4273315951
 20
245.0230424568
 30
0.0
 10
206.8265951997
 20
245.1452276229
 30
0.0
  0
SPLINE
  5
3B7
100
AcDbEntity
  8
0
100
AcDbSpline
 62
7
  6
CONTINUOUS
 70
0
 71
3
 72
8
 73
4
 74
0
 42
0.0000001
 43
0.0000001
 44
0.0000000001
 40
0.0
 40
0.0
 40
0.0
 40
0.0
 40
1.0
 40
1.0
 40
1.0
 40
1.0
 10
206.617042388
 20
-56.7002038554
 30
0.0
 10
206.3912503374
 20
-56.5933599009
 30
0.0
 10
206.1825071815
 20
-56.4407074079
 30
0.0
 10
206.0117481728
 20
-56.2583916333
 30
0.0
  0
SPLINE
  5
3B8
100
AcDbEntity
  8
0
100
AcDbSpline
 62
7
  6
CONTINUOUS
 70
0
 71
3
 72
8
 73
4
 74
0
 42
0.0000001
 43
0.0000001
 44
0.0000000001
 40
0.0
 40
0.0
 40
0.0
 40
0.0
 40
1.0
 40
1.0
 40
1.0
 40
1.0
 10
206.0117481728
 20
-56.2583916333
 30
0.0
 10
205.8419795472
 20
-56.0771332697
 30
0.0
 10
205.7044146206
 20
-55.8599233404
 30
0.0
 10
205.6131105464
 20
-55.628969781
 30
0.0
  0
SPLINE
  5
3B9
100
AcDbEntity
  8
0
100
AcDbSpline
 62
7
  6
CONTINUOUS
 70
0
 71
3
 72
9
 73
5
 74
0
 42
0.0000001
 43
0.0000001
 44
0.0000000001
 40
0.0
 40
0.0
 40
0.0
 40
0.0
 40
0.5003281903
 40
1.0
 40
1.0
 40
1.0
 40
1.0
 10
209.2833559242
 20
-59.8577386976
 30
0.0
 10
209.0944224143
 20
-59.1934572916
 30
0.0
 10
208.4438177635
 20
-57.9239832002
 30
0.0
 10
207.317544516
 20
-57.0461279258
 30
0.0
 10
206.6994388548
 20
-56.7400880468
 30
0.0
  0
SPLINE
  5
3BA
100
AcDbEntity
  8
0
100
AcDbSpline
 62
7
  6
CONTINUOUS
 70
0
 71
3
 72
9
 73
5
 74
0
 42
0.0000001
 43
0.0000001
 44
0.0000000001
 40
0.0
 40
0.0
 40
0.0
 40
0.0
 40
0.5000050353
 40
1.0
 40
1.0
 40
1.0
 40
1.0
 10
303.4124385042
 20
243.2514788536
 30
0.0
 10
303.412352804
 20
243.6690464318
 30
0.0
 10
303.1362366138
 20
244.5268247133
 30
0.0
 10
302.3968402702
 20
245.0423161945
 30
0.0
 10
301.9975180925
 20
245.1643713641
 30
0.0
  0
SPLINE
  5
3BB
100
AcDbEntity
  8
0
100
AcDbSpline
 62
7
  6
CONTINUOUS
 70
0
 71
3
 72
8
 73
4
 74
0
 42
0.0000001
 43
0.0000001
 44
0.0000000001
 40
0.0
 40
0.0
 40
0.0
 40
0.0
 40
1.0
 40
1.0
 40
1.0
 40
1.0
 10
302.3285043147
 20
-56.6809516004
 30
0.0
 10
302.5540290648
 20
-56.5741297205
 30
0.0
 10
302.7625476162
 20
-56.4216477351
 30
0.0
 10
302.9331521442
 20
-56.2395312286
 30
0.0
  0
SPLINE
  5
3BC
100
AcDbEntity
  8
0
100
AcDbSpline
 62
7
  6
CONTINUOUS
 70
0
 71
3
 72
8
 73
4
 74
0
 42
0.0000001
 43
0.0000001
 44
0.0000000001
 40
0.0
 40
0.0
 40
0.0
 40
0.0
 40
1.0
 40
1.0
 40
1.0
 40
1.0
 10
302.9331521442
 20
-56.2395312286
 30
0.0
 10
303.1033684435
 20
-56.0578291476
 30
0.0
 10
303.2412131577
 20
-55.8399612052
 30
0.0
 10
303.3325047229
 20
-55.6083255325
 30
0.0
  0
SPLINE
  5
3BD
100
AcDbEntity
  8
0
100
AcDbSpline
 62
7
  6
CONTINUOUS
 70
0
 71
3
 72
18
 73
14
 74
0
 42
0.0000001
 43
0.0000001
 44
0.0000000001
 40
0.0
 40
0.0
 40
0.0
 40
0.0
 40
0.1946061004
 40
0.3822837902
 40
0.5549656601
 40
0.7062578199
 40
0.8305259254
 40
0.8809670631
 40
0.9229079867
 40
0.9560174375
 40
0.9799861847
 40
0.9945686539
 40
1.0
 40
1.0
 40
1.0
 40
1.0
 10
237.4817240147
 20
-58.2807807443
 30
0.0
 10
237.6180942847
 20
-58.2807533128
 30
0.0
 10
237.8859818466
 20
-58.2813851951
 30
0.0
 10
238.274858726
 20
-58.2843201366
 30
0.0
 10
238.6333889185
 20
-58.2891415315
 30
0.0
 10
238.947369986
 20
-58.2956443838
 30
0.0
 10
239.1758658725
 20
-58.3025109186
 30
0.0
 10
239.3273140274
 20
-58.3090107208
 30
0.0
 10
239.4156351145
 20
-58.3136612888
 30
0.0
 10
239.483519731
 20
-58.318725631
 30
0.0
 10
239.5365919285
 20
-58.323100239
 30
0.0
 10
239.5615418228
 20
-58.3285347045
 30
0.0
 10
239.5812143218
 20
-58.3315136527
 30
0.0
 10
239.581217703
 20
-58.3353196683
 30
0.0
  0
SPLINE
  5
3BE
100
AcDbEntity
  8
0
100
AcDbSpline
 62
7
  6
CONTINUOUS
 70
0
 71
3
 72
18
 73
14
 74
0
 42
0.0000001
 43
0.0000001
 44
0.0000000001
 40
0.0
 40
0.0
 40
0.0
 40
0.0
 40
0.1946061004
 40
0.3822837902
 40
0.5549656601
 40
0.7062578199
 40
0.8305259254
 40
0.8809670631
 40
0.9229079867
 40
0.9560174375
 40
0.9799861847
 40
0.9945686539
 40
1.0
 40
1.0
 40
1.0
 40
1.0
 10
271.4817227293
 20
-58.2739414822
 30
0.0
 10
271.6180929994
 20
-58.2739140507
 30
0.0
 10
271.8859805612
 20
-58.274545933
 30
0.0
 10
272.2748574407
 20
-58.2774808744
 30
0.0
 10
272.6333876331
 20
-58.2823022693
 30
0.0
 10
272.9473687007
 20
-58.2888051217
 30
0.0
 10
273.1758645871
 20
-58.2956716564
 30
0.0
 10
273.3273127421
 20
-58.3021714587
 30
0.0
 10
273.4156338291
 20
-58.3068220267
 30
0.0
 10
273.4835184456
 20
-58.3118863688
 30
0.0
 10
273.5365906432
 20
-58.3162609768
 30
0.0
 10
273.5615405374
 20
-58.3216954423
 30
0.0
 10
273.5812130365
 20
-58.3246743906
 30
0.0
 10
273.5812164176
 20
-58.3284804062
 30
0.0
  0
SPLINE
  5
3BF
100
AcDbEntity
  8
0
100
AcDbSpline
 62
7
  6
CONTINUOUS
 70
0
 71
3
 72
18
 73
14
 74
0
 42
0.0000001
 43
0.0000001
 44
0.0000000001
 40
0.0
 40
0.0
 40
0.0
 40
0.0
 40
0.1946061004
 40
0.3822837901
 40
0.5549656601
 40
0.7062578199
 40
0.8305259254
 40
0.8809670631
 40
0.9229079866
 40
0.9560174375
 40
0.9799861847
 40
0.9945686539
 40
1.0
 40
1.0
 40
1.0
 40
1.0
 10
271.4755299517
 20
-59.1639583349
 30
0.0
 10
271.6119002217
 20
-59.1639309034
 30
0.0
 10
271.8797877836
 20
-59.1645627858
 30
0.0
 10
272.268664663
 20
-59.1674977272
 30
0.0
 10
272.6271948554
 20
-59.1723191221
 30
0.0
 10
272.9411759229
 20
-59.1788219744
 30
0.0
 10
273.1696718094
 20
-59.1856885092
 30
0.0
 10
273.3211199643
 20
-59.1921883114
 30
0.0
 10
273.4094410513
 20
-59.1968388794
 30
0.0
 10
273.4773256679
 20
-59.2019032216
 30
0.0
 10
273.5303978654
 20
-59.2062778296
 30
0.0
 10
273.5553477598
 20
-59.2117122951
 30
0.0
 10
273.5750202588
 20
-59.2146912433
 30
0.0
 10
273.5750236399
 20
-59.2184972589
 30
0.0
  0
SPLINE
  5
3C0
100
AcDbEntity
  8
0
100
AcDbSpline
 62
7
  6
CONTINUOUS
 70
0
 71
3
 72
18
 73
14
 74
0
 42
0.0000001
 43
0.0000001
 44
0.0000000001
 40
0.0
 40
0.0
 40
0.0
 40
0.0
 40
0.1946061004
 40
0.3822837901
 40
0.5549656601
 40
0.7062578199
 40
0.8305259254
 40
0.8809670631
 40
0.9229079866
 40
0.9560174375
 40
0.9799861847
 40
0.9945686539
 40
1.0
 40
1.0
 40
1.0
 40
1.0
 10
237.475531237
 20
-59.1707975971
 30
0.0
 10
237.611901507
 20
-59.1707701655
 30
0.0
 10
237.8797890689
 20
-59.1714020479
 30
0.0
 10
238.2686659483
 20
-59.1743369893
 30
0.0
 10
238.6271961408
 20
-59.1791583842
 30
0.0
 10
238.9411772082
 20
-59.1856612366
 30
0.0
 10
239.1696730947
 20
-59.1925277713
 30
0.0
 10
239.3211212497
 20
-59.1990275736
 30
0.0
 10
239.4094423367
 20
-59.2036781416
 30
0.0
 10
239.4773269532
 20
-59.2087424837
 30
0.0
 10
239.5303991508
 20
-59.2131170917
 30
0.0
 10
239.5553490451
 20
-59.2185515572
 30
0.0
 10
239.5750215441
 20
-59.2215305055
 30
0.0
 10
239.5750249253
 20
-59.2253365211
 30
0.0
  0
SPLINE
  5
3C1
100
AcDbEntity
  8
0
100
AcDbSpline
 62
7
  6
CONTINUOUS
 70
0
 71
3
 72
21
 73
17
 74
0
 42
0.0000001
 43
0.0000001
 44
0.0000000001
 40
0.0
 40
0.0
 40
0.0
 40
0.0
 40
0.1947852768
 40
0.3821732672
 40
0.5547983327
 40
0.7061552202
 40
0.7719849812
 40
0.8303948099
 40
0.8808113021
 40
0.9227782764
 40
0.9558734477
 40
0.9798118746
 40
0.9882901472
 40
0.9944226896
 40
0.9982433371
 40
1.0
 40
1.0
 40
1.0
 40
1.0
 10
254.4804757094
 20
-58.4566733321
 30
0.0
 10
255.2768502248
 20
-58.4565131376
 30
0.0
 10
256.8393592475
 20
-58.4601589028
 30
0.0
 10
259.1075849628
 20
-58.477325013
 30
0.0
 10
261.1981285145
 20
-58.5054972955
 30
0.0
 10
262.7915529559
 20
-58.5382855246
 30
0.0
 10
263.9178673704
 20
-58.5702313431
 30
0.0
 10
264.6315400687
 20
-58.5949436677
 30
0.0
 10
265.2474484019
 20
-58.6212516947
 30
0.0
 10
265.7598888119
 20
-58.6488252788
 30
0.0
 10
266.1632937218
 20
-58.6770565076
 30
0.0
 10
266.4307542466
 20
-58.7031913678
 30
0.0
 10
266.5857688898
 20
-58.7250159188
 30
0.0
 10
266.6614419611
 20
-58.740901461
 30
0.0
 10
266.7041422428
 20
-58.7525686902
 30
0.0
 10
266.7280797156
 20
-58.7676348498
 30
0.0
 10
266.7280828411
 20
-58.7748169196
 30
0.0
  0
SPLINE
  5
3C2
100
AcDbEntity
  8
0
100
AcDbSpline
 62
7
  6
CONTINUOUS
 70
0
 71
3
 72
29
 73
25
 74
0
 42
0.0000001
 43
0.0000001
 44
0.0000000001
 40
0.0
 40
0.0
 40
0.0
 40
0.0
 40
0.0024082817
 40
0.0096004295
 40
0.0215168794
 40
0.0380384456
 40
0.0590105861
 40
0.0842275849
 40
0.1463935152
 40
0.2221482559
 40
0.3085796797
 40
0.4023671885
 40
0.4999065429
 40
0.5974494664
 40
0.6912475377
 40
0.7776961568
 40
0.8534735546
 40
0.9156679648
 40
0.9409008856
 40
0.9618896991
 40
0.9784286274
 40
0.990363031
 40
0.9975734121
 40
1.0
 40
1.0
 40
1.0
 40
1.0
 10
288.5740647942
 20
-61.2912811979
 30
0.0
 10
288.5742260071
 20
-61.2879133052
 30
0.0
 10
288.5522888942
 20
-61.2941400635
 30
0.0
 10
288.530356326
 20
-61.2867621423
 30
0.0
 10
288.4758512175
 20
-61.2895704645
 30
0.0
 10
288.4087006044
 20
-61.2869604656
 30
0.0
 10
288.3201387486
 20
-61.2865572792
 30
0.0
 10
288.1687964922
 20
-61.2847877168
 30
0.0
 10
287.9401766416
 20
-61.2832415774
 30
0.0
 10
287.6261650456
 20
-61.2814216682
 30
0.0
 10
287.2677580401
 20
-61.2800829815
 30
0.0
 10
286.8788882907
 20
-61.2792309765
 30
0.0
 10
286.4744499759
 20
-61.2789969875
 30
0.0
 10
286.0699973104
 20
-61.279393716
 30
0.0
 10
285.6810832038
 20
-61.2804022026
 30
0.0
 10
285.3226089906
 20
-61.281885127
 30
0.0
 10
285.008493945
 20
-61.2838314408
 30
0.0
 10
284.7798017052
 20
-61.2854694972
 30
0.0
 10
284.6283415396
 20
-61.2873001
 30
0.0
 10
284.5397814919
 20
-61.2877383424
 30
0.0
 10
284.472371736
 20
-61.2903777101
 30
0.0
 10
284.4182171824
 20
-61.2875838274
 30
0.0
 10
284.3954680636
 20
-61.2949944009
 30
0.0
 10
284.3742273913
 20
-61.2887325546
 30
0.0
 10
284.374064953
 20
-61.292126048
 30
0.0
  0
SPLINE
  5
3C3
100
AcDbEntity
  8
0
100
AcDbSpline
 62
7
  6
CONTINUOUS
 70
0
 71
3
 72
29
 73
25
 74
0
 42
0.0000001
 43
0.0000001
 44
0.0000000001
 40
0.0
 40
0.0
 40
0.0
 40
0.0
 40
0.0024082817
 40
0.0096004295
 40
0.0215168794
 40
0.0380384456
 40
0.0590105861
 40
0.0842275849
 40
0.1463935153
 40
0.2221482559
 40
0.3085796797
 40
0.4023671885
 40
0.499906543
 40
0.5974494664
 40
0.6912475377
 40
0.7776961568
 40
0.8534735546
 40
0.9156679648
 40
0.9409008856
 40
0.9618896991
 40
0.9784286274
 40
0.990363031
 40
0.9975734121
 40
1.0
 40
1.0
 40
1.0
 40
1.0
 10
224.5740672137
 20
-61.3041551031
 30
0.0
 10
224.5742284265
 20
-61.3007872104
 30
0.0
 10
224.5522913137
 20
-61.3070139687
 30
0.0
 10
224.5303587454
 20
-61.2996360475
 30
0.0
 10
224.4758536369
 20
-61.3024443697
 30
0.0
 10
224.4087030238
 20
-61.2998343708
 30
0.0
 10
224.3201411681
 20
-61.2994311844
 30
0.0
 10
224.1687989116
 20
-61.297661622
 30
0.0
 10
223.9401790611
 20
-61.2961154826
 30
0.0
 10
223.626167465
 20
-61.2942955734
 30
0.0
 10
223.2677604595
 20
-61.2929568867
 30
0.0
 10
222.8788907101
 20
-61.2921048817
 30
0.0
 10
222.4744523953
 20
-61.2918708927
 30
0.0
 10
222.0699997298
 20
-61.2922676212
 30
0.0
 10
221.6810856233
 20
-61.2932761078
 30
0.0
 10
221.32261141
 20
-61.2947590322
 30
0.0
 10
221.0084963645
 20
-61.296705346
 30
0.0
 10
220.7798041246
 20
-61.2983434025
 30
0.0
 10
220.6283439591
 20
-61.3001740052
 30
0.0
 10
220.5397839113
 20
-61.3006122476
 30
0.0
 10
220.4723741555
 20
-61.3032516153
 30
0.0
 10
220.4182196018
 20
-61.3004577326
 30
0.0
 10
220.395470483
 20
-61.3078683061
 30
0.0
 10
220.3742298107
 20
-61.3016064598
 30
0.0
 10
220.3740673724
 20
-61.3049999532
 30
0.0
  0
SPLINE
  5
3C4
100
AcDbEntity
  8
0
100
AcDbSpline
 62
7
  6
CONTINUOUS
 70
0
 71
3
 72
18
 73
14
 74
0
 42
0.0000001
 43
0.0000001
 44
0.0000000001
 40
0.0
 40
0.0
 40
0.0
 40
0.0
 40
0.1946061004
 40
0.3822837902
 40
0.5549656601
 40
0.70625782
 40
0.8305259255
 40
0.8809670632
 40
0.9229079867
 40
0.9560174376
 40
0.9799861848
 40
0.9945686539
 40
1.0
 40
1.0
 40
1.0
 40
1.0
 10
271.4747649615
 20
-59.2739015932
 30
0.0
 10
271.3383946913
 20
-59.2739290247
 30
0.0
 10
271.0705071292
 20
-59.2732971424
 30
0.0
 10
270.6816302494
 20
-59.270362201
 30
0.0
 10
270.3231000565
 20
-59.2655408061
 30
0.0
 10
270.0091189887
 20
-59.2590379537
 30
0.0
 10
269.7806231019
 20
-59.252171419
 30
0.0
 10
269.6291749469
 20
-59.2456716167
 30
0.0
 10
269.5408538598
 20
-59.2410210487
 30
0.0
 10
269.4729692432
 20
-59.2359567065
 30
0.0
 10
269.4198970456
 20
-59.2315820985
 30
0.0
 10
269.3949471514
 20
-59.2261476331
 30
0.0
 10
269.3752746524
 20
-59.2231686848
 30
0.0
 10
269.3752712713
 20
-59.2193626692
 30
0.0
  0
SPLINE
  5
3C5
100
AcDbEntity
  8
0
100
AcDbSpline
 62
7
  6
CONTINUOUS
 70
0
 71
3
 72
18
 73
14
 74
0
 42
0.0000001
 43
0.0000001
 44
0.0000000001
 40
0.0
 40
0.0
 40
0.0
 40
0.0
 40
0.1946061004
 40
0.3822837902
 40
0.5549656601
 40
0.70625782
 40
0.8305259255
 40
0.8809670632
 40
0.9229079867
 40
0.9560174376
 40
0.9799861848
 40
0.9945686539
 40
1.0
 40
1.0
 40
1.0
 40
1.0
 10
237.4747662468
 20
-59.2807408553
 30
0.0
 10
237.3383959767
 20
-59.2807682869
 30
0.0
 10
237.0705084145
 20
-59.2801364045
 30
0.0
 10
236.6816315347
 20
-59.2772014631
 30
0.0
 10
236.3231013419
 20
-59.2723800682
 30
0.0
 10
236.009120274
 20
-59.2658772158
 30
0.0
 10
235.7806243873
 20
-59.2590106811
 30
0.0
 10
235.6291762322
 20
-59.2525108789
 30
0.0
 10
235.5408551451
 20
-59.2478603108
 30
0.0
 10
235.4729705286
 20
-59.2427959687
 30
0.0
 10
235.419898331
 20
-59.2384213607
 30
0.0
 10
235.3949484368
 20
-59.2329868952
 30
0.0
 10
235.3752759377
 20
-59.2300079469
 30
0.0
 10
235.3752725566
 20
-59.2262019313
 30
0.0
  0
SPLINE
  5
3C6
100
AcDbEntity
  8
0
100
AcDbSpline
 62
7
  6
CONTINUOUS
 70
0
 71
3
 72
21
 73
17
 74
0
 42
0.0000001
 43
0.0000001
 44
0.0000000001
 40
0.0
 40
0.0
 40
0.0
 40
0.0
 40
0.1947852768
 40
0.3821732672
 40
0.5547983327
 40
0.7061552202
 40
0.7719849812
 40
0.8303948099
 40
0.8808113021
 40
0.9227782764
 40
0.9558734477
 40
0.9798118746
 40
0.9882901472
 40
0.9944226896
 40
0.9982433371
 40
1.0
 40
1.0
 40
1.0
 40
1.0
 10
254.4760132667
 20
-59.0980090054
 30
0.0
 10
253.6796387513
 20
-59.0981692
 30
0.0
 10
252.1171297283
 20
-59.0945234347
 30
0.0
 10
249.8489040127
 20
-59.0773573245
 30
0.0
 10
247.7583604607
 20
-59.049185042
 30
0.0
 10
246.1649360191
 20
-59.016396813
 30
0.0
 10
245.0386216044
 20
-58.9844509945
 30
0.0
 10
244.3249489059
 20
-58.9597386698
 30
0.0
 10
243.7090405727
 20
-58.9334306429
 30
0.0
 10
243.1966001625
 20
-58.9058570587
 30
0.0
 10
242.7931952525
 20
-58.8776258299
 30
0.0
 10
242.5257347277
 20
-58.8514909697
 30
0.0
 10
242.3707200845
 20
-58.8296664188
 30
0.0
 10
242.2950470131
 20
-58.8137808765
 30
0.0
 10
242.2523467314
 20
-58.8021136474
 30
0.0
 10
242.2284092585
 20
-58.7870474877
 30
0.0
 10
242.2284061331
 20
-58.779865418
 30
0.0
  0
SPLINE
  5
3C7
100
AcDbEntity
  8
0
100
AcDbSpline
 62
7
  6
CONTINUOUS
 70
0
 71
3
 72
21
 73
17
 74
0
 42
0.0000001
 43
0.0000001
 44
0.0000000001
 40
0.0
 40
0.0
 40
0.0
 40
0.0
 40
0.0017562387
 40
0.0055771543
 40
0.0117108841
 40
0.0201895837
 40
0.0441281081
 40
0.0772259354
 40
0.1191940416
 40
0.1696124759
 40
0.2280261141
 40
0.2938587349
 40
0.4452233749
 40
0.6178515326
 40
0.8052357387
 40
1.0
 40
1.0
 40
1.0
 40
1.0
 10
266.7280828411
 20
-58.7748169196
 30
0.0
 10
266.7280859669
 20
-58.7819999456
 30
0.0
 10
266.7041429711
 20
-58.7970840751
 30
0.0
 10
266.6614287574
 20
-58.8087662091
 30
0.0
 10
266.5857236408
 20
-58.8246864464
 30
0.0
 10
266.4306534133
 20
-58.846579727
 30
0.0
 10
266.1630894609
 20
-58.8728322422
 30
0.0
 10
265.7595288564
 20
-58.9012315519
 30
0.0
 10
265.2468841056
 20
-58.9290233586
 30
0.0
 10
264.6307274764
 20
-58.9555890007
 30
0.0
 10
263.9167621296
 20
-58.9805978796
 30
0.0
 10
262.7899797427
 20
-59.0130125283
 30
0.0
 10
261.1959155544
 20
-59.0464562413
 30
0.0
 10
259.1045713841
 20
-59.0754844297
 30
0.0
 10
256.8355916769
 20
-59.0935718549
 30
0.0
 10
255.2726002228
 20
-59.0978487681
 30
0.0
 10
254.4760132667
 20
-59.0980090054
 30
0.0
  0
SPLINE
  5
3C8
100
AcDbEntity
  8
0
100
AcDbSpline
 62
9
  6
CONTINUOUS
 70
0
 71
3
 72
13
 73
9
 74
0
 42
0.0000001
 43
0.0000001
 44
0.0000000001
 40
0.0
 40
0.0
 40
0.0
 40
0.0
 40
0.3690013739
 40
0.6866168595
 40
0.811051991
 40
0.9066564204
 40
0.9703326581
 40
1.0
 40
1.0
 40
1.0
 40
1.0
 10
231.0055017143
 20
-59.7882678223
 30
0.0
 10
231.0793484712
 20
-59.7878792498
 30
0.0
 10
231.2167312662
 20
-59.7885219046
 30
0.0
 10
231.3791359087
 20
-59.7917272519
 30
0.0
 10
231.4864804448
 20
-59.7963874572
 30
0.0
 10
231.5434935193
 20
-59.7990907873
 30
0.0
 10
231.5805091408
 20
-59.8035796991
 30
0.0
 10
231.5998691949
 20
-59.804762733
 30
0.0
 10
231.6051031201
 20
-59.8075658406
 30
0.0
  0
SPLINE
  5
3C9
100
AcDbEntity
  8
0
100
AcDbSpline
 62
9
  6
CONTINUOUS
 70
0
 71
3
 72
9
 73
5
 74
0
 42
0.0000001
 43
0.0000001
 44
0.0000000001
 40
0.0
 40
0.0
 40
0.0
 40
0.0
 40
0.2334819222
 40
1.0
 40
1.0
 40
1.0
 40
1.0
 10
216.23008462
 20
-58.5243413756
 30
0.0
 10
216.1754886432
 20
-58.5255494746
 30
0.0
 10
215.9417935154
 20
-58.5372433658
 30
0.0
 10
215.7096029301
 20
-58.5701133042
 30
0.0
 10
215.5330755283
 20
-58.6014186107
 30
0.0
  0
SPLINE
  5
3CA
100
AcDbEntity
  8
0
100
AcDbSpline
 62
9
  6
CONTINUOUS
 70
0
 71
3
 72
10
 73
6
 74
0
 42
0.0000001
 43
0.0000001
 44
0.0000000001
 40
0.0
 40
0.0
 40
0.0
 40
0.0
 40
0.1568056035
 40
0.3776241385
 40
1.0
 40
1.0
 40
1.0
 40
1.0
 10
215.533013948
 20
-58.601393845
 30
0.0
 10
215.4869472425
 20
-58.6446029973
 30
0.0
 10
215.4363545965
 20
-58.802833635
 30
0.0
 10
215.4787097552
 20
-59.2016990237
 30
0.0
 10
215.546531123
 20
-59.5364658597
 30
0.0
 10
215.5683005213
 20
-59.7862062842
 30
0.0
  0
SPLINE
  5
3CB
100
AcDbEntity
  8
0
100
AcDbSpline
 62
9
  6
CONTINUOUS
 70
0
 71
3
 72
9
 73
5
 74
0
 42
0.0000001
 43
0.0000001
 44
0.0000000001
 40
0.0
 40
0.0
 40
0.0
 40
0.0
 40
0.5085908712
 40
1.0
 40
1.0
 40
1.0
 40
1.0
 10
233.4444481592
 20
-58.5808688045
 30
0.0
 10
233.0529822029
 20
-58.581589399
 30
0.0
 10
232.2654457233
 20
-58.8217720832
 30
0.0
 10
231.7515483493
 20
-59.4588229544
 30
0.0
 10
231.6050968117
 20
-59.8075617148
 30
0.0
  0
SPLINE
  5
3CC
100
AcDbEntity
  8
0
100
AcDbSpline
 62
9
  6
CONTINUOUS
 70
0
 71
3
 72
9
 73
5
 74
0
 42
0.0000001
 43
0.0000001
 44
0.0000000001
 40
0.0
 40
0.0
 40
0.0
 40
0.0
 40
0.2395728087
 40
1.0
 40
1.0
 40
1.0
 40
1.0
 10
234.1631532121
 20
-58.9135099088
 30
0.0
 10
234.1064697014
 20
-58.8854546438
 30
0.0
 10
233.8691835593
 20
-58.7697504746
 30
0.0
 10
233.6291294871
 20
-58.659599021
 30
0.0
 10
233.4444616875
 20
-58.580868167
 30
0.0
  0
LINE
  5
3CD
100
AcDbEntity
  8
0
100
AcDbLine
 62
9
  6
CONTINUOUS
 10
234.5042723194
 20
-59.0843188242
 11
234.1631532121
 21
-58.9135099088
  0
SPLINE
  5
3CE
100
AcDbEntity
  8
0
100
AcDbSpline
 62
9
  6
CONTINUOUS
 70
0
 71
3
 72
9
 73
5
 74
0
 42
0.0000001
 43
0.0000001
 44
0.0000000001
 40
0.0
 40
0.0
 40
0.0
 40
0.0
 40
0.5013454469
 40
1.0
 40
1.0
 40
1.0
 40
1.0
 10
232.894306616
 20
-60.8346447456
 30
0.0
 10
232.988227226
 20
-60.399759432
 30
0.0
 10
233.4895748815
 20
-59.5720158544
 30
0.0
 10
234.4035377592
 20
-59.2559489934
 30
0.0
 10
234.8460608057
 20
-59.2552556886
 30
0.0
  0
SPLINE
  5
3CF
100
AcDbEntity
  8
0
100
AcDbSpline
 62
9
  6
CONTINUOUS
 70
0
 71
3
 72
9
 73
5
 74
0
 42
0.0000001
 43
0.0000001
 44
0.0000000001
 40
0.0
 40
0.0
 40
0.0
 40
0.0
 40
0.285265234
 40
1.0
 40
1.0
 40
1.0
 40
1.0
 10
231.6050736273
 20
-59.8076170602
 30
0.0
 10
231.7032160071
 20
-59.931136607
 30
0.0
 10
232.0619351656
 20
-60.3492793209
 30
0.0
 10
232.5221880421
 20
-60.7013572368
 30
0.0
 10
232.8942973271
 20
-60.8346889767
 30
0.0
  0
SPLINE
  5
3D0
100
AcDbEntity
  8
0
100
AcDbSpline
 62
9
  6
CONTINUOUS
 70
0
 71
3
 72
16
 73
12
 74
0
 42
0.0000001
 43
0.0000001
 44
0.0000000001
 40
0.0
 40
0.0
 40
0.0
 40
0.0
 40
0.0096831647
 40
0.0282466068
 40
0.0555033131
 40
0.0912277494
 40
0.1868003247
 40
0.3113630682
 40
0.4606714427
 40
0.6293299413
 40
1.0
 40
1.0
 40
1.0
 40
1.0
 10
232.8944386901
 20
-60.8344643231
 30
0.0
 10
232.9064753924
 20
-60.8386679895
 30
0.0
 10
232.9439483249
 20
-60.8423576837
 30
0.0
 10
233.0164112092
 20
-60.8489280143
 30
0.0
 10
233.1238332322
 20
-60.8540950892
 30
0.0
 10
233.3323521067
 20
-60.8621188134
 30
0.0
 10
233.6692337175
 20
-60.8696608649
 30
0.0
 10
234.1555889658
 20
-60.8768773316
 30
0.0
 10
234.7382484114
 20
-60.8821985641
 30
0.0
 10
235.6449444876
 20
-60.8873019805
 30
0.0
 10
236.3550720192
 20
-60.8884712097
 30
0.0
 10
236.8431258105
 20
-60.8883628769
 30
0.0
  0
SPLINE
  5
3D1
100
AcDbEntity
  8
0
100
AcDbSpline
 62
9
  6
CONTINUOUS
 70
0
 71
3
 72
9
 73
5
 74
0
 42
0.0000001
 43
0.0000001
 44
0.0000000001
 40
0.0
 40
0.0
 40
0.0
 40
0.0
 40
0.5002037653
 40
1.0
 40
1.0
 40
1.0
 40
1.0
 10
276.0562085615
 20
-60.8259613085
 30
0.0
 10
275.9623253196
 20
-60.392105901
 30
0.0
 10
275.4616080018
 20
-59.5645212531
 30
0.0
 10
274.5473679243
 20
-59.247867848
 30
0.0
 10
274.1038328452
 20
-59.2473519436
 30
0.0
  0
SPLINE
  5
3D2
100
AcDbEntity
  8
0
100
AcDbSpline
 62
9
  6
CONTINUOUS
 70
0
 71
3
 72
15
 73
11
 74
0
 42
0.0000001
 43
0.0000001
 44
0.0000000001
 40
0.0
 40
0.0
 40
0.0
 40
0.0
 40
0.3705408028
 40
0.539172698
 40
0.6884783637
 40
0.8130552398
 40
0.9086594953
 40
0.9716891278
 40
0.9902835545
 40
1.0
 40
1.0
 40
1.0
 40
1.0
 10
272.1060017892
 20
-60.8814684592
 30
0.0
 10
272.5940616995
 20
-60.8813803841
 30
0.0
 10
273.3042307352
 20
-60.879898313
 30
0.0
 10
274.2110661381
 20
-60.8744963205
 30
0.0
 10
274.7938592521
 20
-60.8687820574
 30
0.0
 10
275.2806000273
 20
-60.8618224471
 30
0.0
 10
275.6532353328
 20
-60.8521948823
 30
0.0
 10
275.8870786717
 20
-60.8445090928
 30
0.0
 10
276.006459634
 20
-60.8339140143
 30
0.0
 10
276.0440151651
 20
-60.8301778101
 30
0.0
 10
276.0561054593
 20
-60.825980738
 30
0.0
  0
LINE
  5
3D3
100
AcDbEntity
  8
0
100
AcDbLine
 62
9
  6
CONTINUOUS
 10
274.7914977365
 20
-58.9053373012
 11
274.4480005991
 21
-59.0762839694
  0
SPLINE
  5
3D4
100
AcDbEntity
  8
0
100
AcDbSpline
 62
9
  6
CONTINUOUS
 70
0
 71
3
 72
9
 73
5
 74
0
 42
0.0000001
 43
0.0000001
 44
0.0000000001
 40
0.0
 40
0.0
 40
0.0
 40
0.0
 40
0.261297662
 40
1.0
 40
1.0
 40
1.0
 40
1.0
 10
275.5148298038
 20
-58.5724013639
 30
0.0
 10
275.4510930154
 20
-58.5997585589
 30
0.0
 10
275.2077787595
 20
-58.7058597568
 30
0.0
 10
274.9670836383
 20
-58.8180529431
 30
0.0
 10
274.7914977365
 20
-58.9053373012
 30
0.0
  0
SPLINE
  5
3D5
100
AcDbEntity
  8
0
100
AcDbSpline
 62
9
  6
CONTINUOUS
 70
0
 71
3
 72
9
 73
5
 74
0
 42
0.0000001
 43
0.0000001
 44
0.0000000001
 40
0.0
 40
0.0
 40
0.0
 40
0.0
 40
0.49141271
 40
1.0
 40
1.0
 40
1.0
 40
1.0
 10
277.3546434383
 20
-59.7983640432
 30
0.0
 10
277.2080526718
 20
-59.4496851636
 30
0.0
 10
276.6939122035
 20
-58.8128434482
 30
0.0
 10
275.9062884579
 20
-58.5729715474
 30
0.0
 10
275.5148291689
 20
-58.5724083762
 30
0.0
  0
SPLINE
  5
3D6
100
AcDbEntity
  8
0
100
AcDbSpline
 62
9
  6
CONTINUOUS
 70
0
 71
3
 72
9
 73
5
 74
0
 42
0.0000001
 43
0.0000001
 44
0.0000000001
 40
0.0
 40
0.0
 40
0.0
 40
0.0
 40
0.2242544431
 40
1.0
 40
1.0
 40
1.0
 40
1.0
 10
276.0562084446
 20
-60.8260060017
 30
0.0
 10
276.1737522274
 20
-60.7841278719
 30
0.0
 10
276.6808698987
 20
-60.5468990246
 30
0.0
 10
277.0850043437
 20
-60.135464672
 30
0.0
 10
277.3546663416
 20
-59.7984186072
 30
0.0
  0
SPLINE
  5
3D7
100
AcDbEntity
  8
0
100
AcDbSpline
 62
9
  6
CONTINUOUS
 70
0
 71
3
 72
13
 73
9
 74
0
 42
0.0000001
 43
0.0000001
 44
0.0000000001
 40
0.0
 40
0.0
 40
0.0
 40
0.0
 40
0.0296251565
 40
0.0932781699
 40
0.1889468155
 40
0.3135203529
 40
0.6312220925
 40
1.0
 40
1.0
 40
1.0
 40
1.0
 10
277.3546367984
 20
-59.7983678476
 30
0.0
 10
277.3597472761
 20
-59.7953587663
 30
0.0
 10
277.3792277044
 20
-59.7941092347
 30
0.0
 10
277.4161369265
 20
-59.7894875528
 30
0.0
 10
277.4732694085
 20
-59.7869809114
 30
0.0
 10
277.5806928795
 20
-59.7828237135
 30
0.0
 10
277.7431643423
 20
-59.779927883
 30
0.0
 10
277.8805473919
 20
-59.7787650602
 30
0.0
 10
277.9543717847
 20
-59.7788225405
 30
0.0
  0
SPLINE
  5
3D8
100
AcDbEntity
  8
0
100
AcDbSpline
 62
9
  6
CONTINUOUS
 70
0
 71
3
 72
9
 73
5
 74
0
 42
0.0000001
 43
0.0000001
 44
0.0000000001
 40
0.0
 40
0.0
 40
0.0
 40
0.0
 40
0.26570572
 40
1.0
 40
1.0
 40
1.0
 40
1.0
 10
293.4269988928
 20
-58.5858193967
 30
0.0
 10
293.3658086588
 20
-58.5749864825
 30
0.0
 10
293.1350543568
 20
-58.537273475
 30
0.0
 10
292.9016294356
 20
-58.5126955597
 30
0.0
 10
292.7299375704
 20
-58.5089561103
 30
0.0
  0
SPLINE
  5
3D9
100
AcDbEntity
  8
0
100
AcDbSpline
 62
9
  6
CONTINUOUS
 70
0
 71
3
 72
9
 73
5
 74
0
 42
0.0000001
 43
0.0000001
 44
0.0000000001
 40
0.0
 40
0.0
 40
0.0
 40
0.0
 40
0.2228521514
 40
1.0
 40
1.0
 40
1.0
 40
1.0
 10
293.4269998345
 20
-58.5858205154
 30
0.0
 10
293.5016079439
 20
-58.5697736961
 30
0.0
 10
293.8297467773
 20
-58.4680092763
 30
0.0
 10
294.1212795143
 20
-58.2616998322
 30
0.0
 10
294.3064060904
 20
-58.0705115802
 30
0.0
  0
SPLINE
  5
3DA
100
AcDbEntity
  8
0
100
AcDbSpline
 62
9
  6
CONTINUOUS
 70
0
 71
3
 72
11
 73
7
 74
0
 42
0.0000001
 43
0.0000001
 44
0.0000000001
 40
0.0
 40
0.0
 40
0.0
 40
0.0
 40
0.2562517979
 40
0.5242859046
 40
0.7770831532
 40
1.0
 40
1.0
 40
1.0
 40
1.0
 10
294.4478204466
 20
-56.5092956899
 30
0.0
 10
294.4450252609
 20
-56.7564548977
 30
0.0
 10
294.3582346615
 20
-57.2648470496
 30
0.0
 10
293.9850272989
 20
-57.9341971652
 30
0.0
 10
293.4071024302
 20
-58.3938198789
 30
0.0
 10
292.9449265224
 20
-58.5055609675
 30
0.0
 10
292.7299324951
 20
-58.5089559608
 30
0.0
  0
SPLINE
  5
3DB
100
AcDbEntity
  8
0
100
AcDbSpline
 62
9
  6
CONTINUOUS
 70
0
 71
3
 72
11
 73
7
 74
0
 42
0.0000001
 43
0.0000001
 44
0.0000000001
 40
0.0
 40
0.0
 40
0.0
 40
0.0
 40
0.2441262249
 40
0.5061067391
 40
0.7642392238
 40
1.0
 40
1.0
 40
1.0
 40
1.0
 10
293.7749676662
 20
-56.4557732821
 30
0.0
 10
293.7733211744
 20
-56.704486096
 30
0.0
 10
293.6756705844
 20
-57.2240710594
 30
0.0
 10
293.2485452241
 20
-57.8992153369
 30
0.0
 10
292.5975505479
 20
-58.3494966468
 30
0.0
 10
292.090107504
 20
-58.4536299485
 30
0.0
 10
291.8499187793
 20
-58.4554287163
 30
0.0
  0
SPLINE
  5
3DC
100
AcDbEntity
  8
0
100
AcDbSpline
 62
9
  6
CONTINUOUS
 70
0
 71
3
 72
11
 73
7
 74
0
 42
0.0000001
 43
0.0000001
 44
0.0000000001
 40
0.0
 40
0.0
 40
0.0
 40
0.0
 40
0.2567983132
 40
0.5099458997
 40
0.7573283097
 40
1.0
 40
1.0
 40
1.0
 40
1.0
 10
290.2220835494
 20
-56.1912940959
 30
0.0
 10
290.2176147904
 20
-56.4480417581
 30
0.0
 10
290.1149119211
 20
-56.9611838629
 30
0.0
 10
289.6993948863
 20
-57.6148438497
 30
0.0
 10
289.0810070409
 20
-58.0599829375
 30
0.0
 10
288.5864759775
 20
-58.1690878558
 30
0.0
 10
288.3438270155
 20
-58.1714617105
 30
0.0
  0
SPLINE
  5
3DD
100
AcDbEntity
  8
0
100
AcDbSpline
 62
9
  6
CONTINUOUS
 70
0
 71
3
 72
13
 73
9
 74
0
 42
0.0000001
 43
0.0000001
 44
0.0000000001
 40
0.0
 40
0.0
 40
0.0
 40
0.0
 40
0.3691266399
 40
0.6849019999
 40
0.8083810293
 40
0.9029522172
 40
0.9662117964
 40
1.0
 40
1.0
 40
1.0
 40
1.0
 10
288.6062782979
 20
-56.1720944892
 30
0.0
 10
288.605472765
 20
-56.423333634
 30
0.0
 10
288.5928150126
 20
-56.8892533385
 30
0.0
 10
288.5481466958
 20
-57.438988491
 30
0.0
 10
288.4943942055
 20
-57.7972502103
 30
0.0
 10
288.4508021996
 20
-57.986438425
 30
0.0
 10
288.4104824546
 20
-58.1053998896
 30
0.0
 10
288.3665023961
 20
-58.1670006712
 30
0.0
 10
288.3439415731
 20
-58.171460595
 30
0.0
  0
SPLINE
  5
3DE
100
AcDbEntity
  8
0
100
AcDbSpline
 62
9
  6
CONTINUOUS
 70
0
 71
3
 72
9
 73
5
 74
0
 42
0.0000001
 43
0.0000001
 44
0.0000000001
 40
0.0
 40
0.0
 40
0.0
 40
0.0
 40
0.2351912184
 40
1.0
 40
1.0
 40
1.0
 40
1.0
 10
289.4024283016
 20
245.0229086238
 30
0.0
 10
289.3385116724
 20
245.0547890777
 30
0.0
 10
289.0625161287
 20
245.1817811687
 30
0.0
 10
288.771491024
 20
245.2752712765
 30
0.0
 10
288.5456266062
 20
245.3294343357
 30
0.0
  0
SPLINE
  5
3DF
100
AcDbEntity
  8
0
100
AcDbSpline
 62
9
  6
CONTINUOUS
 70
0
 71
3
 72
9
 73
5
 74
0
 42
0.0000001
 43
0.0000001
 44
0.0000000001
 40
0.0
 40
0.0
 40
0.0
 40
0.0
 40
0.4431294883
 40
1.0
 40
1.0
 40
1.0
 40
1.0
 10
290.161867421
 20
244.4250568714
 30
0.0
 10
290.0820284123
 20
244.5446968497
 30
0.0
 10
289.843224156
 20
244.7739767419
 30
0.0
 10
289.5636035111
 20
244.9410930939
 30
0.0
 10
289.4024283016
 20
245.0229086238
 30
0.0
  0
SPLINE
  5
3E0
100
AcDbEntity
  8
0
100
AcDbSpline
 62
9
  6
CONTINUOUS
 70
0
 71
3
 72
8
 73
4
 74
0
 42
0.0000001
 43
0.0000001
 44
0.0000000001
 40
0.0
 40
0.0
 40
0.0
 40
0.0
 40
1.0
 40
1.0
 40
1.0
 40
1.0
 10
223.7621602366
 20
246.3524918689
 30
0.0
 10
222.6686641068
 20
246.029161003
 30
0.0
 10
221.5749999097
 20
245.7063980067
 30
0.0
 10
220.481170487
 20
245.3841964719
 30
0.0
  0
SPLINE
  5
3E1
100
AcDbEntity
  8
0
100
AcDbSpline
 62
9
  6
CONTINUOUS
 70
0
 71
3
 72
8
 73
4
 74
0
 42
0.0000001
 43
0.0000001
 44
0.0000000001
 40
0.0
 40
0.0
 40
0.0
 40
0.0
 40
1.0
 40
1.0
 40
1.0
 40
1.0
 10
288.3620839297
 20
245.3979025214
 30
0.0
 10
287.2682337233
 20
245.7196479432
 30
0.0
 10
286.1745482965
 20
246.0419541161
 30
0.0
 10
285.0810304831
 20
246.3648274387
 30
0.0
  0
SPLINE
  5
3E2
100
AcDbEntity
  8
0
100
AcDbSpline
 62
9
  6
CONTINUOUS
 70
0
 71
3
 72
8
 73
4
 74
0
 42
0.0000001
 43
0.0000001
 44
0.0000000001
 40
0.0
 40
0.0
 40
0.0
 40
0.0
 40
1.0
 40
1.0
 40
1.0
 40
1.0
 10
222.1787026099
 20
198.9541949628
 30
0.0
 10
222.1786453328
 20
199.2322494252
 30
0.0
 10
222.1917271027
 20
199.5112761174
 30
0.0
 10
222.22873791
 20
199.7868563916
 30
0.0
  0
SPLINE
  5
3E3
100
AcDbEntity
  8
0
100
AcDbSpline
 62
9
  6
CONTINUOUS
 70
0
 71
3
 72
8
 73
4
 74
0
 42
0.0000001
 43
0.0000001
 44
0.0000000001
 40
0.0
 40
0.0
 40
0.0
 40
0.0
 40
1.0
 40
1.0
 40
1.0
 40
1.0
 10
222.2668603938
 20
-17.0079352282
 30
0.0
 10
222.2316669233
 20
-16.6757124192
 30
0.0
 10
222.2222076116
 20
-16.3407685097
 30
0.0
 10
222.2221747654
 20
-16.006686822
 30
0.0
  0
SPLINE
  5
3E4
100
AcDbEntity
  8
0
100
AcDbSpline
 62
9
  6
CONTINUOUS
 70
0
 71
3
 72
8
 73
4
 74
0
 42
0.0000001
 43
0.0000001
 44
0.0000000001
 40
0.0
 40
0.0
 40
0.0
 40
0.0
 40
1.0
 40
1.0
 40
1.0
 40
1.0
 10
222.4451179643
 20
-17.9575780486
 30
0.0
 10
222.3574485813
 20
-17.6476427356
 30
0.0
 10
222.3000270389
 20
-17.3283211953
 30
0.0
 10
222.2661078932
 20
-17.0080161679
 30
0.0
  0
SPLINE
  5
3E5
100
AcDbEntity
  8
0
100
AcDbSpline
 62
9
  6
CONTINUOUS
 70
0
 71
3
 72
8
 73
4
 74
0
 42
0.0000001
 43
0.0000001
 44
0.0000000001
 40
0.0
 40
0.0
 40
0.0
 40
0.0
 40
1.0
 40
1.0
 40
1.0
 40
1.0
 10
223.1046902666
 20
-19.3224231345
 30
0.0
 10
222.8004961262
 20
-18.9189830945
 30
0.0
 10
222.5829475858
 20
-18.4436848283
 30
0.0
 10
222.4454101317
 20
-17.9574941356
 30
0.0
  0
SPLINE
  5
3E6
100
AcDbEntity
  8
0
100
AcDbSpline
 62
9
  6
CONTINUOUS
 70
0
 71
3
 72
8
 73
4
 74
0
 42
0.0000001
 43
0.0000001
 44
0.0000000001
 40
0.0
 40
0.0
 40
0.0
 40
0.0
 40
1.0
 40
1.0
 40
1.0
 40
1.0
 10
224.0081446004
 20
-20.1360926881
 30
0.0
 10
223.6576735471
 20
-19.9325632082
 30
0.0
 10
223.3486878028
 20
-19.6460269212
 30
0.0
 10
223.1046902666
 20
-19.3224231345
 30
0.0
  0
SPLINE
  5
3E7
100
AcDbEntity
  8
0
100
AcDbSpline
 62
9
  6
CONTINUOUS
 70
0
 71
3
 72
8
 73
4
 74
0
 42
0.0000001
 43
0.0000001
 44
0.0000000001
 40
0.0
 40
0.0
 40
0.0
 40
0.0
 40
1.0
 40
1.0
 40
1.0
 40
1.0
 10
225.0251461592
 20
-20.4758218526
 30
0.0
 10
224.6700246173
 20
-20.4353986881
 30
0.0
 10
224.3172214219
 20
-20.3155832454
 30
0.0
 10
224.0081446004
 20
-20.1360926881
 30
0.0
  0
SPLINE
  5
3E8
100
AcDbEntity
  8
0
100
AcDbSpline
 62
7
  6
CONTINUOUS
 70
0
 71
3
 72
9
 73
5
 74
0
 42
0.0000001
 43
0.0000001
 44
0.0000000001
 40
0.0
 40
0.0
 40
0.0
 40
0.0
 40
0.2505457105
 40
1.0
 40
1.0
 40
1.0
 40
1.0
 10
254.4729704941
 20
-22.1303706243
 30
0.0
 10
252.0090185723
 20
-22.1308384962
 30
0.0
 10
242.1752012372
 20
-21.9922765628
 30
0.0
 10
232.3487232593
 20
-21.3051913513
 30
0.0
 10
225.0251461592
 20
-20.4758218526
 30
0.0
  0
SPLINE
  5
3E9
100
AcDbEntity
  8
0
100
AcDbSpline
 62
9
  6
CONTINUOUS
 70
0
 71
3
 72
8
 73
4
 74
0
 42
0.0000001
 43
0.0000001
 44
0.0000000001
 40
0.0
 40
0.0
 40
0.0
 40
0.0
 40
1.0
 40
1.0
 40
1.0
 40
1.0
 10
284.9420071211
 20
-20.1239883371
 30
0.0
 10
284.6330781061
 20
-20.303516786
 30
0.0
 10
284.2804342601
 20
-20.4234334901
 30
0.0
 10
283.9254356861
 20
-20.4639749843
 30
0.0
  0
SPLINE
  5
3EA
100
AcDbEntity
  8
0
100
AcDbSpline
 62
9
  6
CONTINUOUS
 70
0
 71
3
 72
8
 73
4
 74
0
 42
0.0000001
 43
0.0000001
 44
0.0000000001
 40
0.0
 40
0.0
 40
0.0
 40
0.0
 40
1.0
 40
1.0
 40
1.0
 40
1.0
 10
285.8450492441
 20
-19.3102073659
 30
0.0
 10
285.6011892368
 20
-19.6338181088
 30
0.0
 10
285.2923504408
 20
-19.9203927221
 30
0.0
 10
284.9420071211
 20
-20.1239883371
 30
0.0
  0
SPLINE
  5
3EB
100
AcDbEntity
  8
0
100
AcDbSpline
 62
9
  6
CONTINUOUS
 70
0
 71
3
 72
8
 73
4
 74
0
 42
0.0000001
 43
0.0000001
 44
0.0000000001
 40
0.0
 40
0.0
 40
0.0
 40
0.0
 40
1.0
 40
1.0
 40
1.0
 40
1.0
 10
286.5034878521
 20
-17.9466316254
 30
0.0
 10
286.3660908579
 20
-18.432313139
 30
0.0
 10
286.1488119978
 20
-18.9071035874
 30
0.0
 10
285.8450492441
 20
-19.3102073659
 30
0.0
  0
SPLINE
  5
3EC
100
AcDbEntity
  8
0
100
AcDbSpline
 62
9
  6
CONTINUOUS
 70
0
 71
3
 72
8
 73
4
 74
0
 42
0.0000001
 43
0.0000001
 44
0.0000000001
 40
0.0
 40
0.0
 40
0.0
 40
0.0
 40
1.0
 40
1.0
 40
1.0
 40
1.0
 10
286.6827061915
 20
-16.992345526
 30
0.0
 10
286.6488472214
 20
-17.3142173292
 30
0.0
 10
286.591329855
 20
-17.6351312756
 30
0.0
 10
286.5032231639
 20
-17.9465555819
 30
0.0
  0
SPLINE
  5
3ED
100
AcDbEntity
  8
0
100
AcDbSpline
 62
9
  6
CONTINUOUS
 70
0
 71
3
 72
8
 73
4
 74
0
 42
0.0000001
 43
0.0000001
 44
0.0000000001
 40
0.0
 40
0.0
 40
0.0
 40
0.0
 40
1.0
 40
1.0
 40
1.0
 40
1.0
 10
286.7264141597
 20
-15.9937137622
 30
0.0
 10
286.7264465768
 20
-16.3269037671
 30
0.0
 10
286.7172851453
 20
-16.6609541141
 30
0.0
 10
286.6824233574
 20
-16.992315301
 30
0.0
  0
SPLINE
  5
3EE
100
AcDbEntity
  8
0
100
AcDbSpline
 62
9
  6
CONTINUOUS
 70
0
 71
3
 72
8
 73
4
 74
0
 42
0.0000001
 43
0.0000001
 44
0.0000000001
 40
0.0
 40
0.0
 40
0.0
 40
0.0
 40
1.0
 40
1.0
 40
1.0
 40
1.0
 10
286.6330597387
 20
199.8003460027
 30
0.0
 10
286.6702223257
 20
199.5246054304
 30
0.0
 10
286.683463015
 20
199.2454039937
 30
0.0
 10
286.6834952685
 20
198.9671704227
 30
0.0
  0
SPLINE
  5
3EF
100
AcDbEntity
  8
0
100
AcDbSpline
 62
9
  6
CONTINUOUS
 70
0
 71
3
 72
8
 73
4
 74
0
 42
0.0000001
 43
0.0000001
 44
0.0000000001
 40
0.0
 40
0.0
 40
0.0
 40
0.0
 40
1.0
 40
1.0
 40
1.0
 40
1.0
 10
286.4570591662
 20
200.5809834166
 30
0.0
 10
286.5400019861
 20
200.3274559592
 30
0.0
 10
286.5976514819
 20
200.0647363011
 30
0.0
 10
286.633277562
 20
199.8003758173
 30
0.0
  0
SPLINE
  5
3F0
100
AcDbEntity
  8
0
100
AcDbSpline
 62
9
  6
CONTINUOUS
 70
0
 71
3
 72
8
 73
4
 74
0
 42
0.0000001
 43
0.0000001
 44
0.0000000001
 40
0.0
 40
0.0
 40
0.0
 40
0.0
 40
1.0
 40
1.0
 40
1.0
 40
1.0
 10
285.7852240606
 20
201.8013771856
 30
0.0
 10
286.084929204
 20
201.4466757938
 30
0.0
 10
286.3126748284
 20
201.022332981
 30
0.0
 10
286.457064597
 20
200.5809852213
 30
0.0
  0
SPLINE
  5
3F1
100
AcDbEntity
  8
0
100
AcDbSpline
 62
9
  6
CONTINUOUS
 70
0
 71
3
 72
8
 73
4
 74
0
 42
0.0000001
 43
0.0000001
 44
0.0000000001
 40
0.0
 40
0.0
 40
0.0
 40
0.0
 40
1.0
 40
1.0
 40
1.0
 40
1.0
 10
284.790050908
 20
202.5945518623
 30
0.0
 10
285.16801714
 20
202.4019759268
 30
0.0
 10
285.5114439141
 20
202.1253963129
 30
0.0
 10
285.7852240606
 20
201.8013771856
 30
0.0
  0
SPLINE
  5
3F2
100
AcDbEntity
  8
0
100
AcDbSpline
 62
9
  6
CONTINUOUS
 70
0
 71
3
 72
8
 73
4
 74
0
 42
0.0000001
 43
0.0000001
 44
0.0000000001
 40
0.0
 40
0.0
 40
0.0
 40
0.0
 40
1.0
 40
1.0
 40
1.0
 40
1.0
 10
224.0710571943
 20
202.5824850947
 30
0.0
 10
224.4274550974
 20
202.7641967955
 30
0.0
 10
224.8280719592
 20
202.8780571688
 30
0.0
 10
225.2272610593
 20
202.9042615547
 30
0.0
  0
SPLINE
  5
3F3
100
AcDbEntity
  8
0
100
AcDbSpline
 62
9
  6
CONTINUOUS
 70
0
 71
3
 72
8
 73
4
 74
0
 42
0.0000001
 43
0.0000001
 44
0.0000000001
 40
0.0
 40
0.0
 40
0.0
 40
0.0
 40
1.0
 40
1.0
 40
1.0
 40
1.0
 10
223.0754155641
 20
201.7882285159
 30
0.0
 10
223.3492333073
 20
202.1126699779
 30
0.0
 10
223.6928354943
 20
202.3896463944
 30
0.0
 10
224.0710571943
 20
202.5824850947
 30
0.0
  0
SPLINE
  5
3F4
100
AcDbEntity
  8
0
100
AcDbSpline
 62
9
  6
CONTINUOUS
 70
0
 71
3
 72
8
 73
4
 74
0
 42
0.0000001
 43
0.0000001
 44
0.0000000001
 40
0.0
 40
0.0
 40
0.0
 40
0.0
 40
1.0
 40
1.0
 40
1.0
 40
1.0
 10
222.4043233782
 20
200.567578486
 30
0.0
 10
222.5484766736
 20
201.0089563368
 30
0.0
 10
222.7759431514
 20
201.4333893217
 30
0.0
 10
223.0754155641
 20
201.7882285159
 30
0.0
  0
SPLINE
  5
3F5
100
AcDbEntity
  8
0
100
AcDbSpline
 62
9
  6
CONTINUOUS
 70
0
 71
3
 72
8
 73
4
 74
0
 42
0.0000001
 43
0.0000001
 44
0.0000000001
 40
0.0
 40
0.0
 40
0.0
 40
0.0
 40
1.0
 40
1.0
 40
1.0
 40
1.0
 10
222.2284939764
 20
199.7868896612
 30
0.0
 10
222.263996848
 20
200.0512650173
 30
0.0
 10
222.3214967123
 20
200.3140148936
 30
0.0
 10
222.4043111853
 20
200.5675825292
 30
0.0
  0
SPLINE
  5
3F6
100
AcDbEntity
  8
0
100
AcDbSpline
 62
9
  6
CONTINUOUS
 70
0
 71
3
 72
9
 73
5
 74
0
 42
0.0000001
 43
0.0000001
 44
0.0000000001
 40
0.0
 40
0.0
 40
0.0
 40
0.0
 40
0.5564458886
 40
1.0
 40
1.0
 40
1.0
 40
1.0
 10
219.4390296725
 20
245.0078464013
 30
0.0
 10
219.2777832984
 20
244.9272244545
 30
0.0
 10
218.998336559
 20
244.7599868701
 30
0.0
 10
218.7621055683
 20
244.5296710361
 30
0.0
 10
218.681442591
 20
244.410741748
 30
0.0
  0
SPLINE
  5
3F7
100
AcDbEntity
  8
0
100
AcDbSpline
 62
9
  6
CONTINUOUS
 70
0
 71
3
 72
9
 73
5
 74
0
 42
0.0000001
 43
0.0000001
 44
0.0000000001
 40
0.0
 40
0.0
 40
0.0
 40
0.0
 40
0.2629383674
 40
1.0
 40
1.0
 40
1.0
 40
1.0
 10
220.2978183064
 20
245.3157051721
 30
0.0
 10
220.2200397851
 20
245.2967698774
 30
0.0
 10
219.9262120435
 20
245.2172095387
 30
0.0
 10
219.6396123525
 20
245.1084424534
 30
0.0
 10
219.4390296725
 20
245.0078464013
 30
0.0
  0
SPLINE
  5
3F8
100
AcDbEntity
  8
0
100
AcDbSpline
 62
9
  6
CONTINUOUS
 70
0
 71
3
 72
12
 73
8
 74
0
 42
0.0000001
 43
0.0000001
 44
0.0000000001
 40
0.0
 40
0.0
 40
0.0
 40
0.0
 40
0.0453298911
 40
0.11926598
 40
0.3472474641
 40
0.6605054026
 40
1.0
 40
1.0
 40
1.0
 40
1.0
 10
219.9851145194
 20
246.2003518411
 30
0.0
 10
219.9818266735
 20
246.1864849175
 30
0.0
 10
219.9846918465
 20
246.1481670634
 30
0.0
 10
220.0051949282
 20
246.0415019729
 30
0.0
 10
220.0658299447
 20
245.856683802
 30
0.0
 10
220.1683643789
 20
245.5998102234
 30
0.0
 10
220.252224452
 20
245.4123191216
 30
0.0
 10
220.2977767301
 20
245.3157932693
 30
0.0
  0
SPLINE
  5
3F9
100
AcDbEntity
  8
0
100
AcDbSpline
 62
9
  6
CONTINUOUS
 70
0
 71
3
 72
12
 73
8
 74
0
 42
0.0000001
 43
0.0000001
 44
0.0000000001
 40
0.0
 40
0.0
 40
0.0
 40
0.0
 40
0.3492464941
 40
0.6710045154
 40
0.8971707004
 40
0.9630900272
 40
1.0
 40
1.0
 40
1.0
 40
1.0
 10
220.4807382728
 20
245.3856834584
 30
0.0
 10
220.4491831688
 20
245.494605533
 30
0.0
 10
220.3926471358
 20
245.7053729974
 30
0.0
 10
220.3320658496
 20
245.9894967206
 30
0.0
 10
220.3025360354
 20
246.188798551
 30
0.0
 10
220.3042675553
 20
246.2943503076
 30
0.0
 10
220.3115856017
 20
246.3288902694
 30
0.0
 10
220.3191066364
 20
246.3382212661
 30
0.0
  0
SPLINE
  5
3FA
100
AcDbEntity
  8
0
100
AcDbSpline
 62
7
  6
CONTINUOUS
 70
0
 71
3
 72
9
 73
5
 74
0
 42
0.0000001
 43
0.0000001
 44
0.0000000001
 40
0.0
 40
0.0
 40
0.0
 40
0.0
 40
0.2424748289
 40
1.0
 40
1.0
 40
1.0
 40
1.0
 10
223.7200844389
 20
246.7041463312
 30
0.0
 10
223.7228433576
 20
246.6755286367
 30
0.0
 10
223.7346242863
 20
246.5575416192
 30
0.0
 10
223.7500243192
 20
246.4399406537
 30
0.0
 10
223.7625996518
 20
246.3510051387
 30
0.0
  0
SPLINE
  5
3FB
100
AcDbEntity
  8
0
100
AcDbSpline
 62
7
  6
CONTINUOUS
 70
0
 71
3
 72
9
 73
5
 74
0
 42
0.0000001
 43
0.0000001
 44
0.0000000001
 40
0.0
 40
0.0
 40
0.0
 40
0.0
 40
0.2284503758
 40
1.0
 40
1.0
 40
1.0
 40
1.0
 10
223.6983089558
 20
247.0128769174
 30
0.0
 10
223.6991832371
 20
246.989322739
 30
0.0
 10
223.703916969
 20
246.8862507582
 30
0.0
 10
223.7124454775
 20
246.7833836991
 30
0.0
 10
223.7200844389
 20
246.7041463312
 30
0.0
  0
SPLINE
  5
3FC
100
AcDbEntity
  8
0
100
AcDbSpline
 62
7
  6
CONTINUOUS
 70
0
 71
3
 72
10
 73
6
 74
0
 42
0.0000001
 43
0.0000001
 44
0.0000000001
 40
0.0
 40
0.0
 40
0.0
 40
0.0
 40
0.1229626992
 40
0.3332309547
 40
1.0
 40
1.0
 40
1.0
 40
1.0
 10
223.725765835
 20
247.3442102605
 30
0.0
 10
223.7169719688
 20
247.3336642735
 30
0.0
 10
223.7070416115
 20
247.2959454452
 30
0.0
 10
223.6936606473
 20
247.1864202144
 30
0.0
 10
223.6955471097
 20
247.0872843393
 30
0.0
 10
223.6983089558
 20
247.0128769174
 30
0.0
  0
SPLINE
  5
3FD
100
AcDbEntity
  8
0
100
AcDbSpline
 62
7
  6
CONTINUOUS
 70
0
 71
3
 72
10
 73
6
 74
0
 42
0.0000001
 43
0.0000001
 44
0.0000000001
 40
0.0
 40
0.0
 40
0.0
 40
0.0
 40
0.666347961
 40
0.8766846099
 40
1.0
 40
1.0
 40
1.0
 40
1.0
 10
285.1445523865
 20
247.0252234595
 30
0.0
 10
285.1472561147
 20
247.0996288057
 30
0.0
 10
285.149816904
 20
247.1987508081
 30
0.0
 10
285.1359528433
 20
247.3083979806
 30
0.0
 10
285.1255427373
 20
247.3459968421
 30
0.0
 10
285.1166954601
 20
247.3565598471
 30
0.0
  0
SPLINE
  5
3FE
100
AcDbEntity
  8
0
100
AcDbSpline
 62
7
  6
CONTINUOUS
 70
0
 71
3
 72
9
 73
5
 74
0
 42
0.0000001
 43
0.0000001
 44
0.0000000001
 40
0.0
 40
0.0
 40
0.0
 40
0.0
 40
0.2695317201
 40
1.0
 40
1.0
 40
1.0
 40
1.0
 10
285.1229442562
 20
246.716499335
 30
0.0
 10
285.1255973001
 20
246.7441795103
 30
0.0
 10
285.1350214208
 20
246.846913203
 30
0.0
 10
285.1418157421
 20
246.9499122719
 30
0.0
 10
285.1445523865
 20
247.0252234595
 30
0.0
  0
SPLINE
  5
3FF
100
AcDbEntity
  8
0
100
AcDbSpline
 62
7
  6
CONTINUOUS
 70
0
 71
3
 72
9
 73
5
 74
0
 42
0.0000001
 43
0.0000001
 44
0.0000000001
 40
0.0
 40
0.0
 40
0.0
 40
0.0
 40
0.2555346643
 40
1.0
 40
1.0
 40
1.0
 40
1.0
 10
285.080595418
 20
246.3633395327
 30
0.0
 10
285.0848253018
 20
246.393342623
 30
0.0
 10
285.1025155326
 20
246.5105983395
 30
0.0
 10
285.1145220832
 20
246.6286277275
 30
0.0
 10
285.1229442562
 20
246.716499335
 30
0.0
  0
SPLINE
  5
400
100
AcDbEntity
  8
0
100
AcDbSpline
 62
9
  6
CONTINUOUS
 70
0
 71
3
 72
12
 73
8
 74
0
 42
0.0000001
 43
0.0000001
 44
0.0000000001
 40
0.0
 40
0.0
 40
0.0
 40
0.0
 40
0.3395038678
 40
0.6527631707
 40
0.8807349728
 40
0.9546666701
 40
1.0
 40
1.0
 40
1.0
 40
1.0
 10
288.5456278225
 20
245.329434021
 30
0.0
 10
288.5911374294
 20
245.4259805336
 30
0.0
 10
288.6749024643
 20
245.613513596
 30
0.0
 10
288.7772747173
 20
245.8704439712
 30
0.0
 10
288.8377548643
 20
246.0553099194
 30
0.0
 10
288.858128608
 20
246.1619916719
 30
0.0
 10
288.860929716
 20
246.2003179438
 30
0.0
 10
288.8576080881
 20
246.2141775921
 30
0.0
  0
SPLINE
  5
401
100
AcDbEntity
  8
0
100
AcDbSpline
 62
9
  6
CONTINUOUS
 70
0
 71
3
 72
12
 73
8
 74
0
 42
0.0000001
 43
0.0000001
 44
0.0000000001
 40
0.0
 40
0.0
 40
0.0
 40
0.0
 40
0.0369308329
 40
0.102854608
 40
0.3290154973
 40
0.6507647731
 40
1.0
 40
1.0
 40
1.0
 40
1.0
 10
288.5235370154
 20
246.3520366263
 30
0.0
 10
288.531084974
 20
246.3427175717
 30
0.0
 10
288.5384788556
 20
246.30817821
 30
0.0
 10
288.5403405906
 20
246.2026127609
 30
0.0
 10
288.5109812998
 20
246.0032708369
 30
0.0
 10
288.450575765
 20
245.7190967638
 30
0.0
 10
288.3941412255
 20
245.5082919297
 30
0.0
 10
288.3626318515
 20
245.3993519706
 30
0.0
  0
SPLINE
  5
402
100
AcDbEntity
  8
0
100
AcDbSpline
 62
9
  6
CONTINUOUS
 70
0
 71
3
 72
9
 73
5
 74
0
 42
0.0000001
 43
0.0000001
 44
0.0000000001
 40
0.0
 40
0.0
 40
0.0
 40
0.0
 40
0.5054497893
 40
1.0
 40
1.0
 40
1.0
 40
1.0
 10
293.7142605669
 20
244.2386755419
 30
0.0
 10
293.715419232
 20
244.6517068681
 30
0.0
 10
293.4638796236
 20
245.4919288449
 30
0.0
 10
292.7567444836
 20
246.0202153504
 30
0.0
 10
292.3726622005
 20
246.1459087634
 30
0.0
  0
SPLINE
  5
403
100
AcDbEntity
  8
0
100
AcDbSpline
 62
9
  6
CONTINUOUS
 70
0
 71
3
 72
8
 73
4
 74
0
 42
0.0000001
 43
0.0000001
 44
0.0000000001
 40
0.0
 40
0.0
 40
0.0
 40
0.0
 40
1.0
 40
1.0
 40
1.0
 40
1.0
 10
288.8576081224
 20
246.2141676962
 30
0.0
 10
289.1431776507
 20
246.066506196
 30
0.0
 10
289.4009634747
 20
245.8541262512
 30
0.0
 10
289.6077409254
 20
245.6079617532
 30
0.0
  0
SPLINE
  5
404
100
AcDbEntity
  8
0
100
AcDbSpline
 62
9
  6
CONTINUOUS
 70
0
 71
3
 72
8
 73
4
 74
0
 42
0.0000001
 43
0.0000001
 44
0.0000000001
 40
0.0
 40
0.0
 40
0.0
 40
0.0
 40
1.0
 40
1.0
 40
1.0
 40
1.0
 10
298.0150564368
 20
242.9495590231
 30
0.0
 10
298.0694296788
 20
243.1622670359
 30
0.0
 10
298.1139421787
 20
243.3779019094
 30
0.0
 10
298.1452533047
 20
243.5952052953
 30
0.0
  0
SPLINE
  5
405
100
AcDbEntity
  8
0
100
AcDbSpline
 62
9
  6
CONTINUOUS
 70
0
 71
3
 72
9
 73
5
 74
0
 42
0.0000001
 43
0.0000001
 44
0.0000000001
 40
0.0
 40
0.0
 40
0.0
 40
0.0
 40
0.3060226796
 40
1.0
 40
1.0
 40
1.0
 40
1.0
 10
293.1824431621
 20
246.0386397693
 30
0.0
 10
293.1003962241
 20
246.0533989287
 30
0.0
 10
292.8319454939
 20
246.0988209651
 30
0.0
 10
292.5612645617
 20
246.1370020074
 30
0.0
 10
292.3723683025
 20
246.1445464526
 30
0.0
  0
SPLINE
  5
406
100
AcDbEntity
  8
0
100
AcDbSpline
 62
9
  6
CONTINUOUS
 70
0
 71
3
 72
9
 73
5
 74
0
 42
0.0000001
 43
0.0000001
 44
0.0000000001
 40
0.0
 40
0.0
 40
0.0
 40
0.0
 40
0.2810105213
 40
1.0
 40
1.0
 40
1.0
 40
1.0
 10
294.4569188537
 20
245.7692613339
 30
0.0
 10
294.3380937615
 20
245.7970206058
 30
0.0
 10
293.914840681
 20
245.8939866877
 30
0.0
 10
293.4897408815
 20
245.9834737948
 30
0.0
 10
293.1824431621
 20
246.0386397693
 30
0.0
  0
SPLINE
  5
407
100
AcDbEntity
  8
0
100
AcDbSpline
 62
9
  6
CONTINUOUS
 70
0
 71
3
 72
9
 73
5
 74
0
 42
0.0000001
 43
0.0000001
 44
0.0000000001
 40
0.0
 40
0.0
 40
0.0
 40
0.0
 40
0.2676653268
 40
1.0
 40
1.0
 40
1.0
 40
1.0
 10
296.1271269132
 20
245.3508426385
 30
0.0
 10
295.9785587244
 20
245.3899402176
 30
0.0
 10
295.4232562515
 20
245.5350371935
 30
0.0
 10
294.8662244401
 20
245.6736531196
 30
0.0
 10
294.4569188537
 20
245.7692613339
 30
0.0
  0
SPLINE
  5
408
100
AcDbEntity
  8
0
100
AcDbSpline
 62
9
  6
CONTINUOUS
 70
0
 71
3
 72
9
 73
5
 74
0
 42
0.0000001
 43
0.0000001
 44
0.0000000001
 40
0.0
 40
0.0
 40
0.0
 40
0.0
 40
0.2944443346
 40
1.0
 40
1.0
 40
1.0
 40
1.0
 10
298.1016582988
 20
244.7084831539
 30
0.0
 10
298.0942963294
 20
244.7238046174
 30
0.0
 10
298.0668731688
 20
244.7743371044
 30
0.0
 10
298.0261148232
 20
244.819711147
 30
0.0
 10
297.9904489083
 20
244.8393845472
 30
0.0
  0
SPLINE
  5
409
100
AcDbEntity
  8
0
100
AcDbSpline
 62
9
  6
CONTINUOUS
 70
0
 71
3
 72
8
 73
4
 74
0
 42
0.0000001
 43
0.0000001
 44
0.0000000001
 40
0.0
 40
0.0
 40
0.0
 40
0.0
 40
1.0
 40
1.0
 40
1.0
 40
1.0
 10
298.131667946
 20
244.632611834
 30
0.0
 10
298.1232473471
 20
244.658474522
 30
0.0
 10
298.1134281909
 20
244.6839702893
 30
0.0
 10
298.1016483211
 20
244.7084859943
 30
0.0
  0
SPLINE
  5
40A
100
AcDbEntity
  8
0
100
AcDbSpline
 62
9
  6
CONTINUOUS
 70
0
 71
3
 72
9
 73
5
 74
0
 42
0.0000001
 43
0.0000001
 44
0.0000000001
 40
0.0
 40
0.0
 40
0.0
 40
0.0
 40
0.2890853081
 40
1.0
 40
1.0
 40
1.0
 40
1.0
 10
298.1897269505
 20
244.1963577071
 30
0.0
 10
298.1891784594
 20
244.2388359945
 30
0.0
 10
298.183269857
 20
244.3854433329
 30
0.0
 10
298.164026186
 20
244.5332699313
 30
0.0
 10
298.131672341
 20
244.6326045383
 30
0.0
  0
SPLINE
  5
40B
100
AcDbEntity
  8
0
100
AcDbSpline
 62
9
  6
CONTINUOUS
 70
0
 71
3
 72
9
 73
5
 74
0
 42
0.0000001
 43
0.0000001
 44
0.0000000001
 40
0.0
 40
0.0
 40
0.0
 40
0.0
 40
0.2704398476
 40
1.0
 40
1.0
 40
1.0
 40
1.0
 10
298.1451658555
 20
243.595206839
 30
0.0
 10
298.1529170225
 20
243.6490194423
 30
0.0
 10
298.178173371
 20
243.8484262052
 30
0.0
 10
298.1916206017
 20
244.0497025327
 30
0.0
 10
298.1897269505
 20
244.1963577071
 30
0.0
  0
SPLINE
  5
40C
100
AcDbEntity
  8
0
100
AcDbSpline
 62
9
  6
CONTINUOUS
 70
0
 71
3
 72
9
 73
5
 74
0
 42
0.0000001
 43
0.0000001
 44
0.0000000001
 40
0.0
 40
0.0
 40
0.0
 40
0.0
 40
0.2413453633
 40
1.0
 40
1.0
 40
1.0
 40
1.0
 10
295.6620477358
 20
-55.6952846046
 30
0.0
 10
295.8203543153
 20
-55.4986539947
 30
0.0
 10
296.5105404479
 20
-54.7131875631
 30
0.0
 10
297.3614878559
 20
-54.0598813217
 30
0.0
 10
298.0698653672
 20
-53.7022817883
 30
0.0
  0
SPLINE
  5
40D
100
AcDbEntity
  8
0
100
AcDbSpline
 62
9
  6
CONTINUOUS
 70
0
 71
3
 72
9
 73
5
 74
0
 42
0.0000001
 43
0.0000001
 44
0.0000000001
 40
0.0
 40
0.0
 40
0.0
 40
0.0
 40
0.2468860621
 40
1.0
 40
1.0
 40
1.0
 40
1.0
 10
294.9808372516
 20
-56.6632159298
 30
0.0
 10
295.0318654075
 20
-56.5802041214
 30
0.0
 10
295.2434766121
 20
-56.247033761
 30
0.0
 10
295.4756445685
 20
-55.9268136326
 30
0.0
 10
295.6620477358
 20
-55.6952846046
 30
0.0
  0
SPLINE
  5
40E
100
AcDbEntity
  8
0
100
AcDbSpline
 62
9
  6
CONTINUOUS
 70
0
 71
3
 72
9
 73
5
 74
0
 42
0.0000001
 43
0.0000001
 44
0.0000000001
 40
0.0
 40
0.0
 40
0.0
 40
0.0
 40
0.2256245309
 40
1.0
 40
1.0
 40
1.0
 40
1.0
 10
294.4478199979
 20
-56.509295771
 30
0.0
 10
294.4896227515
 20
-56.5116900897
 30
0.0
 10
294.6740477953
 20
-56.5367877291
 30
0.0
 10
294.8504484358
 20
-56.6027941928
 30
0.0
 10
294.9808372516
 20
-56.6632159298
 30
0.0
  0
SPLINE
  5
40F
100
AcDbEntity
  8
0
100
AcDbSpline
 62
9
  6
CONTINUOUS
 70
0
 71
3
 72
9
 73
5
 74
0
 42
0.0000001
 43
0.0000001
 44
0.0000000001
 40
0.0
 40
0.0
 40
0.0
 40
0.0
 40
0.1925389778
 40
1.0
 40
1.0
 40
1.0
 40
1.0
 10
293.7748588555
 20
-56.4557617914
 30
0.0
 10
293.8178714588
 20
-56.4609878497
 30
0.0
 10
294.0417101875
 20
-56.4844481733
 30
0.0
 10
294.2663756966
 20
-56.4989044769
 30
0.0
 10
294.4477891373
 20
-56.5092963079
 30
0.0
  0
SPLINE
  5
410
100
AcDbEntity
  8
0
100
AcDbSpline
 62
9
  6
CONTINUOUS
 70
0
 71
3
 72
12
 73
8
 74
0
 42
0.0000001
 43
0.0000001
 44
0.0000000001
 40
0.0
 40
0.0
 40
0.0
 40
0.0
 40
0.3389320958
 40
0.6311179805
 40
0.8564975023
 40
0.9392930286
 40
1.0
 40
1.0
 40
1.0
 40
1.0
 10
298.0101066098
 20
242.9306607423
 30
0.0
 10
297.5338407569
 20
243.10797771
 30
0.0
 10
296.6437302539
 20
243.4297298511
 30
0.0
 10
295.4248071129
 20
243.8339581387
 30
0.0
 10
294.5592134964
 20
244.0844248372
 30
0.0
 10
294.0187728596
 20
244.2020549686
 30
0.0
 10
293.8052684028
 20
244.2334340375
 30
0.0
 10
293.7143735241
 20
244.2383094131
 30
0.0
  0
SPLINE
  5
411
100
AcDbEntity
  8
0
100
AcDbSpline
 62
9
  6
CONTINUOUS
 70
0
 71
3
 72
9
 73
5
 74
0
 42
0.0000001
 43
0.0000001
 44
0.0000000001
 40
0.0
 40
0.0
 40
0.0
 40
0.0
 40
0.227912961
 40
1.0
 40
1.0
 40
1.0
 40
1.0
 10
293.7141571901
 20
244.2415182895
 30
0.0
 10
293.4441285884
 20
244.2519162661
 30
0.0
 10
292.259501712
 20
244.3017237483
 30
0.0
 10
291.0755365483
 20
244.3665386444
 30
0.0
 10
290.1617937597
 20
244.4222174636
 30
0.0
  0
SPLINE
  5
412
100
AcDbEntity
  8
0
100
AcDbSpline
 62
9
  6
CONTINUOUS
 70
0
 71
3
 72
9
 73
5
 74
0
 42
0.0000001
 43
0.0000001
 44
0.0000000001
 40
0.0
 40
0.0
 40
0.0
 40
0.0
 40
0.2718112292
 40
1.0
 40
1.0
 40
1.0
 40
1.0
 10
290.2223339069
 20
-56.1717691998
 30
0.0
 10
290.5444236477
 20
-56.1945239705
 30
0.0
 10
291.7292217498
 20
-56.2806674362
 30
0.0
 10
292.9133330484
 20
-56.3767576665
 30
0.0
 10
293.7747543998
 20
-56.4557632002
 30
0.0
  0
SPLINE
  5
413
100
AcDbEntity
  8
0
100
AcDbSpline
 62
9
  6
CONTINUOUS
 70
0
 71
3
 72
10
 73
6
 74
0
 42
0.0000001
 43
0.0000001
 44
0.0000000001
 40
0.0
 40
0.0
 40
0.0
 40
0.0
 40
0.567253619
 40
0.8105489922
 40
1.0
 40
1.0
 40
1.0
 40
1.0
 10
298.0698291606
 20
-53.7023015562
 30
0.0
 10
298.1709229467
 20
-53.9903592411
 30
0.0
 10
298.2921999681
 20
-54.4124248333
 30
0.0
 10
298.3618717425
 20
-54.9464169459
 30
0.0
 10
298.361700856
 20
-55.1812593658
 30
0.0
 10
298.3465409132
 20
-55.282083951
 30
0.0
  0
SPLINE
  5
414
100
AcDbEntity
  8
0
100
AcDbSpline
 62
9
  6
CONTINUOUS
 70
0
 71
3
 72
9
 73
5
 74
0
 42
0.0000001
 43
0.0000001
 44
0.0000000001
 40
0.0
 40
0.0
 40
0.0
 40
0.0
 40
0.4976812099
 40
1.0
 40
1.0
 40
1.0
 40
1.0
 10
298.2631310296
 20
-55.5098816056
 30
0.0
 10
298.594285425
 20
-55.3524775221
 30
0.0
 10
299.1798428306
 20
-54.8364007866
 30
0.0
 10
299.4045589057
 20
-54.0906301473
 30
0.0
 10
299.4139430476
 20
-53.72067285
 30
0.0
  0
SPLINE
  5
415
100
AcDbEntity
  8
0
100
AcDbSpline
 62
9
  6
CONTINUOUS
 70
0
 71
3
 72
9
 73
5
 74
0
 42
0.0000001
 43
0.0000001
 44
0.0000000001
 40
0.0
 40
0.0
 40
0.0
 40
0.0
 40
0.2248533293
 40
1.0
 40
1.0
 40
1.0
 40
1.0
 10
225.2535572282
 20
-19.062017749
 30
0.0
 10
225.2423364611
 20
-19.1102263496
 30
0.0
 10
225.194878578
 20
-19.325194711
 30
0.0
 10
225.1554397504
 20
-19.5418744072
 30
0.0
 10
225.1276840787
 20
-19.7102357977
 30
0.0
  0
SPLINE
  5
416
100
AcDbEntity
  8
0
100
AcDbSpline
 62
9
  6
CONTINUOUS
 70
0
 71
3
 72
10
 73
6
 74
0
 42
0.0000001
 43
0.0000001
 44
0.0000000001
 40
0.0
 40
0.0
 40
0.0
 40
0.0
 40
0.4590991738
 40
0.7345124226
 40
1.0
 40
1.0
 40
1.0
 40
1.0
 10
280.4804221583
 20
-0.883548499
 30
0.0
 10
280.3783530783
 20
-1.248624655
 30
0.0
 10
279.9465730418
 20
-1.7523186395
 30
0.0
 10
279.2206106453
 20
-2.1443162025
 30
0.0
 10
278.7845361802
 20
-2.2649596827
 30
0.0
 10
278.5678483168
 20
-2.2981292912
 30
0.0
  0
SPLINE
  5
417
100
AcDbEntity
  8
0
100
AcDbSpline
 62
9
  6
CONTINUOUS
 70
0
 71
3
 72
8
 73
4
 74
0
 42
0.0000001
 43
0.0000001
 44
0.0000000001
 40
0.0
 40
0.0
 40
0.0
 40
0.0
 40
1.0
 40
1.0
 40
1.0
 40
1.0
 10
285.1065993272
 20
-16.845342876
 30
0.0
 10
285.1302547598
 20
-16.5625684851
 30
0.0
 10
285.1290912768
 20
-16.2768968165
 30
0.0
 10
285.1062360991
 20
-15.9940566204
 30
0.0
  0
SPLINE
  5
418
100
AcDbEntity
  8
0
100
AcDbSpline
 62
9
  6
CONTINUOUS
 70
0
 71
3
 72
13
 73
9
 74
0
 42
0.0000001
 43
0.0000001
 44
0.0000000001
 40
0.0
 40
0.0
 40
0.0
 40
0.0
 40
0.1267782089
 40
0.2523302844
 40
0.3770633633
 40
0.5015125149
 40
0.75030891
 40
1.0
 40
1.0
 40
1.0
 40
1.0
 10
283.696254193
 20
-19.0500634816
 30
0.0
 10
283.8152432715
 20
-19.0409916986
 30
0.0
 10
284.0511025588
 20
-18.9803622925
 30
0.0
 10
284.3490686002
 20
-18.7778746798
 30
0.0
 10
284.5822879501
 20
-18.5095950959
 30
0.0
 10
284.82107958
 20
-18.1041820503
 30
0.0
 10
285.0139740892
 20
-17.544943225
 30
0.0
 10
285.0870063443
 20
-17.079555199
 30
0.0
 10
285.1065993272
 20
-16.845342876
 30
0.0
  0
SPLINE
  5
419
100
AcDbEntity
  8
0
100
AcDbSpline
 62
9
  6
CONTINUOUS
 70
0
 71
3
 72
9
 73
5
 74
0
 42
0.0000001
 43
0.0000001
 44
0.0000000001
 40
0.0
 40
0.0
 40
0.0
 40
0.0
 40
0.5110934583
 40
1.0
 40
1.0
 40
1.0
 40
1.0
 10
279.4830659846
 20
-0.0542794915
 30
0.0
 10
279.3289081724
 20
-0.3626746722
 30
0.0
 10
278.9136763322
 20
-0.9105897228
 30
0.0
 10
278.3640690786
 20
-1.3211872493
 30
0.0
 10
278.0691095843
 20
-1.4687490324
 30
0.0
  0
SPLINE
  5
41A
100
AcDbEntity
  8
0
100
AcDbSpline
 62
9
  6
CONTINUOUS
 70
0
 71
3
 72
9
 73
5
 74
0
 42
0.0000001
 43
0.0000001
 44
0.0000000001
 40
0.0
 40
0.0
 40
0.0
 40
0.0
 40
0.2325349611
 40
1.0
 40
1.0
 40
1.0
 40
1.0
 10
280.0777698631
 20
-0.4326298344
 30
0.0
 10
280.0356030607
 20
-0.3977790075
 30
0.0
 10
279.8489631807
 20
-0.2543247787
 30
0.0
 10
279.6444503535
 20
-0.1351625164
 30
0.0
 10
279.4830415068
 20
-0.0542596413
 30
0.0
  0
SPLINE
  5
41B
100
AcDbEntity
  8
0
100
AcDbSpline
 62
9
  6
CONTINUOUS
 70
0
 71
3
 72
9
 73
5
 74
0
 42
0.0000001
 43
0.0000001
 44
0.0000000001
 40
0.0
 40
0.0
 40
0.0
 40
0.0
 40
0.2318754728
 40
1.0
 40
1.0
 40
1.0
 40
1.0
 10
280.4803302215
 20
-0.8835358219
 30
0.0
 10
280.4558973577
 20
-0.8435706109
 30
0.0
 10
280.3417324317
 20
-0.6765965429
 30
0.0
 10
280.197161112
 20
-0.5317462594
 30
0.0
 10
280.0777698631
 20
-0.4326298344
 30
0.0
  0
SPLINE
  5
41C
100
AcDbEntity
  8
0
100
AcDbSpline
 62
9
  6
CONTINUOUS
 70
0
 71
3
 72
9
 73
5
 74
0
 42
0.0000001
 43
0.0000001
 44
0.0000000001
 40
0.0
 40
0.0
 40
0.0
 40
0.0
 40
0.2467384483
 40
1.0
 40
1.0
 40
1.0
 40
1.0
 10
277.6856749552
 20
188.8037226888
 30
0.0
 10
277.5976252268
 20
188.7599581445
 30
0.0
 10
277.2406960825
 20
188.5827396635
 30
0.0
 10
276.8839681028
 20
188.4050876599
 30
0.0
 10
276.6165331881
 20
188.2687586957
 30
0.0
  0
SPLINE
  5
41D
100
AcDbEntity
  8
0
100
AcDbSpline
 62
9
  6
CONTINUOUS
 70
0
 71
3
 72
9
 73
5
 74
0
 42
0.0000001
 43
0.0000001
 44
0.0000000001
 40
0.0
 40
0.0
 40
0.0
 40
0.0
 40
0.2406334359
 40
1.0
 40
1.0
 40
1.0
 40
1.0
 10
278.6643921798
 20
189.2931639713
 30
0.0
 10
278.5859180685
 20
189.2538455456
 30
0.0
 10
278.2597631121
 20
189.0905303859
 30
0.0
 10
277.9335712541
 20
188.9272881915
 30
0.0
 10
277.6856749552
 20
188.8037226888
 30
0.0
  0
SPLINE
  5
41E
100
AcDbEntity
  8
0
100
AcDbSpline
 62
9
  6
CONTINUOUS
 70
0
 71
3
 72
9
 73
5
 74
0
 42
0.0000001
 43
0.0000001
 44
0.0000000001
 40
0.0
 40
0.0
 40
0.0
 40
0.0
 40
0.219137142
 40
1.0
 40
1.0
 40
1.0
 40
1.0
 10
280.4418845434
 20
190.2413260611
 30
0.0
 10
280.4188125756
 20
190.2195315874
 30
0.0
 10
280.3082377056
 20
190.1256614087
 30
0.0
 10
280.1818365373
 20
190.0520423653
 30
0.0
 10
280.0806611244
 20
190.0015062855
 30
0.0
  0
SPLINE
  5
41F
100
AcDbEntity
  8
0
100
AcDbSpline
 62
9
  6
CONTINUOUS
 70
0
 71
3
 72
11
 73
7
 74
0
 42
0.0000001
 43
0.0000001
 44
0.0000000001
 40
0.0
 40
0.0
 40
0.0
 40
0.0
 40
0.2487913369
 40
0.4980871505
 40
0.7483564193
 40
1.0
 40
1.0
 40
1.0
 40
1.0
 10
285.052095334
 20
199.5138476691
 30
0.0
 10
285.0262356419
 20
199.7249233553
 30
0.0
 10
284.9220641991
 20
200.1435431803
 30
0.0
 10
284.588435735
 20
200.7030798439
 30
0.0
 10
284.0590921979
 20
201.1017938266
 30
0.0
 10
283.6221806675
 20
201.1835555346
 30
0.0
 10
283.4070893645
 20
201.1840274692
 30
0.0
  0
SPLINE
  5
420
100
AcDbEntity
  8
0
100
AcDbSpline
 62
9
  6
CONTINUOUS
 70
0
 71
3
 72
8
 73
4
 74
0
 42
0.0000001
 43
0.0000001
 44
0.0000000001
 40
0.0
 40
0.0
 40
0.0
 40
0.0
 40
1.0
 40
1.0
 40
1.0
 40
1.0
 10
285.0630139671
 20
198.9671747976
 30
0.0
 10
285.0773933145
 20
199.14886732
 30
0.0
 10
285.074259068
 20
199.3329396614
 30
0.0
 10
285.052095334
 20
199.5138476691
 30
0.0
  0
SPLINE
  5
421
100
AcDbEntity
  8
0
100
AcDbSpline
 62
9
  6
CONTINUOUS
 70
0
 71
3
 72
9
 73
5
 74
0
 42
0.0000001
 43
0.0000001
 44
0.0000000001
 40
0.0
 40
0.0
 40
0.0
 40
0.0
 40
0.4856268029
 40
1.0
 40
1.0
 40
1.0
 40
1.0
 10
280.4418384881
 20
190.2415477304
 30
0.0
 10
280.3717758605
 20
190.6743800659
 30
0.0
 10
279.8640555521
 20
191.5130397625
 30
0.0
 10
278.989265877
 20
191.9121299612
 30
0.0
 10
278.5288503692
 20
191.9729935143
 30
0.0
  0
SPLINE
  5
422
100
AcDbEntity
  8
0
100
AcDbSpline
 62
9
  6
CONTINUOUS
 70
0
 71
3
 72
9
 73
5
 74
0
 42
0.0000001
 43
0.0000001
 44
0.0000000001
 40
0.0
 40
0.0
 40
0.0
 40
0.0
 40
0.4952581426
 40
1.0
 40
1.0
 40
1.0
 40
1.0
 10
278.3482613837
 20
191.7332080286
 30
0.0
 10
278.7541144614
 20
191.6318255564
 30
0.0
 10
279.5159922703
 20
191.1761566644
 30
0.0
 10
279.9771693245
 20
190.4150823909
 30
0.0
 10
280.0806880225
 20
190.0015063413
 30
0.0
  0
SPLINE
  5
423
100
AcDbEntity
  8
0
100
AcDbSpline
 62
9
  6
CONTINUOUS
 70
0
 71
3
 72
9
 73
5
 74
0
 42
0.0000001
 43
0.0000001
 44
0.0000000001
 40
0.0
 40
0.0
 40
0.0
 40
0.0
 40
0.2467507784
 40
1.0
 40
1.0
 40
1.0
 40
1.0
 10
231.7092925168
 20
189.3259310307
 30
0.0
 10
231.7529004982
 20
189.238106196
 30
0.0
 10
231.9295200407
 20
188.8821287132
 30
0.0
 10
232.1066941914
 20
188.5264099982
 30
0.0
 10
232.2428395389
 20
188.2598327152
 30
0.0
  0
SPLINE
  5
424
100
AcDbEntity
  8
0
100
AcDbSpline
 62
9
  6
CONTINUOUS
 70
0
 71
3
 72
9
 73
5
 74
0
 42
0.0000001
 43
0.0000001
 44
0.0000000001
 40
0.0
 40
0.0
 40
0.0
 40
0.0
 40
0.2229193052
 40
1.0
 40
1.0
 40
1.0
 40
1.0
 10
230.8133809771
 20
191.1184875072
 30
0.0
 10
230.8797408719
 20
190.9851832307
 30
0.0
 10
231.1787069986
 20
190.3878283137
 30
0.0
 10
231.4778253184
 20
189.7905497677
 30
0.0
 10
231.7092925168
 20
189.3259310307
 30
0.0
  0
SPLINE
  5
425
100
AcDbEntity
  8
0
100
AcDbSpline
 62
9
  6
CONTINUOUS
 70
0
 71
3
 72
9
 73
5
 74
0
 42
0.0000001
 43
0.0000001
 44
0.0000000001
 40
0.0
 40
0.0
 40
0.0
 40
0.0
 40
0.2209514801
 40
1.0
 40
1.0
 40
1.0
 40
1.0
 10
230.5104669716
 20
191.7235858371
 30
0.0
 10
230.5329144098
 20
191.6790892087
 30
0.0
 10
230.634164565
 20
191.4775291755
 30
0.0
 10
230.7347739697
 20
191.2756485442
 30
0.0
 10
230.8133809771
 20
191.1184875072
 30
0.0
  0
SPLINE
  5
426
100
AcDbEntity
  8
0
100
AcDbSpline
 62
7
  6
CONTINUOUS
 70
0
 71
3
 72
18
 73
14
 74
0
 42
0.0000001
 43
0.0000001
 44
0.0000000001
 40
0.0
 40
0.0
 40
0.0
 40
0.0
 40
0.0054290216
 40
0.0200151976
 40
0.0439838958
 40
0.0770894997
 40
0.1190305664
 40
0.1694781046
 40
0.2937486598
 40
0.4450522649
 40
0.6177450873
 40
0.8054205358
 40
1.0
 40
1.0
 40
1.0
 40
1.0
 10
239.581217703
 20
-58.3353196683
 30
0.0
 10
239.5812210839
 20
-58.339125481
 30
0.0
 10
239.5615313936
 20
-58.3421169836
 30
0.0
 10
239.5365833116
 20
-58.3475570678
 30
0.0
 10
239.4834879955
 20
-58.3519575021
 30
0.0
 10
239.4155847038
 20
-58.3570500633
 30
0.0
 10
239.3272296321
 20
-58.3617380854
 30
0.0
 10
239.1757213998
 20
-58.3683000011
 30
0.0
 10
238.9471282413
 20
-58.3752635425
 30
0.0
 10
238.6330147978
 20
-58.3818949645
 30
0.0
 10
238.2743380452
 20
-58.3868637279
 30
0.0
 10
237.8853291916
 20
-58.389956379
 30
0.0
 10
237.6173617373
 20
-58.3906965645
 30
0.0
 10
237.4809590245
 20
-58.3907240026
 30
0.0
  0
SPLINE
  5
427
100
AcDbEntity
  8
0
100
AcDbSpline
 62
9
  6
CONTINUOUS
 70
0
 71
3
 72
9
 73
5
 74
0
 42
0.0000001
 43
0.0000001
 44
0.0000000001
 40
0.0
 40
0.0
 40
0.0
 40
0.0
 40
0.6563643041
 40
1.0
 40
1.0
 40
1.0
 40
1.0
 10
211.4443333827
 20
-61.2659161572
 30
0.0
 10
211.3929603119
 20
-61.2778333934
 30
0.0
 10
211.3146240831
 20
-61.2942127986
 30
0.0
 10
211.2352392452
 20
-61.3104069819
 30
0.0
 10
211.2076299904
 20
-61.3106421293
 30
0.0
  0
SPLINE
  5
428
100
AcDbEntity
  8
0
100
AcDbSpline
 62
9
  6
CONTINUOUS
 70
0
 71
3
 72
9
 73
5
 74
0
 42
0.0000001
 43
0.0000001
 44
0.0000000001
 40
0.0
 40
0.0
 40
0.0
 40
0.0
 40
0.2919141461
 40
1.0
 40
1.0
 40
1.0
 40
1.0
 10
211.8119313087
 20
-61.1753544652
 30
0.0
 10
211.7763760484
 20
-61.1844889684
 30
0.0
 10
211.6545181041
 20
-61.2155504458
 30
0.0
 10
211.532441697
 20
-61.2457951629
 30
0.0
 10
211.4456990921
 20
-61.2659169992
 30
0.0
  0
SPLINE
  5
429
100
AcDbEntity
  8
0
100
AcDbSpline
 62
9
  6
CONTINUOUS
 70
0
 71
3
 72
9
 73
5
 74
0
 42
0.0000001
 43
0.0000001
 44
0.0000000001
 40
0.0
 40
0.0
 40
0.0
 40
0.0
 40
0.2811969268
 40
1.0
 40
1.0
 40
1.0
 40
1.0
 10
212.4000534877
 20
-61.0202538743
 30
0.0
 10
212.3450107392
 20
-61.0350384204
 30
0.0
 10
212.1492177123
 20
-61.0874332707
 30
0.0
 10
211.9532278709
 20
-61.1391031108
 30
0.0
 10
211.8121212383
 20
-61.1753547613
 30
0.0
  0
SPLINE
  5
42A
100
AcDbEntity
  8
0
100
AcDbSpline
 62
9
  6
CONTINUOUS
 70
0
 71
3
 72
9
 73
5
 74
0
 42
0.0000001
 43
0.0000001
 44
0.0000000001
 40
0.0
 40
0.0
 40
0.0
 40
0.0
 40
0.2655277588
 40
1.0
 40
1.0
 40
1.0
 40
1.0
 10
214.6193234501
 20
-60.4099277498
 30
0.0
 10
214.5328780587
 20
-60.4339363037
 30
0.0
 10
214.2073059205
 20
-60.5243131574
 30
0.0
 10
213.8816802786
 20
-60.6144976043
 30
0.0
 10
213.6424581838
 20
-60.6805214359
 30
0.0
  0
SPLINE
  5
42B
100
AcDbEntity
  8
0
100
AcDbSpline
 62
9
  6
CONTINUOUS
 70
0
 71
3
 72
9
 73
5
 74
0
 42
0.0000001
 43
0.0000001
 44
0.0000000001
 40
0.0
 40
0.0
 40
0.0
 40
0.0
 40
0.2384971196
 40
1.0
 40
1.0
 40
1.0
 40
1.0
 10
232.4063457735
 20
-61.2295788498
 30
0.0
 10
232.3480412169
 20
-61.2106347969
 30
0.0
 10
232.1081520571
 20
-61.117032168
 30
0.0
 10
231.8919752416
 20
-60.9682391629
 30
0.0
 10
231.7455461813
 20
-60.8383412608
 30
0.0
  0
SPLINE
  5
42C
100
AcDbEntity
  8
0
100
AcDbSpline
 62
9
  6
CONTINUOUS
 70
0
 71
3
 72
9
 73
5
 74
0
 42
0.0000001
 43
0.0000001
 44
0.0000000001
 40
0.0
 40
0.0
 40
0.0
 40
0.0
 40
0.2171094535
 40
1.0
 40
1.0
 40
1.0
 40
1.0
 10
275.1566004666
 20
-61.2644747088
 30
0.0
 10
274.9358159133
 20
-61.2669041504
 30
0.0
 10
273.918859459
 20
-61.2754033563
 30
0.0
 10
272.9018613329
 20
-61.2774220832
 30
0.0
 10
272.1056703058
 20
-61.2776124473
 30
0.0
  0
SPLINE
  5
42D
100
AcDbEntity
  8
0
100
AcDbSpline
 62
9
  6
CONTINUOUS
 70
0
 71
3
 72
9
 73
5
 74
0
 42
0.0000001
 43
0.0000001
 44
0.0000000001
 40
0.0
 40
0.0
 40
0.0
 40
0.0
 40
0.1987489696
 40
1.0
 40
1.0
 40
1.0
 40
1.0
 10
276.1408956944
 20
-61.2465831569
 30
0.0
 10
276.0757068006
 20
-61.2486170959
 30
0.0
 10
275.7476592435
 20
-61.2571840735
 30
0.0
 10
275.4195194003
 20
-61.2615564176
 30
0.0
 10
275.1566004666
 20
-61.2644747088
 30
0.0
  0
SPLINE
  5
42E
100
AcDbEntity
  8
0
100
AcDbSpline
 62
9
  6
CONTINUOUS
 70
0
 71
3
 72
9
 73
5
 74
0
 42
0.0000001
 43
0.0000001
 44
0.0000000001
 40
0.0
 40
0.0
 40
0.0
 40
0.0
 40
0.2652936081
 40
1.0
 40
1.0
 40
1.0
 40
1.0
 10
277.2097859303
 20
-60.8291954235
 30
0.0
 10
277.1583584594
 20
-60.8745058646
 30
0.0
 10
276.9576795269
 20
-61.0370997525
 30
0.0
 10
276.7249340368
 20
-61.1623386187
 30
0.0
 10
276.5443116892
 20
-61.2207003037
 30
0.0
  0
SPLINE
  5
42F
100
AcDbEntity
  8
0
100
AcDbSpline
 62
9
  6
CONTINUOUS
 70
0
 71
3
 72
9
 73
5
 74
0
 42
0.0000001
 43
0.0000001
 44
0.0000000001
 40
0.0
 40
0.0
 40
0.0
 40
0.0
 40
0.2180223472
 40
1.0
 40
1.0
 40
1.0
 40
1.0
 10
297.1474939646
 20
-61.1601274336
 30
0.0
 10
297.1041297931
 20
-61.1489702698
 30
0.0
 10
296.9053403613
 20
-61.0973745147
 30
0.0
 10
296.7068975158
 20
-61.0444525309
 30
0.0
 10
296.5518110797
 20
-61.0027356817
 30
0.0
  0
SPLINE
  5
430
100
AcDbEntity
  8
0
100
AcDbSpline
 62
9
  6
CONTINUOUS
 70
0
 71
3
 72
9
 73
5
 74
0
 42
0.0000001
 43
0.0000001
 44
0.0000000001
 40
0.0
 40
0.0
 40
0.0
 40
0.0
 40
0.2037393919
 40
1.0
 40
1.0
 40
1.0
 40
1.0
 10
297.5288950206
 20
-61.2542750675
 30
0.0
 10
297.5028903408
 20
-61.2483090888
 30
0.0
 10
297.3754280336
 20
-61.2182660471
 30
0.0
 10
297.2484747366
 20
-61.1861095167
 30
0.0
 10
297.1474910211
 20
-61.1601274397
 30
0.0
  0
SPLINE
  5
431
100
AcDbEntity
  8
0
100
AcDbSpline
 62
7
  6
CONTINUOUS
 70
0
 71
3
 72
18
 73
14
 74
0
 42
0.0000001
 43
0.0000001
 44
0.0000000001
 40
0.0
 40
0.0
 40
0.0
 40
0.0
 40
0.0054290216
 40
0.0200151976
 40
0.0439838957
 40
0.0770894996
 40
0.1190305664
 40
0.1694781045
 40
0.2937486598
 40
0.4450522649
 40
0.6177450873
 40
0.8054205358
 40
1.0
 40
1.0
 40
1.0
 40
1.0
 10
273.5750236399
 20
-59.2184972589
 30
0.0
 10
273.5750270209
 20
-59.2223030716
 30
0.0
 10
273.5553373305
 20
-59.2252945742
 30
0.0
 10
273.5303892486
 20
-59.2307346584
 30
0.0
 10
273.4772939325
 20
-59.2351350927
 30
0.0
 10
273.4093906408
 20
-59.2402276539
 30
0.0
 10
273.3210355692
 20
-59.244915676
 30
0.0
 10
273.1695273369
 20
-59.2514775917
 30
0.0
 10
272.9409341784
 20
-59.2584411331
 30
0.0
 10
272.6268207348
 20
-59.2650725551
 30
0.0
 10
272.2681439823
 20
-59.2700413185
 30
0.0
 10
271.8791351286
 20
-59.2731339696
 30
0.0
 10
271.6111676743
 20
-59.2738741551
 30
0.0
 10
271.4747649615
 20
-59.2739015932
 30
0.0
  0
SPLINE
  5
432
100
AcDbEntity
  8
0
100
AcDbSpline
 62
9
  6
CONTINUOUS
 70
0
 71
3
 72
9
 73
5
 74
0
 42
0.0000001
 43
0.0000001
 44
0.0000000001
 40
0.0
 40
0.0
 40
0.0
 40
0.0
 40
0.242765292
 40
1.0
 40
1.0
 40
1.0
 40
1.0
 10
230.7237110879
 20
0.5722259957
 30
0.0
 10
230.8495881984
 20
0.6353925631
 30
0.0
 10
231.3687851184
 20
0.8942218828
 30
0.0
 10
231.8885245383
 20
1.1519822008
 30
0.0
 10
232.2804372538
 20
1.3504474759
 30
0.0
  0
SPLINE
  5
433
100
AcDbEntity
  8
0
100
AcDbSpline
 62
9
  6
CONTINUOUS
 70
0
 71
3
 72
9
 73
5
 74
0
 42
0.0000001
 43
0.0000001
 44
0.0000000001
 40
0.0
 40
0.0
 40
0.0
 40
0.0
 40
0.2149921182
 40
1.0
 40
1.0
 40
1.0
 40
1.0
 10
228.4562003396
 20
-0.8940056028
 30
0.0
 10
228.5050333
 20
-0.8141241579
 30
0.0
 10
228.7695400972
 20
-0.4651989947
 30
0.0
 10
229.1465251428
 20
-0.2167677952
 30
0.0
 10
229.4525159731
 20
-0.064334115
 30
0.0
  0
SPLINE
  5
434
100
AcDbEntity
  8
0
100
AcDbSpline
 62
9
  6
CONTINUOUS
 70
0
 71
3
 72
9
 73
5
 74
0
 42
0.0000001
 43
0.0000001
 44
0.0000000001
 40
0.0
 40
0.0
 40
0.0
 40
0.0
 40
0.5047121824
 40
1.0
 40
1.0
 40
1.0
 40
1.0
 10
228.7787174915
 20
189.9911805636
 30
0.0
 10
228.8820041603
 20
190.404789143
 30
0.0
 10
229.342852509
 20
191.1660971729
 30
0.0
 10
230.1045779694
 20
191.6220241745
 30
0.0
 10
230.510415633
 20
191.7235730435
 30
0.0
  0
SPLINE
  5
435
100
AcDbEntity
  8
0
100
AcDbSpline
 62
9
  6
CONTINUOUS
 70
0
 71
3
 72
9
 73
5
 74
0
 42
0.0000001
 43
0.0000001
 44
0.0000000001
 40
0.0
 40
0.0
 40
0.0
 40
0.0
 40
0.2191025403
 40
1.0
 40
1.0
 40
1.0
 40
1.0
 10
228.4177546602
 20
190.2308625786
 30
0.0
 10
228.4408109019
 20
190.2090847178
 30
0.0
 10
228.5513266749
 20
190.1152703907
 30
0.0
 10
228.6776611898
 20
190.0417034547
 30
0.0
 10
228.7787775264
 20
189.9911800892
 30
0.0
  0
SPLINE
  5
436
100
AcDbEntity
  8
0
100
AcDbSpline
 62
9
  6
CONTINUOUS
 70
0
 71
3
 72
9
 73
5
 74
0
 42
0.0000001
 43
0.0000001
 44
0.0000000001
 40
0.0
 40
0.0
 40
0.0
 40
0.0
 40
0.4855956147
 40
1.0
 40
1.0
 40
1.0
 40
1.0
 10
228.4177735921
 20
190.2308609984
 30
0.0
 10
228.4875185395
 20
190.6637380167
 30
0.0
 10
228.9947945838
 20
191.5027890362
 30
0.0
 10
229.8694950525
 20
191.9022441414
 30
0.0
 10
230.3299365402
 20
191.96330053
 30
0.0
  0
SPLINE
  5
437
100
AcDbEntity
  8
0
100
AcDbSpline
 62
9
  6
CONTINUOUS
 70
0
 71
3
 72
8
 73
4
 74
0
 42
0.0000001
 43
0.0000001
 44
0.0000000001
 40
0.0
 40
0.0
 40
0.0
 40
0.0
 40
1.0
 40
1.0
 40
1.0
 40
1.0
 10
223.8094865867
 20
199.5012005759
 30
0.0
 10
223.7873831416
 20
199.3202854011
 30
0.0
 10
223.7844492344
 20
199.136217935
 30
0.0
 10
223.7988038595
 20
198.9545236658
 30
0.0
  0
SPLINE
  5
438
100
AcDbEntity
  8
0
100
AcDbSpline
 62
9
  6
CONTINUOUS
 70
0
 71
3
 72
11
 73
7
 74
0
 42
0.0000001
 43
0.0000001
 44
0.0000000001
 40
0.0
 40
0.0
 40
0.0
 40
0.0
 40
0.2518540915
 40
0.5025026963
 40
0.7518243777
 40
1.0
 40
1.0
 40
1.0
 40
1.0
 10
225.4539749027
 20
201.172369567
 30
0.0
 10
225.2387143762
 20
201.1717269338
 30
0.0
 10
224.8028824424
 20
201.0845032883
 30
0.0
 10
224.2701404926
 20
200.6910337406
 30
0.0
 10
223.9369133592
 20
200.1301375178
 30
0.0
 10
223.8352109143
 20
199.7117524243
 30
0.0
 10
223.8094865867
 20
199.5012005759
 30
0.0
  0
SPLINE
  5
439
100
AcDbEntity
  8
0
100
AcDbSpline
 62
9
  6
CONTINUOUS
 70
0
 71
3
 72
10
 73
6
 74
0
 42
0.0000001
 43
0.0000001
 44
0.0000000001
 40
0.0
 40
0.0
 40
0.0
 40
0.0
 40
0.2655081171
 40
0.5409225664
 40
1.0
 40
1.0
 40
1.0
 40
1.0
 10
230.3689399351
 20
-2.3078305525
 30
0.0
 10
230.152242952
 20
-2.2747507686
 30
0.0
 10
229.7161434267
 20
-2.1542905684
 30
0.0
 10
228.9901079046
 20
-1.7625972245
 30
0.0
 10
228.5582527788
 20
-1.2590248218
 30
0.0
 10
228.4561756794
 20
-0.8940081803
 30
0.0
  0
SPLINE
  5
43A
100
AcDbEntity
  8
0
100
AcDbSpline
 62
9
  6
CONTINUOUS
 70
0
 71
3
 72
10
 73
6
 74
0
 42
0.0000001
 43
0.0000001
 44
0.0000000001
 40
0.0
 40
0.0
 40
0.0
 40
0.0
 40
0.4956004459
 40
0.746691719
 40
1.0
 40
1.0
 40
1.0
 40
1.0
 10
224.2882021862
 20
-18.3827609196
 30
0.0
 10
224.3931903984
 20
-18.5552145986
 30
0.0
 10
224.5907954015
 20
-18.7991497041
 30
0.0
 10
224.9465838222
 20
-19.0070718134
 30
0.0
 10
225.1506589863
 20
-19.0540264628
 30
0.0
 10
225.2535572001
 20
-19.0618191263
 30
0.0
  0
SPLINE
  5
43B
100
AcDbEntity
  8
0
100
AcDbSpline
 62
9
  6
CONTINUOUS
 70
0
 71
3
 72
8
 73
4
 74
0
 42
0.0000001
 43
0.0000001
 44
0.0000000001
 40
0.0
 40
0.0
 40
0.0
 40
0.0
 40
1.0
 40
1.0
 40
1.0
 40
1.0
 10
223.9328400723
 20
-17.4575110714
 30
0.0
 10
224.005058317
 20
-17.7799032136
 30
0.0
 10
224.1164015609
 20
-18.1005611441
 30
0.0
 10
224.2882021862
 20
-18.3827609196
 30
0.0
  0
SPLINE
  5
43C
100
AcDbEntity
  8
0
100
AcDbSpline
 62
9
  6
CONTINUOUS
 70
0
 71
3
 72
8
 73
4
 74
0
 42
0.0000001
 43
0.0000001
 44
0.0000000001
 40
0.0
 40
0.0
 40
0.0
 40
0.0
 40
1.0
 40
1.0
 40
1.0
 40
1.0
 10
223.8420457281
 20
-16.0063632971
 30
0.0
 10
223.8039902468
 20
-16.4895287276
 30
0.0
 10
223.8258433467
 20
-16.9848074078
 30
0.0
 10
223.9328400723
 20
-17.4575110714
 30
0.0
  0
SPLINE
  5
43D
100
AcDbEntity
  8
0
100
AcDbSpline
 62
9
  6
CONTINUOUS
 70
0
 71
3
 72
9
 73
5
 74
0
 42
0.0000001
 43
0.0000001
 44
0.0000000001
 40
0.0
 40
0.0
 40
0.0
 40
0.0
 40
0.4889403158
 40
1.0
 40
1.0
 40
1.0
 40
1.0
 10
230.8669982542
 20
-1.4782361424
 30
0.0
 10
230.5719403931
 20
-1.3307985082
 30
0.0
 10
230.0221165554
 20
-0.9204544696
 30
0.0
 10
229.6066520458
 20
-0.3726742154
 30
0.0
 10
229.4524106513
 20
-0.0643349923
 30
0.0
  0
SPLINE
  5
43E
100
AcDbEntity
  8
0
100
AcDbSpline
 62
9
  6
CONTINUOUS
 70
0
 71
3
 72
9
 73
5
 74
0
 42
0.0000001
 43
0.0000001
 44
0.0000000001
 40
0.0
 40
0.0
 40
0.0
 40
0.0
 40
0.7546013885
 40
1.0
 40
1.0
 40
1.0
 40
1.0
 10
213.8819761525
 20
-59.1343383845
 30
0.0
 10
213.8075454626
 20
-59.0274308553
 30
0.0
 10
213.7225254202
 20
-58.8757042984
 30
0.0
 10
213.6553779258
 20
-58.7166614813
 30
0.0
 10
213.6400042956
 20
-58.6771867157
 30
0.0
  0
SPLINE
  5
43F
100
AcDbEntity
  8
0
100
AcDbSpline
 62
9
  6
CONTINUOUS
 70
0
 71
3
 72
8
 73
4
 74
0
 42
0.0000001
 43
0.0000001
 44
0.0000000001
 40
0.0
 40
0.0
 40
0.0
 40
0.0
 40
1.0
 40
1.0
 40
1.0
 40
1.0
 10
215.5238419538
 20
-60.0976864182
 30
0.0
 10
215.3020654439
 20
-60.0760927519
 30
0.0
 10
215.0814879954
 20
-60.0190292179
 30
0.0
 10
214.8760161671
 20
-59.9328176495
 30
0.0
  0
SPLINE
  5
440
100
AcDbEntity
  8
0
100
AcDbSpline
 62
9
  6
CONTINUOUS
 70
0
 71
3
 72
9
 73
5
 74
0
 42
0.0000001
 43
0.0000001
 44
0.0000000001
 40
0.0
 40
0.0
 40
0.0
 40
0.0
 40
0.6141962221
 40
1.0
 40
1.0
 40
1.0
 40
1.0
 10
210.694334
 20
-55.5275224289
 30
0.0
 10
209.9733210613
 20
-55.7436633657
 30
0.0
 10
208.799084196
 20
-56.0943694797
 30
0.0
 10
207.6234663842
 20
-56.4408457874
 30
0.0
 10
207.1677727203
 20
-56.5669196696
 30
0.0
  0
SPLINE
  5
441
100
AcDbEntity
  8
0
100
AcDbSpline
 62
9
  6
CONTINUOUS
 70
0
 71
3
 72
10
 73
6
 74
0
 42
0.0000001
 43
0.0000001
 44
0.0000000001
 40
0.0
 40
0.0
 40
0.0
 40
0.0
 40
0.6809432768
 40
0.8856787144
 40
1.0
 40
1.0
 40
1.0
 40
1.0
 10
207.1677727203
 20
-56.5669196696
 30
0.0
 10
207.0442858013
 20
-56.601084014
 30
0.0
 10
206.883463921
 20
-56.6457869894
 30
0.0
 10
206.700335485
 20
-56.6875118886
 30
0.0
 10
206.6411082618
 20
-56.6993577273
 30
0.0
 10
206.6196110748
 20
-56.7001175819
 30
0.0
  0
SPLINE
  5
442
100
AcDbEntity
  8
0
100
AcDbSpline
 62
9
  6
CONTINUOUS
 70
0
 71
3
 72
9
 73
5
 74
0
 42
0.0000001
 43
0.0000001
 44
0.0000000001
 40
0.0
 40
0.0
 40
0.0
 40
0.0
 40
0.3025460853
 40
1.0
 40
1.0
 40
1.0
 40
1.0
 10
213.6657788449
 20
-57.9722550188
 30
0.0
 10
213.6715246875
 20
-57.9278969028
 30
0.0
 10
213.6952892792
 20
-57.7829637559
 30
0.0
 10
213.7446252232
 20
-57.6354523072
 30
0.0
 10
213.8096962112
 20
-57.5554654013
 30
0.0
  0
SPLINE
  5
443
100
AcDbEntity
  8
0
100
AcDbSpline
 62
9
  6
CONTINUOUS
 70
0
 71
3
 72
9
 73
5
 74
0
 42
0.0000001
 43
0.0000001
 44
0.0000000001
 40
0.0
 40
0.0
 40
0.0
 40
0.0
 40
0.2723961855
 40
1.0
 40
1.0
 40
1.0
 40
1.0
 10
213.6424440781
 20
-58.2913334369
 30
0.0
 10
213.643333116
 20
-58.2622917381
 30
0.0
 10
213.6475107827
 20
-58.1557190237
 30
0.0
 10
213.6557014733
 20
-58.0492082851
 30
0.0
 10
213.6657788449
 20
-57.9722550188
 30
0.0
  0
SPLINE
  5
444
100
AcDbEntity
  8
0
100
AcDbSpline
 62
9
  6
CONTINUOUS
 70
0
 71
3
 72
9
 73
5
 74
0
 42
0.0000001
 43
0.0000001
 44
0.0000000001
 40
0.0
 40
0.0
 40
0.0
 40
0.0
 40
0.267800183
 40
1.0
 40
1.0
 40
1.0
 40
1.0
 10
213.6400082124
 20
-58.677141237
 30
0.0
 10
213.6398065896
 20
-58.6427005374
 30
0.0
 10
213.6390895861
 20
-58.5141004155
 30
0.0
 10
213.6393626621
 20
-58.3854498806
 30
0.0
 10
213.6424440781
 20
-58.2913334369
 30
0.0
  0
LINE
  5
445
100
AcDbEntity
  8
0
100
AcDbLine
 62
9
  6
CONTINUOUS
 10
212.2365918567
 20
-59.0821220196
 11
212.6757011506
 21
-58.9595175285
  0
LINE
  5
446
100
AcDbEntity
  8
0
100
AcDbLine
 62
9
  6
CONTINUOUS
 10
211.8261156956
 20
-59.1911333013
 11
212.2352353903
 21
-59.0771996172
  0
SPLINE
  5
447
100
AcDbEntity
  8
0
100
AcDbSpline
 62
9
  6
CONTINUOUS
 70
0
 71
3
 72
9
 73
5
 74
0
 42
0.0000001
 43
0.0000001
 44
0.0000000001
 40
0.0
 40
0.0
 40
0.0
 40
0.0
 40
0.2427787097
 40
1.0
 40
1.0
 40
1.0
 40
1.0
 10
277.4322111867
 20
-0.1969822558
 30
0.0
 10
277.3690470548
 20
-0.0711309337
 30
0.0
 10
277.1102443505
 20
0.4479323767
 30
0.0
 10
276.8525175474
 20
0.9675412631
 30
0.0
 10
276.6541309031
 20
1.3593734563
 30
0.0
  0
SPLINE
  5
448
100
AcDbEntity
  8
0
100
AcDbSpline
 62
9
  6
CONTINUOUS
 70
0
 71
3
 72
9
 73
5
 74
0
 42
0.0000001
 43
0.0000001
 44
0.0000000001
 40
0.0
 40
0.0
 40
0.0
 40
0.0
 40
0.2635623807
 40
1.0
 40
1.0
 40
1.0
 40
1.0
 10
278.3482619923
 20
191.7332086372
 30
0.0
 10
278.3669477133
 20
191.7518930895
 30
0.0
 10
278.4355134519
 20
191.8250248723
 30
0.0
 10
278.4942835978
 20
191.9077403419
 30
0.0
 10
278.5288268159
 20
191.9729966277
 30
0.0
  0
SPLINE
  5
449
100
AcDbEntity
  8
0
100
AcDbSpline
 62
9
  6
CONTINUOUS
 70
0
 71
3
 72
9
 73
5
 74
0
 42
0.0000001
 43
0.0000001
 44
0.0000000001
 40
0.0
 40
0.0
 40
0.0
 40
0.0
 40
0.2378962743
 40
1.0
 40
1.0
 40
1.0
 40
1.0
 10
230.3299378439
 20
191.9632980673
 30
0.0
 10
230.3410974553
 20
191.9422261892
 30
0.0
 10
230.3917489866
 20
191.8556410001
 30
0.0
 10
230.4563919291
 20
191.7776008809
 30
0.0
 10
230.5104030704
 20
191.7235856069
 30
0.0
  0
SPLINE
  5
44A
100
AcDbEntity
  8
0
100
AcDbSpline
 62
9
  6
CONTINUOUS
 70
0
 71
3
 72
9
 73
5
 74
0
 42
0.0000001
 43
0.0000001
 44
0.0000000001
 40
0.0
 40
0.0
 40
0.0
 40
0.0
 40
0.5626749193
 40
1.0
 40
1.0
 40
1.0
 40
1.0
 10
225.227261039
 20
202.9042615509
 30
0.0
 10
225.2486215191
 20
202.5771151706
 30
0.0
 10
225.3036010039
 20
201.9974035789
 30
0.0
 10
225.3885838448
 20
201.4188828354
 30
0.0
 10
225.4529905713
 20
201.1723492864
 30
0.0
  0
SPLINE
  5
44B
100
AcDbEntity
  8
0
100
AcDbSpline
 62
9
  6
CONTINUOUS
 70
0
 71
3
 72
9
 73
5
 74
0
 42
0.0000001
 43
0.0000001
 44
0.0000000001
 40
0.0
 40
0.0
 40
0.0
 40
0.0
 40
0.2605720933
 40
1.0
 40
1.0
 40
1.0
 40
1.0
 10
283.6334503181
 20
202.9160103727
 30
0.0
 10
283.628248215
 20
202.8288393269
 30
0.0
 10
283.6054614766
 20
202.4944876696
 30
0.0
 10
283.5723360368
 20
202.1607556233
 30
0.0
 10
283.539651172
 20
201.9151144052
 30
0.0
  0
SPLINE
  5
44C
100
AcDbEntity
  8
0
100
AcDbSpline
 62
9
  6
CONTINUOUS
 70
0
 71
3
 72
8
 73
4
 74
0
 42
0.0000001
 43
0.0000001
 44
0.0000000001
 40
0.0
 40
0.0
 40
0.0
 40
0.0
 40
1.0
 40
1.0
 40
1.0
 40
1.0
 10
284.790050908
 20
202.5945518623
 30
0.0
 10
284.4335223243
 20
202.7762051946
 30
0.0
 10
284.0327682777
 20
202.8899658373
 30
0.0
 10
283.6334786006
 20
202.9160103742
 30
0.0
  0
SPLINE
  5
44D
100
AcDbEntity
  8
0
100
AcDbSpline
 62
9
  6
CONTINUOUS
 70
0
 71
3
 72
9
 73
5
 74
0
 42
0.0000001
 43
0.0000001
 44
0.0000000001
 40
0.0
 40
0.0
 40
0.0
 40
0.0
 40
0.2956602646
 40
1.0
 40
1.0
 40
1.0
 40
1.0
 10
283.539651172
 20
201.9151144052
 30
0.0
 10
283.5299985548
 20
201.8425215669
 30
0.0
 10
283.4947232029
 20
201.5974500095
 30
0.0
 10
283.4518923725
 20
201.3527910521
 30
0.0
 10
283.4070892762
 20
201.1841850501
 30
0.0
  0
SPLINE
  5
44E
100
AcDbEntity
  8
0
100
AcDbSpline
 62
9
  6
CONTINUOUS
 70
0
 71
3
 72
9
 73
5
 74
0
 42
0.0000001
 43
0.0000001
 44
0.0000000001
 40
0.0
 40
0.0
 40
0.0
 40
0.0
 40
0.215440645
 40
1.0
 40
1.0
 40
1.0
 40
1.0
 10
283.6963158274
 20
-19.0505304823
 30
0.0
 10
283.7193969192
 20
-19.150765169
 30
0.0
 10
283.8156489986
 20
-19.6184954924
 30
0.0
 10
283.8828742681
 20
-20.0918185399
 30
0.0
 10
283.9253466347
 20
-20.4639749126
 30
0.0
  0
SPLINE
  5
44F
100
AcDbEntity
  8
0
100
AcDbSpline
 62
9
  6
CONTINUOUS
 70
0
 71
3
 72
9
 73
5
 74
0
 42
0.0000001
 43
0.0000001
 44
0.0000000001
 40
0.0
 40
0.0
 40
0.0
 40
0.0
 40
0.1955817626
 40
1.0
 40
1.0
 40
1.0
 40
1.0
 10
209.6424399194
 20
-59.7807460717
 30
0.0
 10
209.697994445
 20
-59.767077041
 30
0.0
 10
209.981630982
 20
-59.6955202849
 30
0.0
 10
210.2641890368
 20
-59.6197741182
 30
0.0
 10
210.4913338615
 20
-59.5583331111
 30
0.0
  0
SPLINE
  5
450
100
AcDbEntity
  8
0
100
AcDbSpline
 62
9
  6
CONTINUOUS
 70
0
 71
3
 72
9
 73
5
 74
0
 42
0.0000001
 43
0.0000001
 44
0.0000000001
 40
0.0
 40
0.0
 40
0.0
 40
0.0
 40
0.5020024937
 40
1.0
 40
1.0
 40
1.0
 40
1.0
 10
209.5426032242
 20
-53.7201039511
 30
0.0
 10
209.5485016325
 20
-54.0928977812
 30
0.0
 10
209.7706978513
 20
-54.8468173517
 30
0.0
 10
210.3603620606
 20
-55.3688428636
 30
0.0
 10
210.6944721392
 20
-55.5274974688
 30
0.0
  0
SPLINE
  5
451
100
AcDbEntity
  8
0
100
AcDbSpline
 62
9
  6
CONTINUOUS
 70
0
 71
3
 72
9
 73
5
 74
0
 42
0.0000001
 43
0.0000001
 44
0.0000000001
 40
0.0
 40
0.0
 40
0.0
 40
0.0
 40
0.5206176011
 40
1.0
 40
1.0
 40
1.0
 40
1.0
 10
210.8875697035
 20
-53.719807778
 30
0.0
 10
210.8204604419
 20
-53.9112586295
 30
0.0
 10
210.7088464774
 20
-54.2850331908
 30
0.0
 10
210.6323233749
 20
-54.6685128788
 30
0.0
 10
210.6124685126
 20
-54.8542584432
 30
0.0
  0
SPLINE
  5
452
100
AcDbEntity
  8
0
100
AcDbSpline
 62
9
  6
CONTINUOUS
 70
0
 71
3
 72
9
 73
5
 74
0
 42
0.0000001
 43
0.0000001
 44
0.0000000001
 40
0.0
 40
0.0
 40
0.0
 40
0.0
 40
0.2651560467
 40
1.0
 40
1.0
 40
1.0
 40
1.0
 10
210.6125521511
 20
-54.8542906914
 30
0.0
 10
210.6103510676
 20
-54.8748820134
 30
0.0
 10
210.6028647161
 20
-54.952619649
 30
0.0
 10
210.5986769898
 20
-55.0307101091
 30
0.0
 10
210.5981866317
 20
-55.0880991654
 30
0.0
  0
SPLINE
  5
453
100
AcDbEntity
  8
0
100
AcDbSpline
 62
9
  6
CONTINUOUS
 70
0
 71
3
 72
9
 73
5
 74
0
 42
0.0000001
 43
0.0000001
 44
0.0000000001
 40
0.0
 40
0.0
 40
0.0
 40
0.0
 40
0.2707436228
 40
1.0
 40
1.0
 40
1.0
 40
1.0
 10
210.5981813526
 20
-55.0880971299
 30
0.0
 10
210.5980322586
 20
-55.1055459963
 30
0.0
 10
210.5983962817
 20
-55.1699886553
 30
0.0
 10
210.6024741588
 20
-55.2344829677
 30
0.0
 10
210.6085648428
 20
-55.2810874413
 30
0.0
  0
SPLINE
  5
454
100
AcDbEntity
  8
0
100
AcDbSpline
 62
9
  6
CONTINUOUS
 70
0
 71
3
 72
8
 73
4
 74
0
 42
0.0000001
 43
0.0000001
 44
0.0000000001
 40
0.0
 40
0.0
 40
0.0
 40
0.0
 40
1.0
 40
1.0
 40
1.0
 40
1.0
 10
210.6085819275
 20
-55.2810940288
 30
0.0
 10
210.6116901066
 20
-55.3048767955
 30
0.0
 10
210.6156260039
 20
-55.3285776744
 30
0.0
 10
210.6206675003
 20
-55.3520268553
 30
0.0
  0
SPLINE
  5
455
100
AcDbEntity
  8
0
100
AcDbSpline
 62
9
  6
CONTINUOUS
 70
0
 71
3
 72
9
 73
5
 74
0
 42
0.0000001
 43
0.0000001
 44
0.0000000001
 40
0.0
 40
0.0
 40
0.0
 40
0.0
 40
0.2949617824
 40
1.0
 40
1.0
 40
1.0
 40
1.0
 10
210.6207146141
 20
-55.352045022
 30
0.0
 10
210.6246667751
 20
-55.3704269498
 30
0.0
 10
210.6403855034
 20
-55.4320075601
 30
0.0
 10
210.6665186044
 20
-55.4924090865
 30
0.0
 10
210.6945493815
 20
-55.5275380417
 30
0.0
  0
SPLINE
  5
456
100
AcDbEntity
  8
0
100
AcDbSpline
 62
9
  6
CONTINUOUS
 70
0
 71
3
 72
9
 73
5
 74
0
 42
0.0000001
 43
0.0000001
 44
0.0000000001
 40
0.0
 40
0.0
 40
0.0
 40
0.0
 40
0.2222639571
 40
1.0
 40
1.0
 40
1.0
 40
1.0
 10
209.4004625656
 20
-59.8336843924
 30
0.0
 10
209.4082840217
 20
-59.8320655165
 30
0.0
 10
209.4434437909
 20
-59.8246361214
 30
0.0
 10
209.4784990263
 20
-59.8167192009
 30
0.0
 10
209.5057272514
 20
-59.8104147057
 30
0.0
  0
SPLINE
  5
457
100
AcDbEntity
  8
0
100
AcDbSpline
 62
9
  6
CONTINUOUS
 70
0
 71
3
 72
9
 73
5
 74
0
 42
0.0000001
 43
0.0000001
 44
0.0000000001
 40
0.0
 40
0.0
 40
0.0
 40
0.0
 40
0.1707744527
 40
1.0
 40
1.0
 40
1.0
 40
1.0
 10
209.2817289513
 20
-59.8520299346
 30
0.0
 10
209.2854901965
 20
-59.8520333314
 30
0.0
 10
209.3075028047
 20
-59.8507411269
 30
0.0
 10
209.3292609845
 20
-59.84697739
 30
0.0
 10
209.3472402692
 20
-59.8437684891
 30
0.0
  0
SPLINE
  5
458
100
AcDbEntity
  8
0
100
AcDbSpline
 62
9
  6
CONTINUOUS
 70
0
 71
3
 72
8
 73
4
 74
0
 42
0.0000001
 43
0.0000001
 44
0.0000000001
 40
0.0
 40
0.0
 40
0.0
 40
0.0
 40
1.0
 40
1.0
 40
1.0
 40
1.0
 10
209.3472402692
 20
-59.8437684891
 30
0.0
 10
209.3650080679
 20
-59.8405973338
 30
0.0
 10
209.3827154343
 20
-59.8370860092
 30
0.0
 10
209.4003893973
 20
-59.8334278773
 30
0.0
  0
SPLINE
  5
459
100
AcDbEntity
  8
0
100
AcDbSpline
 62
9
  6
CONTINUOUS
 70
0
 71
3
 72
9
 73
5
 74
0
 42
0.0000001
 43
0.0000001
 44
0.0000000001
 40
0.0
 40
0.0
 40
0.0
 40
0.0
 40
0.1860218836
 40
1.0
 40
1.0
 40
1.0
 40
1.0
 10
206.4391915217
 20
-54.639334997
 30
0.0
 10
206.6321220548
 20
-54.5843279849
 30
0.0
 10
207.667932632
 20
-54.2839791971
 30
0.0
 10
208.7013110116
 20
-53.9753555869
 30
0.0
 10
209.5426775283
 20
-53.7249076681
 30
0.0
  0
SPLINE
  5
45A
100
AcDbEntity
  8
0
100
AcDbSpline
 62
9
  6
CONTINUOUS
 70
0
 71
3
 72
9
 73
5
 74
0
 42
0.0000001
 43
0.0000001
 44
0.0000000001
 40
0.0
 40
0.0
 40
0.0
 40
0.0
 40
0.1429256434
 40
1.0
 40
1.0
 40
1.0
 40
1.0
 10
205.4724118917
 20
-54.892085321
 30
0.0
 10
205.4797855323
 20
-54.8920563394
 30
0.0
 10
205.5312042321
 20
-54.8863267066
 30
0.0
 10
205.5814621719
 20
-54.8742522833
 30
0.0
 10
205.6245194557
 20
-54.8641898286
 30
0.0
  0
SPLINE
  5
45B
100
AcDbEntity
  8
0
100
AcDbSpline
 62
9
  6
CONTINUOUS
 70
0
 71
3
 72
9
 73
5
 74
0
 42
0.0000001
 43
0.0000001
 44
0.0000000001
 40
0.0
 40
0.0
 40
0.0
 40
0.0
 40
0.1997870267
 40
1.0
 40
1.0
 40
1.0
 40
1.0
 10
205.6245194557
 20
-54.8641898286
 30
0.0
 10
205.6461046461
 20
-54.8591453859
 30
0.0
 10
205.7539380331
 20
-54.8330095476
 30
0.0
 10
205.8611806792
 20
-54.8045056148
 30
0.0
 10
205.9468848389
 20
-54.7813187121
 30
0.0
  0
SPLINE
  5
45C
100
AcDbEntity
  8
0
100
AcDbSpline
 62
9
  6
CONTINUOUS
 70
0
 71
3
 72
9
 73
5
 74
0
 42
0.0000001
 43
0.0000001
 44
0.0000000001
 40
0.0
 40
0.0
 40
0.0
 40
0.0
 40
0.2173450839
 40
1.0
 40
1.0
 40
1.0
 40
1.0
 10
205.9468848389
 20
-54.7813187121
 30
0.0
 10
205.9826313188
 20
-54.7716476512
 30
0.0
 10
206.1469848879
 20
-54.7267254376
 30
0.0
 10
206.3109668586
 20
-54.6804543454
 30
0.0
 10
206.4392065784
 20
-54.6438920161
 30
0.0
  0
SPLINE
  5
45D
100
AcDbEntity
  8
0
100
AcDbSpline
 62
9
  6
CONTINUOUS
 70
0
 71
3
 72
14
 73
10
 74
0
 42
0.0000001
 43
0.0000001
 44
0.0000000001
 40
0.0
 40
0.0
 40
0.0
 40
0.0
 40
0.4108918408
 40
0.5756253633
 40
0.7132242252
 40
0.8237843287
 40
0.9075789458
 40
0.965385947
 40
1.0
 40
1.0
 40
1.0
 40
1.0
 10
209.482947828
 20
242.9057322352
 30
0.0
 10
208.9182619678
 20
242.8975739066
 30
0.0
 10
208.1268336305
 20
242.8944008952
 30
0.0
 10
207.1470070675
 20
242.9232276533
 30
0.0
 10
206.5801267294
 20
242.9567697613
 30
0.0
 10
206.1267063595
 20
243.0024236386
 30
0.0
 10
205.782869742
 20
243.0613159522
 30
0.0
 10
205.553298267
 20
243.1275574743
 30
0.0
 10
205.4361947739
 20
243.1973120726
 30
0.0
 10
205.4124533596
 20
243.2385395988
 30
0.0
  0
SPLINE
  5
45E
100
AcDbEntity
  8
0
100
AcDbSpline
 62
9
  6
CONTINUOUS
 70
0
 71
3
 72
9
 73
5
 74
0
 42
0.0000001
 43
0.0000001
 44
0.0000000001
 40
0.0
 40
0.0
 40
0.0
 40
0.0
 40
0.3063913924
 40
1.0
 40
1.0
 40
1.0
 40
1.0
 10
214.5118663731
 20
-56.5253800457
 30
0.0
 10
214.5807510089
 20
-56.5214089049
 30
0.0
 10
214.8054845839
 20
-56.5073379253
 30
0.0
 10
215.0302165095
 20
-56.4904607007
 30
0.0
 10
215.185271935
 20
-56.4715867956
 30
0.0
  0
SPLINE
  5
45F
100
AcDbEntity
  8
0
100
AcDbSpline
 62
9
  6
CONTINUOUS
 70
0
 71
3
 72
9
 73
5
 74
0
 42
0.0000001
 43
0.0000001
 44
0.0000000001
 40
0.0
 40
0.0
 40
0.0
 40
0.0
 40
0.2754299939
 40
1.0
 40
1.0
 40
1.0
 40
1.0
 10
213.9786282027
 20
-56.6794961934
 30
0.0
 10
214.0249850097
 20
-56.6580032059
 30
0.0
 10
214.1953675099
 20
-56.5855881805
 30
0.0
 10
214.3776392346
 20
-56.5331159055
 30
0.0
 10
214.5118365859
 20
-56.5253795925
 30
0.0
  0
SPLINE
  5
460
100
AcDbEntity
  8
0
100
AcDbSpline
 62
9
  6
CONTINUOUS
 70
0
 71
3
 72
9
 73
5
 74
0
 42
0.0000001
 43
0.0000001
 44
0.0000000001
 40
0.0
 40
0.0
 40
0.0
 40
0.0
 40
0.253248177
 40
1.0
 40
1.0
 40
1.0
 40
1.0
 10
213.3054261842
 20
-55.7225173509
 30
0.0
 10
213.3673130592
 20
-55.7995434942
 30
0.0
 10
213.606555199
 20
-56.1077973313
 30
0.0
 10
213.8259026243
 20
-56.4313784801
 30
0.0
 10
213.9786282027
 20
-56.6794961934
 30
0.0
  0
SPLINE
  5
461
100
AcDbEntity
  8
0
100
AcDbSpline
 62
9
  6
CONTINUOUS
 70
0
 71
3
 72
9
 73
5
 74
0
 42
0.0000001
 43
0.0000001
 44
0.0000000001
 40
0.0
 40
0.0
 40
0.0
 40
0.0
 40
0.253229805
 40
1.0
 40
1.0
 40
1.0
 40
1.0
 10
212.5695578201
 20
-54.9197816421
 30
0.0
 10
212.6361480303
 20
-54.9832045338
 30
0.0
 10
212.8946910739
 20
-55.2382800566
 30
0.0
 10
213.1355706295
 20
-55.5111103555
 30
0.0
 10
213.3054261842
 20
-55.7225173509
 30
0.0
  0
SPLINE
  5
462
100
AcDbEntity
  8
0
100
AcDbSpline
 62
9
  6
CONTINUOUS
 70
0
 71
3
 72
9
 73
5
 74
0
 42
0.0000001
 43
0.0000001
 44
0.0000000001
 40
0.0
 40
0.0
 40
0.0
 40
0.0
 40
0.2569262714
 40
1.0
 40
1.0
 40
1.0
 40
1.0
 10
210.8876571615
 20
-53.7198389929
 30
0.0
 10
211.0458563678
 20
-53.7999106431
 30
0.0
 10
211.6479643264
 20
-54.1381491299
 30
0.0
 10
212.1980449817
 20
-54.566299944
 30
0.0
 10
212.5695578201
 20
-54.9197816421
 30
0.0
  0
SPLINE
  5
463
100
AcDbEntity
  8
0
100
AcDbSpline
 62
9
  6
CONTINUOUS
 70
0
 71
3
 72
12
 73
8
 74
0
 42
0.0000001
 43
0.0000001
 44
0.0000000001
 40
0.0
 40
0.0
 40
0.0
 40
0.0
 40
0.0607582341
 40
0.1435898958
 40
0.3689999244
 40
0.6611619207
 40
1.0
 40
1.0
 40
1.0
 40
1.0
 10
215.1247784668
 20
244.2224842385
 30
0.0
 10
215.0337798145
 20
244.2175683493
 30
0.0
 10
214.8200867437
 20
244.1861052042
 30
0.0
 10
214.2793323742
 20
244.0682540537
 30
0.0
 10
213.4134741836
 20
243.8174416001
 30
0.0
 10
212.1944171438
 20
243.4127356708
 30
0.0
 10
211.304301346
 20
243.0906339017
 30
0.0
 10
210.8280805958
 20
242.9131374027
 30
0.0
  0
SPLINE
  5
464
100
AcDbEntity
  8
0
100
AcDbSpline
 62
9
  6
CONTINUOUS
 70
0
 71
3
 72
9
 73
5
 74
0
 42
0.0000001
 43
0.0000001
 44
0.0000000001
 40
0.0
 40
0.0
 40
0.0
 40
0.0
 40
0.2719646251
 40
1.0
 40
1.0
 40
1.0
 40
1.0
 10
218.68151422
 20
244.4078871703
 30
0.0
 10
218.3592780003
 20
244.3881418957
 30
0.0
 10
217.1742720229
 20
244.3182538464
 30
0.0
 10
215.9885848107
 20
244.2593109145
 30
0.0
 10
215.1250087409
 20
244.2257547923
 30
0.0
  0
SPLINE
  5
465
100
AcDbEntity
  8
0
100
AcDbSpline
 62
9
  6
CONTINUOUS
 70
0
 71
3
 72
9
 73
5
 74
0
 42
0.0000001
 43
0.0000001
 44
0.0000000001
 40
0.0
 40
0.0
 40
0.0
 40
0.0
 40
0.2281353503
 40
1.0
 40
1.0
 40
1.0
 40
1.0
 10
215.1853793772
 20
-56.4715831557
 30
0.0
 10
215.4555675854
 20
-56.4467261136
 30
0.0
 10
216.6402735122
 20
-56.3418227293
 30
0.0
 10
217.8262077385
 20
-56.2511444878
 30
0.0
 10
218.74190909
 20
-56.186148446
 30
0.0
  0
SPLINE
  5
466
100
AcDbEntity
  8
0
100
AcDbSpline
 62
9
  6
CONTINUOUS
 70
0
 71
3
 72
8
 73
4
 74
0
 42
0.0000001
 43
0.0000001
 44
0.0000000001
 40
0.0
 40
0.0
 40
0.0
 40
0.0
 40
1.0
 40
1.0
 40
1.0
 40
1.0
 10
219.2336340917
 20
245.5918650112
 30
0.0
 10
219.4406270143
 20
245.8389364598
 30
0.0
 10
219.6989144383
 20
246.0521601413
 30
0.0
 10
219.9851666232
 20
246.2003156587
 30
0.0
  0
SPLINE
  5
467
100
AcDbEntity
  8
0
100
AcDbSpline
 62
9
  6
CONTINUOUS
 70
0
 71
3
 72
9
 73
5
 74
0
 42
0.0000001
 43
0.0000001
 44
0.0000000001
 40
0.0
 40
0.0
 40
0.0
 40
0.0
 40
0.4945382544
 40
1.0
 40
1.0
 40
1.0
 40
1.0
 10
216.4655835717
 20
246.1306026717
 30
0.0
 10
216.0816061978
 20
246.0047320021
 30
0.0
 10
215.374810927
 20
245.4761212034
 30
0.0
 10
215.123689106
 20
244.6358720152
 30
0.0
 10
215.1250155228
 20
244.2228669458
 30
0.0
  0
SPLINE
  5
468
100
AcDbEntity
  8
0
100
AcDbSpline
 62
9
  6
CONTINUOUS
 70
0
 71
3
 72
14
 73
10
 74
0
 42
0.0000001
 43
0.0000001
 44
0.0000000001
 40
0.0
 40
0.0
 40
0.0
 40
0.0
 40
0.0345292849
 40
0.0922379604
 40
0.1759621821
 40
0.2864895376
 40
0.4240964789
 40
0.5888801452
 40
1.0
 40
1.0
 40
1.0
 40
1.0
 10
206.8268917267
 20
245.1453182443
 30
0.0
 10
206.8500218219
 20
245.1045611961
 30
0.0
 10
206.9653806242
 20
245.0354580641
 30
0.0
 10
207.1917442239
 20
244.9702649691
 30
0.0
 10
207.5310626621
 20
244.9124134288
 30
0.0
 10
207.9787184537
 20
244.8679060286
 30
0.0
 10
208.5385702135
 20
244.8355551618
 30
0.0
 10
209.5065351008
 20
244.8085333023
 30
0.0
 10
210.2884086544
 20
244.8129247478
 30
0.0
 10
210.8463063483
 20
244.8218959182
 30
0.0
  0
SPLINE
  5
469
100
AcDbEntity
  8
0
100
AcDbSpline
 62
7
  6
CONTINUOUS
 70
0
 71
3
 72
9
 73
5
 74
0
 42
0.0000001
 43
0.0000001
 44
0.0000000001
 40
0.0
 40
0.0
 40
0.0
 40
0.0
 40
0.4075800119
 40
1.0
 40
1.0
 40
1.0
 40
1.0
 10
223.7256843234
 20
247.3444847322
 30
0.0
 10
223.726691695
 20
247.3456761687
 30
0.0
 10
223.7280002336
 20
247.3508397593
 30
0.0
 10
223.7224740056
 20
247.3510974301
 30
0.0
 10
223.7202240243
 20
247.3513811899
 30
0.0
  0
SPLINE
  5
46A
100
AcDbEntity
  8
0
100
AcDbSpline
 62
9
  6
CONTINUOUS
 70
0
 71
3
 72
8
 73
4
 74
0
 42
0.0000001
 43
0.0000001
 44
0.0000000001
 40
0.0
 40
0.0
 40
0.0
 40
0.0
 40
1.0
 40
1.0
 40
1.0
 40
1.0
 10
220.3190883191
 20
246.338281212
 30
0.0
 10
221.4548250329
 20
246.6729921937
 30
0.0
 10
222.590385287
 20
247.0083025339
 30
0.0
 10
223.7257659138
 20
247.3442194231
 30
0.0
  0
SPLINE
  5
46B
100
AcDbEntity
  8
0
100
AcDbSpline
 62
9
  6
CONTINUOUS
 70
0
 71
3
 72
9
 73
5
 74
0
 42
0.0000001
 43
0.0000001
 44
0.0000000001
 40
0.0
 40
0.0
 40
0.0
 40
0.0
 40
0.2262887716
 40
1.0
 40
1.0
 40
1.0
 40
1.0
 10
216.4655836529
 20
246.1306026749
 30
0.0
 10
216.7564309065
 20
246.1423927681
 30
0.0
 10
218.0415223252
 20
246.1994486231
 30
0.0
 10
219.3257926005
 20
246.2740814905
 30
0.0
 10
220.3189845343
 20
246.3382384352
 30
0.0
  0
SPLINE
  5
46C
100
AcDbEntity
  8
0
100
AcDbSpline
 62
9
  6
CONTINUOUS
 70
0
 71
3
 72
8
 73
4
 74
0
 42
0.0000001
 43
0.0000001
 44
0.0000000001
 40
0.0
 40
0.0
 40
0.0
 40
0.0
 40
1.0
 40
1.0
 40
1.0
 40
1.0
 10
210.694585557
 20
243.5636004193
 30
0.0
 10
210.7268462657
 20
243.3447294023
 30
0.0
 10
210.7723486442
 20
243.1275702891
 30
0.0
 10
210.8278536838
 20
242.9134103816
 30
0.0
  0
SPLINE
  5
46D
100
AcDbEntity
  8
0
100
AcDbSpline
 62
9
  6
CONTINUOUS
 70
0
 71
3
 72
9
 73
5
 74
0
 42
0.0000001
 43
0.0000001
 44
0.0000000001
 40
0.0
 40
0.0
 40
0.0
 40
0.0
 40
0.2280004221
 40
1.0
 40
1.0
 40
1.0
 40
1.0
 10
210.6475831548
 20
244.1720336781
 30
0.0
 10
210.6471376751
 20
244.1256312435
 30
0.0
 10
210.6510982048
 20
243.9220730956
 30
0.0
 10
210.6719796025
 20
243.719081037
 30
0.0
 10
210.6946782021
 20
243.5636053574
 30
0.0
  0
SPLINE
  5
46E
100
AcDbEntity
  8
0
100
AcDbSpline
 62
9
  6
CONTINUOUS
 70
0
 71
3
 72
9
 73
5
 74
0
 42
0.0000001
 43
0.0000001
 44
0.0000000001
 40
0.0
 40
0.0
 40
0.0
 40
0.0
 40
0.2318142396
 40
1.0
 40
1.0
 40
1.0
 40
1.0
 10
210.6635355817
 20
244.4196839935
 30
0.0
 10
210.6610486111
 20
244.4006655961
 30
0.0
 10
210.6518610058
 20
244.3184234462
 30
0.0
 10
210.6482099067
 20
244.2356193103
 30
0.0
 10
210.6476019093
 20
244.1720625144
 30
0.0
  0
SPLINE
  5
46F
100
AcDbEntity
  8
0
100
AcDbSpline
 62
9
  6
CONTINUOUS
 70
0
 71
3
 72
9
 73
5
 74
0
 42
0.0000001
 43
0.0000001
 44
0.0000000001
 40
0.0
 40
0.0
 40
0.0
 40
0.0
 40
0.2256712734
 40
1.0
 40
1.0
 40
1.0
 40
1.0
 10
210.7047164612
 20
244.6130514705
 30
0.0
 10
210.7001623584
 20
244.5988816706
 30
0.0
 10
210.6818429817
 20
244.5354941825
 30
0.0
 10
210.6701603296
 20
244.470322862
 30
0.0
 10
210.6635385431
 20
244.4196848377
 30
0.0
  0
SPLINE
  5
470
100
AcDbEntity
  8
0
100
AcDbSpline
 62
9
  6
CONTINUOUS
 70
0
 71
3
 72
9
 73
5
 74
0
 42
0.0000001
 43
0.0000001
 44
0.0000000001
 40
0.0
 40
0.0
 40
0.0
 40
0.0
 40
0.1999620679
 40
1.0
 40
1.0
 40
1.0
 40
1.0
 10
210.8462545223
 20
244.8218586531
 30
0.0
 10
210.8313308409
 20
244.8136073985
 30
0.0
 10
210.7627554777
 20
244.76110282
 30
0.0
 10
210.7255844955
 20
244.6780043949
 30
0.0
 10
210.7047083233
 20
244.6130491506
 30
0.0
  0
SPLINE
  5
471
100
AcDbEntity
  8
0
100
AcDbSpline
 62
9
  6
CONTINUOUS
 70
0
 71
3
 72
11
 73
7
 74
0
 42
0.0000001
 43
0.0000001
 44
0.0000000001
 40
0.0
 40
0.0
 40
0.0
 40
0.0
 40
0.1512388753
 40
0.3745811368
 40
0.6615681674
 40
1.0
 40
1.0
 40
1.0
 40
1.0
 10
216.4659854924
 20
246.129277626
 30
0.0
 10
216.2719179994
 20
246.1211936198
 30
0.0
 10
215.7942095853
 20
246.0535957874
 30
0.0
 10
214.9607722362
 20
245.8901906324
 30
0.0
 10
213.8989157129
 20
245.6421501812
 30
0.0
 10
213.1208467763
 20
245.4427902967
 30
0.0
 10
212.7006435281
 20
245.3316708026
 30
0.0
  0
SPLINE
  5
472
100
AcDbEntity
  8
0
100
AcDbSpline
 62
9
  6
CONTINUOUS
 70
0
 71
3
 72
9
 73
5
 74
0
 42
0.0000001
 43
0.0000001
 44
0.0000000001
 40
0.0
 40
0.0
 40
0.0
 40
0.0
 40
0.4959872539
 40
1.0
 40
1.0
 40
1.0
 40
1.0
 10
210.846255237
 20
244.8218791894
 30
0.0
 10
210.4580888424
 20
244.6968379213
 30
0.0
 10
209.7420843799
 20
244.1724094426
 30
0.0
 10
209.4824922291
 20
243.3275792959
 30
0.0
 10
209.4829286892
 20
242.9131714731
 30
0.0
  0
SPLINE
  5
473
100
AcDbEntity
  8
0
100
AcDbSpline
 62
7
  6
CONTINUOUS
 70
0
 71
3
 72
9
 73
5
 74
0
 42
0.0000001
 43
0.0000001
 44
0.0000000001
 40
0.0
 40
0.0
 40
0.0
 40
0.0
 40
0.269401891
 40
1.0
 40
1.0
 40
1.0
 40
1.0
 10
285.1221288003
 20
247.3635035979
 30
0.0
 10
285.2933103596
 20
247.3851235718
 30
0.0
 10
285.9284767944
 20
247.4672752722
 30
0.0
 10
286.562667434
 20
247.5572877658
 30
0.0
 10
287.0248920466
 20
247.630069993
 30
0.0
  0
SPLINE
  5
474
100
AcDbEntity
  8
0
100
AcDbSpline
 62
7
  6
CONTINUOUS
 70
0
 71
3
 72
9
 73
5
 74
0
 42
0.0000001
 43
0.0000001
 44
0.0000000001
 40
0.0
 40
0.0
 40
0.0
 40
0.0
 40
0.2634632971
 40
1.0
 40
1.0
 40
1.0
 40
1.0
 10
287.0248920466
 20
247.630069993
 30
0.0
 10
287.1021102127
 20
247.6422288221
 30
0.0
 10
287.3950753474
 20
247.6891542475
 30
0.0
 10
287.6875337387
 20
247.7392969753
 30
0.0
 10
287.9024838668
 20
247.7786925622
 30
0.0
  0
SPLINE
  5
475
100
AcDbEntity
  8
0
100
AcDbSpline
 62
7
  6
CONTINUOUS
 70
0
 71
3
 72
12
 73
8
 74
0
 42
0.0000001
 43
0.0000001
 44
0.0000000001
 40
0.0
 40
0.0
 40
0.0
 40
0.0
 40
0.401669469
 40
0.6966176968
 40
0.8056585115
 40
0.8903603896
 40
1.0
 40
1.0
 40
1.0
 40
1.0
 10
288.5136860438
 20
247.8987370024
 30
0.0
 10
288.7921619115
 20
247.9576341039
 30
0.0
 10
289.2731866249
 20
248.0710366809
 30
0.0
 10
289.8180706131
 20
248.2417160184
 30
0.0
 10
290.1339094242
 20
248.3911900331
 30
0.0
 10
290.3121023313
 20
248.5019776893
 30
0.0
 10
290.4138865191
 20
248.6276396624
 30
0.0
 10
290.4113419417
 20
248.7052921745
 30
0.0
  0
SPLINE
  5
476
100
AcDbEntity
  8
0
100
AcDbSpline
 62
7
  6
CONTINUOUS
 70
0
 71
3
 72
12
 73
8
 74
0
 42
0.0000001
 43
0.0000001
 44
0.0000000001
 40
0.0
 40
0.0
 40
0.0
 40
0.0
 40
0.1098106348
 40
0.1946930292
 40
0.3038580251
 40
0.5987837029
 40
1.0
 40
1.0
 40
1.0
 40
1.0
 10
218.4113446636
 20
248.6908090312
 30
0.0
 10
218.4099332251
 20
248.6126033624
 30
0.0
 10
218.5137338878
 20
248.4875800408
 30
0.0
 10
218.6935103139
 20
248.3767055223
 30
0.0
 10
219.011667411
 20
248.2274296275
 30
0.0
 10
219.559358237
 20
248.0568319587
 30
0.0
 10
220.0427001343
 20
247.9435324023
 30
0.0
 10
220.3223669937
 20
247.8847029879
 30
0.0
  0
SPLINE
  5
477
100
AcDbEntity
  8
0
100
AcDbSpline
 62
7
  6
CONTINUOUS
 70
0
 71
3
 72
9
 73
5
 74
0
 42
0.0000001
 43
0.0000001
 44
0.0000000001
 40
0.0
 40
0.0
 40
0.0
 40
0.0
 40
0.2303840709
 40
1.0
 40
1.0
 40
1.0
 40
1.0
 10
221.8077027772
 20
247.617878466
 30
0.0
 10
221.9542135594
 20
247.5949009425
 30
0.0
 10
222.5906528261
 20
247.4983391276
 30
0.0
 10
223.228746947
 20
247.4129214363
 30
0.0
 10
223.7202942861
 20
247.3511523242
 30
0.0
  0
SPLINE
  5
478
100
AcDbEntity
  8
0
100
AcDbSpline
 62
9
  6
CONTINUOUS
 70
0
 71
3
 72
14
 73
10
 74
0
 42
0.0000001
 43
0.0000001
 44
0.0000000001
 40
0.0
 40
0.0
 40
0.0
 40
0.0
 40
0.4115761311
 40
0.5764646497
 40
0.7140951032
 40
0.8245661516
 40
0.9081580232
 40
0.965670592
 40
1.0
 40
1.0
 40
1.0
 40
1.0
 10
297.9905102183
 20
244.8393873801
 30
0.0
 10
298.5473861495
 20
244.8306424851
 30
0.0
 10
299.3277209954
 20
244.8265608546
 30
0.0
 10
300.2936125718
 20
244.8539662852
 30
0.0
 10
300.8519013903
 20
244.8865461663
 30
0.0
 10
301.2979735158
 20
244.9311932776
 30
0.0
 10
301.635750807
 20
244.9892234493
 30
0.0
 10
301.8605876658
 20
245.0543314668
 30
0.0
 10
301.9749458589
 20
245.1237257035
 30
0.0
 10
301.9973420002
 20
245.1644250491
 30
0.0
  0
SPLINE
  5
479
100
AcDbEntity
  8
0
100
AcDbSpline
 62
9
  6
CONTINUOUS
 70
0
 71
3
 72
9
 73
5
 74
0
 42
0.0000001
 43
0.0000001
 44
0.0000000001
 40
0.0
 40
0.0
 40
0.0
 40
0.0
 40
0.2736321917
 40
1.0
 40
1.0
 40
1.0
 40
1.0
 10
288.5236086154
 20
246.3519955716
 30
0.0
 10
288.8744672615
 20
246.3294500525
 30
0.0
 10
290.1568861669
 20
246.2501713737
 30
0.0
 10
291.4401254066
 20
246.1833858633
 30
0.0
 10
292.3726620987
 20
246.1459087675
 30
0.0
  0
SPLINE
  5
47A
100
AcDbEntity
  8
0
100
AcDbSpline
 62
9
  6
CONTINUOUS
 70
0
 71
3
 72
8
 73
4
 74
0
 42
0.0000001
 43
0.0000001
 44
0.0000000001
 40
0.0
 40
0.0
 40
0.0
 40
0.0
 40
1.0
 40
1.0
 40
1.0
 40
1.0
 10
285.1166955242
 20
247.3565684327
 30
0.0
 10
286.2521571632
 20
247.0211094165
 30
0.0
 10
287.3877979601
 20
246.6862562334
 30
0.0
 10
288.5236147548
 20
246.3520016986
 30
0.0
  0
SPLINE
  5
47B
100
AcDbEntity
  8
0
100
AcDbSpline
 62
7
  6
CONTINUOUS
 70
0
 71
3
 72
9
 73
5
 74
0
 42
0.0000001
 43
0.0000001
 44
0.0000000001
 40
0.0
 40
0.0
 40
0.0
 40
0.0
 40
0.5916471507
 40
1.0
 40
1.0
 40
1.0
 40
1.0
 10
285.1221987291
 20
247.3637317794
 30
0.0
 10
285.1199545122
 20
247.3634459397
 30
0.0
 10
285.1144283913
 20
247.3631783969
 30
0.0
 10
285.1157658821
 20
247.3580234505
 30
0.0
 10
285.1167766512
 20
247.3568332756
 30
0.0
  0
SPLINE
  5
47C
100
AcDbEntity
  8
0
100
AcDbSpline
 62
9
  6
CONTINUOUS
 70
0
 71
3
 72
9
 73
5
 74
0
 42
0.0000001
 43
0.0000001
 44
0.0000000001
 40
0.0
 40
0.0
 40
0.0
 40
0.0
 40
0.4959993757
 40
1.0
 40
1.0
 40
1.0
 40
1.0
 10
297.9904442504
 20
244.8394086239
 30
0.0
 10
298.3786852259
 20
244.7145271928
 30
0.0
 10
299.0949511438
 20
244.1904162613
 30
0.0
 10
299.3549262361
 20
243.3456679218
 30
0.0
 10
299.3546601324
 20
242.9312576764
 30
0.0
  0
SPLINE
  5
47D
100
AcDbEntity
  8
0
100
AcDbSpline
 62
9
  6
CONTINUOUS
 70
0
 71
3
 72
9
 73
5
 74
0
 42
0.0000001
 43
0.0000001
 44
0.0000000001
 40
0.0
 40
0.0
 40
0.0
 40
0.0
 40
0.3452017289
 40
1.0
 40
1.0
 40
1.0
 40
1.0
 10
297.7399071285
 20
-61.2932379342
 30
0.0
 10
297.7153128402
 20
-61.2931127335
 30
0.0
 10
297.6448578735
 20
-61.2790784165
 30
0.0
 10
297.5753587464
 20
-61.2647061791
 30
0.0
 10
297.5298876172
 20
-61.2542741401
 30
0.0
  0
SPLINE
  5
47E
100
AcDbEntity
  8
0
100
AcDbSpline
 62
9
  6
CONTINUOUS
 70
0
 71
3
 72
9
 73
5
 74
0
 42
0.0000001
 43
0.0000001
 44
0.0000000001
 40
0.0
 40
0.0
 40
0.0
 40
0.0
 40
0.6143052568
 40
1.0
 40
1.0
 40
1.0
 40
1.0
 10
299.414204988
 20
-53.7093678188
 30
0.0
 10
300.1322124536
 20
-53.9231238249
 30
0.0
 10
301.3013019159
 20
-54.2700409161
 30
0.0
 10
302.4716368036
 20
-54.6131333671
 30
0.0
 10
302.9250794423
 20
-54.738138971
 30
0.0
  0
SPLINE
  5
47F
100
AcDbEntity
  8
0
100
AcDbSpline
 62
9
  6
CONTINUOUS
 70
0
 71
3
 72
10
 73
6
 74
0
 42
0.0000001
 43
0.0000001
 44
0.0000000001
 40
0.0
 40
0.0
 40
0.0
 40
0.0
 40
0.6880851163
 40
0.8910234152
 40
1.0
 40
1.0
 40
1.0
 40
1.0
 10
302.9250794423
 20
-54.738138971
 30
0.0
 10
303.0496705535
 20
-54.7724863962
 30
0.0
 10
303.2112411762
 20
-54.8175705704
 30
0.0
 10
303.3940292976
 20
-54.8584854049
 30
0.0
 10
303.4519375848
 20
-54.8702825206
 30
0.0
 10
303.4724058658
 20
-54.8703570076
 30
0.0
  0
SPLINE
  5
480
100
AcDbEntity
  8
0
100
AcDbSpline
 62
9
  6
CONTINUOUS
 70
0
 71
3
 72
14
 73
10
 74
0
 42
0.0000001
 43
0.0000001
 44
0.0000000001
 40
0.0
 40
0.0
 40
0.0
 40
0.0
 40
0.0344142356
 40
0.092026002
 40
0.1756889683
 40
0.2861931447
 40
0.4238155497
 40
0.5886535998
 40
1.0
 40
1.0
 40
1.0
 40
1.0
 10
303.4124262047
 20
243.2581626423
 30
0.0
 10
303.3894259051
 20
243.2169901812
 30
0.0
 10
303.2733302621
 20
243.1469465719
 30
0.0
 10
303.0453039966
 20
243.0807873915
 30
0.0
 10
302.7030233133
 20
243.0217158673
 30
0.0
 10
302.2512030412
 20
242.9759197076
 30
0.0
 10
301.6859015667
 20
242.9421461071
 30
0.0
 10
300.708170013
 20
242.9129308427
 30
0.0
 10
299.9182964483
 20
242.9157906308
 30
0.0
 10
299.3546431042
 20
242.923720208
 30
0.0
  0
SPLINE
  5
481
100
AcDbEntity
  8
0
100
AcDbSpline
 62
7
  6
CONTINUOUS
 70
0
 71
3
 72
18
 73
14
 74
0
 42
0.0000001
 43
0.0000001
 44
0.0000000001
 40
0.0
 40
0.0
 40
0.0
 40
0.0
 40
0.0054290216
 40
0.0200151976
 40
0.0439838957
 40
0.0770894996
 40
0.1190305664
 40
0.1694781045
 40
0.2937486598
 40
0.4450522649
 40
0.6177450873
 40
0.8054205358
 40
1.0
 40
1.0
 40
1.0
 40
1.0
 10
239.5750249253
 20
-59.2253365211
 30
0.0
 10
239.5750283063
 20
-59.2291423338
 30
0.0
 10
239.5553386159
 20
-59.2321338364
 30
0.0
 10
239.5303905339
 20
-59.2375739206
 30
0.0
 10
239.4772952179
 20
-59.2419743549
 30
0.0
 10
239.4093919262
 20
-59.247066916
 30
0.0
 10
239.3210368545
 20
-59.2517549381
 30
0.0
 10
239.1695286222
 20
-59.2583168538
 30
0.0
 10
238.9409354637
 20
-59.2652803953
 30
0.0
 10
238.6268220202
 20
-59.2719118172
 30
0.0
 10
238.2681452676
 20
-59.2768805807
 30
0.0
 10
237.879136414
 20
-59.2799732318
 30
0.0
 10
237.6111689596
 20
-59.2807134173
 30
0.0
 10
237.4747662468
 20
-59.2807408553
 30
0.0
  0
SPLINE
  5
482
100
AcDbEntity
  8
0
100
AcDbSpline
 62
9
  6
CONTINUOUS
 70
0
 71
3
 72
10
 73
6
 74
0
 42
0.0000001
 43
0.0000001
 44
0.0000000001
 40
0.0
 40
0.0
 40
0.0
 40
0.0
 40
0.1131459584
 40
0.3174952998
 40
1.0
 40
1.0
 40
1.0
 40
1.0
 10
302.326076794
 20
-56.6808903903
 30
0.0
 10
302.3049469874
 20
-56.6801553501
 30
0.0
 10
302.2464393405
 20
-56.6682666918
 30
0.0
 10
302.0646378943
 20
-56.6266307052
 30
0.0
 10
301.9047528643
 20
-56.582000526
 30
0.0
 10
301.7818615619
 20
-56.5479042502
 30
0.0
  0
SPLINE
  5
483
100
AcDbEntity
  8
0
100
AcDbSpline
 62
9
  6
CONTINUOUS
 70
0
 71
3
 72
9
 73
5
 74
0
 42
0.0000001
 43
0.0000001
 44
0.0000000001
 40
0.0
 40
0.0
 40
0.0
 40
0.0
 40
0.3855447002
 40
1.0
 40
1.0
 40
1.0
 40
1.0
 10
301.7818615619
 20
-56.5479042502
 30
0.0
 10
301.3275338301
 20
-56.4218507105
 30
0.0
 10
300.1545250152
 20
-56.0757531577
 30
0.0
 10
298.9828178911
 20
-55.7256732561
 30
0.0
 10
298.2630422019
 20
-55.5098732158
 30
0.0
  0
SPLINE
  5
484
100
AcDbEntity
  8
0
100
AcDbSpline
 62
9
  6
CONTINUOUS
 70
0
 71
3
 72
9
 73
5
 74
0
 42
0.0000001
 43
0.0000001
 44
0.0000000001
 40
0.0
 40
0.0
 40
0.0
 40
0.0
 40
0.5546272966
 40
1.0
 40
1.0
 40
1.0
 40
1.0
 10
299.6460744325
 20
-59.8370536243
 30
0.0
 10
299.6493495589
 20
-59.8374039893
 30
0.0
 10
299.655264582
 20
-59.8379464914
 30
0.0
 10
299.661202947
 20
-59.838203305
 30
0.0
 10
299.6638479184
 20
-59.8381997703
 30
0.0
  0
SPLINE
  5
485
100
AcDbEntity
  8
0
100
AcDbSpline
 62
9
  6
CONTINUOUS
 70
0
 71
3
 72
8
 73
4
 74
0
 42
0.0000001
 43
0.0000001
 44
0.0000000001
 40
0.0
 40
0.0
 40
0.0
 40
0.0
 40
1.0
 40
1.0
 40
1.0
 40
1.0
 10
299.6216898553
 20
-59.8298900318
 30
0.0
 10
299.6301411002
 20
-59.8312300712
 30
0.0
 10
299.6386156532
 20
-59.8324556155
 30
0.0
 10
299.6471239332
 20
-59.8333657892
 30
0.0
  0
SPLINE
  5
486
100
AcDbEntity
  8
0
100
AcDbSpline
 62
9
  6
CONTINUOUS
 70
0
 71
3
 72
9
 73
5
 74
0
 42
0.0000001
 43
0.0000001
 44
0.0000000001
 40
0.0
 40
0.0
 40
0.0
 40
0.0
 40
0.2897186388
 40
1.0
 40
1.0
 40
1.0
 40
1.0
 10
299.548399415
 20
-59.8140245231
 30
0.0
 10
299.5555039723
 20
-59.8155053598
 30
0.0
 10
299.5800455342
 20
-59.8205181725
 30
0.0
 10
299.6046683816
 20
-59.8251711024
 30
0.0
 10
299.6222408985
 20
-59.8279573929
 30
0.0
  0
SPLINE
  5
487
100
AcDbEntity
  8
0
100
AcDbSpline
 62
9
  6
CONTINUOUS
 70
0
 71
3
 72
9
 73
5
 74
0
 42
0.0000001
 43
0.0000001
 44
0.0000000001
 40
0.0
 40
0.0
 40
0.0
 40
0.0
 40
0.2986785113
 40
1.0
 40
1.0
 40
1.0
 40
1.0
 10
299.3081782529
 20
-59.7606678305
 30
0.0
 10
299.3319506711
 20
-59.7665381469
 30
0.0
 10
299.4115957677
 20
-59.7859655535
 30
0.0
 10
299.4914361988
 20
-59.8046677275
 30
0.0
 10
299.5477227721
 20
-59.8163999402
 30
0.0
  0
SPLINE
  5
488
100
AcDbEntity
  8
0
100
AcDbSpline
 62
9
  6
CONTINUOUS
 70
0
 71
3
 72
9
 73
5
 74
0
 42
0.0000001
 43
0.0000001
 44
0.0000000001
 40
0.0
 40
0.0
 40
0.0
 40
0.0
 40
0.281988616
 40
1.0
 40
1.0
 40
1.0
 40
1.0
 10
298.9455677569
 20
-59.670559046
 30
0.0
 10
298.9795290344
 20
-59.6794798796
 30
0.0
 10
299.1000040618
 20
-59.7109608024
 30
0.0
 10
299.2206410674
 20
-59.7418335371
 30
0.0
 10
299.307440892
 20
-59.7632679768
 30
0.0
  0
LINE
  5
489
100
AcDbEntity
  8
0
100
AcDbLine
 62
9
  6
CONTINUOUS
 10
296.7217063678
 20
-59.0602745769
 11
297.1300762193
 21
-59.1740437178
  0
LINE
  5
48A
100
AcDbEntity
  8
0
100
AcDbLine
 62
9
  6
CONTINUOUS
 10
296.2819722121
 20
-58.9428437409
 11
296.7203320153
 21
-59.0652701407
  0
SPLINE
  5
48B
100
AcDbEntity
  8
0
100
AcDbSpline
 62
9
  6
CONTINUOUS
 70
0
 71
3
 72
9
 73
5
 74
0
 42
0.0000001
 43
0.0000001
 44
0.0000000001
 40
0.0
 40
0.0
 40
0.0
 40
0.0
 40
0.2616179047
 40
1.0
 40
1.0
 40
1.0
 40
1.0
 10
295.319162425
 20
-58.6607109771
 30
0.0
 10
295.4026423897
 20
-58.6869260483
 30
0.0
 10
295.722129583
 20
-58.7858568828
 30
0.0
 10
296.0432774144
 20
-58.8794812835
 30
0.0
 10
296.2814583339
 20
-58.9447254646
 30
0.0
  0
SPLINE
  5
48C
100
AcDbEntity
  8
0
100
AcDbSpline
 62
9
  6
CONTINUOUS
 70
0
 71
3
 72
9
 73
5
 74
0
 42
0.0000001
 43
0.0000001
 44
0.0000000001
 40
0.0
 40
0.0
 40
0.0
 40
0.0
 40
0.2090581619
 40
1.0
 40
1.0
 40
1.0
 40
1.0
 10
295.292426745
 20
-57.9512167722
 30
0.0
 10
295.2994485856
 20
-58.0002215234
 30
0.0
 10
295.3218518244
 20
-58.2361875288
 30
0.0
 10
295.320297544
 20
-58.47341826
 30
0.0
 10
295.319162425
 20
-58.6607109771
 30
0.0
  0
SPLINE
  5
48D
100
AcDbEntity
  8
0
100
AcDbSpline
 62
9
  6
CONTINUOUS
 70
0
 71
3
 72
9
 73
5
 74
0
 42
0.0000001
 43
0.0000001
 44
0.0000000001
 40
0.0
 40
0.0
 40
0.0
 40
0.0
 40
0.2257561182
 40
1.0
 40
1.0
 40
1.0
 40
1.0
 10
295.2379933052
 20
-57.7041611491
 30
0.0
 10
295.2442445008
 20
-57.7221632869
 30
0.0
 10
295.2689659518
 20
-57.8029419092
 30
0.0
 10
295.2836924288
 20
-57.8864472732
 30
0.0
 10
295.292426745
 20
-57.9512167722
 30
0.0
  0
SPLINE
  5
48E
100
AcDbEntity
  8
0
100
AcDbSpline
 62
9
  6
CONTINUOUS
 70
0
 71
3
 72
9
 73
5
 74
0
 42
0.0000001
 43
0.0000001
 44
0.0000000001
 40
0.0
 40
0.0
 40
0.0
 40
0.0
 40
0.2301569279
 40
1.0
 40
1.0
 40
1.0
 40
1.0
 10
295.1498286156
 20
-57.5391024835
 30
0.0
 10
295.1588971104
 20
-57.5502862314
 30
0.0
 10
295.1957167057
 20
-57.6009789447
 30
0.0
 10
295.2221340161
 20
-57.6586866456
 30
0.0
 10
295.2379933052
 20
-57.7041611491
 30
0.0
  0
SPLINE
  5
48F
100
AcDbEntity
  8
0
100
AcDbSpline
 62
9
  6
CONTINUOUS
 70
0
 71
3
 72
9
 73
5
 74
0
 42
0.0000001
 43
0.0000001
 44
0.0000000001
 40
0.0
 40
0.0
 40
0.0
 40
0.0
 40
0.2020178358
 40
1.0
 40
1.0
 40
1.0
 40
1.0
 10
298.2631370365
 20
-55.509884996
 30
0.0
 10
298.2733994676
 20
-55.4970353506
 30
0.0
 10
298.3174214389
 20
-55.4279970091
 30
0.0
 10
298.3368896451
 20
-55.3463169802
 30
0.0
 10
298.3465480626
 20
-55.2820811907
 30
0.0
  0
SPLINE
  5
490
100
AcDbEntity
  8
0
100
AcDbSpline
 62
9
  6
CONTINUOUS
 70
0
 71
3
 72
9
 73
5
 74
0
 42
0.0000001
 43
0.0000001
 44
0.0000000001
 40
0.0
 40
0.0
 40
0.0
 40
0.0
 40
0.2405911331
 40
1.0
 40
1.0
 40
1.0
 40
1.0
 10
293.4269987288
 20
-58.5858197345
 30
0.0
 10
293.5110006956
 20
-58.5824127222
 30
0.0
 10
293.8587968236
 20
-58.5453505627
 30
0.0
 10
294.1976780417
 20
-58.4210753895
 30
0.0
 10
294.4244661889
 20
-58.2832881538
 30
0.0
  0
SPLINE
  5
491
100
AcDbEntity
  8
0
100
AcDbSpline
 62
9
  6
CONTINUOUS
 70
0
 71
3
 72
9
 73
5
 74
0
 42
0.0000001
 43
0.0000001
 44
0.0000000001
 40
0.0
 40
0.0
 40
0.0
 40
0.0
 40
0.243173332
 40
1.0
 40
1.0
 40
1.0
 40
1.0
 10
294.9808324805
 20
-56.6631957205
 30
0.0
 10
294.9631145134
 20
-56.7895553049
 30
0.0
 10
294.8510483974
 20
-57.3024362069
 30
0.0
 10
294.5826554284
 20
-57.7852244449
 30
0.0
 10
294.3064114498
 20
-58.0705134794
 30
0.0
  0
SPLINE
  5
492
100
AcDbEntity
  8
0
100
AcDbSpline
 62
9
  6
CONTINUOUS
 70
0
 71
3
 72
9
 73
5
 74
0
 42
0.0000001
 43
0.0000001
 44
0.0000000001
 40
0.0
 40
0.0
 40
0.0
 40
0.0
 40
0.2339702522
 40
1.0
 40
1.0
 40
1.0
 40
1.0
 10
295.1414870542
 20
-57.1328579984
 30
0.0
 10
295.134456533
 20
-57.0947178545
 30
0.0
 10
295.0977583717
 20
-56.9329503106
 30
0.0
 10
295.0369378239
 20
-56.7770958904
 30
0.0
 10
294.9808210832
 20
-56.6631927304
 30
0.0
  0
SPLINE
  5
493
100
AcDbEntity
  8
0
100
AcDbSpline
 62
9
  6
CONTINUOUS
 70
0
 71
3
 72
9
 73
5
 74
0
 42
0.0000001
 43
0.0000001
 44
0.0000000001
 40
0.0
 40
0.0
 40
0.0
 40
0.0
 40
0.2375287783
 40
1.0
 40
1.0
 40
1.0
 40
1.0
 10
295.1498274139
 20
-57.539100214
 30
0.0
 10
295.155163092
 20
-57.5072777949
 30
0.0
 10
295.1709799271
 20
-57.3721880708
 30
0.0
 10
295.1602742198
 20
-57.2347231165
 30
0.0
 10
295.1414951126
 20
-57.1328633069
 30
0.0
  0
SPLINE
  5
494
100
AcDbEntity
  8
0
100
AcDbSpline
 62
9
  6
CONTINUOUS
 70
0
 71
3
 72
9
 73
5
 74
0
 42
0.0000001
 43
0.0000001
 44
0.0000000001
 40
0.0
 40
0.0
 40
0.0
 40
0.0
 40
0.2438976341
 40
1.0
 40
1.0
 40
1.0
 40
1.0
 10
295.1498253713
 20
-57.5390992383
 30
0.0
 10
295.1078591841
 20
-57.6129964369
 30
0.0
 10
294.9155293312
 20
-57.9039992659
 30
0.0
 10
294.6496192313
 20
-58.1464936102
 30
0.0
 10
294.4244659206
 20
-58.2832876471
 30
0.0
  0
SPLINE
  5
495
100
AcDbEntity
  8
0
100
AcDbSpline
 62
9
  6
CONTINUOUS
 70
0
 71
3
 72
9
 73
5
 74
0
 42
0.0000001
 43
0.0000001
 44
0.0000000001
 40
0.0
 40
0.0
 40
0.0
 40
0.0
 40
0.2544012418
 40
1.0
 40
1.0
 40
1.0
 40
1.0
 10
294.9844238741
 20
-59.1391481293
 30
0.0
 10
295.0194324055
 20
-59.103925596
 30
0.0
 10
295.1514373714
 20
-58.9600447348
 30
0.0
 10
295.2584527812
 20
-58.7929809994
 30
0.0
 10
295.3192192301
 20
-58.6607264472
 30
0.0
  0
SPLINE
  5
496
100
AcDbEntity
  8
0
100
AcDbSpline
 62
9
  6
CONTINUOUS
 70
0
 71
3
 72
9
 73
5
 74
0
 42
0.0000001
 43
0.0000001
 44
0.0000000001
 40
0.0
 40
0.0
 40
0.0
 40
0.0
 40
0.2563533284
 40
1.0
 40
1.0
 40
1.0
 40
1.0
 10
294.4964012222
 20
-59.4921481543
 30
0.0
 10
294.5422599035
 20
-59.4685280385
 30
0.0
 10
294.7178473578
 20
-59.3702059079
 30
0.0
 10
294.8788886468
 20
-59.2452334395
 30
0.0
 10
294.9844238741
 20
-59.1391481293
 30
0.0
  0
SPLINE
  5
497
100
AcDbEntity
  8
0
100
AcDbSpline
 62
9
  6
CONTINUOUS
 70
0
 71
3
 72
9
 73
5
 74
0
 42
0.0000001
 43
0.0000001
 44
0.0000000001
 40
0.0
 40
0.0
 40
0.0
 40
0.0
 40
0.2553343009
 40
1.0
 40
1.0
 40
1.0
 40
1.0
 10
293.9394317228
 20
-59.6953270434
 30
0.0
 10
293.9885952536
 20
-59.6836584825
 30
0.0
 10
294.1798563413
 20
-59.6328909756
 30
0.0
 10
294.3656320637
 20
-59.5600890478
 30
0.0
 10
294.4964012222
 20
-59.4921481543
 30
0.0
  0
SPLINE
  5
498
100
AcDbEntity
  8
0
100
AcDbSpline
 62
9
  6
CONTINUOUS
 70
0
 71
3
 72
8
 73
4
 74
0
 42
0.0000001
 43
0.0000001
 44
0.0000000001
 40
0.0
 40
0.0
 40
0.0
 40
0.0
 40
1.0
 40
1.0
 40
1.0
 40
1.0
 10
293.3916897669
 20
-59.7704999714
 30
0.0
 10
293.575821748
 20
-59.7628192521
 30
0.0
 10
293.7602041509
 20
-59.7382345885
 30
0.0
 10
293.9394317228
 20
-59.6953270434
 30
0.0
  0
SPLINE
  5
499
100
AcDbEntity
  8
0
100
AcDbSpline
 62
9
  6
CONTINUOUS
 70
0
 71
3
 72
12
 73
8
 74
0
 42
0.0000001
 43
0.0000001
 44
0.0000000001
 40
0.0
 40
0.0
 40
0.0
 40
0.0
 40
0.1568464678
 40
0.2584350009
 40
0.3780436806
 40
0.6647718826
 40
1.0
 40
1.0
 40
1.0
 40
1.0
 10
293.4269989216
 20
-58.5858211237
 30
0.0
 10
293.4729595224
 20
-58.6292530062
 30
0.0
 10
293.5110032904
 20
-58.7372959749
 30
0.0
 10
293.5109205358
 20
-58.8886118237
 30
0.0
 10
293.4908089332
 20
-59.0931141972
 30
0.0
 10
293.4372692356
 20
-59.387048756
 30
0.0
 10
293.4034606618
 20
-59.6358521803
 30
0.0
 10
293.3916897611
 20
-59.7704915287
 30
0.0
  0
SPLINE
  5
49A
100
AcDbEntity
  8
0
100
AcDbSpline
 62
9
  6
CONTINUOUS
 70
0
 71
3
 72
8
 73
4
 74
0
 42
0.0000001
 43
0.0000001
 44
0.0000000001
 40
0.0
 40
0.0
 40
0.0
 40
0.0
 40
1.0
 40
1.0
 40
1.0
 40
1.0
 10
294.5230238457
 20
-59.6735871384
 30
0.0
 10
294.7012311152
 20
-59.5481797938
 30
0.0
 10
294.8632790948
 20
-59.395747488
 30
0.0
 10
294.9982356598
 20
-59.2246581588
 30
0.0
  0
SPLINE
  5
49B
100
AcDbEntity
  8
0
100
AcDbSpline
 62
9
  6
CONTINUOUS
 70
0
 71
3
 72
8
 73
4
 74
0
 42
0.0000001
 43
0.0000001
 44
0.0000000001
 40
0.0
 40
0.0
 40
0.0
 40
0.0
 40
1.0
 40
1.0
 40
1.0
 40
1.0
 10
293.9767004468
 20
-59.9587984363
 30
0.0
 10
293.8029369754
 20
-60.0217534232
 30
0.0
 10
293.6200577912
 20
-60.0640456661
 30
0.0
 10
293.4361177913
 20
-60.0820220614
 30
0.0
  0
SPLINE
  5
49C
100
AcDbEntity
  8
0
100
AcDbSpline
 62
9
  6
CONTINUOUS
 70
0
 71
3
 72
8
 73
4
 74
0
 42
0.0000001
 43
0.0000001
 44
0.0000000001
 40
0.0
 40
0.0
 40
0.0
 40
0.0
 40
1.0
 40
1.0
 40
1.0
 40
1.0
 10
295.3191528724
 20
-58.6607083751
 30
0.0
 10
295.2422373079
 20
-58.8628587511
 30
0.0
 10
295.1322893124
 20
-59.0549220946
 30
0.0
 10
294.9982339495
 20
-59.2246570003
 30
0.0
  0
SPLINE
  5
49D
100
AcDbEntity
  8
0
100
AcDbSpline
 62
9
  6
CONTINUOUS
 70
0
 71
3
 72
11
 73
7
 74
0
 42
0.0000001
 43
0.0000001
 44
0.0000000001
 40
0.0
 40
0.0
 40
0.0
 40
0.0
 40
0.0993710694
 40
0.3131145215
 40
0.6272729897
 40
1.0
 40
1.0
 40
1.0
 40
1.0
 10
293.4361496063
 20
-60.0820827972
 30
0.0
 10
293.4314052349
 20
-60.072789955
 30
0.0
 10
293.427020329
 20
-60.0394112466
 30
0.0
 10
293.4153683855
 20
-59.9751728097
 30
0.0
 10
293.4042591587
 20
-59.8809344419
 30
0.0
 10
293.3958859651
 20
-59.8093913287
 30
0.0
 10
293.3916899674
 20
-59.7704808675
 30
0.0
  0
SPLINE
  5
49E
100
AcDbEntity
  8
0
100
AcDbSpline
 62
9
  6
CONTINUOUS
 70
0
 71
3
 72
9
 73
5
 74
0
 42
0.0000001
 43
0.0000001
 44
0.0000000001
 40
0.0
 40
0.0
 40
0.0
 40
0.0
 40
0.3864508477
 40
1.0
 40
1.0
 40
1.0
 40
1.0
 10
277.9543711751
 20
-59.7788184592
 30
0.0
 10
277.954447378
 20
-59.8194852756
 30
0.0
 10
277.9539946908
 20
-59.9247033073
 30
0.0
 10
277.9565020176
 20
-60.0299918848
 30
0.0
 10
277.95412832
 20
-60.0945130693
 30
0.0
  0
SPLINE
  5
49F
100
AcDbEntity
  8
0
100
AcDbSpline
 62
9
  6
CONTINUOUS
 70
0
 71
3
 72
9
 73
5
 74
0
 42
0.0000001
 43
0.0000001
 44
0.0000000001
 40
0.0
 40
0.0
 40
0.0
 40
0.0
 40
0.2073303687
 40
1.0
 40
1.0
 40
1.0
 40
1.0
 10
277.8454124435
 20
-60.0981727284
 30
0.0
 10
277.8529048762
 20
-60.0975590798
 30
0.0
 10
277.8890989636
 20
-60.0953178089
 30
0.0
 10
277.9253712625
 20
-60.0945831745
 30
0.0
 10
277.9541123121
 20
-60.0945130724
 30
0.0
  0
SPLINE
  5
4A0
100
AcDbEntity
  8
0
100
AcDbSpline
 62
9
  6
CONTINUOUS
 70
0
 71
3
 72
9
 73
5
 74
0
 42
0.0000001
 43
0.0000001
 44
0.0000000001
 40
0.0
 40
0.0
 40
0.0
 40
0.0
 40
0.2932350463
 40
1.0
 40
1.0
 40
1.0
 40
1.0
 10
277.8146137068
 20
-60.1038259988
 30
0.0
 10
277.8162269759
 20
-60.1012082617
 30
0.0
 10
277.8288591759
 20
-60.1007872734
 30
0.0
 10
277.8380287994
 20
-60.0988123414
 30
0.0
 10
277.8454124435
 20
-60.0981727284
 30
0.0
  0
SPLINE
  5
4A1
100
AcDbEntity
  8
0
100
AcDbSpline
 62
9
  6
CONTINUOUS
 70
0
 71
3
 72
9
 73
5
 74
0
 42
0.0000001
 43
0.0000001
 44
0.0000000001
 40
0.0
 40
0.0
 40
0.0
 40
0.0
 40
0.2292679648
 40
1.0
 40
1.0
 40
1.0
 40
1.0
 10
277.2097859303
 20
-60.8291954235
 30
0.0
 10
277.26404214
 20
-60.7813927072
 30
0.0
 10
277.4914510717
 20
-60.562354325
 30
0.0
 10
277.6823267009
 20
-60.3077663286
 30
0.0
 10
277.8146137068
 20
-60.1038259988
 30
0.0
  0
SPLINE
  5
4A2
100
AcDbEntity
  8
0
100
AcDbSpline
 62
9
  6
CONTINUOUS
 70
0
 71
3
 72
10
 73
6
 74
0
 42
0.0000001
 43
0.0000001
 44
0.0000000001
 40
0.0
 40
0.0
 40
0.0
 40
0.0
 40
0.6907918932
 40
0.8942010548
 40
1.0
 40
1.0
 40
1.0
 40
1.0
 10
276.1408956944
 20
-61.2465831569
 30
0.0
 10
276.2340041139
 20
-61.2436745985
 30
0.0
 10
276.3549044777
 20
-61.2404219089
 30
0.0
 10
276.4887952555
 20
-61.2291774117
 30
0.0
 10
276.5307721212
 20
-61.2251980192
 30
0.0
 10
276.5443116892
 20
-61.2207003037
 30
0.0
  0
SPLINE
  5
4A3
100
AcDbEntity
  8
0
100
AcDbSpline
 62
7
  6
CONTINUOUS
 70
0
 71
3
 72
18
 73
14
 74
0
 42
0.0000001
 43
0.0000001
 44
0.0000000001
 40
0.0
 40
0.0
 40
0.0
 40
0.0
 40
0.0054290216
 40
0.0200151976
 40
0.0439838958
 40
0.0770894997
 40
0.1190305664
 40
0.1694781046
 40
0.2937486598
 40
0.4450522649
 40
0.6177450873
 40
0.8054205358
 40
1.0
 40
1.0
 40
1.0
 40
1.0
 10
273.5812164176
 20
-58.3284804062
 30
0.0
 10
273.5812197986
 20
-58.3322862189
 30
0.0
 10
273.5615301082
 20
-58.3352777215
 30
0.0
 10
273.5365820262
 20
-58.3407178057
 30
0.0
 10
273.4834867102
 20
-58.34511824
 30
0.0
 10
273.4155834184
 20
-58.3502108011
 30
0.0
 10
273.3272283467
 20
-58.3548988232
 30
0.0
 10
273.1757201145
 20
-58.361460739
 30
0.0
 10
272.947126956
 20
-58.3684242804
 30
0.0
 10
272.6330135124
 20
-58.3750557023
 30
0.0
 10
272.2743367599
 20
-58.3800244658
 30
0.0
 10
271.8853279063
 20
-58.3831171169
 30
0.0
 10
271.6173604519
 20
-58.3838573024
 30
0.0
 10
271.4809577391
 20
-58.3838847404
 30
0.0
  0
SPLINE
  5
4A4
100
AcDbEntity
  8
0
100
AcDbSpline
 62
9
  6
CONTINUOUS
 70
0
 71
3
 72
12
 73
8
 74
0
 42
0.0000001
 43
0.0000001
 44
0.0000000001
 40
0.0
 40
0.0
 40
0.0
 40
0.0
 40
0.0318911338
 40
0.0912671647
 40
0.2929261775
 40
0.600160383
 40
1.0
 40
1.0
 40
1.0
 40
1.0
 10
232.4063457735
 20
-61.2295788498
 30
0.0
 10
232.420351236
 20
-61.2338053353
 30
0.0
 10
232.4623389956
 20
-61.2381263515
 30
0.0
 10
232.5959375127
 20
-61.2489994678
 30
0.0
 10
232.8569026554
 20
-61.2571038259
 30
0.0
 10
233.2734385351
 20
-61.2666795386
 30
0.0
 10
233.5978392646
 20
-61.2706714528
 30
0.0
 10
233.7812451975
 20
-61.2726693902
 30
0.0
  0
SPLINE
  5
4A5
100
AcDbEntity
  8
0
100
AcDbSpline
 62
9
  6
CONTINUOUS
 70
0
 71
3
 72
9
 73
5
 74
0
 42
0.0000001
 43
0.0000001
 44
0.0000000001
 40
0.0
 40
0.0
 40
0.0
 40
0.0
 40
0.2727991958
 40
1.0
 40
1.0
 40
1.0
 40
1.0
 10
231.145253315
 20
-60.1132136099
 30
0.0
 10
231.1916663324
 20
-60.1853048997
 30
0.0
 10
231.3681094321
 20
-60.4451873041
 30
0.0
 10
231.574569365
 20
-60.6866669299
 30
0.0
 10
231.7455461813
 20
-60.8383412608
 30
0.0
  0
SPLINE
  5
4A6
100
AcDbEntity
  8
0
100
AcDbSpline
 62
9
  6
CONTINUOUS
 70
0
 71
3
 72
9
 73
5
 74
0
 42
0.0000001
 43
0.0000001
 44
0.0000000001
 40
0.0
 40
0.0
 40
0.0
 40
0.0
 40
0.6905091694
 40
1.0
 40
1.0
 40
1.0
 40
1.0
 10
231.0886259975
 20
-60.105849781
 30
0.0
 10
231.1017818199
 20
-60.1065639065
 30
0.0
 10
231.119410978
 20
-60.1097109837
 30
0.0
 10
231.140998701
 20
-60.1091185218
 30
0.0
 10
231.145253315
 20
-60.1132136099
 30
0.0
  0
SPLINE
  5
4A7
100
AcDbEntity
  8
0
100
AcDbSpline
 62
9
  6
CONTINUOUS
 70
0
 71
3
 72
9
 73
5
 74
0
 42
0.0000001
 43
0.0000001
 44
0.0000000001
 40
0.0
 40
0.0
 40
0.0
 40
0.0
 40
0.7737465576
 40
1.0
 40
1.0
 40
1.0
 40
1.0
 10
231.0057875818
 20
-60.1039567631
 30
0.0
 10
231.0271598396
 20
-60.1039489526
 30
0.0
 10
231.0547880065
 20
-60.1043320728
 30
0.0
 10
231.0823846883
 20
-60.1055294643
 30
0.0
 10
231.0886259975
 20
-60.105849781
 30
0.0
  0
SPLINE
  5
4A8
100
AcDbEntity
  8
0
100
AcDbSpline
 62
9
  6
CONTINUOUS
 70
0
 71
3
 72
11
 73
7
 74
0
 42
0.0000001
 43
0.0000001
 44
0.0000000001
 40
0.0
 40
0.0
 40
0.0
 40
0.0
 40
0.0989437164
 40
0.3121877832
 40
0.6264076733
 40
1.0
 40
1.0
 40
1.0
 40
1.0
 10
215.5238220328
 20
-60.0976923324
 30
0.0
 10
215.5285807229
 20
-60.0884612014
 30
0.0
 10
215.5329716954
 20
-60.0551793175
 30
0.0
 10
215.544633597
 20
-59.9910690056
 30
0.0
 10
215.5557369225
 20
-59.896809571
 30
0.0
 10
215.5641068127
 20
-59.8251948287
 30
0.0
 10
215.5683005209
 20
-59.7862060285
 30
0.0
  0
SPLINE
  5
4A9
100
AcDbEntity
  8
0
100
AcDbSpline
 62
9
  6
CONTINUOUS
 70
0
 71
3
 72
9
 73
5
 74
0
 42
0.0000001
 43
0.0000001
 44
0.0000000001
 40
0.0
 40
0.0
 40
0.0
 40
0.0
 40
0.7540594536
 40
1.0
 40
1.0
 40
1.0
 40
1.0
 10
213.8928193615
 20
-59.067400396
 30
0.0
 10
213.8161767874
 20
-58.9788919851
 30
0.0
 10
213.7264220818
 20
-58.8502351449
 30
0.0
 10
213.6563871311
 20
-58.7116383673
 30
0.0
 10
213.6400164782
 20
-58.6771390435
 30
0.0
  0
SPLINE
  5
4AA
100
AcDbEntity
  8
0
100
AcDbSpline
 62
9
  6
CONTINUOUS
 70
0
 71
3
 72
9
 73
5
 74
0
 42
0.0000001
 43
0.0000001
 44
0.0000000001
 40
0.0
 40
0.0
 40
0.0
 40
0.0
 40
0.2551639763
 40
1.0
 40
1.0
 40
1.0
 40
1.0
 10
214.2926497107
 20
-59.4099789798
 30
0.0
 10
214.2548018459
 20
-59.3858776925
 30
0.0
 10
214.1097826563
 20
-59.2863680638
 30
0.0
 10
213.9785866142
 20
-59.1663916808
 30
0.0
 10
213.8928193615
 20
-59.067400396
 30
0.0
  0
SPLINE
  5
4AB
100
AcDbEntity
  8
0
100
AcDbSpline
 62
9
  6
CONTINUOUS
 70
0
 71
3
 72
9
 73
5
 74
0
 42
0.0000001
 43
0.0000001
 44
0.0000000001
 40
0.0
 40
0.0
 40
0.0
 40
0.0
 40
0.2568674504
 40
1.0
 40
1.0
 40
1.0
 40
1.0
 10
214.9115660919
 20
-59.6830555538
 30
0.0
 10
214.8557304749
 20
-59.6672385
 30
0.0
 10
214.6405871323
 20
-59.5982588018
 30
0.0
 10
214.4343171963
 20
-59.5000792222
 30
0.0
 10
214.2926497107
 20
-59.4099789798
 30
0.0
  0
SPLINE
  5
4AC
100
AcDbEntity
  8
0
100
AcDbSpline
 62
9
  6
CONTINUOUS
 70
0
 71
3
 72
9
 73
5
 74
0
 42
0.0000001
 43
0.0000001
 44
0.0000000001
 40
0.0
 40
0.0
 40
0.0
 40
0.0
 40
0.2543005657
 40
1.0
 40
1.0
 40
1.0
 40
1.0
 10
214.5186255721
 20
-57.934035891
 30
0.0
 10
214.4453282674
 20
-57.8434007206
 30
0.0
 10
214.1842656667
 20
-57.4656843435
 30
0.0
 10
214.0262632246
 20
-57.0180339076
 30
0.0
 10
213.9786319791
 20
-56.6795611343
 30
0.0
  0
SPLINE
  5
4AD
100
AcDbEntity
  8
0
100
AcDbSpline
 62
9
  6
CONTINUOUS
 70
0
 71
3
 72
9
 73
5
 74
0
 42
0.0000001
 43
0.0000001
 44
0.0000000001
 40
0.0
 40
0.0
 40
0.0
 40
0.0
 40
0.2192884155
 40
1.0
 40
1.0
 40
1.0
 40
1.0
 10
215.532321519
 20
-58.6013498252
 30
0.0
 10
215.444662613
 20
-58.5824835268
 30
0.0
 10
215.0532595183
 20
-58.4575992751
 30
0.0
 10
214.7193692093
 20
-58.1822522617
 30
0.0
 10
214.5186329468
 20
-57.9340332755
 30
0.0
  0
SPLINE
  5
4AE
100
AcDbEntity
  8
0
100
AcDbSpline
 62
9
  6
CONTINUOUS
 70
0
 71
3
 72
9
 73
5
 74
0
 42
0.0000001
 43
0.0000001
 44
0.0000000001
 40
0.0
 40
0.0
 40
0.0
 40
0.0
 40
0.5116658528
 40
1.0
 40
1.0
 40
1.0
 40
1.0
 10
214.1591762886
 20
-58.0070318928
 30
0.0
 10
214.3447202927
 20
-58.1884739736
 30
0.0
 10
214.7780682188
 20
-58.4772139766
 30
0.0
 10
215.2848300781
 20
-58.5913414401
 30
0.0
 10
215.5323067665
 20
-58.6013952926
 30
0.0
  0
SPLINE
  5
4AF
100
AcDbEntity
  8
0
100
AcDbSpline
 62
9
  6
CONTINUOUS
 70
0
 71
3
 72
8
 73
4
 74
0
 42
0.0000001
 43
0.0000001
 44
0.0000000001
 40
0.0
 40
0.0
 40
0.0
 40
0.0
 40
1.0
 40
1.0
 40
1.0
 40
1.0
 10
213.8096836848
 20
-57.5553808591
 30
0.0
 10
213.9036872565
 20
-57.7209358937
 30
0.0
 10
214.0227067235
 20
-57.8742864327
 30
0.0
 10
214.1588559162
 20
-58.0073598647
 30
0.0
  0
SPLINE
  5
4B0
100
AcDbEntity
  8
0
100
AcDbSpline
 62
9
  6
CONTINUOUS
 70
0
 71
3
 72
9
 73
5
 74
0
 42
0.0000001
 43
0.0000001
 44
0.0000000001
 40
0.0
 40
0.0
 40
0.0
 40
0.0
 40
0.2833507794
 40
1.0
 40
1.0
 40
1.0
 40
1.0
 10
213.912299331
 20
-56.8284000749
 30
0.0
 10
213.8864439901
 20
-56.8932290846
 30
0.0
 10
213.8081727058
 20
-57.1262786839
 30
0.0
 10
213.780519139
 20
-57.3812784963
 30
0.0
 10
213.8096839037
 20
-57.5553769245
 30
0.0
  0
SPLINE
  5
4B1
100
AcDbEntity
  8
0
100
AcDbSpline
 62
9
  6
CONTINUOUS
 70
0
 71
3
 72
11
 73
7
 74
0
 42
0.0000001
 43
0.0000001
 44
0.0000000001
 40
0.0
 40
0.0
 40
0.0
 40
0.0
 40
0.2228914483
 40
0.4756786826
 40
0.743724897
 40
1.0
 40
1.0
 40
1.0
 40
1.0
 10
216.2301843158
 20
-58.5243443725
 30
0.0
 10
216.0152339366
 20
-58.5210360471
 30
0.0
 10
215.5530917042
 20
-58.4094705451
 30
0.0
 10
214.9751109174
 20
-57.9500654252
 30
0.0
 10
214.6017267886
 20
-57.2808747898
 30
0.0
 10
214.5147498073
 20
-56.7725337099
 30
0.0
 10
214.5118531734
 20
-56.5253767554
 30
0.0
  0
SPLINE
  5
4B2
100
AcDbEntity
  8
0
100
AcDbSpline
 62
9
  6
CONTINUOUS
 70
0
 71
3
 72
11
 73
7
 74
0
 42
0.0000001
 43
0.0000001
 44
0.0000000001
 40
0.0
 40
0.0
 40
0.0
 40
0.0
 40
0.2357505028
 40
0.4938788062
 40
0.7558642279
 40
1.0
 40
1.0
 40
1.0
 40
1.0
 10
217.1110803994
 20
-58.4704478242
 30
0.0
 10
216.8709111623
 20
-58.4687465373
 30
0.0
 10
216.3634609545
 20
-58.3648156293
 30
0.0
 10
215.7123381598
 20
-57.914791567
 30
0.0
 10
215.2849791424
 20
-57.2398232006
 30
0.0
 10
215.1871248474
 20
-56.7202854237
 30
0.0
 10
215.1853758355
 20
-56.4715736597
 30
0.0
  0
SPLINE
  5
4B3
100
AcDbEntity
  8
0
100
AcDbSpline
 62
9
  6
CONTINUOUS
 70
0
 71
3
 72
9
 73
5
 74
0
 42
0.0000001
 43
0.0000001
 44
0.0000000001
 40
0.0
 40
0.0
 40
0.0
 40
0.0
 40
0.2744208489
 40
1.0
 40
1.0
 40
1.0
 40
1.0
 10
220.3583596258
 20
-56.1858230643
 30
0.0
 10
220.3588212897
 20
-56.3137398436
 30
0.0
 10
220.3668241465
 20
-56.7797138794
 30
0.0
 10
220.3937433309
 20
-57.2462019863
 30
0.0
 10
220.43777963
 20
-57.5815419853
 30
0.0
  0
SPLINE
  5
4B4
100
AcDbEntity
  8
0
100
AcDbSpline
 62
9
  6
CONTINUOUS
 70
0
 71
3
 72
11
 73
7
 74
0
 42
0.0000001
 43
0.0000001
 44
0.0000000001
 40
0.0
 40
0.0
 40
0.0
 40
0.0
 40
0.107171329
 40
0.3078932035
 40
0.6082617723
 40
1.0
 40
1.0
 40
1.0
 40
1.0
 10
220.6208924042
 20
-58.1850862241
 30
0.0
 10
220.5983516486
 20
-58.1806294888
 30
0.0
 10
220.5543699254
 20
-58.1191021684
 30
0.0
 10
220.5140813268
 20
-58.0001359678
 30
0.0
 10
220.4705519497
 20
-57.8109224765
 30
0.0
 10
220.4487148054
 20
-57.664814235
 30
0.0
 10
220.43777963
 20
-57.5815419853
 30
0.0
  0
SPLINE
  5
4B5
100
AcDbEntity
  8
0
100
AcDbSpline
 62
9
  6
CONTINUOUS
 70
0
 71
3
 72
9
 73
5
 74
0
 42
0.0000001
 43
0.0000001
 44
0.0000000001
 40
0.0
 40
0.0
 40
0.0
 40
0.0
 40
0.5083273333
 40
1.0
 40
1.0
 40
1.0
 40
1.0
 10
218.9083741278
 20
-56.9923764043
 30
0.0
 10
219.0521027492
 20
-57.3323667102
 30
0.0
 10
219.5251038348
 20
-57.9405946242
 30
0.0
 10
220.2638795756
 20
-58.1817337169
 30
0.0
 10
220.6208924042
 20
-58.1850862241
 30
0.0
  0
SPLINE
  5
4B6
100
AcDbEntity
  8
0
100
AcDbSpline
 62
9
  6
CONTINUOUS
 70
0
 71
3
 72
8
 73
4
 74
0
 42
0.0000001
 43
0.0000001
 44
0.0000000001
 40
0.0
 40
0.0
 40
0.0
 40
0.0
 40
1.0
 40
1.0
 40
1.0
 40
1.0
 10
218.7419090896
 20
-56.1861484462
 30
0.0
 10
218.7442795612
 20
-56.4605495227
 30
0.0
 10
218.8015240337
 20
-56.7396223196
 30
0.0
 10
218.9083741278
 20
-56.9923764043
 30
0.0
  0
SPLINE
  5
4B7
100
AcDbEntity
  8
0
100
AcDbSpline
 62
9
  6
CONTINUOUS
 70
0
 71
3
 72
14
 73
10
 74
0
 42
0.0000001
 43
0.0000001
 44
0.0000000001
 40
0.0
 40
0.0
 40
0.0
 40
0.0
 40
0.3687993055
 40
0.5367476375
 40
0.6856355318
 40
0.8103786531
 40
0.9064141416
 40
0.9699297808
 40
1.0
 40
1.0
 40
1.0
 40
1.0
 10
231.0057168832
 20
-58.5213721003
 30
0.0
 10
231.3057479355
 20
-58.5213713871
 30
0.0
 10
231.7424319486
 20
-58.5231693586
 30
0.0
 10
232.3001407851
 20
-58.5304316741
 30
0.0
 10
232.6594031436
 20
-58.5372661019
 30
0.0
 10
232.9597727103
 20
-58.5463872069
 30
0.0
 10
233.1914997118
 20
-58.5544535109
 30
0.0
 10
233.3441882114
 20
-58.5673817264
 30
0.0
 10
233.4215424695
 20
-58.5723150355
 30
0.0
 10
233.4444616875
 20
-58.580868167
 30
0.0
  0
SPLINE
  5
4B8
100
AcDbEntity
  8
0
100
AcDbSpline
 62
9
  6
CONTINUOUS
 70
0
 71
3
 72
9
 73
5
 74
0
 42
0.0000001
 43
0.0000001
 44
0.0000000001
 40
0.0
 40
0.0
 40
0.0
 40
0.0
 40
0.1923195617
 40
1.0
 40
1.0
 40
1.0
 40
1.0
 10
217.1108969395
 20
-58.4705159375
 30
0.0
 10
217.0545722543
 20
-58.4757572362
 30
0.0
 10
216.7613662954
 20
-58.4993626705
 30
0.0
 10
216.467518504
 20
-58.5138691408
 30
0.0
 10
216.23018201
 20
-58.5243442697
 30
0.0
  0
SPLINE
  5
4B9
100
AcDbEntity
  8
0
100
AcDbSpline
 62
9
  6
CONTINUOUS
 70
0
 71
3
 72
9
 73
5
 74
0
 42
0.0000001
 43
0.0000001
 44
0.0000000001
 40
0.0
 40
0.0
 40
0.0
 40
0.0
 40
0.271779907
 40
1.0
 40
1.0
 40
1.0
 40
1.0
 10
220.6209766569
 20
-58.1850860785
 30
0.0
 10
220.3027561065
 20
-58.2079715233
 30
0.0
 10
219.1320607948
 20
-58.2946019247
 30
0.0
 10
217.9620645779
 20
-58.3911747265
 30
0.0
 10
217.1108969395
 20
-58.4705159375
 30
0.0
  0
SPLINE
  5
4BA
100
AcDbEntity
  8
0
100
AcDbSpline
 62
9
  6
CONTINUOUS
 70
0
 71
3
 72
9
 73
5
 74
0
 42
0.0000001
 43
0.0000001
 44
0.0000000001
 40
0.0
 40
0.0
 40
0.0
 40
0.0
 40
0.2281117743
 40
1.0
 40
1.0
 40
1.0
 40
1.0
 10
291.8499185882
 20
-58.4554780202
 30
0.0
 10
291.5835978378
 20
-58.4307278445
 30
0.0
 10
290.4157195126
 20
-58.3262862429
 30
0.0
 10
289.2465993264
 20
-58.2360876229
 30
0.0
 10
288.3438458782
 20
-58.1714631237
 30
0.0
  0
SPLINE
  5
4BB
100
AcDbEntity
  8
0
100
AcDbSpline
 62
9
  6
CONTINUOUS
 70
0
 71
3
 72
9
 73
5
 74
0
 42
0.0000001
 43
0.0000001
 44
0.0000000001
 40
0.0
 40
0.0
 40
0.0
 40
0.0
 40
0.3066972177
 40
1.0
 40
1.0
 40
1.0
 40
1.0
 10
292.7299357324
 20
-58.5089560283
 30
0.0
 10
292.6398860605
 20
-58.5050152448
 30
0.0
 10
292.3463446214
 20
-58.4910684825
 30
0.0
 10
292.0528040433
 20
-58.4742944498
 30
0.0
 10
291.8499185882
 20
-58.4554780202
 30
0.0
  0
SPLINE
  5
4BC
100
AcDbEntity
  8
0
100
AcDbSpline
 62
9
  6
CONTINUOUS
 70
0
 71
3
 72
14
 73
10
 74
0
 42
0.0000001
 43
0.0000001
 44
0.0000000001
 40
0.0
 40
0.0
 40
0.0
 40
0.0
 40
0.0301408271
 40
0.0937187458
 40
0.1897916927
 40
0.314546526
 40
0.4634214596
 40
0.6313335295
 40
1.0
 40
1.0
 40
1.0
 40
1.0
 10
275.5148298038
 20
-58.5724013639
 30
0.0
 10
275.5378242835
 20
-58.5638575403
 30
0.0
 10
275.6152971699
 20
-58.5588640062
 30
0.0
 10
275.7681969928
 20
-58.5458983496
 30
0.0
 10
276.0000961333
 20
-58.5377247403
 30
0.0
 10
276.3006156216
 20
-58.5284888835
 30
0.0
 10
276.6599876628
 20
-58.521508365
 30
0.0
 10
277.2177697369
 20
-58.5140234615
 30
0.0
 10
277.6544903889
 20
-58.5120492668
 30
0.0
 10
277.9545337149
 20
-58.511928171
 30
0.0
  0
SPLINE
  5
4BD
100
AcDbEntity
  8
0
100
AcDbSpline
 62
9
  6
CONTINUOUS
 70
0
 71
3
 72
9
 73
5
 74
0
 42
0.0000001
 43
0.0000001
 44
0.0000000001
 40
0.0
 40
0.0
 40
0.0
 40
0.0
 40
0.6905446587
 40
1.0
 40
1.0
 40
1.0
 40
1.0
 10
273.9234580183
 20
-59.2665192325
 30
0.0
 10
273.9651876519
 20
-59.2641324754
 30
0.0
 10
274.0239242636
 20
-59.2567858355
 30
0.0
 10
274.0872599527
 20
-59.2560807418
 30
0.0
 10
274.1038327521
 20
-59.24735199
 30
0.0
  0
SPLINE
  5
4BE
100
AcDbEntity
  8
0
100
AcDbSpline
 62
9
  6
CONTINUOUS
 70
0
 71
3
 72
9
 73
5
 74
0
 42
0.0000001
 43
0.0000001
 44
0.0000000001
 40
0.0
 40
0.0
 40
0.0
 40
0.0
 40
0.2988974711
 40
1.0
 40
1.0
 40
1.0
 40
1.0
 10
273.4829340258
 20
-59.2827377439
 30
0.0
 10
273.5268412976
 20
-59.2816379831
 30
0.0
 10
273.6737251135
 20
-59.277577125
 30
0.0
 10
273.820603653
 20
-59.2724020636
 30
0.0
 10
273.9234580183
 20
-59.2665192325
 30
0.0
  0
SPLINE
  5
4BF
100
AcDbEntity
  8
0
100
AcDbSpline
 62
9
  6
CONTINUOUS
 70
0
 71
3
 72
9
 73
5
 74
0
 42
0.0000001
 43
0.0000001
 44
0.0000000001
 40
0.0
 40
0.0
 40
0.0
 40
0.0
 40
0.2717172766
 40
1.0
 40
1.0
 40
1.0
 40
1.0
 10
272.8448657847
 20
-59.293537431
 30
0.0
 10
272.9026624538
 20
-59.2929243893
 30
0.0
 10
273.1153675073
 20
-59.290364693
 30
0.0
 10
273.3280617055
 20
-59.286616885
 30
0.0
 10
273.4829340258
 20
-59.2827377439
 30
0.0
  0
SPLINE
  5
4C0
100
AcDbEntity
  8
0
100
AcDbSpline
 62
9
  6
CONTINUOUS
 70
0
 71
3
 72
9
 73
5
 74
0
 42
0.0000001
 43
0.0000001
 44
0.0000000001
 40
0.0
 40
0.0
 40
0.0
 40
0.0
 40
0.1988007753
 40
1.0
 40
1.0
 40
1.0
 40
1.0
 10
235.0261753509
 20
-59.274343953
 30
0.0
 10
235.0553260278
 20
-59.2760008054
 30
0.0
 10
235.202021661
 20
-59.2832166467
 30
0.0
 10
235.3488446158
 20
-59.287485126
 30
0.0
 10
235.4664804177
 20
-59.290385229
 30
0.0
  0
SPLINE
  5
4C1
100
AcDbEntity
  8
0
100
AcDbSpline
 62
9
  6
CONTINUOUS
 70
0
 71
3
 72
9
 73
5
 74
0
 42
0.0000001
 43
0.0000001
 44
0.0000000001
 40
0.0
 40
0.0
 40
0.0
 40
0.0
 40
0.3085339051
 40
1.0
 40
1.0
 40
1.0
 40
1.0
 10
234.8460606334
 20
-59.2552488783
 30
0.0
 10
234.8625362382
 20
-59.2639841476
 30
0.0
 10
234.9258194305
 20
-59.2646505346
 30
0.0
 10
234.9844498555
 20
-59.2719723789
 30
0.0
 10
235.0261753509
 20
-59.274343953
 30
0.0
  0
SPLINE
  5
4C2
100
AcDbEntity
  8
0
100
AcDbSpline
 62
7
  6
CONTINUOUS
 70
0
 71
3
 72
18
 73
14
 74
0
 42
0.0000001
 43
0.0000001
 44
0.0000000001
 40
0.0
 40
0.0
 40
0.0
 40
0.0
 40
0.1946061004
 40
0.3822837902
 40
0.5549656601
 40
0.7062578199
 40
0.8305259255
 40
0.8809670632
 40
0.9229079867
 40
0.9560174376
 40
0.9799861848
 40
0.9945686539
 40
1.0
 40
1.0
 40
1.0
 40
1.0
 10
237.4809590245
 20
-58.3907240026
 30
0.0
 10
237.3445887543
 20
-58.3907514341
 30
0.0
 10
237.0767011922
 20
-58.3901195518
 30
0.0
 10
236.6878243124
 20
-58.3871846104
 30
0.0
 10
236.3292941196
 20
-58.3823632154
 30
0.0
 10
236.0153130517
 20
-58.3758603631
 30
0.0
 10
235.786817165
 20
-58.3689938284
 30
0.0
 10
235.6353690099
 20
-58.3624940261
 30
0.0
 10
235.5470479228
 20
-58.3578434581
 30
0.0
 10
235.4791633063
 20
-58.3527791159
 30
0.0
 10
235.4260911087
 20
-58.3484045079
 30
0.0
 10
235.4011412145
 20
-58.3429700424
 30
0.0
 10
235.3814687154
 20
-58.3399910942
 30
0.0
 10
235.3814653343
 20
-58.3361850786
 30
0.0
  0
SPLINE
  5
4C3
100
AcDbEntity
  8
0
100
AcDbSpline
 62
7
  6
CONTINUOUS
 70
0
 71
3
 72
18
 73
14
 74
0
 42
0.0000001
 43
0.0000001
 44
0.0000000001
 40
0.0
 40
0.0
 40
0.0
 40
0.0
 40
0.1946061004
 40
0.3822837902
 40
0.5549656601
 40
0.7062578199
 40
0.8305259255
 40
0.8809670632
 40
0.9229079867
 40
0.9560174376
 40
0.9799861848
 40
0.9945686539
 40
1.0
 40
1.0
 40
1.0
 40
1.0
 10
271.4809577391
 20
-58.3838847404
 30
0.0
 10
271.344587469
 20
-58.383912172
 30
0.0
 10
271.0766999069
 20
-58.3832802896
 30
0.0
 10
270.6878230271
 20
-58.3803453482
 30
0.0
 10
270.3292928342
 20
-58.3755239533
 30
0.0
 10
270.0153117664
 20
-58.369021101
 30
0.0
 10
269.7868158797
 20
-58.3621545662
 30
0.0
 10
269.6353677246
 20
-58.355654764
 30
0.0
 10
269.5470466375
 20
-58.351004196
 30
0.0
 10
269.4791620209
 20
-58.3459398538
 30
0.0
 10
269.4260898233
 20
-58.3415652458
 30
0.0
 10
269.4011399291
 20
-58.3361307803
 30
0.0
 10
269.38146743
 20
-58.333151832
 30
0.0
 10
269.3814640489
 20
-58.3293458164
 30
0.0
  0
ENDSEC
  0
SECTION
  2
OBJECTS
  0
DICTIONARY
  5
C
100
AcDbDictionary
280
0
281
1
  3
ACAD_GROUP
350
D
  3
ACAD_MLINESTYLE
350
17
  3
ACAD_LAYOUT
350
1A
  3
ACAD_PLOTSETTINGS
350
19
  3
ACAD_PLOTSTYLENAME
350
E
  0
DICTIONARY
  5
D
102
{ACAD_REACTORS
330
C
102
}
100
AcDbDictionary
280
0
281
1
  0
ACDBDICTIONARYWDFLT
  5
E
102
{ACAD_REACTORS
330
C
102
}
100
AcDbDictionary
281
1
  3
Normal
350
F
100
AcDbDictionaryWithDefault
340
F
  0
DICTIONARY
  5
17
102
{ACAD_REACTORS
330
C
102
}
100
AcDbDictionary
280
0
281
1
  3
Standard
350
18
  0
DICTIONARY
  5
19
102
{ACAD_REACTORS
330
C
102
}
100
AcDbDictionary
281
1
  0
DICTIONARY
  5
1A
102
{ACAD_REACTORS
330
C
102
}
100
AcDbDictionary
281
1
  3
Model
350
4C4
  3
Layout1
350
4C5
  0
ACDBPLACEHOLDER
  5
F
102
{ACAD_REACTORS
330
E
102
}
  0
MLINESTYLE
  5
18
102
{ACAD_REACTORS
330
17
102
}
100
AcDbMlineStyle
  2
STANDARD
 70
0
  3

 62
256
 51
90.0
 52
90.0
 71
2
 49
0.5
 62
256
  6
BYLAYER
 49
-0.5
 62
256
  6
BYLAYER
  0
LAYOUT
  5
4C4
102
{ACAD_REACTORS
330
1A
102
}
100
AcDbPlotSettings
  1

  2
none_device
  4
ANSI_C_(22.00_x_17.00_Inches)
  6

 40
0.0
 41
0.0
 42
0.0
 43
0.0
 44
558.8
 45
431.8
 46
0.0
 47
0.0
 48
0.0
 49
0.0
140
0.0
141
0.0
142
1.0
143
1.0
 70
1024
 72
1
 73
0
 74
0
  7

 75
0
147
1.0
148
0.0
149
0.0
100
AcDbLayout
  1
Model
 70
0
 71
0
 10
0.0
 20
0.0
 11
558.8
 21
431.8
 12
0.0
 22
0.0
 32
0.0
 14
0.0
 24
0.0
 34
0.0
 15
0.0
 25
0.0
 35
0.0
146
0.0
 13
0.0
 23
0.0
 33
0.0
 16
1.0
 26
0.0
 36
0.0
 17
0.0
 27
1.0
 37
0.0
 76
0
330
217
345
0
346
0
  0
LAYOUT
  5
4C5
102
{ACAD_REACTORS
330
1A
102
}
100
AcDbPlotSettings
  1

  2
none_device
  4
ANSI_C_(22.00_x_17.00_Inches)
  6

 40
0.0
 41
0.0
 42
0.0
 43
0.0
 44
558.8
 45
431.8
 46
0.0
 47
0.0
 48
0.0
 49
0.0
140
0.0
141
0.0
142
1.0
143
1.0
 70
0
 72
1
 73
0
 74
0
  7

 75
0
147
1.0
148
0.0
149
0.0
100
AcDbLayout
  1
Layout1
 70
0
 71
1
 10
0.0
 20
0.0
 11
558.8
 21
431.8
 12
0.0
 22
0.0
 32
0.0
 14
0.0
 24
0.0
 34
0.0
 15
0.0
 25
0.0
 35
0.0
146
0.0
 13
0.0
 23
0.0
 33
0.0
 16
1.0
 26
0.0
 36
0.0
 17
0.0
 27
1.0
 37
0.0
 76
0
330
218
345
0
346
0
  0
ENDSEC
  0
EOF
