999
DXF file: C:\Users\sesa63760\Dev\_Creo\CAD\MCADID0001009_3D-CAD\drw0001_1.dxf
999
Pro/ENGINEER 2019471 by Parametric Technology Corporation
  0
SECTION
  2
HEADER
  9
$ACADVER
  1
AC1024
  9
$DWGCODEPAGE
  3
ANSI_1252
  9
$EXTMAX
 10
1190.2556868984
 20
1683.3616143277
 30
0.0
  9
$EXTMIN
 10
0.0
 20
0.0
 30
0.0
  9
$LIMMIN
 10
0.0
 20
0.0
  9
$LIMMAX
 10
1190.2556868984
 20
1683.3616143277
  9
$VIEWCTR
 10
595.1278434492
 20
841.6808071639
  9
$VIEWSIZE
 40
1683.3616143277
  9
$CLAYER
  8
0
  9
$LTSCALE
 40
109.7302385636
  9
$CELTYPE
  6
BYLAYER
  9
$DIMSCALE
 40
1.0
  9
$DIMASZ
 40
14.1697105583
  9
$DIMEXO
 40
1.0
  9
$DIMDLI
 40
75.8136193712
  9
$DIMEXE
 40
1.0
  9
$DIMCEN
 40
17.9558572195
  9
$DIMLFAC
 40
1.0
  9
$DIMBLK
  1
_FILLED
  9
$DIMALT
 70
0
  9
$DIMALTF
 40
0.0393700787
  9
$DIMTXT
 40
19.8375947816
  9
$DIMTOL
 70
1
  9
$DIMLIM
 70
0
  9
$DIMTFAC
 40
1.0
  9
$DIMTP
 40
0.01
  9
$DIMTM
 40
0.01
  9
$DIMGAP
 40
0.625
  9
$DIMDSEP
 70
46
  9
$AUNITS
 70
0
  9
$PDMODE
 70
3
  9
$PDSIZE
 40
0.3125
  9
$HANDSEED
  5
492
  9
$TILEMODE
 70
1
  9
$MEASUREMENT
 70
1
  9
$INSUNITS
 70
4
  0
ENDSEC
  0
SECTION
  2
CLASSES
  0
CLASS
  1
ACDBDICTIONARYWDFLT
  2
AcDbDictionaryWithDefault
  3
AutoCAD 2000
 90
0
 91
1
280
0
281
0
  0
CLASS
  1
ACDBPLACEHOLDER
  2
AcDbPlaceHolder
  3
AutoCAD 2000
 90
0
 91
1
280
0
281
0
  0
CLASS
  1
LAYOUT
  2
AcDbLayout
  3
AutoCAD 2000
 90
0
 91
0
280
0
281
0
  0
ENDSEC
  0
SECTION
  2
TABLES
  0
TABLE
  2
VPORT
  5
8
100
AcDbSymbolTable
 70
2
  0
VPORT
  5
1F4
100
AcDbSymbolTableRecord
100
AcDbViewportTableRecord
  2
*ACTIVE
 70
0
 10
0.0
 20
0.0
 11
1.0
 21
1.0
 12
595.1278434492
 22
841.6808071639
 13
0.0
 23
0.0
 14
1.0
 24
1.0
 15
0.0
 25
0.0
 16
0.0
 26
0.0
 36
1.0
 17
0.0
 27
0.0
 37
0.0
 40
1683.3616143277
 41
0.7070707071
 42
50.0
 43
0.0
 44
0.0
 50
0.0
 51
0.0
 71
0
 72
100
 73
1
 74
1
 75
0
 76
0
 77
0
 78
0
  0
ENDTAB
  0
TABLE
  2
LTYPE
  5
5
100
AcDbSymbolTable
 70
6
  0
LTYPE
  5
14
100
AcDbSymbolTableRecord
100
AcDbLinetypeTableRecord
  2
BYBLOCK
 70
0
  3

 72
65
 73
0
 40
0.0
  0
LTYPE
  5
15
100
AcDbSymbolTableRecord
100
AcDbLinetypeTableRecord
  2
BYLAYER
 70
0
  3

 72
65
 73
0
 40
0.0
  0
LTYPE
  5
16
100
AcDbSymbolTableRecord
100
AcDbLinetypeTableRecord
  2
CONTINUOUS
 70
64
  3
Solid line
 72
65
 73
0
 40
0.0
  0
LTYPE
  5
1F5
100
AcDbSymbolTableRecord
100
AcDbLinetypeTableRecord
  2
CENTER
 70
64
  3
____ _ ____ _ ____ _ ____ _ ____ _ ____ _ ____
 72
65
 73
4
 40
0.6
 49
0.375
 74
0
 49
-0.075
 74
0
 49
0.075
 74
0
 49
-0.075
 74
0
  0
LTYPE
  5
1F6
100
AcDbSymbolTableRecord
100
AcDbLinetypeTableRecord
  2
HIDDEN
 70
64
  3
- - - - - - - - - - - - - - - - - - - -
 72
65
 73
2
 40
0.2
 49
0.1
 74
0
 49
-0.1
 74
0
  0
LTYPE
  5
1F7
100
AcDbSymbolTableRecord
100
AcDbLinetypeTableRecord
  2
PHANTOM
 70
64
  3
_____ _ _ _____ _ _ _____ _ _ _____
 72
65
 73
6
 40
0.8
 49
0.45
 74
0
 49
-0.05
 74
0
 49
0.1
 74
0
 49
-0.05
 74
0
 49
0.1
 74
0
 49
-0.05
 74
0
  0
LTYPE
  5
1F8
100
AcDbSymbolTableRecord
100
AcDbLinetypeTableRecord
  2
DOT
 70
64
  3
. . . . . . . . . . . . . . . . . . . .
 72
65
 73
2
 40
0.2
 49
0.1
 74
0
 49
-0.1
 74
0
  0
LTYPE
  5
1F9
100
AcDbSymbolTableRecord
100
AcDbLinetypeTableRecord
  2
DASHED
 70
64
  3
- - - - - - - - - - - - - - - - - - - -
 72
65
 73
2
 40
0.2
 49
0.1
 74
0
 49
-0.1
 74
0
  0
ENDTAB
  0
TABLE
  2
LAYER
  5
2
100
AcDbSymbolTable
 70
36
  0
LAYER
  5
10
100
AcDbSymbolTableRecord
100
AcDbLayerTableRecord
  2
0
 70
0
 62
7
  6
CONTINUOUS
370
-3
390
F
  0
LAYER
  5
1FA
100
AcDbSymbolTableRecord
100
AcDbLayerTableRecord
  2
DEFAULT_1
 70
0
 62
7
  6
CENTER
370
-3
390
F
  0
LAYER
  5
1FB
100
AcDbSymbolTableRecord
100
AcDbLayerTableRecord
  2
DEFAULT_2
 70
0
 62
8
  6
HIDDEN
370
-3
390
F
  0
LAYER
  5
1FC
100
AcDbSymbolTableRecord
100
AcDbLayerTableRecord
  2
DEFAULT_3
 70
0
 62
7
  6
PHANTOM
370
-3
390
F
  0
LAYER
  5
1FD
100
AcDbSymbolTableRecord
100
AcDbLayerTableRecord
  2
00_COMPONENTS
 70
0
 62
7
  6
CONTINUOUS
370
-3
390
F
  0
LAYER
  5
1FE
100
AcDbSymbolTableRecord
100
AcDbLayerTableRecord
  2
01_1_DEFAULT_DATUMS
 70
0
 62
7
  6
CONTINUOUS
370
-3
390
F
  0
LAYER
  5
1FF
100
AcDbSymbolTableRecord
100
AcDbLayerTableRecord
  2
01_PLANES
 70
0
 62
7
  6
CONTINUOUS
370
-3
390
F
  0
LAYER
  5
200
100
AcDbSymbolTableRecord
100
AcDbLayerTableRecord
  2
02_COORD_SYS
 70
0
 62
7
  6
CONTINUOUS
370
-3
390
F
  0
LAYER
  5
201
100
AcDbSymbolTableRecord
100
AcDbLayerTableRecord
  2
03_AXES
 70
0
 62
7
  6
CONTINUOUS
370
-3
390
F
  0
LAYER
  5
202
100
AcDbSymbolTableRecord
100
AcDbLayerTableRecord
  2
04_POINTS
 70
0
 62
7
  6
CONTINUOUS
370
-3
390
F
  0
LAYER
  5
203
100
AcDbSymbolTableRecord
100
AcDbLayerTableRecord
  2
05_CURVES
 70
0
 62
7
  6
CONTINUOUS
370
-3
390
F
  0
LAYER
  5
204
100
AcDbSymbolTableRecord
100
AcDbLayerTableRecord
  2
06_SURFS
 70
0
 62
7
  6
CONTINUOUS
370
-3
390
F
  0
LAYER
  5
205
100
AcDbSymbolTableRecord
100
AcDbLayerTableRecord
  2
07_COSMETICS
 70
0
 62
7
  6
CONTINUOUS
370
-3
390
F
  0
LAYER
  5
206
100
AcDbSymbolTableRecord
100
AcDbLayerTableRecord
  2
10_NOTES
 70
0
 62
7
  6
CONTINUOUS
370
-3
390
F
  0
LAYER
  5
207
100
AcDbSymbolTableRecord
100
AcDbLayerTableRecord
  2
11_NOTES_PUB
 70
0
 62
7
  6
CONTINUOUS
370
-3
390
F
  0
LAYER
  5
208
100
AcDbSymbolTableRecord
100
AcDbLayerTableRecord
  2
13_REF_GTOL
 70
0
 62
7
  6
CONTINUOUS
370
-3
390
F
  0
LAYER
  5
209
100
AcDbSymbolTableRecord
100
AcDbLayerTableRecord
  2
16_MISC
 70
0
 62
7
  6
CONTINUOUS
370
-3
390
F
  0
LAYER
  5
20A
100
AcDbSymbolTableRecord
100
AcDbLayerTableRecord
  2
17_NO_PRINT
 70
0
 62
7
  6
CONTINUOUS
370
-3
390
F
  0
LAYER
  5
20B
100
AcDbSymbolTableRecord
100
AcDbLayerTableRecord
  2
18_DATUM_CAMS_JOINTS
 70
0
 62
7
  6
CONTINUOUS
370
-3
390
F
  0
LAYER
  5
20C
100
AcDbSymbolTableRecord
100
AcDbLayerTableRecord
  2
19_DATUM_FUNCTIONAL
 70
0
 62
7
  6
CONTINUOUS
370
-3
390
F
  0
LAYER
  5
20D
100
AcDbSymbolTableRecord
100
AcDbLayerTableRecord
  2
20_DATUM_KINEMATIC_SCHEME
 70
0
 62
7
  6
CONTINUOUS
370
-3
390
F
  0
ENDTAB
  0
TABLE
  2
STYLE
  5
3
100
AcDbSymbolTable
 70
1
  0
STYLE
  5
11
100
AcDbSymbolTableRecord
100
AcDbTextStyleTableRecord
  2
STANDARD
 70
0
 40
0.0
 41
0.8
 50
0.0
 71
0
 42
0.2
  3
txt
  4

  0
STYLE
  5
20E
100
AcDbSymbolTableRecord
100
AcDbTextStyleTableRecord
  2
TEXTSTYLE_1
 70
0
 40
0.0
 41
0.8
 50
0.0
 71
0
 42
0.2
  3
gdt
  4

  0
ENDTAB
  0
TABLE
  2
VIEW
  5
6
100
AcDbSymbolTable
 70
0
  0
ENDTAB
  0
TABLE
  2
UCS
  5
7
100
AcDbSymbolTable
 70
0
  0
ENDTAB
  0
TABLE
  2
APPID
  5
9
100
AcDbSymbolTable
 70
1
  0
APPID
  5
20F
100
AcDbSymbolTableRecord
100
AcDbRegAppTableRecord
  2
ACAD
 70
0
  0
ENDTAB
  0
TABLE
  2
BLOCK_RECORD
  5
1
100
AcDbSymbolTable
 70
0
  0
BLOCK_RECORD
  5
210
100
AcDbSymbolTableRecord
100
AcDbBlockTableRecord
  2
*Model_Space
  0
BLOCK_RECORD
  5
211
100
AcDbSymbolTableRecord
100
AcDbBlockTableRecord
  2
*Paper_Space
  0
BLOCK_RECORD
  5
212
100
AcDbSymbolTableRecord
100
AcDbBlockTableRecord
  2
_FILLED
  0
ENDTAB
  0
TABLE
  2
DIMSTYLE
  5
A
100
AcDbSymbolTable
 70
1
100
AcDbDimStyleTable
 71
0
  0
DIMSTYLE
105
213
100
AcDbSymbolTableRecord
100
AcDbDimStyleTableRecord
  2
STANDARD
 70
0
  3

  4

 40
1.0
 41
14.1697105583
 42
1.0
 43
0.38
 44
1.0
 45
0.0
 46
0.0
 47
0.01
 48
0.01
140
19.8375947816
141
0.09
142
0.0
143
25.4
144
1.0
145
0.0
146
1.0
147
0.625
 71
1
 72
0
 73
0
 74
0
 75
0
 76
0
 77
1
 78
8
 79
2
170
0
171
1
172
0
173
0
174
0
175
0
176
0
177
0
178
0
270
2
179
2
271
2
272
2
273
2
274
2
275
0
280
0
281
0
282
0
283
1
284
8
285
0
286
0
287
3
288
0
340
11
278
46
341
212
342
212
343
212
344
212
  0
ENDTAB
  0
ENDSEC
  0
SECTION
  2
BLOCKS
  0
BLOCK
  5
20
100
AcDbEntity
  8
0
100
AcDbBlockBegin
  2
*Model_Space
 70
0
 10
0.0
 20
0.0
 30
0.0
  3
*Model_Space
  1

  0
ENDBLK
  5
21
100
AcDbEntity
  8
0
100
AcDbBlockEnd
  0
BLOCK
  5
1C
100
AcDbEntity
  8
0
100
AcDbBlockBegin
  2
*Paper_Space
 70
0
 10
0.0
 20
0.0
 30
0.0
  3
*Paper_Space
  1

  0
ENDBLK
  5
1D
100
AcDbEntity
  8
0
100
AcDbBlockEnd
  0
BLOCK
  5
214
100
AcDbEntity
  8
0
100
AcDbBlockBegin
  2
_FILLED
 70
64
 10
0.0
 20
0.0
  3
_FILLED
  1

  0
SOLID
  5
215
100
AcDbEntity
  8
0
  6
BYBLOCK
 62
0
100
AcDbTrace
 10
0.0
 20
0.0
 11
-1.0
 21
0.25
 12
-1.0
 22
-0.25
 13
-1.0
 23
-0.25
  0
ENDBLK
  5
216
100
AcDbEntity
  8
0
  6
BYBLOCK
 62
0
100
AcDbBlockEnd
  0
ENDSEC
  0
SECTION
  2
ENTITIES
  0
LINE
  5
217
100
AcDbEntity
  8
0
100
AcDbLine
 62
7
  6
CONTINUOUS
 10
138.0833538971
 20
577.920212343
 11
138.0833538971
 21
557.2145407347
  0
LINE
  5
218
100
AcDbEntity
  8
0
100
AcDbLine
 62
7
  6
CONTINUOUS
 10
139.4975733474
 20
558.0310640599
 11
139.4975733474
 21
577.103730834
  0
LINE
  5
219
100
AcDbEntity
  8
0
100
AcDbLine
 62
7
  6
CONTINUOUS
 10
149.0435546369
 20
552.5198138739
 11
149.0435546369
 21
550.8868090396
  0
LINE
  5
21A
100
AcDbEntity
  8
0
100
AcDbLine
 62
7
  6
CONTINUOUS
 10
152.2254306414
 20
614.3695688399
 11
152.2254306414
 21
671.524738039
  0
LINE
  5
21B
100
AcDbEntity
  8
0
100
AcDbLine
 62
7
  6
CONTINUOUS
 10
153.6396500917
 20
613.5530873309
 11
153.6396500917
 21
669.0752516957
  0
LINE
  5
21C
100
AcDbEntity
  8
0
100
AcDbLine
 62
7
  6
CONTINUOUS
 10
155.4075421632
 20
547.2126422489
 11
155.4075421632
 21
548.8456470832
  0
LINE
  5
21D
100
AcDbEntity
  8
0
100
AcDbLine
 62
7
  6
CONTINUOUS
 10
156.114593009
 20
556.6022554126
 11
156.114593009
 21
554.9692505783
  0
LINE
  5
21E
100
AcDbEntity
  8
0
100
AcDbLine
 62
7
  6
CONTINUOUS
 10
343.1451741898
 20
438.8247219238
 11
332.18497345
 21
445.1524536189
  0
LINE
  5
21F
100
AcDbEntity
  8
0
100
AcDbLine
 62
7
  6
CONTINUOUS
 10
325.8209859237
 20
448.8266204096
 11
293.2939385669
 21
467.6056951175
  0
LINE
  5
220
100
AcDbEntity
  8
0
100
AcDbLine
 62
7
  6
CONTINUOUS
 10
187.93458952
 20
528.433567541
 11
155.4075421632
 21
547.2126422489
  0
LINE
  5
221
100
AcDbEntity
  8
0
100
AcDbLine
 62
7
  6
CONTINUOUS
 10
149.0435546369
 20
550.8868090396
 11
138.0833538971
 21
557.2145407347
  0
LINE
  5
222
100
AcDbEntity
  8
0
100
AcDbLine
 62
7
  6
CONTINUOUS
 10
139.4975733474
 20
558.0310640599
 11
149.0435546369
 21
552.5198138739
  0
LINE
  5
223
100
AcDbEntity
  8
0
100
AcDbLine
 62
7
  6
CONTINUOUS
 10
155.4075421632
 20
548.8456470832
 11
187.93458952
 21
530.0665723753
  0
LINE
  5
224
100
AcDbEntity
  8
0
100
AcDbLine
 62
7
  6
CONTINUOUS
 10
293.2939385669
 20
469.2386999517
 11
325.8209859237
 21
450.4596252438
  0
LINE
  5
225
100
AcDbEntity
  8
0
100
AcDbLine
 62
7
  6
CONTINUOUS
 10
332.18497345
 20
446.7854584531
 11
341.7309547395
 21
441.2742082671
  0
LINE
  5
226
100
AcDbEntity
  8
0
100
AcDbLine
 62
7
  6
CONTINUOUS
 10
343.1451741898
 20
459.5303935322
 11
341.7309547395
 21
460.3468750412
  0
LINE
  5
227
100
AcDbEntity
  8
0
100
AcDbLine
 62
7
  6
CONTINUOUS
 10
139.4975733474
 20
577.103730834
 11
138.0833538971
 21
577.920212343
  0
LINE
  5
228
100
AcDbEntity
  8
0
100
AcDbLine
 62
7
  6
CONTINUOUS
 10
204.1979866078
 20
540.6809678031
 11
307.4360064793
 21
481.0778176432
  0
LINE
  5
229
100
AcDbEntity
  8
0
100
AcDbLine
 62
7
  6
CONTINUOUS
 10
259.7866829849
 20
554.3335032842
 11
290.1799499668
 21
516.5241009211
  0
LINE
  5
22A
100
AcDbEntity
  8
0
100
AcDbLine
 62
7
  6
CONTINUOUS
 10
291.2406145545
 20
518.0330752958
 11
260.8473475727
 21
555.8424776589
  0
LINE
  5
22B
100
AcDbEntity
  8
0
100
AcDbLine
 62
7
  6
CONTINUOUS
 10
161.3725845888
 20
644.874303398
 11
161.006560709
 21
646.2403422177
  0
LINE
  5
22C
100
AcDbEntity
  8
0
100
AcDbLine
 62
7
  6
CONTINUOUS
 10
173.7345357616
 20
638.8920086363
 11
174.1005596415
 21
637.5259698166
  0
LINE
  5
22D
100
AcDbEntity
  8
0
100
AcDbLine
 62
7
  6
CONTINUOUS
 10
168.7939731358
 20
842.9903816102
 11
168.7939731358
 21
831.1510965619
  0
LINE
  5
22E
100
AcDbEntity
  8
0
100
AcDbLine
 62
7
  6
CONTINUOUS
 10
168.7939731358
 20
827.8850868933
 11
168.7939731358
 21
671.524874013
  0
LINE
  5
22F
100
AcDbEntity
  8
0
100
AcDbLine
 62
7
  6
CONTINUOUS
 10
175.5597571746
 20
870.3425461566
 11
175.5597571746
 21
855.7324010224
  0
LINE
  5
230
100
AcDbEntity
  8
0
100
AcDbLine
 62
7
  6
CONTINUOUS
 10
177.3278523798
 20
807.6769660032
 11
177.3278523798
 21
656.6240188343
  0
LINE
  5
231
100
AcDbEntity
  8
0
100
AcDbLine
 62
7
  6
CONTINUOUS
 10
180.5098196473
 20
809.5140646957
 11
180.5098196473
 21
811.5553207385
  0
LINE
  5
232
100
AcDbEntity
  8
0
100
AcDbLine
 62
7
  6
CONTINUOUS
 10
180.5098196473
 20
814.821330407
 11
180.5098196473
 21
826.6606154554
  0
LINE
  5
233
100
AcDbEntity
  8
0
100
AcDbLine
 62
7
  6
CONTINUOUS
 10
187.5809168988
 20
649.4796954787
 11
187.5809168988
 21
650.7045431907
  0
LINE
  5
234
100
AcDbEntity
  8
0
100
AcDbLine
 62
7
  6
CONTINUOUS
 10
187.93458952
 20
530.0665723753
 11
187.93458952
 21
528.433567541
  0
LINE
  5
235
100
AcDbEntity
  8
0
100
AcDbLine
 62
7
  6
CONTINUOUS
 10
227.3109145868
 20
548.1572616124
 11
286.995520508
 21
513.6991178647
  0
LINE
  5
236
100
AcDbEntity
  8
0
100
AcDbLine
 62
7
  6
CONTINUOUS
 10
325.4671543282
 20
491.4880435669
 11
344.2055532127
 21
480.669637309
  0
LINE
  5
237
100
AcDbEntity
  8
0
100
AcDbLine
 62
7
  6
CONTINUOUS
 10
287.8318375193
 20
514.441034562
 11
226.3132943232
 21
549.9579785358
  0
LINE
  5
238
100
AcDbEntity
  8
0
100
AcDbLine
 62
7
  6
CONTINUOUS
 10
357.287250934
 20
495.979750029
 11
355.8730314837
 21
496.7962315381
  0
LINE
  5
239
100
AcDbEntity
  8
0
100
AcDbLine
 62
7
  6
CONTINUOUS
 10
153.6396500917
 20
613.5530873309
 11
152.2254306414
 21
614.3695688399
  0
LINE
  5
23A
100
AcDbEntity
  8
0
100
AcDbLine
 62
7
  6
CONTINUOUS
 10
261.9080033285
 20
556.4548438897
 11
291.8274821346
 21
519.2348367956
  0
LINE
  5
23B
100
AcDbEntity
  8
0
100
AcDbLine
 62
7
  6
CONTINUOUS
 10
204.1979866078
 20
540.6809678031
 11
204.1979866078
 21
639.8860428465
  0
LINE
  5
23C
100
AcDbEntity
  8
0
100
AcDbLine
 62
7
  6
CONTINUOUS
 10
224.3504548003
 20
553.5009281688
 11
224.3504548003
 21
556.4608647524
  0
LINE
  5
23D
100
AcDbEntity
  8
0
100
AcDbLine
 62
7
  6
CONTINUOUS
 10
224.3504548003
 20
559.8069284104
 11
224.3504548003
 21
605.9803802686
  0
LINE
  5
23E
100
AcDbEntity
  8
0
100
AcDbLine
 62
7
  6
CONTINUOUS
 10
174.1005596415
 20
637.5259698167
 11
161.3725845888
 21
644.874303398
  0
LINE
  5
23F
100
AcDbEntity
  8
0
100
AcDbLine
 62
7
  6
CONTINUOUS
 10
173.7345357616
 20
638.8920086363
 11
161.006560709
 21
646.2403422177
  0
LINE
  5
240
100
AcDbEntity
  8
0
100
AcDbLine
 62
7
  6
CONTINUOUS
 10
153.6396500917
 20
669.0752516957
 11
173.6982227951
 21
657.4946913331
  0
LINE
  5
241
100
AcDbEntity
  8
0
100
AcDbLine
 62
7
  6
CONTINUOUS
 10
187.5809168988
 20
649.4796954787
 11
355.8730314837
 21
552.3183959029
  0
LINE
  5
242
100
AcDbEntity
  8
0
100
AcDbLine
 62
7
  6
CONTINUOUS
 10
177.3278523798
 20
656.6240188343
 11
325.8208946607
 21
570.893460385
  0
LINE
  5
243
100
AcDbEntity
  8
0
100
AcDbLine
 62
7
  6
CONTINUOUS
 10
177.4114979966
 20
656.7689005699
 11
174.6667578736
 21
658.3535411693
  0
LINE
  5
244
100
AcDbEntity
  8
0
100
AcDbLine
 62
7
  6
CONTINUOUS
 10
357.287250934
 20
553.1349192281
 11
329.0028619282
 21
569.4645494089
  0
LINE
  5
245
100
AcDbEntity
  8
0
100
AcDbLine
 62
7
  6
CONTINUOUS
 10
174.8529418461
 20
658.4610338943
 11
152.2254306414
 21
671.524738039
  0
LINE
  5
246
100
AcDbEntity
  8
0
100
AcDbLine
 62
7
  6
CONTINUOUS
 10
287.7400541637
 20
657.211850194
 11
287.6364925802
 21
657.4407338746
  0
LINE
  5
247
100
AcDbEntity
  8
0
100
AcDbLine
 62
7
  6
CONTINUOUS
 10
254.7563319558
 20
567.298444187
 11
254.7563319558
 21
607.822921106
  0
LINE
  5
248
100
AcDbEntity
  8
0
100
AcDbLine
 62
7
  6
CONTINUOUS
 10
256.8776611313
 20
606.5981988424
 11
256.8776611313
 21
566.0737219234
  0
LINE
  5
249
100
AcDbEntity
  8
0
100
AcDbLine
 62
7
  6
CONTINUOUS
 10
257.9383168871
 20
566.6860881542
 11
257.9383168871
 21
605.7124981494
  0
LINE
  5
24A
100
AcDbEntity
  8
0
100
AcDbLine
 62
7
  6
CONTINUOUS
 10
261.8267903665
 20
869.5262686086
 11
261.8267903665
 21
873.6087806943
  0
LINE
  5
24B
100
AcDbEntity
  8
0
100
AcDbLine
 62
7
  6
CONTINUOUS
 10
138.0833538971
 20
577.920212343
 11
152.2254306414
 21
614.3695688399
  0
LINE
  5
24C
100
AcDbEntity
  8
0
100
AcDbLine
 62
7
  6
CONTINUOUS
 10
153.6396500917
 20
613.5530873309
 11
139.4975733474
 21
577.103730834
  0
LINE
  5
24D
100
AcDbEntity
  8
0
100
AcDbLine
 62
7
  6
CONTINUOUS
 10
284.8078858735
 20
694.9993042473
 11
284.8078858735
 21
698.6737428429
  0
LINE
  5
24E
100
AcDbEntity
  8
0
100
AcDbLine
 62
7
  6
CONTINUOUS
 10
286.5758368243
 20
658.0294722385
 11
286.5758368244
 21
656.8283676438
  0
LINE
  5
24F
100
AcDbEntity
  8
0
100
AcDbLine
 62
7
  6
CONTINUOUS
 10
287.6364925802
 20
657.4407338746
 11
287.6364925802
 21
657.7488232901
  0
LINE
  5
250
100
AcDbEntity
  8
0
100
AcDbLine
 62
7
  6
CONTINUOUS
 10
293.2939385669
 20
467.6056951175
 11
293.2939385669
 21
469.2386999517
  0
LINE
  5
251
100
AcDbEntity
  8
0
100
AcDbLine
 62
7
  6
CONTINUOUS
 10
302.9664006728
 20
915.2505569387
 11
302.9664006728
 21
873.6089336651
  0
LINE
  5
252
100
AcDbEntity
  8
0
100
AcDbLine
 62
7
  6
CONTINUOUS
 10
307.4360064793
 20
481.0778176432
 11
307.4360064793
 21
580.2828926865
  0
LINE
  5
253
100
AcDbEntity
  8
0
100
AcDbLine
 62
7
  6
CONTINUOUS
 10
284.6174118933
 20
657.282614228
 11
286.9900614658
 21
655.9127953481
  0
LINE
  5
254
100
AcDbEntity
  8
0
100
AcDbLine
 62
7
  6
CONTINUOUS
 10
286.5758368244
 20
656.8283676438
 11
284.7758305227
 21
657.8675782565
  0
LINE
  5
255
100
AcDbEntity
  8
0
100
AcDbLine
 62
7
  6
CONTINUOUS
 10
287.9900444988
 20
657.2366047429
 11
287.6364880535
 21
657.440726034
  0
LINE
  5
256
100
AcDbEntity
  8
0
100
AcDbLine
 62
7
  6
CONTINUOUS
 10
291.53043071
 20
694.7925675758
 11
283.2729901891
 21
699.5598952321
  0
LINE
  5
257
100
AcDbEntity
  8
0
100
AcDbLine
 62
7
  6
CONTINUOUS
 10
325.4666656298
 20
832.7846007018
 11
325.4666656298
 21
836.8671127875
  0
LINE
  5
258
100
AcDbEntity
  8
0
100
AcDbLine
 62
7
  6
CONTINUOUS
 10
325.4671543282
 20
491.4880435669
 11
325.4671543282
 21
569.872840129
  0
LINE
  5
259
100
AcDbEntity
  8
0
100
AcDbLine
 62
7
  6
CONTINUOUS
 10
325.8208946607
 20
570.893460385
 11
325.8208946607
 21
721.946407554
  0
LINE
  5
25A
100
AcDbEntity
  8
0
100
AcDbLine
 62
7
  6
CONTINUOUS
 10
325.8209859237
 20
450.4596252438
 11
325.8209859237
 21
448.8266204096
  0
LINE
  5
25B
100
AcDbEntity
  8
0
100
AcDbLine
 62
7
  6
CONTINUOUS
 10
329.0028619282
 20
740.9300570061
 11
329.0028619282
 21
729.0907719577
  0
LINE
  5
25C
100
AcDbEntity
  8
0
100
AcDbLine
 62
7
  6
CONTINUOUS
 10
329.0028619282
 20
725.8247622892
 11
329.0028619282
 21
569.4645494089
  0
LINE
  5
25D
100
AcDbEntity
  8
0
100
AcDbLine
 62
7
  6
CONTINUOUS
 10
332.18497345
 20
445.1524536189
 11
332.18497345
 21
446.7854584531
  0
LINE
  5
25E
100
AcDbEntity
  8
0
100
AcDbLine
 62
7
  6
CONTINUOUS
 10
332.6476144518
 20
886.6097115916
 11
332.6476144518
 21
902.9397599342
  0
LINE
  5
25F
100
AcDbEntity
  8
0
100
AcDbLine
 62
7
  6
CONTINUOUS
 10
332.8920242958
 20
454.5420667825
 11
332.8920242958
 21
452.9090619483
  0
LINE
  5
260
100
AcDbEntity
  8
0
100
AcDbLine
 62
7
  6
CONTINUOUS
 10
341.7309547395
 20
460.3468750412
 11
341.7309547395
 21
441.2742082671
  0
LINE
  5
261
100
AcDbEntity
  8
0
100
AcDbLine
 62
7
  6
CONTINUOUS
 10
343.1448974569
 20
481.2820247039
 11
343.1448974569
 21
559.6668212659
  0
LINE
  5
262
100
AcDbEntity
  8
0
100
AcDbLine
 62
7
  6
CONTINUOUS
 10
343.1451741898
 20
459.5303935322
 11
343.1451741898
 21
438.8247219238
  0
LINE
  5
263
100
AcDbEntity
  8
0
100
AcDbLine
 62
7
  6
CONTINUOUS
 10
344.2055532127
 20
480.669637309
 11
344.2055532127
 21
481.8943909347
  0
LINE
  5
264
100
AcDbEntity
  8
0
100
AcDbLine
 62
7
  6
CONTINUOUS
 10
347.9664006728
 20
915.2505569387
 11
347.9664006728
 21
910.4252848477
  0
LINE
  5
265
100
AcDbEntity
  8
0
100
AcDbLine
 62
7
  6
CONTINUOUS
 10
347.9664006728
 20
877.7656063237
 11
347.9664006728
 21
873.6089336651
  0
LINE
  5
266
100
AcDbEntity
  8
0
100
AcDbLine
 62
7
  6
CONTINUOUS
 10
355.8730314837
 20
496.7962315381
 11
355.8730314837
 21
552.3183959029
  0
LINE
  5
267
100
AcDbEntity
  8
0
100
AcDbLine
 62
7
  6
CONTINUOUS
 10
357.287250934
 20
553.1349192281
 11
357.287250934
 21
495.979750029
  0
LINE
  5
268
100
AcDbEntity
  8
0
100
AcDbLine
 62
7
  6
CONTINUOUS
 10
346.7896911961
 20
911.1046430117
 11
347.9663625368
 21
915.2505569436
  0
LINE
  5
269
100
AcDbEntity
  8
0
100
AcDbLine
 62
7
  6
CONTINUOUS
 10
842.3404901924
 20
1237.1076528348
 11
843.0462255418
 21
1237.4643329274
  0
LINE
  5
26A
100
AcDbEntity
  8
0
100
AcDbLine
 62
7
  6
CONTINUOUS
 10
843.4011547801
 20
1236.495291703
 11
844.1068901295
 21
1236.8519717956
  0
LINE
  5
26B
100
AcDbEntity
  8
0
100
AcDbLine
 62
7
  6
CONTINUOUS
 10
221.4540431203
 20
556.2021241024
 11
251.8473101022
 21
558.9171986583
  0
LINE
  5
26C
100
AcDbEntity
  8
0
100
AcDbLine
 62
7
  6
CONTINUOUS
 10
250.7866455144
 20
561.6508952965
 11
220.3933785326
 21
558.9358207406
  0
LINE
  5
26D
100
AcDbEntity
  8
0
100
AcDbLine
 62
7
  6
CONTINUOUS
 10
221.4540342884
 20
559.5481869714
 11
250.7407721735
 21
562.1644136806
  0
LINE
  5
26E
100
AcDbEntity
  8
0
100
AcDbLine
 62
7
  6
CONTINUOUS
 10
325.8208946607
 20
721.946407554
 11
177.3278523798
 21
807.6769660032
  0
LINE
  5
26F
100
AcDbEntity
  8
0
100
AcDbLine
 62
7
  6
CONTINUOUS
 10
329.0028619282
 20
723.7835062464
 11
180.5098196473
 21
809.5140646957
  0
LINE
  5
270
100
AcDbEntity
  8
0
100
AcDbLine
 62
7
  6
CONTINUOUS
 10
380.6210181136
 20
875.2429290022
 11
380.6210181136
 21
858.9128806596
  0
LINE
  5
271
100
AcDbEntity
  8
0
100
AcDbLine
 62
7
  6
CONTINUOUS
 10
385.5714044226
 20
569.4646853829
 11
385.5714044226
 21
725.8248982633
  0
LINE
  5
272
100
AcDbEntity
  8
0
100
AcDbLine
 62
7
  6
CONTINUOUS
 10
385.5714044226
 20
729.0909079318
 11
385.5714044226
 21
740.9301929802
  0
LINE
  5
273
100
AcDbEntity
  8
0
100
AcDbLine
 62
7
  6
CONTINUOUS
 10
397.6920564857
 20
879.3253705409
 11
397.6920564857
 21
862.9953221983
  0
LINE
  5
274
100
AcDbEntity
  8
0
100
AcDbLine
 62
7
  6
CONTINUOUS
 10
720.0297118293
 20
1184.6905446376
 11
657.8045741544
 21
1148.765059097
  0
LINE
  5
275
100
AcDbEntity
  8
0
100
AcDbLine
 62
7
  6
CONTINUOUS
 10
478.9073033393
 20
1045.4792881675
 11
416.6821656645
 21
1009.5538026268
  0
LINE
  5
276
100
AcDbEntity
  8
0
100
AcDbLine
 62
7
  6
CONTINUOUS
 10
237.7848948494
 20
906.2680316973
 11
175.5597571746
 21
870.3425461566
  0
LINE
  5
277
100
AcDbEntity
  8
0
100
AcDbLine
 62
7
  6
CONTINUOUS
 10
739.1216155289
 20
1181.8328933495
 11
732.0505771568
 21
1177.7504518108
  0
LINE
  5
278
100
AcDbEntity
  8
0
100
AcDbLine
 62
7
  6
CONTINUOUS
 10
669.8254394819
 20
1141.8249662701
 11
490.9281686668
 21
1038.5391953406
  0
LINE
  5
279
100
AcDbEntity
  8
0
100
AcDbLine
 62
7
  6
CONTINUOUS
 10
428.703030992
 20
1002.6137097999
 11
249.8057601769
 21
899.3279388704
  0
LINE
  5
27A
100
AcDbEntity
  8
0
100
AcDbLine
 62
7
  6
CONTINUOUS
 10
187.5806225021
 20
863.4024533298
 11
180.50958413
 21
859.320011791
  0
LINE
  5
27B
100
AcDbEntity
  8
0
100
AcDbLine
 62
7
  6
CONTINUOUS
 10
675.4824085461
 20
1125.9035241539
 11
511.7878702311
 21
1031.3950025326
  0
LINE
  5
27C
100
AcDbEntity
  8
0
100
AcDbLine
 62
7
  6
CONTINUOUS
 10
180.5098196473
 20
811.5553207385
 11
329.0028619282
 21
725.8247622892
  0
LINE
  5
27D
100
AcDbEntity
  8
0
100
AcDbLine
 62
7
  6
CONTINUOUS
 10
180.5098196473
 20
814.821330407
 11
329.0028619282
 21
729.0907719577
  0
LINE
  5
27E
100
AcDbEntity
  8
0
100
AcDbLine
 62
7
  6
CONTINUOUS
 10
180.5098196473
 20
826.6606154554
 11
329.0028619282
 21
740.9300570061
  0
LINE
  5
27F
100
AcDbEntity
  8
0
100
AcDbLine
 62
7
  6
CONTINUOUS
 10
416.6821656645
 20
1009.5538026268
 11
416.6821656645
 21
995.6735013947
  0
LINE
  5
280
100
AcDbEntity
  8
0
100
AcDbLine
 62
7
  6
CONTINUOUS
 10
302.9664006728
 20
897.3606039997
 11
261.8267903665
 21
873.6087806943
  0
LINE
  5
281
100
AcDbEntity
  8
0
100
AcDbLine
 62
7
  6
CONTINUOUS
 10
180.5098196473
 20
809.5140646957
 11
177.3278523798
 21
807.6769660032
  0
LINE
  5
282
100
AcDbEntity
  8
0
100
AcDbLine
 62
7
  6
CONTINUOUS
 10
675.4826381755
 20
1087.5285933896
 11
566.9421991632
 21
1024.8631157703
  0
LINE
  5
283
100
AcDbEntity
  8
0
100
AcDbLine
 62
7
  6
CONTINUOUS
 10
570.2939359181
 20
1022.92803343
 11
675.4826484205
 21
1083.6584023976
  0
LINE
  5
284
100
AcDbEntity
  8
0
100
AcDbLine
 62
7
  6
CONTINUOUS
 10
175.5597571746
 20
870.3425461566
 11
187.5806225021
 21
863.4024533298
  0
LINE
  5
285
100
AcDbEntity
  8
0
100
AcDbLine
 62
7
  6
CONTINUOUS
 10
161.006560709
 20
646.2403422177
 11
174.6667578736
 21
658.3535411693
  0
LINE
  5
286
100
AcDbEntity
  8
0
100
AcDbLine
 62
7
  6
CONTINUOUS
 10
187.2627918256
 20
650.8882086322
 11
173.7345357616
 21
638.8920086363
  0
LINE
  5
287
100
AcDbEntity
  8
0
100
AcDbLine
 62
7
  6
CONTINUOUS
 10
174.1005596415
 20
637.5259698166
 11
187.5809168988
 21
649.4796954787
  0
LINE
  5
288
100
AcDbEntity
  8
0
100
AcDbLine
 62
7
  6
CONTINUOUS
 10
608.3079944377
 20
1015.6777074557
 11
686.7965203684
 21
1060.9928085354
  0
LINE
  5
289
100
AcDbEntity
  8
0
100
AcDbLine
 62
7
  6
CONTINUOUS
 10
698.2932178689
 20
1058.973754051
 11
618.8147463643
 21
1013.0871110394
  0
LINE
  5
28A
100
AcDbEntity
  8
0
100
AcDbLine
 62
7
  6
CONTINUOUS
 10
611.8437852313
 20
1005.4715487799
 11
616.8316931377
 21
1008.3513015625
  0
LINE
  5
28B
100
AcDbEntity
  8
0
100
AcDbLine
 62
7
  6
CONTINUOUS
 10
325.4666656298
 20
836.8671127875
 11
372.1360802082
 21
863.8115510206
  0
LINE
  5
28C
100
AcDbEntity
  8
0
100
AcDbLine
 62
7
  6
CONTINUOUS
 10
634.0326024883
 20
1013.4651923511
 11
629.2242780044
 21
1010.6891060169
  0
LINE
  5
28D
100
AcDbEntity
  8
0
100
AcDbLine
 62
7
  6
CONTINUOUS
 10
643.9320562129
 20
1019.1806105074
 11
639.1234556713
 21
1016.404364791
  0
LINE
  5
28E
100
AcDbEntity
  8
0
100
AcDbLine
 62
7
  6
CONTINUOUS
 10
653.8315099342
 20
1024.8960286617
 11
649.0229093922
 21
1022.1197829452
  0
LINE
  5
28F
100
AcDbEntity
  8
0
100
AcDbLine
 62
7
  6
CONTINUOUS
 10
663.7309636322
 20
1030.6114468017
 11
658.9223631231
 21
1027.8352011042
  0
LINE
  5
290
100
AcDbEntity
  8
0
100
AcDbLine
 62
7
  6
CONTINUOUS
 10
671.1197260802
 20
1034.6259432494
 11
697.6361200155
 21
1049.9351232271
  0
LINE
  5
291
100
AcDbEntity
  8
0
100
AcDbLine
 62
7
  6
CONTINUOUS
 10
671.1197260861
 20
1033.2443092505
 11
697.6361200009
 21
1048.5534650318
  0
LINE
  5
292
100
AcDbEntity
  8
0
100
AcDbLine
 62
7
  6
CONTINUOUS
 10
325.4666656298
 20
832.7846007018
 11
375.6716899301
 21
861.7703119749
  0
LINE
  5
293
100
AcDbEntity
  8
0
100
AcDbLine
 62
7
  6
CONTINUOUS
 10
636.2944506973
 20
1006.6061633029
 11
641.1030521595
 21
1009.3824095508
  0
LINE
  5
294
100
AcDbEntity
  8
0
100
AcDbLine
 62
7
  6
CONTINUOUS
 10
646.193904405
 20
1012.3215814495
 11
651.0025058804
 21
1015.097827705
  0
LINE
  5
295
100
AcDbEntity
  8
0
100
AcDbLine
 62
7
  6
CONTINUOUS
 10
656.0933581263
 20
1018.0369996038
 11
660.9019596015
 21
1020.8132458592
  0
LINE
  5
296
100
AcDbEntity
  8
0
100
AcDbLine
 62
7
  6
CONTINUOUS
 10
665.9928118705
 20
1023.7524177724
 11
670.8014133125
 21
1026.5286640086
  0
LINE
  5
297
100
AcDbEntity
  8
0
100
AcDbLine
 62
7
  6
CONTINUOUS
 10
670.8015597244
 20
1025.7688338123
 11
665.9932395478
 21
1022.9927687988
  0
LINE
  5
298
100
AcDbEntity
  8
0
100
AcDbLine
 62
7
  6
CONTINUOUS
 10
660.9021060049
 20
1020.0534156589
 11
656.0937858244
 21
1017.2773506432
  0
LINE
  5
299
100
AcDbEntity
  8
0
100
AcDbLine
 62
7
  6
CONTINUOUS
 10
651.0026522839
 20
1014.3379975047
 11
646.1943321035
 21
1011.561932489
  0
LINE
  5
29A
100
AcDbEntity
  8
0
100
AcDbLine
 62
7
  6
CONTINUOUS
 10
641.1031985629
 20
1008.6225793505
 11
636.2948783826
 21
1005.8465143349
  0
LINE
  5
29B
100
AcDbEntity
  8
0
100
AcDbLine
 62
7
  6
CONTINUOUS
 10
287.9900444988
 20
657.2366047429
 11
287.7400541637
 21
657.211850194
  0
LINE
  5
29C
100
AcDbEntity
  8
0
100
AcDbLine
 62
7
  6
CONTINUOUS
 10
261.8267903665
 20
869.5262686086
 11
325.4666656298
 21
832.7846007018
  0
LINE
  5
29D
100
AcDbEntity
  8
0
100
AcDbLine
 62
7
  6
CONTINUOUS
 10
261.8267903665
 20
873.6087806943
 11
325.4666656298
 21
836.8671127875
  0
LINE
  5
29E
100
AcDbEntity
  8
0
100
AcDbLine
 62
7
  6
CONTINUOUS
 10
237.7848948494
 20
906.2680316973
 11
249.8057601769
 21
899.3279388704
  0
LINE
  5
29F
100
AcDbEntity
  8
0
100
AcDbLine
 62
7
  6
CONTINUOUS
 10
341.7309547395
 20
460.3468750412
 11
355.8730314837
 21
496.7962315381
  0
LINE
  5
2A0
100
AcDbEntity
  8
0
100
AcDbLine
 62
7
  6
CONTINUOUS
 10
357.287250934
 20
495.979750029
 11
343.1451741898
 21
459.5303935322
  0
LINE
  5
2A1
100
AcDbEntity
  8
0
100
AcDbLine
 62
7
  6
CONTINUOUS
 10
840.1602000731
 20
1248.5029992844
 11
839.2115207249
 21
1247.4075558042
  0
LINE
  5
2A2
100
AcDbEntity
  8
0
100
AcDbLine
 62
7
  6
CONTINUOUS
 10
841.4100375345
 20
1246.8729405842
 11
842.3587168828
 21
1247.9683840644
  0
LINE
  5
2A3
100
AcDbEntity
  8
0
100
AcDbLine
 62
7
  6
CONTINUOUS
 10
698.7324868201
 20
1010.4032836023
 11
693.9242639387
 21
1007.6272641265
  0
LINE
  5
2A4
100
AcDbEntity
  8
0
100
AcDbLine
 62
7
  6
CONTINUOUS
 10
669.0345338958
 20
993.2572750097
 11
664.2259323731
 21
990.4810287268
  0
LINE
  5
2A5
100
AcDbEntity
  8
0
100
AcDbLine
 62
7
  6
CONTINUOUS
 10
678.9339874985
 20
998.9726930956
 11
674.1253860938
 21
996.1964468809
  0
LINE
  5
2A6
100
AcDbEntity
  8
0
100
AcDbLine
 62
7
  6
CONTINUOUS
 10
688.8334413378
 20
1004.6881113181
 11
684.0248398148
 21
1001.9118650351
  0
LINE
  5
2A7
100
AcDbEntity
  8
0
100
AcDbLine
 62
7
  6
CONTINUOUS
 10
671.2963820879
 20
986.3982459518
 11
676.1049826299
 21
989.1744916684
  0
LINE
  5
2A8
100
AcDbEntity
  8
0
100
AcDbLine
 62
7
  6
CONTINUOUS
 10
681.1958358089
 20
992.113664106
 11
686.0044363509
 21
994.8899098226
  0
LINE
  5
2A9
100
AcDbEntity
  8
0
100
AcDbLine
 62
7
  6
CONTINUOUS
 10
691.0952895299
 20
997.8290822602
 11
695.9038900719
 21
1000.6053279768
  0
LINE
  5
2AA
100
AcDbEntity
  8
0
100
AcDbLine
 62
7
  6
CONTINUOUS
 10
700.9947432509
 20
1003.5445004144
 11
705.8033437977
 21
1006.3207461338
  0
LINE
  5
2AB
100
AcDbEntity
  8
0
100
AcDbLine
 62
7
  6
CONTINUOUS
 10
705.803489276
 20
1005.8980240728
 11
700.9951709338
 21
1003.1219611313
  0
LINE
  5
2AC
100
AcDbEntity
  8
0
100
AcDbLine
 62
7
  6
CONTINUOUS
 10
695.9040355548
 20
1000.1826059183
 11
691.0957172128
 21
997.4065429771
  0
LINE
  5
2AD
100
AcDbEntity
  8
0
100
AcDbLine
 62
7
  6
CONTINUOUS
 10
686.0045818338
 20
994.4671877641
 11
681.1962634918
 21
991.6911248229
  0
LINE
  5
2AE
100
AcDbEntity
  8
0
100
AcDbLine
 62
7
  6
CONTINUOUS
 10
676.1051281128
 20
988.7517696099
 11
671.2968097708
 21
985.9757066687
  0
LINE
  5
2AF
100
AcDbEntity
  8
0
100
AcDbLine
 62
7
  6
CONTINUOUS
 10
739.9919925476
 20
1025.4814779655
 11
713.475598612
 21
1010.1723461725
  0
LINE
  5
2B0
100
AcDbEntity
  8
0
100
AcDbLine
 62
7
  6
CONTINUOUS
 10
675.3419973863
 20
980.4518259869
 11
754.8204687073
 21
1026.3384688926
  0
LINE
  5
2B1
100
AcDbEntity
  8
0
100
AcDbLine
 62
7
  6
CONTINUOUS
 10
152.2254306414
 20
671.524738039
 11
168.7939731358
 21
681.0905334081
  0
LINE
  5
2B2
100
AcDbEntity
  8
0
100
AcDbLine
 62
7
  6
CONTINUOUS
 10
1068.9290799374
 20
1108.3656009093
 11
1069.7108464888
 21
1108.6445786553
  0
LINE
  5
2B3
100
AcDbEntity
  8
0
100
AcDbLine
 62
7
  6
CONTINUOUS
 10
380.6210181136
 20
858.9128806596
 11
332.6476144518
 21
886.6097115916
  0
LINE
  5
2B4
100
AcDbEntity
  8
0
100
AcDbLine
 62
7
  6
CONTINUOUS
 10
332.6476144518
 20
902.9397599342
 11
380.6210181136
 21
875.2429290022
  0
LINE
  5
2B5
100
AcDbEntity
  8
0
100
AcDbLine
 62
7
  6
CONTINUOUS
 10
764.5785901346
 20
1016.0863255382
 11
686.0900642038
 21
970.7712244585
  0
LINE
  5
2B6
100
AcDbEntity
  8
0
100
AcDbLine
 62
7
  6
CONTINUOUS
 10
683.6153038124
 20
957.5033912744
 11
792.1557428247
 21
1020.1688688937
  0
LINE
  5
2B7
100
AcDbEntity
  8
0
100
AcDbLine
 62
7
  6
CONTINUOUS
 10
174.6667578736
 20
658.3535411693
 11
174.8529418461
 21
658.4610338943
  0
LINE
  5
2B8
100
AcDbEntity
  8
0
100
AcDbLine
 62
7
  6
CONTINUOUS
 10
683.6155334418
 20
932.1924991842
 11
847.3100717568
 21
1026.7010208054
  0
LINE
  5
2B9
100
AcDbEntity
  8
0
100
AcDbLine
 62
7
  6
CONTINUOUS
 10
346.7896911961
 20
911.1046430117
 11
394.7630948579
 21
883.4078120796
  0
LINE
  5
2BA
100
AcDbEntity
  8
0
100
AcDbLine
 62
7
  6
CONTINUOUS
 10
608.3079944377
 20
1007.5128583718
 11
608.3079944377
 21
1015.6777074557
  0
LINE
  5
2BB
100
AcDbEntity
  8
0
100
AcDbLine
 62
7
  6
CONTINUOUS
 10
840.841077394
 20
1234.7136751467
 11
842.3404901924
 21
1237.1076528348
  0
LINE
  5
2BC
100
AcDbEntity
  8
0
100
AcDbLine
 62
7
  6
CONTINUOUS
 10
843.4011547801
 20
1236.4952917031
 11
841.9017419817
 21
1234.1013140149
  0
LINE
  5
2BD
100
AcDbEntity
  8
0
100
AcDbLine
 62
7
  6
CONTINUOUS
 10
329.0028619282
 20
723.7835062464
 11
325.8208946607
 21
721.946407554
  0
LINE
  5
2BE
100
AcDbEntity
  8
0
100
AcDbLine
 62
7
  6
CONTINUOUS
 10
287.9900885342
 20
696.8365388433
 11
284.8078858735
 21
694.9993042473
  0
LINE
  5
2BF
100
AcDbEntity
  8
0
100
AcDbLine
 62
7
  6
CONTINUOUS
 10
385.5714044226
 20
740.9301929802
 11
944.1834358215
 21
1063.4430745386
  0
LINE
  5
2C0
100
AcDbEntity
  8
0
100
AcDbLine
 62
7
  6
CONTINUOUS
 10
385.5714044226
 20
729.0909079318
 11
944.1834358215
 21
1051.6037894903
  0
LINE
  5
2C1
100
AcDbEntity
  8
0
100
AcDbLine
 62
7
  6
CONTINUOUS
 10
944.1834358215
 20
1048.3377798217
 11
385.5714044226
 21
725.8248982633
  0
LINE
  5
2C2
100
AcDbEntity
  8
0
100
AcDbLine
 62
7
  6
CONTINUOUS
 10
287.9900444988
 20
657.2366047429
 11
288.4873076881
 21
657.5236980654
  0
LINE
  5
2C3
100
AcDbEntity
  8
0
100
AcDbLine
 62
7
  6
CONTINUOUS
 10
287.9900444988
 20
656.0118511172
 11
289.9419772309
 21
657.1387932787
  0
LINE
  5
2C4
100
AcDbEntity
  8
0
100
AcDbLine
 62
7
  6
CONTINUOUS
 10
1068.9657211626
 20
1108.1787931288
 11
1070.0243241867
 21
1108.7138132677
  0
LINE
  5
2C5
100
AcDbEntity
  8
0
100
AcDbLine
 62
7
  6
CONTINUOUS
 10
1067.5549376517
 20
1107.0829725201
 11
1068.9664083505
 21
1107.7963327053
  0
LINE
  5
2C6
100
AcDbEntity
  8
0
100
AcDbLine
 62
7
  6
CONTINUOUS
 10
1070.0270729382
 20
1107.1839715735
 11
1068.6156022394
 21
1106.4706113884
  0
LINE
  5
2C7
100
AcDbEntity
  8
0
100
AcDbLine
 62
7
  6
CONTINUOUS
 10
629.223938539
 20
1008.8964832962
 11
629.2236986209
 21
1009.3825539793
  0
LINE
  5
2C8
100
AcDbEntity
  8
0
100
AcDbLine
 62
7
  6
CONTINUOUS
 10
639.1233922593
 20
1014.6119014508
 11
639.1231523349
 21
1015.0979721376
  0
LINE
  5
2C9
100
AcDbEntity
  8
0
100
AcDbLine
 62
7
  6
CONTINUOUS
 10
649.0228459799
 20
1020.3273196053
 11
649.0226060553
 21
1020.8133902921
  0
LINE
  5
2CA
100
AcDbEntity
  8
0
100
AcDbLine
 62
7
  6
CONTINUOUS
 10
636.2948783826
 20
1005.8465143349
 11
636.2947527409
 21
1006.6063461108
  0
LINE
  5
2CB
100
AcDbEntity
  8
0
100
AcDbLine
 62
7
  6
CONTINUOUS
 10
646.1943321035
 20
1011.561932489
 11
646.1942064596
 21
1012.3217642636
  0
LINE
  5
2CC
100
AcDbEntity
  8
0
100
AcDbLine
 62
7
  6
CONTINUOUS
 10
616.8316931377
 20
1010.2176492577
 11
616.8316931377
 21
1002.591843955
  0
LINE
  5
2CD
100
AcDbEntity
  8
0
100
AcDbLine
 62
7
  6
CONTINUOUS
 10
618.8147865153
 20
1001.4469303611
 11
618.8147864958
 21
1007.2212678106
  0
LINE
  5
2CE
100
AcDbEntity
  8
0
100
AcDbLine
 62
7
  6
CONTINUOUS
 10
628.7552899732
 20
1010.0356430528
 11
628.7552899732
 21
1009.5939748102
  0
LINE
  5
2CF
100
AcDbEntity
  8
0
100
AcDbLine
 62
7
  6
CONTINUOUS
 10
634.0319255422
 20
1006.6065856728
 11
634.0318927515
 21
1005.8914623858
  0
LINE
  5
2D0
100
AcDbEntity
  8
0
100
AcDbLine
 62
7
  6
CONTINUOUS
 10
638.6547436942
 20
1015.751061207
 11
638.6547436942
 21
1015.3093929644
  0
LINE
  5
2D1
100
AcDbEntity
  8
0
100
AcDbLine
 62
7
  6
CONTINUOUS
 10
641.103138717
 20
1009.3824524773
 11
641.1031985629
 21
1008.6225793505
  0
LINE
  5
2D2
100
AcDbEntity
  8
0
100
AcDbLine
 62
7
  6
CONTINUOUS
 10
641.5717632122
 20
1010.0357126011
 11
641.5717632122
 21
1009.2885417499
  0
LINE
  5
2D3
100
AcDbEntity
  8
0
100
AcDbLine
 62
7
  6
CONTINUOUS
 10
648.5541974151
 20
1021.4664793612
 11
648.5541974151
 21
1021.0248111186
  0
LINE
  5
2D4
100
AcDbEntity
  8
0
100
AcDbLine
 62
7
  6
CONTINUOUS
 10
651.0025924379
 20
1015.0978706314
 11
651.0026522839
 21
1014.3379975047
  0
LINE
  5
2D5
100
AcDbEntity
  8
0
100
AcDbLine
 62
7
  6
CONTINUOUS
 10
643.9314027747
 20
1012.3219902529
 11
643.9313485284
 21
1011.6068792707
  0
LINE
  5
2D6
100
AcDbEntity
  8
0
100
AcDbLine
 62
7
  6
CONTINUOUS
 10
204.1979866078
 20
595.3856420957
 11
139.4975733474
 21
558.0310640599
  0
LINE
  5
2D7
100
AcDbEntity
  8
0
100
AcDbLine
 62
7
  6
CONTINUOUS
 10
149.0435546369
 20
552.5198138739
 11
156.114593009
 21
556.6022554126
  0
LINE
  5
2D8
100
AcDbEntity
  8
0
100
AcDbLine
 62
7
  6
CONTINUOUS
 10
156.114593009
 20
554.9692505783
 11
149.0435546369
 21
550.8868090396
  0
LINE
  5
2D9
100
AcDbEntity
  8
0
100
AcDbLine
 62
7
  6
CONTINUOUS
 10
155.4075421632
 20
548.8456470832
 11
162.4785805354
 21
552.9280886219
  0
LINE
  5
2DA
100
AcDbEntity
  8
0
100
AcDbLine
 62
7
  6
CONTINUOUS
 10
224.3504548003
 20
571.5034065202
 11
254.7563319558
 21
589.0581430932
  0
LINE
  5
2DB
100
AcDbEntity
  8
0
100
AcDbLine
 62
7
  6
CONTINUOUS
 10
257.9383168871
 20
590.8952519838
 11
268.4291682511
 21
596.9521116882
  0
LINE
  5
2DC
100
AcDbEntity
  8
0
100
AcDbLine
 62
7
  6
CONTINUOUS
 10
658.9222997059
 20
1026.0427377563
 11
658.9220597856
 21
1026.5288084409
  0
LINE
  5
2DD
100
AcDbEntity
  8
0
100
AcDbLine
 62
7
  6
CONTINUOUS
 10
656.0937858244
 20
1017.2773506432
 11
656.0936601807
 21
1018.0371824179
  0
LINE
  5
2DE
100
AcDbEntity
  8
0
100
AcDbLine
 62
7
  6
CONTINUOUS
 10
664.2257765277
 20
988.4593982468
 11
664.2256064134
 21
989.174650257
  0
LINE
  5
2DF
100
AcDbEntity
  8
0
100
AcDbLine
 62
7
  6
CONTINUOUS
 10
665.9932395478
 20
1022.9927687988
 11
665.9931139099
 21
1023.7526005768
  0
LINE
  5
2E0
100
AcDbEntity
  8
0
100
AcDbLine
 62
7
  6
CONTINUOUS
 10
671.2968097708
 20
985.9757066687
 11
671.2966841351
 21
986.3984287617
  0
LINE
  5
2E1
100
AcDbEntity
  8
0
100
AcDbLine
 62
7
  6
CONTINUOUS
 10
674.1252302488
 20
994.1748164009
 11
674.1250601345
 21
994.8900684112
  0
LINE
  5
2E2
100
AcDbEntity
  8
0
100
AcDbLine
 62
7
  6
CONTINUOUS
 10
676.1050691877
 20
989.174534595
 11
676.1051281128
 21
988.7517696099
  0
LINE
  5
2E3
100
AcDbEntity
  8
0
100
AcDbLine
 62
7
  6
CONTINUOUS
 10
681.1962634918
 20
991.6911248229
 11
681.1961378561
 21
992.1138469159
  0
LINE
  5
2E4
100
AcDbEntity
  8
0
100
AcDbLine
 62
7
  6
CONTINUOUS
 10
684.0246839697
 20
999.8902345552
 11
684.0245138554
 21
1000.6054865654
  0
LINE
  5
2E5
100
AcDbEntity
  8
0
100
AcDbLine
 62
7
  6
CONTINUOUS
 10
686.0045229087
 20
994.8899527492
 11
686.0045818338
 21
994.4671877641
  0
LINE
  5
2E6
100
AcDbEntity
  8
0
100
AcDbLine
 62
7
  6
CONTINUOUS
 10
691.0957172128
 20
997.4065429771
 11
691.0955915771
 21
997.8292650701
  0
LINE
  5
2E7
100
AcDbEntity
  8
0
100
AcDbLine
 62
7
  6
CONTINUOUS
 10
651.4712169332
 20
1015.7511307553
 11
651.4712169332
 21
1015.0039599041
  0
LINE
  5
2E8
100
AcDbEntity
  8
0
100
AcDbLine
 62
7
  6
CONTINUOUS
 10
657.8045741544
 20
1148.765059097
 11
657.8045741544
 21
1134.8847578648
  0
LINE
  5
2E9
100
AcDbEntity
  8
0
100
AcDbLine
 62
7
  6
CONTINUOUS
 10
658.4536511344
 20
1027.1818975155
 11
658.4536511344
 21
1026.7402292729
  0
LINE
  5
2EA
100
AcDbEntity
  8
0
100
AcDbLine
 62
7
  6
CONTINUOUS
 10
660.902046159
 20
1020.8132887857
 11
660.9021060049
 21
1020.0534156589
  0
LINE
  5
2EB
100
AcDbEntity
  8
0
100
AcDbLine
 62
7
  6
CONTINUOUS
 10
661.3706706542
 20
1021.4665489095
 11
661.3706706542
 21
1020.7193780583
  0
LINE
  5
2EC
100
AcDbEntity
  8
0
100
AcDbLine
 62
7
  6
CONTINUOUS
 10
663.757221368
 20
989.8277257041
 11
663.757221368
 21
989.0805548529
  0
LINE
  5
2ED
100
AcDbEntity
  8
0
100
AcDbLine
 62
7
  6
CONTINUOUS
 10
665.7668721806
 20
980.1140817523
 11
665.7668721805
 21
974.3397443097
  0
LINE
  5
2EE
100
AcDbEntity
  8
0
100
AcDbLine
 62
7
  6
CONTINUOUS
 10
670.8014998759
 20
1026.5287069375
 11
670.8015597244
 21
1025.7688338123
  0
LINE
  5
2EF
100
AcDbEntity
  8
0
100
AcDbLine
 62
7
  6
CONTINUOUS
 10
671.1197260861
 20
1033.2443092505
 11
671.1197260802
 21
1034.6259432494
  0
LINE
  5
2F0
100
AcDbEntity
  8
0
100
AcDbLine
 62
7
  6
CONTINUOUS
 10
671.270124377
 20
1027.1819670637
 11
671.270124377
 21
1026.4347962125
  0
LINE
  5
2F1
100
AcDbEntity
  8
0
100
AcDbLine
 62
7
  6
CONTINUOUS
 10
673.656675089
 20
995.5431438583
 11
673.656675089
 21
994.7959730071
  0
LINE
  5
2F2
100
AcDbEntity
  8
0
100
AcDbLine
 62
7
  6
CONTINUOUS
 10
675.3419973861
 20
969.7733802612
 11
675.3419973863
 21
980.4518259869
  0
LINE
  5
2F3
100
AcDbEntity
  8
0
100
AcDbLine
 62
7
  6
CONTINUOUS
 10
675.4826381755
 20
1083.6584023976
 11
675.4826381755
 21
1087.5285933896
  0
LINE
  5
2F4
100
AcDbEntity
  8
0
100
AcDbLine
 62
7
  6
CONTINUOUS
 10
675.4824085461
 20
1125.9035241539
 11
675.4826381755
 21
1087.5285933896
  0
LINE
  5
2F5
100
AcDbEntity
  8
0
100
AcDbLine
 62
7
  6
CONTINUOUS
 10
676.573694607
 20
989.8277952523
 11
676.573694607
 21
989.3861270097
  0
LINE
  5
2F6
100
AcDbEntity
  8
0
100
AcDbLine
 62
7
  6
CONTINUOUS
 10
683.5561288099
 20
1001.2585620125
 11
683.5561288099
 21
1000.5113911613
  0
LINE
  5
2F7
100
AcDbEntity
  8
0
100
AcDbLine
 62
7
  6
CONTINUOUS
 10
683.6155334418
 20
932.1924991842
 11
683.6153038124
 21
957.5033912744
  0
LINE
  5
2F8
100
AcDbEntity
  8
0
100
AcDbLine
 62
7
  6
CONTINUOUS
 10
686.473148328
 20
995.5432134065
 11
686.473148328
 21
995.1015451639
  0
LINE
  5
2F9
100
AcDbEntity
  8
0
100
AcDbLine
 62
7
  6
CONTINUOUS
 10
686.7965203684
 20
1060.9928085354
 11
686.7965203684
 21
1052.3361722753
  0
LINE
  5
2FA
100
AcDbEntity
  8
0
100
AcDbLine
 62
7
  6
CONTINUOUS
 10
653.8308564958
 20
1018.0374084071
 11
653.8308022495
 21
1017.3222974249
  0
LINE
  5
2FB
100
AcDbEntity
  8
0
100
AcDbLine
 62
7
  6
CONTINUOUS
 10
663.7303102094
 20
1023.7528265655
 11
663.7302559646
 21
1023.0377155827
  0
LINE
  5
2FC
100
AcDbEntity
  8
0
100
AcDbLine
 62
7
  6
CONTINUOUS
 10
669.0338176392
 20
986.3986910121
 11
669.0336975775
 21
985.9128116681
  0
LINE
  5
2FD
100
AcDbEntity
  8
0
100
AcDbLine
 62
7
  6
CONTINUOUS
 10
678.9332713601
 20
992.1141091664
 11
678.9331512983
 21
991.6282298225
  0
LINE
  5
2FE
100
AcDbEntity
  8
0
100
AcDbLine
 62
7
  6
CONTINUOUS
 10
688.8327250811
 20
997.8295273206
 11
688.8326050193
 21
997.3436479767
  0
LINE
  5
2FF
100
AcDbEntity
  8
0
100
AcDbLine
 62
7
  6
CONTINUOUS
 10
259.5653653312
 20
554.1936504969
 11
259.7866829849
 21
554.3335032842
  0
LINE
  5
300
100
AcDbEntity
  8
0
100
AcDbLine
 62
7
  6
CONTINUOUS
 10
220.3933785326
 20
558.9358207406
 11
221.4540342884
 21
559.5481869714
  0
LINE
  5
301
100
AcDbEntity
  8
0
100
AcDbLine
 62
7
  6
CONTINUOUS
 10
252.0670133318
 20
567.1812403891
 11
253.1276690877
 21
567.7936066199
  0
LINE
  5
302
100
AcDbEntity
  8
0
100
AcDbLine
 62
7
  6
CONTINUOUS
 10
205.2586878532
 20
540.0685855075
 11
187.93458952
 21
530.0665723753
  0
LINE
  5
303
100
AcDbEntity
  8
0
100
AcDbLine
 62
7
  6
CONTINUOUS
 10
187.93458952
 20
528.433567541
 11
206.672931742
 21
539.2520898892
  0
LINE
  5
304
100
AcDbEntity
  8
0
100
AcDbLine
 62
7
  6
CONTINUOUS
 10
257.9383168871
 20
566.6860881542
 11
256.8776611313
 21
566.0737219234
  0
LINE
  5
305
100
AcDbEntity
  8
0
100
AcDbLine
 62
7
  6
CONTINUOUS
 10
260.8473475727
 20
555.8424776589
 11
261.9080033285
 21
556.4548438897
  0
LINE
  5
306
100
AcDbEntity
  8
0
100
AcDbLine
 62
7
  6
CONTINUOUS
 10
259.5669797552
 20
554.190839947
 11
259.7935325221
 21
554.3216394671
  0
LINE
  5
307
100
AcDbEntity
  8
0
100
AcDbLine
 62
7
  6
CONTINUOUS
 10
416.6821656645
 20
1009.5538026268
 11
428.703030992
 21
1002.6137097999
  0
LINE
  5
308
100
AcDbEntity
  8
0
100
AcDbLine
 62
7
  6
CONTINUOUS
 10
693.9241377938
 20
1005.6056526541
 11
693.9239675776
 21
1006.3209047189
  0
LINE
  5
309
100
AcDbEntity
  8
0
100
AcDbLine
 62
7
  6
CONTINUOUS
 10
695.9039766297
 20
1000.6053709034
 11
695.9040355548
 21
1000.1826059183
  0
LINE
  5
30A
100
AcDbEntity
  8
0
100
AcDbLine
 62
7
  6
CONTINUOUS
 10
700.9951709338
 20
1003.1219611313
 11
700.9950452981
 21
1003.5446832243
  0
LINE
  5
30B
100
AcDbEntity
  8
0
100
AcDbLine
 62
7
  6
CONTINUOUS
 10
705.8034303521
 20
1006.3207890585
 11
705.803489276
 21
1005.8980240728
  0
LINE
  5
30C
100
AcDbEntity
  8
0
100
AcDbLine
 62
7
  6
CONTINUOUS
 10
693.455582531
 20
1006.9739801667
 11
693.455582531
 21
1006.2268093155
  0
LINE
  5
30D
100
AcDbEntity
  8
0
100
AcDbLine
 62
7
  6
CONTINUOUS
 10
696.372602049
 20
1001.2586315607
 11
696.372602049
 21
1000.8169633182
  0
LINE
  5
30E
100
AcDbEntity
  8
0
100
AcDbLine
 62
7
  6
CONTINUOUS
 10
697.6361200155
 20
1049.9351232271
 11
697.6361200009
 21
1048.5534650318
  0
LINE
  5
30F
100
AcDbEntity
  8
0
100
AcDbLine
 62
7
  6
CONTINUOUS
 10
700.938655992
 20
1059.7693502839
 11
700.938655992
 21
1060.9928425289
  0
LINE
  5
310
100
AcDbEntity
  8
0
100
AcDbLine
 62
7
  6
CONTINUOUS
 10
706.27205577
 20
1006.9740497149
 11
706.27205577
 21
1006.5323814724
  0
LINE
  5
311
100
AcDbEntity
  8
0
100
AcDbLine
 62
7
  6
CONTINUOUS
 10
699.8989602327
 20
1048.5534135758
 11
699.8990720409
 21
1049.8714147434
  0
LINE
  5
312
100
AcDbEntity
  8
0
100
AcDbLine
 62
7
  6
CONTINUOUS
 10
698.7321788021
 20
1003.5449454747
 11
698.7320587405
 21
1003.0590661308
  0
LINE
  5
313
100
AcDbEntity
  8
0
100
AcDbLine
 62
7
  6
CONTINUOUS
 10
325.8208946607
 20
570.893460385
 11
329.0028619282
 21
572.7305590774
  0
LINE
  5
314
100
AcDbEntity
  8
0
100
AcDbLine
 62
7
  6
CONTINUOUS
 10
972.4675893101
 20
908.3073330963
 11
944.1834358215
 21
891.9775669414
  0
LINE
  5
315
100
AcDbEntity
  8
0
100
AcDbLine
 62
7
  6
CONTINUOUS
 10
385.5714044226
 20
569.4646853829
 11
357.287250934
 21
553.1349192281
  0
LINE
  5
316
100
AcDbEntity
  8
0
100
AcDbLine
 62
7
  6
CONTINUOUS
 10
478.9073033393
 20
1045.4792881675
 11
490.9281686668
 21
1038.5391953406
  0
LINE
  5
317
100
AcDbEntity
  8
0
100
AcDbLine
 62
7
  6
CONTINUOUS
 10
511.7878702311
 20
1031.3950025326
 11
683.6155334418
 21
932.1924991842
  0
LINE
  5
318
100
AcDbEntity
  8
0
100
AcDbLine
 62
7
  6
CONTINUOUS
 10
739.9917937752
 20
1026.7243968988
 11
739.9918845244
 21
1025.4814779576
  0
LINE
  5
319
100
AcDbEntity
  8
0
100
AcDbLine
 62
7
  6
CONTINUOUS
 10
754.8204687073
 20
1026.3384688926
 11
754.8204687412
 21
1010.4762689064
  0
LINE
  5
31A
100
AcDbEntity
  8
0
100
AcDbLine
 62
7
  6
CONTINUOUS
 10
756.8035221174
 20
1028.9971060527
 11
756.8035221174
 21
1013.2403184106
  0
LINE
  5
31B
100
AcDbEntity
  8
0
100
AcDbLine
 62
7
  6
CONTINUOUS
 10
764.5785312552
 20
1024.2511746221
 11
764.5785312552
 21
1016.0863255382
  0
LINE
  5
31C
100
AcDbEntity
  8
0
100
AcDbLine
 62
7
  6
CONTINUOUS
 10
1061.5627316784
 20
1121.4137501631
 11
1060.6140523301
 21
1120.3183066829
  0
LINE
  5
31D
100
AcDbEntity
  8
0
100
AcDbLine
 62
7
  6
CONTINUOUS
 10
307.4360064793
 20
481.0778176432
 11
325.4671543282
 21
491.4880435669
  0
LINE
  5
31E
100
AcDbEntity
  8
0
100
AcDbLine
 62
7
  6
CONTINUOUS
 10
293.2939385669
 20
469.2386999517
 11
328.6491575883
 21
489.6509233265
  0
LINE
  5
31F
100
AcDbEntity
  8
0
100
AcDbLine
 62
7
  6
CONTINUOUS
 10
847.3100717568
 20
1026.7010208054
 11
792.1557428247
 21
1020.1688688937
  0
LINE
  5
320
100
AcDbEntity
  8
0
100
AcDbLine
 62
7
  6
CONTINUOUS
 10
566.9421991632
 20
1024.8631157703
 11
683.6153038124
 21
957.5033912744
  0
LINE
  5
321
100
AcDbEntity
  8
0
100
AcDbLine
 62
7
  6
CONTINUOUS
 10
671.9479285802
 20
970.7711904649
 11
608.308053317
 21
1007.5128583718
  0
LINE
  5
322
100
AcDbEntity
  8
0
100
AcDbLine
 62
7
  6
CONTINUOUS
 10
664.2252796595
 20
989.1748304787
 11
669.0337431458
 21
986.3987410678
  0
LINE
  5
323
100
AcDbEntity
  8
0
100
AcDbLine
 62
7
  6
CONTINUOUS
 10
629.2233483176
 20
1009.382747794
 11
634.0317396097
 21
1006.6067000635
  0
LINE
  5
324
100
AcDbEntity
  8
0
100
AcDbLine
 62
7
  6
CONTINUOUS
 10
985.1953859513
 20
809.5103718227
 11
995.0949709803
 21
803.7949730409
  0
LINE
  5
325
100
AcDbEntity
  8
0
100
AcDbLine
 62
7
  6
CONTINUOUS
 10
995.0949709803
 20
806.2444802923
 11
986.6096660544
 21
811.1433625479
  0
LINE
  5
326
100
AcDbEntity
  8
0
100
AcDbLine
 62
7
  6
CONTINUOUS
 10
676.1056362952
 20
990.4806904924
 11
671.2971078554
 21
993.2568174031
  0
LINE
  5
327
100
AcDbEntity
  8
0
100
AcDbLine
 62
7
  6
CONTINUOUS
 10
641.1037049203
 20
1010.6886078268
 11
636.2953136036
 21
1013.4646555717
  0
LINE
  5
328
100
AcDbEntity
  8
0
100
AcDbLine
 62
7
  6
CONTINUOUS
 10
995.0949709803
 20
807.469233918
 11
986.6096660544
 21
812.3681161736
  0
LINE
  5
329
100
AcDbEntity
  8
0
100
AcDbLine
 62
7
  6
CONTINUOUS
 10
674.1247333805
 20
994.8902486329
 11
678.9331968668
 21
992.1141592221
  0
LINE
  5
32A
100
AcDbEntity
  8
0
100
AcDbLine
 62
7
  6
CONTINUOUS
 10
639.1228020058
 20
1015.0981659671
 11
643.9313283341
 21
1012.3220402755
  0
LINE
  5
32B
100
AcDbEntity
  8
0
100
AcDbLine
 62
7
  6
CONTINUOUS
 10
1070.0270729382
 20
1107.1839715735
 11
1070.6100171649
 21
1107.8959470961
  0
LINE
  5
32C
100
AcDbEntity
  8
0
100
AcDbLine
 62
7
  6
CONTINUOUS
 10
1066.6794125513
 20
1116.633898253
 11
1065.730733203
 21
1115.5384547728
  0
LINE
  5
32D
100
AcDbEntity
  8
0
100
AcDbLine
 62
7
  6
CONTINUOUS
 10
1069.7108464888
 20
1108.6445786553
 11
1070.6595258371
 21
1109.7400221355
  0
LINE
  5
32E
100
AcDbEntity
  8
0
100
AcDbLine
 62
7
  6
CONTINUOUS
 10
344.2055532127
 20
481.8943909347
 11
343.1448974569
 21
481.2820247039
  0
LINE
  5
32F
100
AcDbEntity
  8
0
100
AcDbLine
 62
7
  6
CONTINUOUS
 10
344.2055532127
 20
480.669637309
 11
351.177878233
 21
484.6950870076
  0
LINE
  5
330
100
AcDbEntity
  8
0
100
AcDbLine
 62
7
  6
CONTINUOUS
 10
332.8920242958
 20
454.5420667825
 11
325.8209859237
 21
450.4596252438
  0
LINE
  5
331
100
AcDbEntity
  8
0
100
AcDbLine
 62
7
  6
CONTINUOUS
 10
325.8209859237
 20
448.8266204096
 11
332.8920242958
 21
452.9090619483
  0
LINE
  5
332
100
AcDbEntity
  8
0
100
AcDbLine
 62
7
  6
CONTINUOUS
 10
332.18497345
 20
446.7854584531
 11
339.2560118221
 21
450.8678999918
  0
LINE
  5
333
100
AcDbEntity
  8
0
100
AcDbLine
 62
7
  6
CONTINUOUS
 10
1054.5798300663
 20
838.2399859297
 11
1055.9913007651
 21
838.9533461149
  0
LINE
  5
334
100
AcDbEntity
  8
0
100
AcDbLine
 62
7
  6
CONTINUOUS
 10
511.7878702311
 20
1031.3950025326
 11
566.9421991632
 21
1024.8631157703
  0
LINE
  5
335
100
AcDbEntity
  8
0
100
AcDbLine
 62
7
  6
CONTINUOUS
 10
686.0050900162
 20
996.1961086466
 11
681.1965615764
 21
998.9722355574
  0
LINE
  5
336
100
AcDbEntity
  8
0
100
AcDbLine
 62
7
  6
CONTINUOUS
 10
651.0031586415
 20
1016.4040259808
 11
646.1946951687
 21
1019.1801153838
  0
LINE
  5
337
100
AcDbEntity
  8
0
100
AcDbLine
 62
7
  6
CONTINUOUS
 10
684.0241871015
 20
1000.6056667871
 11
688.8326505877
 21
997.8295773763
  0
LINE
  5
338
100
AcDbEntity
  8
0
100
AcDbLine
 62
7
  6
CONTINUOUS
 10
649.0222557251
 20
1020.8135841222
 11
653.8307820551
 21
1018.0374584297
  0
LINE
  5
339
100
AcDbEntity
  8
0
100
AcDbLine
 62
7
  6
CONTINUOUS
 10
695.9045437372
 20
1001.9115268008
 11
691.0960152974
 21
1004.6876537116
  0
LINE
  5
33A
100
AcDbEntity
  8
0
100
AcDbLine
 62
7
  6
CONTINUOUS
 10
660.9026122454
 20
1022.1194442026
 11
656.0941487986
 21
1024.8955335907
  0
LINE
  5
33B
100
AcDbEntity
  8
0
100
AcDbLine
 62
7
  6
CONTINUOUS
 10
693.9236408198
 20
1006.3210849429
 11
698.7321043088
 21
1003.5449955304
  0
LINE
  5
33C
100
AcDbEntity
  8
0
100
AcDbLine
 62
7
  6
CONTINUOUS
 10
658.9217094717
 20
1026.5290022627
 11
663.7302357648
 21
1023.7528765913
  0
LINE
  5
33D
100
AcDbEntity
  8
0
100
AcDbLine
 62
7
  6
CONTINUOUS
 10
705.8039151398
 20
1007.6269942311
 11
700.9952849403
 21
1010.4031871626
  0
LINE
  5
33E
100
AcDbEntity
  8
0
100
AcDbLine
 62
7
  6
CONTINUOUS
 10
670.8020660596
 20
1027.8348623021
 11
665.9936026187
 21
1030.6109516867
  0
LINE
  5
33F
100
AcDbEntity
  8
0
100
AcDbLine
 62
7
  6
CONTINUOUS
 10
836.8310914145
 20
1158.0808377018
 11
840.841077394
 21
1234.7136751467
  0
LINE
  5
340
100
AcDbEntity
  8
0
100
AcDbLine
 62
7
  6
CONTINUOUS
 10
841.9017419817
 20
1234.1013140149
 11
837.8917560023
 21
1157.46847657
  0
LINE
  5
341
100
AcDbEntity
  8
0
100
AcDbLine
 62
7
  6
CONTINUOUS
 10
839.8925255891
 20
1156.3133578428
 11
844.1068901295
 21
1236.8519717956
  0
LINE
  5
342
100
AcDbEntity
  8
0
100
AcDbLine
 62
7
  6
CONTINUOUS
 10
841.9535749703
 20
1155.1234373473
 11
846.2261577413
 21
1236.7746308028
  0
LINE
  5
343
100
AcDbEntity
  8
0
100
AcDbLine
 62
7
  6
CONTINUOUS
 10
343.1451741898
 20
438.8247219238
 11
986.6096660544
 21
810.3269019469
  0
LINE
  5
344
100
AcDbEntity
  8
0
100
AcDbLine
 62
7
  6
CONTINUOUS
 10
1002.1660387921
 20
807.4692509147
 11
1054.5770930907
 21
837.7286065986
  0
LINE
  5
345
100
AcDbEntity
  8
0
100
AcDbLine
 62
7
  6
CONTINUOUS
 10
1002.1660387921
 20
806.244497289
 11
1054.5770930907
 21
836.5038529729
  0
LINE
  5
346
100
AcDbEntity
  8
0
100
AcDbLine
 62
7
  6
CONTINUOUS
 10
1002.1660387921
 20
803.7949900376
 11
1002.8731426294
 21
804.2032341916
  0
LINE
  5
347
100
AcDbEntity
  8
0
100
AcDbLine
 62
7
  6
CONTINUOUS
 10
1053.5191654786
 20
838.8523470615
 11
1054.5798300663
 21
838.2399859297
  0
LINE
  5
348
100
AcDbEntity
  8
0
100
AcDbLine
 62
7
  6
CONTINUOUS
 10
1052.1956368794
 20
839.8196043794
 11
1053.2563014672
 21
839.2072432476
  0
LINE
  5
349
100
AcDbEntity
  8
0
100
AcDbLine
 62
7
  6
CONTINUOUS
 10
972.4675893101
 20
886.7664412859
 11
1052.2422071808
 21
840.7095861291
  0
LINE
  5
34A
100
AcDbEntity
  8
0
100
AcDbLine
 62
7
  6
CONTINUOUS
 10
1052.2823494718
 20
841.4767253839
 11
972.4675893101
 21
887.5567561789
  0
LINE
  5
34B
100
AcDbEntity
  8
0
100
AcDbLine
 62
7
  6
CONTINUOUS
 10
699.8989602327
 20
1048.5534135758
 11
739.9268112628
 21
1025.4438458168
  0
LINE
  5
34C
100
AcDbEntity
  8
0
100
AcDbLine
 62
7
  6
CONTINUOUS
 10
756.8035221174
 20
1016.4924404336
 11
761.0427993409
 21
1014.0449479571
  0
LINE
  5
34D
100
AcDbEntity
  8
0
100
AcDbLine
 62
7
  6
CONTINUOUS
 10
700.938655992
 20
1060.9928425289
 11
702.653232303
 21
1060.0029538285
  0
LINE
  5
34E
100
AcDbEntity
  8
0
100
AcDbLine
 62
7
  6
CONTINUOUS
 10
756.8035221174
 20
1028.7399766905
 11
764.5785312552
 21
1024.2511746221
  0
LINE
  5
34F
100
AcDbEntity
  8
0
100
AcDbLine
 62
7
  6
CONTINUOUS
 10
972.4675893101
 20
908.3073330963
 11
955.8990468157
 21
917.8729691619
  0
LINE
  5
350
100
AcDbEntity
  8
0
100
AcDbLine
 62
7
  6
CONTINUOUS
 10
675.4826484205
 20
1083.6584023976
 11
788.8040163148
 21
1018.233760242
  0
LINE
  5
351
100
AcDbEntity
  8
0
100
AcDbLine
 62
7
  6
CONTINUOUS
 10
792.1557428247
 20
1020.1688688937
 11
675.4826381755
 21
1087.5285933896
  0
LINE
  5
352
100
AcDbEntity
  8
0
100
AcDbLine
 62
7
  6
CONTINUOUS
 10
1066.0555248533
 20
1104.6889948319
 11
1067.5549376517
 21
1107.0829725201
  0
LINE
  5
353
100
AcDbEntity
  8
0
100
AcDbLine
 62
7
  6
CONTINUOUS
 10
1068.6156022394
 20
1106.4706113884
 11
1067.116189441
 21
1104.0766337002
  0
LINE
  5
354
100
AcDbEntity
  8
0
100
AcDbLine
 62
7
  6
CONTINUOUS
 10
847.3100717568
 20
1026.7010208054
 11
675.4824085461
 21
1125.9035241539
  0
LINE
  5
355
100
AcDbEntity
  8
0
100
AcDbLine
 62
7
  6
CONTINUOUS
 10
657.8045741544
 20
1148.765059097
 11
669.8254394819
 21
1141.8249662701
  0
LINE
  5
356
100
AcDbEntity
  8
0
100
AcDbLine
 62
7
  6
CONTINUOUS
 10
1053.5191654786
 20
838.8523470615
 11
1052.1956368794
 21
839.8196043794
  0
LINE
  5
357
100
AcDbEntity
  8
0
100
AcDbLine
 62
7
  6
CONTINUOUS
 10
1053.2563014671
 20
839.2072432476
 11
1054.5798300663
 21
838.2399859297
  0
LINE
  5
358
100
AcDbEntity
  8
0
100
AcDbLine
 62
7
  6
CONTINUOUS
 10
986.6096660544
 20
829.399568721
 11
972.4675893101
 21
849.5191590629
  0
LINE
  5
359
100
AcDbEntity
  8
0
100
AcDbLine
 62
7
  6
CONTINUOUS
 10
944.1834358215
 20
1063.4430745386
 11
944.1834358215
 21
1051.6037894903
  0
LINE
  5
35A
100
AcDbEntity
  8
0
100
AcDbLine
 62
7
  6
CONTINUOUS
 10
944.1834358215
 20
1048.3377798217
 11
944.1834358215
 21
891.9775669414
  0
LINE
  5
35B
100
AcDbEntity
  8
0
100
AcDbLine
 62
7
  6
CONTINUOUS
 10
955.8990468157
 20
1079.7727047194
 11
955.8990468157
 21
1067.9334196711
  0
LINE
  5
35C
100
AcDbEntity
  8
0
100
AcDbLine
 62
7
  6
CONTINUOUS
 10
955.8990468157
 20
1064.6674100025
 11
955.8990468157
 21
908.3071971222
  0
LINE
  5
35D
100
AcDbEntity
  8
0
100
AcDbLine
 62
7
  6
CONTINUOUS
 10
972.4675893101
 20
849.5191590629
 11
972.4675893101
 21
908.3073330963
  0
LINE
  5
35E
100
AcDbEntity
  8
0
100
AcDbLine
 62
7
  6
CONTINUOUS
 10
1056.5742449918
 20
839.6653216375
 11
1055.9913007651
 21
838.9533461149
  0
LINE
  5
35F
100
AcDbEntity
  8
0
100
AcDbLine
 62
7
  6
CONTINUOUS
 10
720.0297118293
 20
1184.6905446376
 11
732.0505771568
 21
1177.7504518108
  0
LINE
  5
360
100
AcDbEntity
  8
0
100
AcDbLine
 62
7
  6
CONTINUOUS
 10
986.6096660544
 20
810.3269019469
 11
986.6096660544
 21
829.399568721
  0
LINE
  5
361
100
AcDbEntity
  8
0
100
AcDbLine
 62
7
  6
CONTINUOUS
 10
995.0949709803
 20
807.469233918
 11
995.0949709803
 21
803.7949730409
  0
LINE
  5
362
100
AcDbEntity
  8
0
100
AcDbLine
 62
7
  6
CONTINUOUS
 10
1002.1660387921
 20
803.7949900376
 11
1002.1660387921
 21
807.4692509147
  0
LINE
  5
363
100
AcDbEntity
  8
0
100
AcDbLine
 62
7
  6
CONTINUOUS
 10
1002.8731426294
 20
806.652741443
 11
1002.8731426294
 21
804.2032341916
  0
LINE
  5
364
100
AcDbEntity
  8
0
100
AcDbLine
 62
7
  6
CONTINUOUS
 10
944.1832003042
 20
1096.1024708743
 11
795.6901580233
 21
1181.8330293236
  0
LINE
  5
365
100
AcDbEntity
  8
0
100
AcDbLine
 62
7
  6
CONTINUOUS
 10
843.4357344418
 20
1239.2816201018
 11
839.4556211559
 21
1246.1754962193
  0
LINE
  5
366
100
AcDbEntity
  8
0
100
AcDbLine
 62
7
  6
CONTINUOUS
 10
1054.577089403
 20
838.2399859099
 11
1054.5770930907
 21
836.5038529729
  0
LINE
  5
367
100
AcDbEntity
  8
0
100
AcDbLine
 62
7
  6
CONTINUOUS
 10
1052.1956368794
 20
839.8196043794
 11
1066.0555248533
 21
1104.6889948319
  0
LINE
  5
368
100
AcDbEntity
  8
0
100
AcDbLine
 62
7
  6
CONTINUOUS
 10
1067.116189441
 20
1104.0766337002
 11
1053.2563014671
 21
839.2072432476
  0
LINE
  5
369
100
AcDbEntity
  8
0
100
AcDbLine
 62
7
  6
CONTINUOUS
 10
1068.9657211626
 20
1108.1787931288
 11
1068.9457645843
 21
1107.7974129369
  0
LINE
  5
36A
100
AcDbEntity
  8
0
100
AcDbLine
 62
7
  6
CONTINUOUS
 10
1055.9913007651
 20
838.9533461149
 11
1070.0270729382
 21
1107.1839715735
  0
LINE
  5
36B
100
AcDbEntity
  8
0
100
AcDbLine
 62
7
  6
CONTINUOUS
 10
1070.6101209566
 20
1107.8959415596
 11
1056.5743487835
 21
839.665316101
  0
LINE
  5
36C
100
AcDbEntity
  8
0
100
AcDbLine
 62
7
  6
CONTINUOUS
 10
841.9017419817
 20
1234.1013140149
 11
840.841077394
 21
1234.7136751467
  0
LINE
  5
36D
100
AcDbEntity
  8
0
100
AcDbLine
 62
7
  6
CONTINUOUS
 10
1066.0555248533
 20
1104.6889948319
 11
1067.1161894411
 21
1104.0766337002
  0
LINE
  5
36E
100
AcDbEntity
  8
0
100
AcDbLine
 62
7
  6
CONTINUOUS
 10
843.4357344418
 20
1239.2816201018
 11
845.4824067909
 21
1237.3696793377
  0
LINE
  5
36F
100
AcDbEntity
  8
0
100
AcDbLine
 62
7
  6
CONTINUOUS
 10
845.5184892621
 20
1237.1825891618
 11
846.2261577413
 21
1236.7746308027
  0
LINE
  5
370
100
AcDbEntity
  8
0
100
AcDbLine
 62
7
  6
CONTINUOUS
 10
843.4011547801
 20
1236.4952917031
 11
842.3404901924
 21
1237.1076528349
  0
LINE
  5
371
100
AcDbEntity
  8
0
100
AcDbLine
 62
7
  6
CONTINUOUS
 10
1067.5549376517
 20
1107.0829725201
 11
1068.6156022395
 21
1106.4706113884
  0
LINE
  5
372
100
AcDbEntity
  8
0
100
AcDbLine
 62
7
  6
CONTINUOUS
 10
846.2261577413
 20
1236.7746308028
 11
1068.9657211626
 21
1108.1787931288
  0
LINE
  5
373
100
AcDbEntity
  8
0
100
AcDbLine
 62
7
  6
CONTINUOUS
 10
1068.9290799374
 20
1108.3656009093
 11
845.4824067909
 21
1237.3696793377
  0
LINE
  5
374
100
AcDbEntity
  8
0
100
AcDbLine
 62
7
  6
CONTINUOUS
 10
841.4100375345
 20
1246.8729405842
 11
1060.6140523301
 21
1120.3183066829
  0
LINE
  5
375
100
AcDbEntity
  8
0
100
AcDbLine
 62
7
  6
CONTINUOUS
 10
842.3587168828
 20
1247.9683840644
 11
1061.5627316784
 21
1121.4137501631
  0
LINE
  5
376
100
AcDbEntity
  8
0
100
AcDbLine
 62
7
  6
CONTINUOUS
 10
1070.6100171649
 20
1107.8959470961
 11
1070.0243241867
 21
1108.7138132677
  0
LINE
  5
377
100
AcDbEntity
  8
0
100
AcDbLine
 62
7
  6
CONTINUOUS
 10
1065.730733203
 20
1115.5384547728
 11
1069.7108464888
 21
1108.6445786553
  0
LINE
  5
378
100
AcDbEntity
  8
0
100
AcDbLine
 62
7
  6
CONTINUOUS
 10
1070.6595258371
 20
1109.7400221355
 11
1066.6794125513
 21
1116.633898253
  0
ARC
  5
379
100
AcDbEntity
  8
0
100
AcDbCircle
 62
7
  6
CONTINUOUS
 10
311.8168648476
 20
593.1780861084
 40
96.422823087
100
AcDbArc
 50
203.7326806535
 51
205.6085280569
  0
ARC
  5
37A
100
AcDbEntity
  8
0
100
AcDbCircle
 62
7
  6
CONTINUOUS
 10
310.7434562219
 20
592.5598631384
 40
96.4087902864
100
AcDbArc
 50
203.7198747088
 51
205.5957331079
  0
ARC
  5
37B
100
AcDbEntity
  8
0
100
AcDbCircle
 62
7
  6
CONTINUOUS
 10
309.9246669145
 20
592.3440644161
 40
94.3549736336
100
AcDbArc
 50
202.4503881463
 51
203.7315036814
  0
ARC
  5
37C
100
AcDbEntity
  8
0
100
AcDbCircle
 62
7
  6
CONTINUOUS
 10
308.6066355788
 20
591.6212816069
 40
94.0749227507
100
AcDbArc
 50
202.1170189047
 51
203.7200427303
  0
ARC
  5
37D
100
AcDbEntity
  8
0
100
AcDbCircle
 62
7
  6
CONTINUOUS
 10
227.2130164394
 20
557.8064227855
 40
57.1019529615
100
AcDbArc
 50
57.4348395747
 51
58.3177298848
  0
ARC
  5
37E
100
AcDbEntity
  8
0
100
AcDbCircle
 62
7
  6
CONTINUOUS
 10
227.8488569454
 20
558.833422638
 40
55.8940544093
100
AcDbArc
 50
58.3194670196
 51
58.7110667941
  0
ARC
  5
37F
100
AcDbEntity
  8
0
100
AcDbCircle
 62
7
  6
CONTINUOUS
 10
268.2473862927
 20
583.9575945779
 40
52.7356441144
100
AcDbArc
 50
179.0589560944
 51
180.0019897664
  0
ARC
  5
380
100
AcDbEntity
  8
0
100
AcDbCircle
 62
7
  6
CONTINUOUS
 10
198.419097402
 20
842.6043040265
 40
35.8438501408
100
AcDbArc
 50
236.8257422064
 51
240.0233412789
  0
ARC
  5
381
100
AcDbEntity
  8
0
100
AcDbCircle
 62
7
  6
CONTINUOUS
 10
195.9043119026
 20
682.5180880796
 40
31.3476542386
100
AcDbArc
 50
233.210544384
 51
234.1539299475
  0
ARC
  5
382
100
AcDbEntity
  8
0
100
AcDbCircle
 62
7
  6
CONTINUOUS
 10
162.6440722783
 20
665.5008689286
 40
31.0173169508
100
AcDbArc
 50
327.7069598537
 51
329.3518958002
  0
ARC
  5
383
100
AcDbEntity
  8
0
100
AcDbCircle
 62
7
  6
CONTINUOUS
 10
164.2711046987
 20
664.5514563708
 40
30.766418017
100
AcDbArc
 50
326.2133664471
 51
327.3897118636
  0
ARC
  5
384
100
AcDbEntity
  8
0
100
AcDbCircle
 62
7
  6
CONTINUOUS
 10
162.8638641652
 20
665.3626374252
 40
30.7576704194
100
AcDbArc
 50
326.84675189
 51
327.3963694064
  0
ARC
  5
385
100
AcDbEntity
  8
0
100
AcDbCircle
 62
7
  6
CONTINUOUS
 10
194.8234002379
 20
681.0905714787
 40
29.5571092124
100
AcDbArc
 50
230.1701855391
 51
233.2313505827
  0
ARC
  5
386
100
AcDbEntity
  8
0
100
AcDbCircle
 62
7
  6
CONTINUOUS
 10
193.4191653989
 20
679.3974612127
 40
27.3574596852
100
AcDbArc
 50
228.0701749748
 51
230.1574720137
  0
ARC
  5
387
100
AcDbEntity
  8
0
100
AcDbCircle
 62
7
  6
CONTINUOUS
 10
192.6693315162
 20
678.5559349132
 40
26.2303410246
100
AcDbArc
 50
227.3614467006
 51
228.0603993037
  0
ARC
  5
388
100
AcDbEntity
  8
0
100
AcDbCircle
 62
7
  6
CONTINUOUS
 10
270.3074231692
 20
531.5031632624
 40
24.893039687
100
AcDbArc
 50
329.4931552085
 51
330.2149292533
  0
ARC
  5
389
100
AcDbEntity
  8
0
100
AcDbCircle
 62
7
  6
CONTINUOUS
 10
270.9148565383
 20
531.1415952203
 40
24.1861475548
100
AcDbArc
 50
327.1811571986
 51
329.5006348907
  0
ARC
  5
38A
100
AcDbEntity
  8
0
100
AcDbCircle
 62
7
  6
CONTINUOUS
 10
236.8357966493
 20
593.5566358595
 40
19.0425568761
100
AcDbArc
 50
116.639320218
 51
118.0768433296
  0
ARC
  5
38B
100
AcDbEntity
  8
0
100
AcDbCircle
 62
7
  6
CONTINUOUS
 10
236.8104207308
 20
593.6042546645
 40
18.9885986764
100
AcDbArc
 50
118.0769110263
 51
119.9963262166
  0
ARC
  5
38C
100
AcDbEntity
  8
0
100
AcDbCircle
 62
7
  6
CONTINUOUS
 10
274.830061845
 20
527.7530263143
 40
18.9727045321
100
AcDbArc
 50
301.5754876765
 51
303.5664514863
  0
ARC
  5
38D
100
AcDbEntity
  8
0
100
AcDbCircle
 62
7
  6
CONTINUOUS
 10
274.8369506505
 20
527.7421671313
 40
18.9598459143
100
AcDbArc
 50
300.000078011
 51
301.5749351922
  0
ARC
  5
38E
100
AcDbEntity
  8
0
100
AcDbCircle
 62
7
  6
CONTINUOUS
 10
382.3491372614
 20
544.1615852131
 40
15.9501385504
100
AcDbArc
 50
359.969100974
 51
3.7639213858
  0
ARC
  5
38F
100
AcDbEntity
  8
0
100
AcDbCircle
 62
7
  6
CONTINUOUS
 10
182.2189884911
 20
827.8826171139
 40
13.424721551
100
AcDbArc
 50
172.9919657379
 51
179.9894591525
  0
ARC
  5
390
100
AcDbEntity
  8
0
100
AcDbCircle
 62
7
  6
CONTINUOUS
 10
260.5994581956
 20
564.0855394498
 40
10.1103306014
100
AcDbArc
 50
190.9747482791
 51
193.9342087416
  0
ARC
  5
391
100
AcDbEntity
  8
0
100
AcDbCircle
 62
7
  6
CONTINUOUS
 10
251.0627908288
 20
558.9223595996
 40
9.2170873772
100
AcDbArc
 50
49.9537628866
 51
50.8849691041
  0
ARC
  5
392
100
AcDbEntity
  8
0
100
AcDbCircle
 62
7
  6
CONTINUOUS
 10
212.5983554971
 20
689.9510704
 40
8.5666860832
100
AcDbArc
 50
144.5554779681
 51
151.4628642491
  0
ARC
  5
393
100
AcDbEntity
  8
0
100
AcDbCircle
 62
7
  6
CONTINUOUS
 10
291.7946447136
 20
653.0463319987
 40
8.5666860832
100
AcDbArc
 50
144.5554779682
 51
151.4628642491
  0
ARC
  5
394
100
AcDbEntity
  8
0
100
AcDbCircle
 62
7
  6
CONTINUOUS
 10
212.0831033393
 20
690.3062451652
 40
7.940956449
100
AcDbArc
 50
142.162627986
 51
144.4872992455
  0
ARC
  5
395
100
AcDbEntity
  8
0
100
AcDbCircle
 62
7
  6
CONTINUOUS
 10
291.2793925561
 20
653.4015067636
 40
7.9409564494
100
AcDbArc
 50
142.1626279861
 51
144.4872992454
  0
ARC
  5
396
100
AcDbEntity
  8
0
100
AcDbCircle
 62
7
  6
CONTINUOUS
 10
294.5611077589
 20
691.0056758663
 40
6.6820196616
100
AcDbArc
 50
253.1602564135
 51
257.2945276134
  0
ARC
  5
397
100
AcDbEntity
  8
0
100
AcDbCircle
 62
7
  6
CONTINUOUS
 10
280.3939030846
 20
705.4027689889
 40
6.4453066438
100
AcDbArc
 50
293.0237142485
 51
295.7487112556
  0
ARC
  5
398
100
AcDbEntity
  8
0
100
AcDbCircle
 62
7
  6
CONTINUOUS
 10
378.2481872915
 20
527.4530655779
 40
6.2422726546
100
AcDbArc
 50
250.1441009528
 51
253.011023709
  0
ARC
  5
399
100
AcDbEntity
  8
0
100
AcDbCircle
 62
7
  6
CONTINUOUS
 10
391.5224412114
 20
547.1014048623
 40
6.1068024787
100
AcDbArc
 50
60.0517760964
 51
73.0962985411
  0
ARC
  5
39A
100
AcDbEntity
  8
0
100
AcDbCircle
 62
7
  6
CONTINUOUS
 10
940.9611686605
 20
866.6744667716
 40
15.9501385503
100
AcDbArc
 50
359.969100974
 51
3.7639213858
  0
ARC
  5
39B
100
AcDbEntity
  8
0
100
AcDbCircle
 62
7
  6
CONTINUOUS
 10
998.6304905304
 20
813.9786278243
 40
8.5797458881
100
AcDbArc
 50
263.2629421988
 51
276.7356843657
  0
ARC
  5
39C
100
AcDbEntity
  8
0
100
AcDbCircle
 62
7
  6
CONTINUOUS
 10
936.8602186906
 20
849.9659471369
 40
6.2422726552
100
AcDbArc
 50
250.1441009529
 51
253.0110237089
  0
ARC
  5
39D
100
AcDbEntity
  8
0
100
AcDbCircle
 62
7
  6
CONTINUOUS
 10
950.1344726103
 20
869.6142864208
 40
6.1068024787
100
AcDbArc
 50
60.0517760964
 51
73.0962985411
  0
ARC
  5
39E
100
AcDbEntity
  8
0
100
AcDbCircle
 62
7
  6
CONTINUOUS
 10
997.559521361
 20
811.7442399707
 40
4.9345400322
100
AcDbArc
 50
240.0364566096
 51
243.5244115106
  0
ARC
  5
39F
100
AcDbEntity
  8
0
100
AcDbCircle
 62
7
  6
CONTINUOUS
 10
999.7014642502
 20
811.7442287699
 40
4.9345276708
100
AcDbArc
 50
296.4756236422
 51
299.9639499575
  0
ARC
  5
3A0
100
AcDbEntity
  8
0
100
AcDbCircle
 62
7
  6
CONTINUOUS
 10
1053.4950859124
 20
839.9902144514
 40
2.14628171
100
AcDbArc
 50
301.9461136136
 51
306.7160008575
  0
ARC
  5
3A1
100
AcDbEntity
  8
0
100
AcDbCircle
 62
7
  6
CONTINUOUS
 10
950.1617445665
 20
1517.0396991873
 40
601.007989293
100
AcDbArc
 50
237.7239326316
 51
238.2644521085
  0
ARC
  5
3A2
100
AcDbEntity
  8
0
100
AcDbCircle
 62
7
  6
CONTINUOUS
 10
979.8600361002
 20
1534.1858426335
 40
601.0078582482
100
AcDbArc
 50
237.7239325927
 51
238.2644524167
  0
ARC
  5
3A3
100
AcDbEntity
  8
0
100
AcDbCircle
 62
7
  6
CONTINUOUS
 10
960.0611282746
 20
1522.7550057112
 40
601.0078575244
100
AcDbArc
 50
237.7239325919
 51
238.2644524177
  0
ARC
  5
3A4
100
AcDbEntity
  8
0
100
AcDbCircle
 62
7
  6
CONTINUOUS
 10
969.9605819852
 20
1528.4704238487
 40
601.0078575046
100
AcDbArc
 50
237.7239325918
 51
238.2644524177
  0
ARC
  5
3A5
100
AcDbEntity
  8
0
100
AcDbCircle
 62
7
  6
CONTINUOUS
 10
945.2599312684
 20
1474.3122965442
 40
531.8417049351
100
AcDbArc
 50
241.79833886
 51
242.3844727655
  0
ARC
  5
3A6
100
AcDbEntity
  8
0
100
AcDbCircle
 62
7
  6
CONTINUOUS
 10
925.4610201852
 20
1462.8814533616
 40
531.8416971562
100
AcDbArc
 50
241.7983388432
 51
242.3844727698
  0
ARC
  5
3A7
100
AcDbEntity
  8
0
100
AcDbCircle
 62
7
  6
CONTINUOUS
 10
915.5615664628
 20
1457.1660352047
 40
531.8416971531
100
AcDbArc
 50
241.7983388431
 51
242.3844727698
  0
ARC
  5
3A8
100
AcDbEntity
  8
0
100
AcDbCircle
 62
7
  6
CONTINUOUS
 10
935.3604739035
 20
1468.5968715107
 40
531.8416971504
100
AcDbArc
 50
241.7983388431
 51
242.3844727698
  0
ARC
  5
3A9
100
AcDbEntity
  8
0
100
AcDbCircle
 62
7
  6
CONTINUOUS
 10
926.2741776151
 20
1079.386213329
 40
35.8433641384
100
AcDbArc
 50
299.9770707565
 51
303.1747493136
  0
ARC
  5
3AA
100
AcDbEntity
  8
0
100
AcDbCircle
 62
7
  6
CONTINUOUS
 10
942.4740378118
 20
1064.6649403594
 40
13.4247151996
100
AcDbArc
 50
0.0105402703
 51
7.0075062926
  0
ARC
  5
3AB
100
AcDbEntity
  8
0
100
AcDbCircle
 62
7
  6
CONTINUOUS
 10
845.0914595413
 20
1234.4584877777
 40
2.5922409532
100
AcDbArc
 50
79.1402142236
 51
80.8113285609
  0
ARC
  5
3AC
100
AcDbEntity
  8
0
100
AcDbCircle
 62
7
  6
CONTINUOUS
 10
845.1183949661
 20
1234.5880045417
 40
2.4599697346
100
AcDbArc
 50
73.5328773869
 51
79.1879911957
  0
SPLINE
  5
3AD
100
AcDbEntity
  8
0
100
AcDbSpline
 62
7
  6
CONTINUOUS
 70
0
 71
3
 72
9
 73
5
 74
0
 42
0.0000001
 43
0.0000001
 44
0.0000000001
 40
0.0
 40
0.0
 40
0.0
 40
0.0
 40
0.4967645953
 40
1.0
 40
1.0
 40
1.0
 40
1.0
 10
711.2128569343
 20
1010.1087403919
 30
0.0
 10
711.5535378866
 20
1009.9306604348
 30
0.0
 10
712.3518445154
 20
1009.8118386889
 30
0.0
 10
713.1383472186
 20
1009.9776382414
 30
0.0
 10
713.4755986192
 20
1010.1723492612
 30
0.0
  0
SPLINE
  5
3AE
100
AcDbEntity
  8
0
100
AcDbSpline
 62
7
  6
CONTINUOUS
 70
0
 71
3
 72
9
 73
5
 74
0
 42
0.0000001
 43
0.0000001
 44
0.0000000001
 40
0.0
 40
0.0
 40
0.0
 40
0.0
 40
0.2544372655
 40
1.0
 40
1.0
 40
1.0
 40
1.0
 10
671.1198515834
 20
1033.2559371693
 30
0.0
 10
674.4395212638
 20
1031.1580496534
 30
0.0
 10
687.5662859473
 20
1023.0399095491
 30
0.0
 10
701.0148346025
 20
1015.4394457556
 30
0.0
 10
711.2127272894
 20
1010.108826948
 30
0.0
  0
SPLINE
  5
3AF
100
AcDbEntity
  8
0
100
AcDbSpline
 62
7
  6
CONTINUOUS
 70
0
 71
3
 72
9
 73
5
 74
0
 42
0.0000001
 43
0.0000001
 44
0.0000000001
 40
0.0
 40
0.0
 40
0.0
 40
0.0
 40
0.449208313
 40
1.0
 40
1.0
 40
1.0
 40
1.0
 10
676.5736059778
 20
989.8277952527
 30
0.0
 10
676.5736066608
 20
989.9523201765
 30
0.0
 10
676.4649643594
 20
990.2302435978
 30
0.0
 10
676.2378477925
 20
990.4043178803
 30
0.0
 10
676.1056362952
 20
990.4806904924
 30
0.0
  0
SPLINE
  5
3B0
100
AcDbEntity
  8
0
100
AcDbSpline
 62
7
  6
CONTINUOUS
 70
0
 71
3
 72
9
 73
5
 74
0
 42
0.0000001
 43
0.0000001
 44
0.0000000001
 40
0.0
 40
0.0
 40
0.0
 40
0.0
 40
0.449208313
 40
1.0
 40
1.0
 40
1.0
 40
1.0
 10
686.4730596988
 20
995.5432134069
 30
0.0
 10
686.4730603818
 20
995.6677383307
 30
0.0
 10
686.3644180804
 20
995.945661752
 30
0.0
 10
686.1373015135
 20
996.1197360345
 30
0.0
 10
686.0050900162
 20
996.1961086466
 30
0.0
  0
SPLINE
  5
3B1
100
AcDbEntity
  8
0
100
AcDbSpline
 62
7
  6
CONTINUOUS
 70
0
 71
3
 72
9
 73
5
 74
0
 42
0.0000001
 43
0.0000001
 44
0.0000000001
 40
0.0
 40
0.0
 40
0.0
 40
0.0
 40
0.449208313
 40
1.0
 40
1.0
 40
1.0
 40
1.0
 10
696.3725134198
 20
1001.2586315611
 30
0.0
 10
696.3725141028
 20
1001.3831564849
 30
0.0
 10
696.2638718014
 20
1001.6610799062
 30
0.0
 10
696.0367552345
 20
1001.8351541887
 30
0.0
 10
695.9045437372
 20
1001.9115268008
 30
0.0
  0
SPLINE
  5
3B2
100
AcDbEntity
  8
0
100
AcDbSpline
 62
7
  6
CONTINUOUS
 70
0
 71
3
 72
9
 73
5
 74
0
 42
0.0000001
 43
0.0000001
 44
0.0000000001
 40
0.0
 40
0.0
 40
0.0
 40
0.0
 40
0.449208309
 40
1.0
 40
1.0
 40
1.0
 40
1.0
 10
641.5716744981
 20
1010.0357126015
 30
0.0
 10
641.5716751289
 20
1010.1602375433
 30
0.0
 10
641.4630341806
 20
1010.4381623019
 30
0.0
 10
641.2359150582
 20
1010.6122328121
 30
0.0
 10
641.1037049203
 20
1010.6886078268
 30
0.0
  0
SPLINE
  5
3B3
100
AcDbEntity
  8
0
100
AcDbSpline
 62
7
  6
CONTINUOUS
 70
0
 71
3
 72
9
 73
5
 74
0
 42
0.0000001
 43
0.0000001
 44
0.0000000001
 40
0.0
 40
0.0
 40
0.0
 40
0.0
 40
0.449208309
 40
1.0
 40
1.0
 40
1.0
 40
1.0
 10
651.471128219
 20
1015.7511307557
 30
0.0
 10
651.4711288499
 20
1015.8756556974
 30
0.0
 10
651.3624879017
 20
1016.1535804559
 30
0.0
 10
651.1353687793
 20
1016.3276509662
 30
0.0
 10
651.0031586415
 20
1016.4040259808
 30
0.0
  0
SPLINE
  5
3B4
100
AcDbEntity
  8
0
100
AcDbSpline
 62
7
  6
CONTINUOUS
 70
0
 71
3
 72
9
 73
5
 74
0
 42
0.0000001
 43
0.0000001
 44
0.0000000001
 40
0.0
 40
0.0
 40
0.0
 40
0.0
 40
0.4492083003
 40
1.0
 40
1.0
 40
1.0
 40
1.0
 10
661.3705819398
 20
1021.4665489099
 30
0.0
 10
661.3705825705
 20
1021.591073869
 30
0.0
 10
661.2619415911
 20
1021.8689986727
 30
0.0
 10
661.0348224103
 20
1022.0430691816
 30
0.0
 10
660.9026122454
 20
1022.1194442026
 30
0.0
  0
SPLINE
  5
3B5
100
AcDbEntity
  8
0
100
AcDbSpline
 62
7
  6
CONTINUOUS
 70
0
 71
3
 72
11
 73
7
 74
0
 42
0.0000001
 43
0.0000001
 44
0.0000000001
 40
0.0
 40
0.0
 40
0.0
 40
0.0
 40
0.2951791899
 40
0.5553323091
 40
0.7858489103
 40
1.0
 40
1.0
 40
1.0
 40
1.0
 10
754.8204287696
 20
1031.5288697757
 30
0.0
 10
755.1156234614
 20
1031.3773328984
 30
0.0
 10
755.650761636
 20
1031.0480751238
 30
0.0
 10
756.2965501282
 20
1030.433300356
 30
0.0
 10
756.7077260792
 20
1029.7416575285
 30
0.0
 10
756.8034906067
 20
1029.2378335721
 30
0.0
 10
756.8034913257
 20
1028.9971010413
 30
0.0
  0
SPLINE
  5
3B6
100
AcDbEntity
  8
0
100
AcDbSpline
 62
7
  6
CONTINUOUS
 70
0
 71
3
 72
9
 73
5
 74
0
 42
0.0000001
 43
0.0000001
 44
0.0000000001
 40
0.0
 40
0.0
 40
0.0
 40
0.0
 40
0.255197949
 40
1.0
 40
1.0
 40
1.0
 40
1.0
 10
707.8683430745
 20
1058.6360558477
 30
0.0
 10
711.7512769129
 20
1056.1458182855
 30
0.0
 10
727.0760118344
 20
1046.5599533631
 30
0.0
 10
742.8435935307
 20
1037.6771248303
 30
0.0
 10
754.8204287853
 20
1031.5288697675
 30
0.0
  0
SPLINE
  5
3B7
100
AcDbEntity
  8
0
100
AcDbSpline
 62
7
  6
CONTINUOUS
 70
0
 71
3
 72
11
 73
7
 74
0
 42
0.0000001
 43
0.0000001
 44
0.0000000001
 40
0.0
 40
0.0
 40
0.0
 40
0.0
 40
0.2353893321
 40
0.4963145677
 40
0.7593171297
 40
1.0
 40
1.0
 40
1.0
 40
1.0
 10
698.293217869
 20
1058.973754051
 30
0.0
 10
698.9705931441
 20
1059.364834514
 30
0.0
 10
700.5573803457
 20
1059.917835786
 30
0.0
 10
703.0943312636
 20
1060.1127293565
 30
0.0
 10
705.626555217
 20
1059.7261158856
 30
0.0
 10
707.1951395558
 20
1059.0678006982
 30
0.0
 10
707.8683430746
 20
1058.6360558476
 30
0.0
  0
SPLINE
  5
3B8
100
AcDbEntity
  8
0
100
AcDbSpline
 62
7
  6
CONTINUOUS
 70
0
 71
3
 72
9
 73
5
 74
0
 42
0.0000001
 43
0.0000001
 44
0.0000000001
 40
0.0
 40
0.0
 40
0.0
 40
0.0
 40
0.4492024863
 40
1.0
 40
1.0
 40
1.0
 40
1.0
 10
706.2719669949
 20
1006.9740497152
 30
0.0
 10
706.2719675508
 20
1007.0985871261
 30
0.0
 10
706.1633030309
 20
1007.3765429998
 30
0.0
 10
705.9361448479
 20
1007.5506153453
 30
0.0
 10
705.8039151398
 20
1007.6269942311
 30
0.0
  0
SPLINE
  5
3B9
100
AcDbEntity
  8
0
100
AcDbSpline
 62
7
  6
CONTINUOUS
 70
0
 71
3
 72
9
 73
5
 74
0
 42
0.0000001
 43
0.0000001
 44
0.0000000001
 40
0.0
 40
0.0
 40
0.0
 40
0.0
 40
0.557890454
 40
1.0
 40
1.0
 40
1.0
 40
1.0
 10
739.9919925447
 20
1025.4814869821
 30
0.0
 10
740.1233746555
 20
1025.5573400283
 30
0.0
 10
740.3475510257
 20
1025.7243878558
 30
0.0
 10
740.4605423948
 20
1025.9953998427
 30
0.0
 10
740.460542739
 20
1026.1156223884
 30
0.0
  0
SPLINE
  5
3BA
100
AcDbEntity
  8
0
100
AcDbSpline
 62
7
  6
CONTINUOUS
 70
0
 71
3
 72
9
 73
5
 74
0
 42
0.0000001
 43
0.0000001
 44
0.0000000001
 40
0.0
 40
0.0
 40
0.0
 40
0.0
 40
0.449208307
 40
1.0
 40
1.0
 40
1.0
 40
1.0
 10
671.2700356628
 20
1027.1819670641
 30
0.0
 10
671.2700362936
 20
1027.3064920093
 30
0.0
 10
671.1613953378
 20
1027.584416777
 30
0.0
 10
670.9342762031
 20
1027.7584872863
 30
0.0
 10
670.8020660596
 20
1027.8348623021
 30
0.0
  0
SPLINE
  5
3BB
100
AcDbEntity
  8
0
100
AcDbSpline
 62
7
  6
CONTINUOUS
 70
0
 71
3
 72
9
 73
5
 74
0
 42
0.0000001
 43
0.0000001
 44
0.0000000001
 40
0.0
 40
0.0
 40
0.0
 40
0.0
 40
0.4532709683
 40
1.0
 40
1.0
 40
1.0
 40
1.0
 10
670.6511757935
 20
1033.9537203153
 30
0.0
 10
670.6511751984
 20
1033.8226075761
 30
0.0
 10
670.7579402447
 20
1033.5323537481
 30
0.0
 10
670.9860473556
 20
1033.3404570284
 30
0.0
 10
671.1197355185
 20
1033.2559718973
 30
0.0
  0
SPLINE
  5
3BC
100
AcDbEntity
  8
0
100
AcDbSpline
 62
7
  6
CONTINUOUS
 70
0
 71
3
 72
11
 73
7
 74
0
 42
0.0000001
 43
0.0000001
 44
0.0000000001
 40
0.0
 40
0.0
 40
0.0
 40
0.0
 40
0.2177727715
 40
0.4509280232
 40
0.7102223042
 40
1.0
 40
1.0
 40
1.0
 40
1.0
 10
756.8034723479
 20
1013.2403184106
 30
0.0
 10
756.8034723511
 20
1012.9824476893
 30
0.0
 10
756.7082394791
 20
1012.4449012839
 30
0.0
 10
756.3007248382
 20
1011.6960960959
 30
0.0
 10
755.6566894329
 20
1011.0189662648
 30
0.0
 10
755.1176317805
 20
1010.647835043
 30
0.0
 10
754.8204688097
 20
1010.4762689459
 30
0.0
  0
SPLINE
  5
3BD
100
AcDbEntity
  8
0
100
AcDbSpline
 62
7
  6
CONTINUOUS
 70
0
 71
3
 72
9
 73
5
 74
0
 42
0.0000001
 43
0.0000001
 44
0.0000000001
 40
0.0
 40
0.0
 40
0.0
 40
0.0
 40
0.5508343685
 40
1.0
 40
1.0
 40
1.0
 40
1.0
 10
658.9223631231
 20
1027.8352011042
 30
0.0
 10
658.790007498
 20
1027.7587759295
 30
0.0
 10
658.5625703391
 20
1027.5847033688
 30
0.0
 10
658.4537404476
 20
1027.306524167
 30
0.0
 10
658.4537397649
 20
1027.1818975151
 30
0.0
  0
SPLINE
  5
3BE
100
AcDbEntity
  8
0
100
AcDbSpline
 62
7
  6
CONTINUOUS
 70
0
 71
3
 72
9
 73
5
 74
0
 42
0.0000001
 43
0.0000001
 44
0.0000000001
 40
0.0
 40
0.0
 40
0.0
 40
0.0
 40
0.4999533598
 40
1.0
 40
1.0
 40
1.0
 40
1.0
 10
665.9936026187
 20
1030.6109516867
 30
0.0
 10
665.6578711633
 20
1030.8048363051
 30
0.0
 10
664.8624081838
 20
1030.9582121554
 30
0.0
 10
664.0668310847
 20
1030.805240514
 30
0.0
 10
663.7309636322
 20
1030.6114468017
 30
0.0
  0
SPLINE
  5
3BF
100
AcDbEntity
  8
0
100
AcDbSpline
 62
7
  6
CONTINUOUS
 70
0
 71
3
 72
11
 73
7
 74
0
 42
0.0000001
 43
0.0000001
 44
0.0000000001
 40
0.0
 40
0.0
 40
0.0
 40
0.0
 40
0.2240691911
 40
0.4594162974
 40
0.7163789191
 40
1.0
 40
1.0
 40
1.0
 40
1.0
 10
616.8317239293
 20
1010.2176445589
 30
0.0
 10
616.8317232132
 20
1010.4898958962
 30
0.0
 10
616.9242417518
 20
1011.0518801737
 30
0.0
 10
617.3291347245
 20
1011.8357749389
 30
0.0
 10
617.9734934841
 20
1012.5363265847
 30
0.0
 10
618.5163059369
 20
1012.9148073913
 30
0.0
 10
618.8147463643
 20
1013.0871110394
 30
0.0
  0
SPLINE
  5
3C0
100
AcDbEntity
  8
0
100
AcDbSpline
 62
7
  6
CONTINUOUS
 70
0
 71
3
 72
9
 73
5
 74
0
 42
0.0000001
 43
0.0000001
 44
0.0000000001
 40
0.0
 40
0.0
 40
0.0
 40
0.0
 40
0.4999570697
 40
1.0
 40
1.0
 40
1.0
 40
1.0
 10
671.2971078554
 20
993.2568174031
 30
0.0
 10
670.9613784852
 20
993.4506874073
 30
0.0
 10
670.1659364147
 20
993.6040327276
 30
0.0
 10
669.3703884712
 20
993.4510612861
 30
0.0
 10
669.0345338958
 20
993.2572750097
 30
0.0
  0
SPLINE
  5
3C1
100
AcDbEntity
  8
0
100
AcDbSpline
 62
7
  6
CONTINUOUS
 70
0
 71
3
 72
9
 73
5
 74
0
 42
0.0000001
 43
0.0000001
 44
0.0000000001
 40
0.0
 40
0.0
 40
0.0
 40
0.0
 40
0.5508343587
 40
1.0
 40
1.0
 40
1.0
 40
1.0
 10
664.2259323731
 20
990.4810287268
 30
0.0
 10
664.0935770154
 20
990.4046035085
 30
0.0
 10
663.8661402325
 20
990.2305311008
 30
0.0
 10
663.7573107141
 20
989.9523521894
 30
0.0
 10
663.7573100835
 20
989.8277257037
 30
0.0
  0
SPLINE
  5
3C2
100
AcDbEntity
  8
0
100
AcDbSpline
 62
7
  6
CONTINUOUS
 70
0
 71
3
 72
9
 73
5
 74
0
 42
0.0000001
 43
0.0000001
 44
0.0000000001
 40
0.0
 40
0.0
 40
0.0
 40
0.0
 40
0.4999904795
 40
1.0
 40
1.0
 40
1.0
 40
1.0
 10
700.9952849403
 20
1010.4031871626
 30
0.0
 10
700.6594982009
 20
1010.5970987202
 30
0.0
 10
699.8639030873
 20
1010.7503725427
 30
0.0
 10
699.0683157647
 20
1010.5971515948
 30
0.0
 10
698.7324868201
 20
1010.4032836023
 30
0.0
  0
SPLINE
  5
3C3
100
AcDbEntity
  8
0
100
AcDbSpline
 62
7
  6
CONTINUOUS
 70
0
 71
3
 72
9
 73
5
 74
0
 42
0.0000001
 43
0.0000001
 44
0.0000000001
 40
0.0
 40
0.0
 40
0.0
 40
0.0
 40
0.5508325114
 40
1.0
 40
1.0
 40
1.0
 40
1.0
 10
693.9242639387
 20
1007.6272641265
 30
0.0
 10
693.7919152739
 20
1007.5508410698
 30
0.0
 10
693.5644923391
 20
1007.3767695211
 30
0.0
 10
693.4556718543
 20
1007.0986019749
 30
0.0
 10
693.4556712393
 20
1006.9739801663
 30
0.0
  0
SPLINE
  5
3C4
100
AcDbEntity
  8
0
100
AcDbSpline
 62
7
  6
CONTINUOUS
 70
0
 71
3
 72
9
 73
5
 74
0
 42
0.0000001
 43
0.0000001
 44
0.0000000001
 40
0.0
 40
0.0
 40
0.0
 40
0.0
 40
0.4999533642
 40
1.0
 40
1.0
 40
1.0
 40
1.0
 10
656.0941487986
 20
1024.8955335907
 30
0.0
 10
655.7584173447
 20
1025.0894181733
 30
0.0
 10
654.9629544165
 20
1025.2427939893
 30
0.0
 10
654.1673773663
 20
1025.089822357
 30
0.0
 10
653.8315099342
 20
1024.8960286617
 30
0.0
  0
SPLINE
  5
3C5
100
AcDbEntity
  8
0
100
AcDbSpline
 62
7
  6
CONTINUOUS
 70
0
 71
3
 72
9
 73
5
 74
0
 42
0.0000001
 43
0.0000001
 44
0.0000000001
 40
0.0
 40
0.0
 40
0.0
 40
0.0
 40
0.5508343675
 40
1.0
 40
1.0
 40
1.0
 40
1.0
 10
649.0229093922
 20
1022.1197829452
 30
0.0
 10
648.8905537697
 20
1022.0433577707
 30
0.0
 10
648.6631166159
 20
1021.8692852095
 30
0.0
 10
648.5542867283
 20
1021.5911060113
 30
0.0
 10
648.5542860456
 20
1021.4664793609
 30
0.0
  0
SPLINE
  5
3C6
100
AcDbEntity
  8
0
100
AcDbSpline
 62
7
  6
CONTINUOUS
 70
0
 71
3
 72
9
 73
5
 74
0
 42
0.0000001
 43
0.0000001
 44
0.0000000001
 40
0.0
 40
0.0
 40
0.0
 40
0.0
 40
0.5508343676
 40
1.0
 40
1.0
 40
1.0
 40
1.0
 10
639.1234556713
 20
1016.404364791
 30
0.0
 10
638.9911000489
 20
1016.3279396165
 30
0.0
 10
638.763662895
 20
1016.1538670554
 30
0.0
 10
638.6548330074
 20
1015.8756878571
 30
0.0
 10
638.6548323247
 20
1015.7510612067
 30
0.0
  0
SPLINE
  5
3C7
100
AcDbEntity
  8
0
100
AcDbSpline
 62
7
  6
CONTINUOUS
 70
0
 71
3
 72
9
 73
5
 74
0
 42
0.0000001
 43
0.0000001
 44
0.0000000001
 40
0.0
 40
0.0
 40
0.0
 40
0.0
 40
0.4999533589
 40
1.0
 40
1.0
 40
1.0
 40
1.0
 10
646.1946951687
 20
1019.1801153838
 30
0.0
 10
645.8589637174
 20
1019.3739999962
 30
0.0
 10
645.0635007517
 20
1019.5273758413
 30
0.0
 10
644.2679236633
 20
1019.3744042132
 30
0.0
 10
643.9320562129
 20
1019.1806105074
 30
0.0
  0
SPLINE
  5
3C8
100
AcDbEntity
  8
0
100
AcDbSpline
 62
7
  6
CONTINUOUS
 70
0
 71
3
 72
9
 73
5
 74
0
 42
0.0000001
 43
0.0000001
 44
0.0000000001
 40
0.0
 40
0.0
 40
0.0
 40
0.0
 40
0.4999570765
 40
1.0
 40
1.0
 40
1.0
 40
1.0
 10
681.1965615764
 20
998.9722355574
 30
0.0
 10
680.8608321828
 20
999.166105575
 30
0.0
 10
680.0653900603
 20
999.3194508939
 30
0.0
 10
679.2698420754
 20
999.1664794023
 30
0.0
 10
678.9339874985
 20
998.9726930956
 30
0.0
  0
SPLINE
  5
3C9
100
AcDbEntity
  8
0
100
AcDbSpline
 62
7
  6
CONTINUOUS
 70
0
 71
3
 72
9
 73
5
 74
0
 42
0.0000001
 43
0.0000001
 44
0.0000000001
 40
0.0
 40
0.0
 40
0.0
 40
0.0
 40
0.5508343587
 40
1.0
 40
1.0
 40
1.0
 40
1.0
 10
674.1253860938
 20
996.1964468809
 30
0.0
 10
673.9930307362
 20
996.1200216626
 30
0.0
 10
673.7655939534
 20
995.9459492549
 30
0.0
 10
673.6567644351
 20
995.6677703436
 30
0.0
 10
673.6567638044
 20
995.5431438579
 30
0.0
  0
SPLINE
  5
3CA
100
AcDbEntity
  8
0
100
AcDbSpline
 62
7
  6
CONTINUOUS
 70
0
 71
3
 72
9
 73
5
 74
0
 42
0.0000001
 43
0.0000001
 44
0.0000000001
 40
0.0
 40
0.0
 40
0.0
 40
0.0
 40
0.5508549071
 40
1.0
 40
1.0
 40
1.0
 40
1.0
 10
629.2242780044
 20
1010.6891060169
 30
0.0
 10
629.0918620884
 20
1010.6126591536
 30
0.0
 10
628.8642805021
 20
1010.4386001426
 30
0.0
 10
628.7553805311
 20
1010.1603107734
 30
0.0
 10
628.7553792873
 20
1010.0356430521
 30
0.0
  0
SPLINE
  5
3CB
100
AcDbEntity
  8
0
100
AcDbSpline
 62
7
  6
CONTINUOUS
 70
0
 71
3
 72
9
 73
5
 74
0
 42
0.0000001
 43
0.0000001
 44
0.0000000001
 40
0.0
 40
0.0
 40
0.0
 40
0.0
 40
0.4999492977
 40
1.0
 40
1.0
 40
1.0
 40
1.0
 10
636.2953136036
 20
1013.4646555717
 30
0.0
 10
635.9595739515
 20
1013.6585462804
 30
0.0
 10
635.1640965542
 20
1013.8119710481
 30
0.0
 10
634.3684841883
 20
1013.6589942789
 30
0.0
 10
634.0326024883
 20
1013.4651923511
 30
0.0
  0
SPLINE
  5
3CC
100
AcDbEntity
  8
0
100
AcDbSpline
 62
7
  6
CONTINUOUS
 70
0
 71
3
 72
9
 73
5
 74
0
 42
0.0000001
 43
0.0000001
 44
0.0000000001
 40
0.0
 40
0.0
 40
0.0
 40
0.0
 40
0.4999570697
 40
1.0
 40
1.0
 40
1.0
 40
1.0
 10
691.0960152974
 20
1004.6876537116
 30
0.0
 10
690.7602859272
 20
1004.8815237157
 30
0.0
 10
689.9648438567
 20
1005.0348690361
 30
0.0
 10
689.1692959132
 20
1004.8818975945
 30
0.0
 10
688.8334413378
 20
1004.6881113181
 30
0.0
  0
SPLINE
  5
3CD
100
AcDbEntity
  8
0
100
AcDbSpline
 62
7
  6
CONTINUOUS
 70
0
 71
3
 72
9
 73
5
 74
0
 42
0.0000001
 43
0.0000001
 44
0.0000000001
 40
0.0
 40
0.0
 40
0.0
 40
0.0
 40
0.5508343587
 40
1.0
 40
1.0
 40
1.0
 40
1.0
 10
684.0248398148
 20
1001.9118650351
 30
0.0
 10
683.8924844572
 20
1001.8354398168
 30
0.0
 10
683.6650476744
 20
1001.6613674091
 30
0.0
 10
683.556218156
 20
1001.3831884978
 30
0.0
 10
683.5562175254
 20
1001.2585620121
 30
0.0
  0
SPLINE
  5
3CE
100
AcDbEntity
  8
0
100
AcDbSpline
 62
7
  6
CONTINUOUS
 70
0
 71
3
 72
9
 73
5
 74
0
 42
0.0000001
 43
0.0000001
 44
0.0000000001
 40
0.0
 40
0.0
 40
0.0
 40
0.0
 40
0.4978290917
 40
1.0
 40
1.0
 40
1.0
 40
1.0
 10
656.0937989487
 20
1017.2773219736
 30
0.0
 10
655.7586643191
 20
1017.0839106299
 30
0.0
 10
654.9562447708
 20
1016.9390343899
 30
0.0
 10
654.1627128848
 20
1017.1169831984
 30
0.0
 10
653.8307721163
 20
1017.3223158652
 30
0.0
  0
SPLINE
  5
3CF
100
AcDbEntity
  8
0
100
AcDbSpline
 62
7
  6
CONTINUOUS
 70
0
 71
3
 72
9
 73
5
 74
0
 42
0.0000001
 43
0.0000001
 44
0.0000000001
 40
0.0
 40
0.0
 40
0.0
 40
0.0
 40
0.4492083199
 40
1.0
 40
1.0
 40
1.0
 40
1.0
 10
693.4556712393
 20
1006.9739801663
 30
0.0
 10
693.4556706247
 20
1006.8494552214
 30
0.0
 10
693.5643115405
 20
1006.5715304473
 30
0.0
 10
693.7914307048
 20
1006.3974599913
 30
0.0
 10
693.9236408198
 20
1006.3210849429
 30
0.0
  0
SPLINE
  5
3D0
100
AcDbEntity
  8
0
100
AcDbSpline
 62
7
  6
CONTINUOUS
 70
0
 71
3
 72
9
 73
5
 74
0
 42
0.0000001
 43
0.0000001
 44
0.0000000001
 40
0.0
 40
0.0
 40
0.0
 40
0.0
 40
0.4492083089
 40
1.0
 40
1.0
 40
1.0
 40
1.0
 10
683.5562175254
 20
1001.2585620121
 30
0.0
 10
683.5562168953
 20
1001.1340370701
 30
0.0
 10
683.6648578235
 20
1000.8561122917
 30
0.0
 10
683.8919769838
 20
1000.6820418373
 30
0.0
 10
684.0241871015
 20
1000.6056667871
 30
0.0
  0
SPLINE
  5
3D1
100
AcDbEntity
  8
0
100
AcDbSpline
 62
7
  6
CONTINUOUS
 70
0
 71
3
 72
9
 73
5
 74
0
 42
0.0000001
 43
0.0000001
 44
0.0000000001
 40
0.0
 40
0.0
 40
0.0
 40
0.0
 40
0.5466694483
 40
1.0
 40
1.0
 40
1.0
 40
1.0
 10
639.1234069273
 20
1014.6118921876
 30
0.0
 10
638.9897300439
 20
1014.6963289179
 30
0.0
 10
638.7613198372
 20
1014.8878900768
 30
0.0
 10
638.6547919771
 20
1015.1782750833
 30
0.0
 10
638.6548541324
 20
1015.3093899894
 30
0.0
  0
SPLINE
  5
3D2
100
AcDbEntity
  8
0
100
AcDbSpline
 62
7
  6
CONTINUOUS
 70
0
 71
3
 72
9
 73
5
 74
0
 42
0.0000001
 43
0.0000001
 44
0.0000000001
 40
0.0
 40
0.0
 40
0.0
 40
0.0
 40
0.449208311
 40
1.0
 40
1.0
 40
1.0
 40
1.0
 10
658.4537397649
 20
1027.1818975151
 30
0.0
 10
658.4537390828
 20
1027.0573725875
 30
0.0
 10
658.5623813707
 20
1026.7794491361
 30
0.0
 10
658.7894979898
 20
1026.6053749135
 30
0.0
 10
658.9217094717
 20
1026.5290022627
 30
0.0
  0
SPLINE
  5
3D3
100
AcDbEntity
  8
0
100
AcDbSpline
 62
7
  6
CONTINUOUS
 70
0
 71
3
 72
9
 73
5
 74
0
 42
0.0000001
 43
0.0000001
 44
0.0000000001
 40
0.0
 40
0.0
 40
0.0
 40
0.0
 40
0.4978290917
 40
1.0
 40
1.0
 40
1.0
 40
1.0
 10
646.1943452277
 20
1011.5619038194
 30
0.0
 10
645.8592105981
 20
1011.3684924757
 30
0.0
 10
645.0567910498
 20
1011.2236162357
 30
0.0
 10
644.2632591637
 20
1011.4015650443
 30
0.0
 10
643.9313183952
 20
1011.6068977111
 30
0.0
  0
SPLINE
  5
3D4
100
AcDbEntity
  8
0
100
AcDbSpline
 62
7
  6
CONTINUOUS
 70
0
 71
3
 72
9
 73
5
 74
0
 42
0.0000001
 43
0.0000001
 44
0.0000000001
 40
0.0
 40
0.0
 40
0.0
 40
0.0
 40
0.2455782248
 40
1.0
 40
1.0
 40
1.0
 40
1.0
 10
739.9917937752
 20
1026.7243968988
 30
0.0
 10
736.6327472978
 20
1028.4802301899
 30
0.0
 10
723.0321506548
 20
1035.7777036819
 30
0.0
 10
709.7420908419
 20
1043.6510539259
 30
0.0
 10
699.8990720409
 20
1049.8714147434
 30
0.0
  0
SPLINE
  5
3D5
100
AcDbEntity
  8
0
100
AcDbSpline
 62
7
  6
CONTINUOUS
 70
0
 71
3
 72
9
 73
5
 74
0
 42
0.0000001
 43
0.0000001
 44
0.0000000001
 40
0.0
 40
0.0
 40
0.0
 40
0.0
 40
0.5031083427
 40
1.0
 40
1.0
 40
1.0
 40
1.0
 10
699.8990161261
 20
1049.8714403477
 30
0.0
 10
699.5682123051
 20
1050.0805486264
 30
0.0
 10
698.7765228577
 20
1050.2685570356
 30
0.0
 10
697.9708545409
 20
1050.1283842194
 30
0.0
 10
697.6361200082
 20
1049.9351263057
 30
0.0
  0
SPLINE
  5
3D6
100
AcDbEntity
  8
0
100
AcDbSpline
 62
7
  6
CONTINUOUS
 70
0
 71
3
 72
9
 73
5
 74
0
 42
0.0000001
 43
0.0000001
 44
0.0000000001
 40
0.0
 40
0.0
 40
0.0
 40
0.0
 40
0.5000004817
 40
1.0
 40
1.0
 40
1.0
 40
1.0
 10
699.8988616658
 20
1048.5534704779
 30
0.0
 10
699.5630780456
 20
1048.7473837905
 30
0.0
 10
698.7674783145
 20
1048.9005891101
 30
0.0
 10
697.9719244942
 20
1048.7473406841
 30
0.0
 10
697.6361199933
 20
1048.5534650275
 30
0.0
  0
SPLINE
  5
3D7
100
AcDbEntity
  8
0
100
AcDbSpline
 62
7
  6
CONTINUOUS
 70
0
 71
3
 72
9
 73
5
 74
0
 42
0.0000001
 43
0.0000001
 44
0.0000000001
 40
0.0
 40
0.0
 40
0.0
 40
0.0
 40
0.4538697985
 40
1.0
 40
1.0
 40
1.0
 40
1.0
 10
671.2700190262
 20
1026.434798318
 30
0.0
 10
671.2699907082
 20
1026.3072168279
 30
0.0
 10
671.1639838646
 20
1026.0243914375
 30
0.0
 10
670.9345223357
 20
1025.8455863238
 30
0.0
 10
670.8015783153
 20
1025.7688208688
 30
0.0
  0
SPLINE
  5
3D8
100
AcDbEntity
  8
0
100
AcDbSpline
 62
7
  6
CONTINUOUS
 70
0
 71
3
 72
9
 73
5
 74
0
 42
0.0000001
 43
0.0000001
 44
0.0000000001
 40
0.0
 40
0.0
 40
0.0
 40
0.0
 40
0.4492077965
 40
1.0
 40
1.0
 40
1.0
 40
1.0
 10
628.7553792873
 20
1010.0356430521
 30
0.0
 10
628.7553780449
 20
1009.9111182945
 30
0.0
 10
628.8640200528
 20
1009.6331945265
 30
0.0
 10
629.0911367419
 20
1009.4591205003
 30
0.0
 10
629.2233483176
 20
1009.382747794
 30
0.0
  0
SPLINE
  5
3D9
100
AcDbEntity
  8
0
100
AcDbSpline
 62
7
  6
CONTINUOUS
 70
0
 71
3
 72
9
 73
5
 74
0
 42
0.0000001
 43
0.0000001
 44
0.0000000001
 40
0.0
 40
0.0
 40
0.0
 40
0.0
 40
0.4492083089
 40
1.0
 40
1.0
 40
1.0
 40
1.0
 10
673.6567638044
 20
995.5431438579
 30
0.0
 10
673.6567631743
 20
995.4186189159
 30
0.0
 10
673.7654041025
 20
995.1406941375
 30
0.0
 10
673.9925232628
 20
994.9666236831
 30
0.0
 10
674.1247333805
 20
994.8902486329
 30
0.0
  0
SPLINE
  5
3DA
100
AcDbEntity
  8
0
100
AcDbSpline
 62
7
  6
CONTINUOUS
 70
0
 71
3
 72
9
 73
5
 74
0
 42
0.0000001
 43
0.0000001
 44
0.0000000001
 40
0.0
 40
0.0
 40
0.0
 40
0.0
 40
0.4538697989
 40
1.0
 40
1.0
 40
1.0
 40
1.0
 10
641.5716578617
 20
1009.2885438554
 30
0.0
 10
641.5716295437
 20
1009.1609623657
 30
0.0
 10
641.4656227016
 20
1008.8781369758
 30
0.0
 10
641.2361611738
 20
1008.6993318622
 30
0.0
 10
641.1032171545
 20
1008.6225664065
 30
0.0
  0
SPLINE
  5
3DB
100
AcDbEntity
  8
0
100
AcDbSpline
 62
7
  6
CONTINUOUS
 70
0
 71
3
 72
9
 73
5
 74
0
 42
0.0000001
 43
0.0000001
 44
0.0000000001
 40
0.0
 40
0.0
 40
0.0
 40
0.0
 40
0.5441657824
 40
1.0
 40
1.0
 40
1.0
 40
1.0
 10
671.1197260831
 20
1034.6259520136
 30
0.0
 10
670.9863917902
 20
1034.5489718811
 30
0.0
 10
670.7559710808
 20
1034.3677799744
 30
0.0
 10
670.6511763788
 20
1034.0826895963
 30
0.0
 10
670.6511757935
 20
1033.9537203153
 30
0.0
  0
SPLINE
  5
3DC
100
AcDbEntity
  8
0
100
AcDbSpline
 62
7
  6
CONTINUOUS
 70
0
 71
3
 72
9
 73
5
 74
0
 42
0.0000001
 43
0.0000001
 44
0.0000000001
 40
0.0
 40
0.0
 40
0.0
 40
0.0
 40
0.4445215422
 40
1.0
 40
1.0
 40
1.0
 40
1.0
 10
740.460542739
 20
1026.1156223884
 30
0.0
 10
740.4605430774
 20
1026.2338268199
 30
0.0
 10
740.3491552367
 20
1026.4999916889
 30
0.0
 10
740.1227536144
 20
1026.6559314329
 30
0.0
 10
739.9918418875
 20
1026.7243433468
 30
0.0
  0
SPLINE
  5
3DD
100
AcDbEntity
  8
0
100
AcDbSpline
 62
7
  6
CONTINUOUS
 70
0
 71
3
 72
9
 73
5
 74
0
 42
0.0000001
 43
0.0000001
 44
0.0000000001
 40
0.0
 40
0.0
 40
0.0
 40
0.0
 40
0.5466695288
 40
1.0
 40
1.0
 40
1.0
 40
1.0
 10
629.2239532078
 20
1008.8964740325
 30
0.0
 10
629.0902763092
 20
1008.9809107723
 30
0.0
 10
628.8618660824
 20
1009.172471902
 30
0.0
 10
628.7553382905
 20
1009.4628569538
 30
0.0
 10
628.7554005173
 20
1009.5939718322
 30
0.0
  0
SPLINE
  5
3DE
100
AcDbEntity
  8
0
100
AcDbSpline
 62
7
  6
CONTINUOUS
 70
0
 71
3
 72
11
 73
7
 74
0
 42
0.0000001
 43
0.0000001
 44
0.0000000001
 40
0.0
 40
0.0
 40
0.0
 40
0.0
 40
0.2109186321
 40
0.4417445246
 40
0.7035884863
 40
1.0
 40
1.0
 40
1.0
 40
1.0
 10
756.8034913257
 20
1028.9971010413
 30
0.0
 10
756.8034920523
 20
1028.7538199662
 30
0.0
 10
756.7053270923
 20
1028.2410127805
 30
0.0
 10
756.2956086387
 20
1027.527691753
 30
0.0
 10
755.652125648
 20
1026.873561939
 30
0.0
 10
755.1165559548
 20
1026.5094139243
 30
0.0
 10
754.8204686891
 20
1026.3384688821
 30
0.0
  0
SPLINE
  5
3DF
100
AcDbEntity
  8
0
100
AcDbSpline
 62
7
  6
CONTINUOUS
 70
0
 71
3
 72
9
 73
5
 74
0
 42
0.0000001
 43
0.0000001
 44
0.0000000001
 40
0.0
 40
0.0
 40
0.0
 40
0.0
 40
0.497829273
 40
1.0
 40
1.0
 40
1.0
 40
1.0
 10
636.2948915069
 20
1005.8464856652
 30
0.0
 10
635.9597562545
 20
1005.6530739621
 30
0.0
 10
635.1573361253
 20
1005.5081990762
 30
0.0
 10
634.3638007245
 20
1005.6861453201
 30
0.0
 10
634.0318615879
 20
1005.8914814656
 30
0.0
  0
SPLINE
  5
3E0
100
AcDbEntity
  8
0
100
AcDbSpline
 62
7
  6
CONTINUOUS
 70
0
 71
3
 72
9
 73
5
 74
0
 42
0.0000001
 43
0.0000001
 44
0.0000000001
 40
0.0
 40
0.0
 40
0.0
 40
0.0
 40
0.546669449
 40
1.0
 40
1.0
 40
1.0
 40
1.0
 10
658.9223143774
 20
1026.0427284909
 30
0.0
 10
658.7886374914
 20
1026.1271652212
 30
0.0
 10
658.5602272806
 20
1026.3187263807
 30
0.0
 10
658.4536994172
 20
1026.6091113904
 30
0.0
 10
658.4537615726
 20
1026.7402262979
 30
0.0
  0
SPLINE
  5
3E1
100
AcDbEntity
  8
0
100
AcDbSpline
 62
7
  6
CONTINUOUS
 70
0
 71
3
 72
9
 73
5
 74
0
 42
0.0000001
 43
0.0000001
 44
0.0000000001
 40
0.0
 40
0.0
 40
0.0
 40
0.0
 40
0.5508343623
 40
1.0
 40
1.0
 40
1.0
 40
1.0
 10
670.8014133125
 20
1026.5286640086
 30
0.0
 10
670.9337686862
 20
1026.6050892252
 30
0.0
 10
671.161205493
 20
1026.7791616392
 30
0.0
 10
671.2700350314
 20
1027.0573405695
 30
0.0
 10
671.2700356628
 20
1027.1819670641
 30
0.0
  0
SPLINE
  5
3E2
100
AcDbEntity
  8
0
100
AcDbSpline
 62
7
  6
CONTINUOUS
 70
0
 71
3
 72
9
 73
5
 74
0
 42
0.0000001
 43
0.0000001
 44
0.0000000001
 40
0.0
 40
0.0
 40
0.0
 40
0.0
 40
0.4999569466
 40
1.0
 40
1.0
 40
1.0
 40
1.0
 10
663.7302357648
 20
1023.7528765913
 30
0.0
 10
664.0659648854
 20
1023.5590055537
 30
0.0
 10
664.8614081279
 20
1023.4056600548
 30
0.0
 10
665.6569568715
 20
1023.5586312463
 30
0.0
 10
665.9928118705
 20
1023.7524177724
 30
0.0
  0
SPLINE
  5
3E3
100
AcDbEntity
  8
0
100
AcDbSpline
 62
7
  6
CONTINUOUS
 70
0
 71
3
 72
9
 73
5
 74
0
 42
0.0000001
 43
0.0000001
 44
0.0000000001
 40
0.0
 40
0.0
 40
0.0
 40
0.0
 40
0.4978290919
 40
1.0
 40
1.0
 40
1.0
 40
1.0
 10
665.9932526711
 20
1022.9927401296
 30
0.0
 10
665.6581180411
 20
1022.7993287824
 30
0.0
 10
664.8556984875
 20
1022.6544525429
 30
0.0
 10
664.0621665967
 20
1022.8324013535
 30
0.0
 10
663.7302258288
 20
1023.0377340247
 30
0.0
  0
SPLINE
  5
3E4
100
AcDbEntity
  8
0
100
AcDbSpline
 62
7
  6
CONTINUOUS
 70
0
 71
3
 72
9
 73
5
 74
0
 42
0.0000001
 43
0.0000001
 44
0.0000000001
 40
0.0
 40
0.0
 40
0.0
 40
0.0
 40
0.5538453282
 40
1.0
 40
1.0
 40
1.0
 40
1.0
 10
684.024666135
 20
999.890244118
 30
0.0
 10
683.8933335883
 20
999.9606889775
 30
0.0
 10
683.6665121942
 20
1000.1217309022
 30
0.0
 10
683.5562050657
 20
1000.3913388718
 30
0.0
 10
683.5562336058
 20
1000.5113933089
 30
0.0
  0
SPLINE
  5
3E5
100
AcDbEntity
  8
0
100
AcDbSpline
 62
7
  6
CONTINUOUS
 70
0
 71
3
 72
9
 73
5
 74
0
 42
0.0000001
 43
0.0000001
 44
0.0000000001
 40
0.0
 40
0.0
 40
0.0
 40
0.0
 40
0.503265969
 40
1.0
 40
1.0
 40
1.0
 40
1.0
 10
691.0957439093
 20
997.4065047182
 30
0.0
 10
690.7583774192
 20
997.2117990955
 30
0.0
 10
689.9716581902
 20
997.0461475346
 30
0.0
 10
689.1732366451
 20
997.1653696267
 30
0.0
 10
688.8326044602
 20
997.3436479429
 30
0.0
  0
SPLINE
  5
3E6
100
AcDbEntity
  8
0
100
AcDbSpline
 62
7
  6
CONTINUOUS
 70
0
 71
3
 72
9
 73
5
 74
0
 42
0.0000001
 43
0.0000001
 44
0.0000000001
 40
0.0
 40
0.0
 40
0.0
 40
0.0
 40
0.449208313
 40
1.0
 40
1.0
 40
1.0
 40
1.0
 10
638.6548323247
 20
1015.7510612067
 30
0.0
 10
638.6548316425
 20
1015.6265362826
 30
0.0
 10
638.7634739228
 20
1015.3486128403
 30
0.0
 10
638.9905905297
 20
1015.1745386168
 30
0.0
 10
639.1228020058
 20
1015.0981659671
 30
0.0
  0
SPLINE
  5
3E7
100
AcDbEntity
  8
0
100
AcDbSpline
 62
7
  6
CONTINUOUS
 70
0
 71
3
 72
9
 73
5
 74
0
 42
0.0000001
 43
0.0000001
 44
0.0000000001
 40
0.0
 40
0.0
 40
0.0
 40
0.0
 40
0.4420600047
 40
1.0
 40
1.0
 40
1.0
 40
1.0
 10
676.5735831131
 20
989.3861238963
 30
0.0
 10
676.5735202724
 20
989.2659132683
 30
0.0
 10
676.4603494645
 20
988.9950778295
 30
0.0
 10
676.2365385599
 20
988.8276076365
 30
0.0
 10
676.1051471814
 20
988.7517397352
 30
0.0
  0
SPLINE
  5
3E8
100
AcDbEntity
  8
0
100
AcDbSpline
 62
7
  6
CONTINUOUS
 70
0
 71
3
 72
9
 73
5
 74
0
 42
0.0000001
 43
0.0000001
 44
0.0000000001
 40
0.0
 40
0.0
 40
0.0
 40
0.0
 40
0.4538697989
 40
1.0
 40
1.0
 40
1.0
 40
1.0
 10
651.4711115826
 20
1015.0039620096
 30
0.0
 10
651.4710832647
 20
1014.8763805199
 30
0.0
 10
651.3650764225
 20
1014.59355513
 30
0.0
 10
651.1356148948
 20
1014.4147500164
 30
0.0
 10
651.0026708754
 20
1014.3379845607
 30
0.0
  0
SPLINE
  5
3E9
100
AcDbEntity
  8
0
100
AcDbSpline
 62
7
  6
CONTINUOUS
 70
0
 71
3
 72
9
 73
5
 74
0
 42
0.0000001
 43
0.0000001
 44
0.0000000001
 40
0.0
 40
0.0
 40
0.0
 40
0.0
 40
0.4420600047
 40
1.0
 40
1.0
 40
1.0
 40
1.0
 10
686.4730368341
 20
995.1015420505
 30
0.0
 10
686.4729739934
 20
994.9813314225
 30
0.0
 10
686.3598031855
 20
994.7104959837
 30
0.0
 10
686.1359922809
 20
994.5430257907
 30
0.0
 10
686.0046009024
 20
994.4671578894
 30
0.0
  0
SPLINE
  5
3EA
100
AcDbEntity
  8
0
100
AcDbSpline
 62
7
  6
CONTINUOUS
 70
0
 71
3
 72
9
 73
5
 74
0
 42
0.0000001
 43
0.0000001
 44
0.0000000001
 40
0.0
 40
0.0
 40
0.0
 40
0.0
 40
0.5538453282
 40
1.0
 40
1.0
 40
1.0
 40
1.0
 10
674.125212414
 20
994.1748259638
 30
0.0
 10
673.9938798673
 20
994.2452708233
 30
0.0
 10
673.7670584732
 20
994.406312748
 30
0.0
 10
673.6567513447
 20
994.6759207176
 30
0.0
 10
673.6567798849
 20
994.7959751547
 30
0.0
  0
SPLINE
  5
3EB
100
AcDbEntity
  8
0
100
AcDbSpline
 62
7
  6
CONTINUOUS
 70
0
 71
3
 72
9
 73
5
 74
0
 42
0.0000001
 43
0.0000001
 44
0.0000000001
 40
0.0
 40
0.0
 40
0.0
 40
0.0
 40
0.503265969
 40
1.0
 40
1.0
 40
1.0
 40
1.0
 10
681.1962901883
 20
991.691086564
 30
0.0
 10
680.8589236982
 20
991.4963809413
 30
0.0
 10
680.0722044692
 20
991.3307293803
 30
0.0
 10
679.2737829241
 20
991.4499514725
 30
0.0
 10
678.9331507392
 20
991.6282297887
 30
0.0
  0
SPLINE
  5
3EC
100
AcDbEntity
  8
0
100
AcDbSpline
 62
7
  6
CONTINUOUS
 70
0
 71
3
 72
9
 73
5
 74
0
 42
0.0000001
 43
0.0000001
 44
0.0000000001
 40
0.0
 40
0.0
 40
0.0
 40
0.0
 40
0.5508344803
 40
1.0
 40
1.0
 40
1.0
 40
1.0
 10
705.8033437977
 20
1006.3207461338
 30
0.0
 10
705.9356994399
 20
1006.3971713197
 30
0.0
 10
706.1631365996
 20
1006.5712438408
 30
0.0
 10
706.2719664386
 20
1006.849423103
 30
0.0
 10
706.2719669949
 20
1006.9740497152
 30
0.0
  0
SPLINE
  5
3ED
100
AcDbEntity
  8
0
100
AcDbSpline
 62
7
  6
CONTINUOUS
 70
0
 71
3
 72
9
 73
5
 74
0
 42
0.0000001
 43
0.0000001
 44
0.0000000001
 40
0.0
 40
0.0
 40
0.0
 40
0.0
 40
0.4999533597
 40
1.0
 40
1.0
 40
1.0
 40
1.0
 10
698.7321043088
 20
1003.5449955304
 30
0.0
 10
699.0678357605
 20
1003.3511109224
 30
0.0
 10
699.8632987206
 20
1003.1977350816
 30
0.0
 10
700.6588758033
 20
1003.3507067102
 30
0.0
 10
700.9947432509
 20
1003.5445004144
 30
0.0
  0
SPLINE
  5
3EE
100
AcDbEntity
  8
0
100
AcDbSpline
 62
7
  6
CONTINUOUS
 70
0
 71
3
 72
9
 73
5
 74
0
 42
0.0000001
 43
0.0000001
 44
0.0000000001
 40
0.0
 40
0.0
 40
0.0
 40
0.0
 40
0.4999533597
 40
1.0
 40
1.0
 40
1.0
 40
1.0
 10
669.0337431458
 20
986.3987410678
 30
0.0
 10
669.3694745975
 20
986.2048564598
 30
0.0
 10
670.1649375576
 20
986.051480619
 30
0.0
 10
670.9605146403
 20
986.2044522476
 30
0.0
 10
671.2963820879
 20
986.3982459518
 30
0.0
  0
SPLINE
  5
3EF
100
AcDbEntity
  8
0
100
AcDbSpline
 62
7
  6
CONTINUOUS
 70
0
 71
3
 72
9
 73
5
 74
0
 42
0.0000001
 43
0.0000001
 44
0.0000000001
 40
0.0
 40
0.0
 40
0.0
 40
0.0
 40
0.5508343666
 40
1.0
 40
1.0
 40
1.0
 40
1.0
 10
676.1049826299
 20
989.1744916684
 30
0.0
 10
676.2373382522
 20
989.2509168427
 30
0.0
 10
676.4647754058
 20
989.4249894043
 30
0.0
 10
676.5736052943
 20
989.7031686019
 30
0.0
 10
676.5736059778
 20
989.8277952527
 30
0.0
  0
SPLINE
  5
3F0
100
AcDbEntity
  8
0
100
AcDbSpline
 62
7
  6
CONTINUOUS
 70
0
 71
3
 72
9
 73
5
 74
0
 42
0.0000001
 43
0.0000001
 44
0.0000000001
 40
0.0
 40
0.0
 40
0.0
 40
0.0
 40
0.5538455057
 40
1.0
 40
1.0
 40
1.0
 40
1.0
 10
693.924120198
 20
1005.6056620888
 30
0.0
 10
693.7927875286
 20
1005.6761070007
 30
0.0
 10
693.5659657596
 20
1005.8371487026
 30
0.0
 10
693.4556586681
 20
1006.1067570061
 30
0.0
 10
693.4556873757
 20
1006.226811464
 30
0.0
  0
SPLINE
  5
3F1
100
AcDbEntity
  8
0
100
AcDbSpline
 62
7
  6
CONTINUOUS
 70
0
 71
3
 72
9
 73
5
 74
0
 42
0.0000001
 43
0.0000001
 44
0.0000000001
 40
0.0
 40
0.0
 40
0.0
 40
0.0
 40
0.4538697989
 40
1.0
 40
1.0
 40
1.0
 40
1.0
 10
661.3705653037
 20
1020.7193801638
 30
0.0
 10
661.3705369858
 20
1020.5917986741
 30
0.0
 10
661.2645301436
 20
1020.3089732842
 30
0.0
 10
661.0350686159
 20
1020.1301681707
 30
0.0
 10
660.9021245965
 20
1020.0534027149
 30
0.0
  0
SPLINE
  5
3F2
100
AcDbEntity
  8
0
100
AcDbSpline
 62
7
  6
CONTINUOUS
 70
0
 71
3
 72
9
 73
5
 74
0
 42
0.0000001
 43
0.0000001
 44
0.0000000001
 40
0.0
 40
0.0
 40
0.0
 40
0.0
 40
0.5032659689
 40
1.0
 40
1.0
 40
1.0
 40
1.0
 10
700.9951976303
 20
1003.1219228724
 30
0.0
 10
700.6578311403
 20
1002.9272172498
 30
0.0
 10
699.8711119115
 20
1002.7615656889
 30
0.0
 10
699.0726903665
 20
1002.8807877808
 30
0.0
 10
698.7320581816
 20
1003.0590660969
 30
0.0
  0
SPLINE
  5
3F3
100
AcDbEntity
  8
0
100
AcDbSpline
 62
7
  6
CONTINUOUS
 70
0
 71
3
 72
9
 73
5
 74
0
 42
0.0000001
 43
0.0000001
 44
0.0000000001
 40
0.0
 40
0.0
 40
0.0
 40
0.0
 40
0.5538453282
 40
1.0
 40
1.0
 40
1.0
 40
1.0
 10
664.2257586929
 20
988.4594078097
 30
0.0
 10
664.0944261462
 20
988.5298526691
 30
0.0
 10
663.8676047522
 20
988.6908945939
 30
0.0
 10
663.7572976237
 20
988.9605025634
 30
0.0
 10
663.7573261639
 20
989.0805570005
 30
0.0
  0
SPLINE
  5
3F4
100
AcDbEntity
  8
0
100
AcDbSpline
 62
7
  6
CONTINUOUS
 70
0
 71
3
 72
9
 73
5
 74
0
 42
0.0000001
 43
0.0000001
 44
0.0000000001
 40
0.0
 40
0.0
 40
0.0
 40
0.0
 40
0.5508343614
 40
1.0
 40
1.0
 40
1.0
 40
1.0
 10
660.9019596015
 20
1020.8132458592
 30
0.0
 10
661.0343149725
 20
1020.8896710756
 30
0.0
 10
661.2617517742
 20
1021.06374349
 30
0.0
 10
661.3705813087
 20
1021.3419224169
 30
0.0
 10
661.3705819398
 20
1021.4665489099
 30
0.0
  0
SPLINE
  5
3F5
100
AcDbEntity
  8
0
100
AcDbSpline
 62
7
  6
CONTINUOUS
 70
0
 71
3
 72
9
 73
5
 74
0
 42
0.0000001
 43
0.0000001
 44
0.0000000001
 40
0.0
 40
0.0
 40
0.0
 40
0.0
 40
0.4999569459
 40
1.0
 40
1.0
 40
1.0
 40
1.0
 10
653.8307820551
 20
1018.0374584297
 30
0.0
 10
654.1665111717
 20
1017.843587399
 30
0.0
 10
654.9619543988
 20
1017.6902419066
 30
0.0
 10
655.7575031302
 20
1017.8432130847
 30
0.0
 10
656.0933581263
 20
1018.0369996038
 30
0.0
  0
SPLINE
  5
3F6
100
AcDbEntity
  8
0
100
AcDbSpline
 62
7
  6
CONTINUOUS
 70
0
 71
3
 72
9
 73
5
 74
0
 42
0.0000001
 43
0.0000001
 44
0.0000000001
 40
0.0
 40
0.0
 40
0.0
 40
0.0
 40
0.503265969
 40
1.0
 40
1.0
 40
1.0
 40
1.0
 10
671.2968364673
 20
985.9756684098
 30
0.0
 10
670.9594699772
 20
985.7809627872
 30
0.0
 10
670.1727507484
 20
985.6153112262
 30
0.0
 10
669.3743292033
 20
985.7345333183
 30
0.0
 10
669.0336970184
 20
985.9128116344
 30
0.0
  0
SPLINE
  5
3F7
100
AcDbEntity
  8
0
100
AcDbSpline
 62
7
  6
CONTINUOUS
 70
0
 71
3
 72
9
 73
5
 74
0
 42
0.0000001
 43
0.0000001
 44
0.0000000001
 40
0.0
 40
0.0
 40
0.0
 40
0.0
 40
0.5508343613
 40
1.0
 40
1.0
 40
1.0
 40
1.0
 10
651.0025058804
 20
1015.097827705
 30
0.0
 10
651.1348612514
 20
1015.1742529213
 30
0.0
 10
651.3622980532
 20
1015.3483253358
 30
0.0
 10
651.4711275877
 20
1015.6265042626
 30
0.0
 10
651.471128219
 20
1015.7511307557
 30
0.0
  0
SPLINE
  5
3F8
100
AcDbEntity
  8
0
100
AcDbSpline
 62
7
  6
CONTINUOUS
 70
0
 71
3
 72
9
 73
5
 74
0
 42
0.0000001
 43
0.0000001
 44
0.0000000001
 40
0.0
 40
0.0
 40
0.0
 40
0.0
 40
0.4999569459
 40
1.0
 40
1.0
 40
1.0
 40
1.0
 10
643.9313283341
 20
1012.3220402755
 30
0.0
 10
644.2670574506
 20
1012.1281692449
 30
0.0
 10
645.0625006776
 20
1011.9748237524
 30
0.0
 10
645.8580494089
 20
1012.1277949303
 30
0.0
 10
646.193904405
 20
1012.3215814495
 30
0.0
  0
SPLINE
  5
3F9
100
AcDbEntity
  8
0
100
AcDbSpline
 62
7
  6
CONTINUOUS
 70
0
 71
3
 72
11
 73
7
 74
0
 42
0.0000001
 43
0.0000001
 44
0.0000000001
 40
0.0
 40
0.0
 40
0.0
 40
0.0
 40
0.2850627972
 40
0.5436567378
 40
0.7791216925
 40
1.0
 40
1.0
 40
1.0
 40
1.0
 10
618.814786522
 20
1007.2212677942
 30
0.0
 10
618.5158209238
 20
1007.4130030558
 30
0.0
 10
617.9734362495
 20
1007.8261646456
 30
0.0
 10
617.3312995855
 20
1008.5649722141
 30
0.0
 10
616.9267058873
 20
1009.3706123632
 30
0.0
 10
616.8317246532
 20
1009.9424474768
 30
0.0
 10
616.8317239293
 20
1010.2176445589
 30
0.0
  0
SPLINE
  5
3FA
100
AcDbEntity
  8
0
100
AcDbSpline
 62
7
  6
CONTINUOUS
 70
0
 71
3
 72
9
 73
5
 74
0
 42
0.0000001
 43
0.0000001
 44
0.0000000001
 40
0.0
 40
0.0
 40
0.0
 40
0.0
 40
0.2448233359
 40
1.0
 40
1.0
 40
1.0
 40
1.0
 10
665.7668721806
 20
980.1140817523
 30
0.0
 10
661.8299519519
 20
982.1350822261
 30
0.0
 10
645.8551771481
 20
990.5953450894
 30
0.0
 10
630.3051551954
 20
999.8521626642
 30
0.0
 10
618.8147864958
 20
1007.2212678106
 30
0.0
  0
SPLINE
  5
3FB
100
AcDbEntity
  8
0
100
AcDbSpline
 62
7
  6
CONTINUOUS
 70
0
 71
3
 72
9
 73
5
 74
0
 42
0.0000001
 43
0.0000001
 44
0.0000000001
 40
0.0
 40
0.0
 40
0.0
 40
0.0
 40
0.4999533597
 40
1.0
 40
1.0
 40
1.0
 40
1.0
 10
678.9331968668
 20
992.1141592221
 30
0.0
 10
679.2689283184
 20
991.9202746141
 30
0.0
 10
680.0643912785
 20
991.7668987732
 30
0.0
 10
680.8599683612
 20
991.9198704018
 30
0.0
 10
681.1958358089
 20
992.113664106
 30
0.0
  0
SPLINE
  5
3FC
100
AcDbEntity
  8
0
100
AcDbSpline
 62
7
  6
CONTINUOUS
 70
0
 71
3
 72
11
 73
7
 74
0
 42
0.0000001
 43
0.0000001
 44
0.0000000001
 40
0.0
 40
0.0
 40
0.0
 40
0.0
 40
0.2392073038
 40
0.5038950861
 40
0.7663419194
 40
1.0
 40
1.0
 40
1.0
 40
1.0
 10
675.3419973863
 20
980.4518259869
 30
0.0
 10
674.6588141905
 20
980.0573923394
 30
0.0
 10
673.0814520189
 20
979.4645620944
 30
0.0
 10
670.5623578407
 20
979.1127911228
 30
0.0
 10
668.0422838415
 20
979.276677561
 30
0.0
 10
666.4523928855
 20
979.7621727502
 30
0.0
 10
665.7668721805
 20
980.1140817525
 30
0.0
  0
SPLINE
  5
3FD
100
AcDbEntity
  8
0
100
AcDbSpline
 62
7
  6
CONTINUOUS
 70
0
 71
3
 72
9
 73
5
 74
0
 42
0.0000001
 43
0.0000001
 44
0.0000000001
 40
0.0
 40
0.0
 40
0.0
 40
0.0
 40
0.5508343613
 40
1.0
 40
1.0
 40
1.0
 40
1.0
 10
641.1030521595
 20
1009.3824095508
 30
0.0
 10
641.2354075305
 20
1009.4588347672
 30
0.0
 10
641.4628443322
 20
1009.6329071817
 30
0.0
 10
641.5716738667
 20
1009.9110861084
 30
0.0
 10
641.5716744981
 20
1010.0357126015
 30
0.0
  0
SPLINE
  5
3FE
100
AcDbEntity
  8
0
100
AcDbSpline
 62
7
  6
CONTINUOUS
 70
0
 71
3
 72
9
 73
5
 74
0
 42
0.0000001
 43
0.0000001
 44
0.0000000001
 40
0.0
 40
0.0
 40
0.0
 40
0.0
 40
0.4999493394
 40
1.0
 40
1.0
 40
1.0
 40
1.0
 10
634.0317396097
 20
1006.6067000635
 30
0.0
 10
634.3674832716
 20
1006.4128162526
 30
0.0
 10
635.1629546931
 20
1006.2593812647
 30
0.0
 10
635.9585690335
 20
1006.4123613959
 30
0.0
 10
636.2944506973
 20
1006.6061633029
 30
0.0
  0
SPLINE
  5
3FF
100
AcDbEntity
  8
0
100
AcDbSpline
 62
7
  6
CONTINUOUS
 70
0
 71
3
 72
9
 73
5
 74
0
 42
0.0000001
 43
0.0000001
 44
0.0000000001
 40
0.0
 40
0.0
 40
0.0
 40
0.0
 40
0.4492083131
 40
1.0
 40
1.0
 40
1.0
 40
1.0
 10
648.5542860456
 20
1021.4664793609
 30
0.0
 10
648.5542853634
 20
1021.341954437
 30
0.0
 10
648.6629276433
 20
1021.0640309953
 30
0.0
 10
648.8900442494
 20
1020.8899567718
 30
0.0
 10
649.0222557251
 20
1020.8135841222
 30
0.0
  0
SPLINE
  5
400
100
AcDbEntity
  8
0
100
AcDbSpline
 62
7
  6
CONTINUOUS
 70
0
 71
3
 72
9
 73
5
 74
0
 42
0.0000001
 43
0.0000001
 44
0.0000000001
 40
0.0
 40
0.0
 40
0.0
 40
0.0
 40
0.5508343666
 40
1.0
 40
1.0
 40
1.0
 40
1.0
 10
686.0044363509
 20
994.8899098226
 30
0.0
 10
686.1367919732
 20
994.9663349969
 30
0.0
 10
686.3642291268
 20
995.1404075585
 30
0.0
 10
686.4730590153
 20
995.4185867561
 30
0.0
 10
686.4730596988
 20
995.5432134069
 30
0.0
  0
SPLINE
  5
401
100
AcDbEntity
  8
0
100
AcDbSpline
 62
7
  6
CONTINUOUS
 70
0
 71
3
 72
9
 73
5
 74
0
 42
0.0000001
 43
0.0000001
 44
0.0000000001
 40
0.0
 40
0.0
 40
0.0
 40
0.0
 40
0.4492083089
 40
1.0
 40
1.0
 40
1.0
 40
1.0
 10
663.7573100835
 20
989.8277257037
 30
0.0
 10
663.7573094534
 20
989.7032007617
 30
0.0
 10
663.8659503815
 20
989.4252759833
 30
0.0
 10
664.0930695418
 20
989.2512055289
 30
0.0
 10
664.2252796595
 20
989.1748304787
 30
0.0
  0
SPLINE
  5
402
100
AcDbEntity
  8
0
100
AcDbSpline
 62
7
  6
CONTINUOUS
 70
0
 71
3
 72
9
 73
5
 74
0
 42
0.0000001
 43
0.0000001
 44
0.0000000001
 40
0.0
 40
0.0
 40
0.0
 40
0.0
 40
0.4420600047
 40
1.0
 40
1.0
 40
1.0
 40
1.0
 10
696.372490555
 20
1000.8169602047
 30
0.0
 10
696.3724277143
 20
1000.6967495767
 30
0.0
 10
696.2592569065
 20
1000.4259141379
 30
0.0
 10
696.0354460019
 20
1000.2584439449
 30
0.0
 10
695.9040546234
 20
1000.1825760436
 30
0.0
  0
SPLINE
  5
403
100
AcDbEntity
  8
0
100
AcDbSpline
 62
7
  6
CONTINUOUS
 70
0
 71
3
 72
9
 73
5
 74
0
 42
0.0000001
 43
0.0000001
 44
0.0000000001
 40
0.0
 40
0.0
 40
0.0
 40
0.0
 40
0.4420600041
 40
1.0
 40
1.0
 40
1.0
 40
1.0
 10
706.2719442737
 20
1006.5323783588
 30
0.0
 10
706.2718814369
 20
1006.4121677312
 30
0.0
 10
706.1587106249
 20
1006.1413322924
 30
0.0
 10
705.9348997232
 20
1005.9738620991
 30
0.0
 10
705.8035083449
 20
1005.8979941978
 30
0.0
  0
SPLINE
  5
404
100
AcDbEntity
  8
0
100
AcDbSpline
 62
7
  6
CONTINUOUS
 70
0
 71
3
 72
9
 73
5
 74
0
 42
0.0000001
 43
0.0000001
 44
0.0000000001
 40
0.0
 40
0.0
 40
0.0
 40
0.0
 40
0.5508343666
 40
1.0
 40
1.0
 40
1.0
 40
1.0
 10
695.9038900719
 20
1000.6053279768
 30
0.0
 10
696.0362456942
 20
1000.6817531511
 30
0.0
 10
696.2636828478
 20
1000.8558257127
 30
0.0
 10
696.3725127363
 20
1001.1340049103
 30
0.0
 10
696.3725134198
 20
1001.2586315611
 30
0.0
  0
SPLINE
  5
405
100
AcDbEntity
  8
0
100
AcDbSpline
 62
7
  6
CONTINUOUS
 70
0
 71
3
 72
9
 73
5
 74
0
 42
0.0000001
 43
0.0000001
 44
0.0000000001
 40
0.0
 40
0.0
 40
0.0
 40
0.0
 40
0.4999533597
 40
1.0
 40
1.0
 40
1.0
 40
1.0
 10
688.8326505877
 20
997.8295773763
 30
0.0
 10
689.1683820394
 20
997.6356927683
 30
0.0
 10
689.9638449995
 20
997.4823169274
 30
0.0
 10
690.7594220823
 20
997.635288556
 30
0.0
 10
691.0952895299
 20
997.8290822602
 30
0.0
  0
SPLINE
  5
406
100
AcDbEntity
  8
0
100
AcDbSpline
 62
7
  6
CONTINUOUS
 70
0
 71
3
 72
9
 73
5
 74
0
 42
0.0000001
 43
0.0000001
 44
0.0000000001
 40
0.0
 40
0.0
 40
0.0
 40
0.0
 40
0.5466694483
 40
1.0
 40
1.0
 40
1.0
 40
1.0
 10
649.0228606478
 20
1020.3273103422
 30
0.0
 10
648.8891837645
 20
1020.4117470724
 30
0.0
 10
648.660773558
 20
1020.6033082312
 30
0.0
 10
648.5542456981
 20
1020.8936932375
 30
0.0
 10
648.5543078534
 20
1021.0248081435
 30
0.0
  0
SPLINE
  5
407
100
AcDbEntity
  8
0
100
AcDbSpline
 62
7
  6
CONTINUOUS
 70
0
 71
3
 72
17
 73
13
 74
0
 42
0.0000001
 43
0.0000001
 44
0.0000000001
 40
0.0
 40
0.0
 40
0.0
 40
0.0
 40
0.0428592617
 40
0.0874882338
 40
0.1353215488
 40
0.1872861953
 40
0.3045511695
 40
0.4382217292
 40
0.5825684321
 40
0.7297238792
 40
0.8713164761
 40
1.0
 40
1.0
 40
1.0
 40
1.0
 10
347.9664008062
 20
915.2505569439
 30
0.0
 10
347.9663876632
 20
915.8910706815
 30
0.0
 10
347.7951136747
 20
917.2041168969
 30
0.0
 10
347.0420655499
 20
919.0999896221
 30
0.0
 10
345.8201799188
 20
920.8974664715
 30
0.0
 10
343.5197467636
 20
923.2059867529
 30
0.0
 10
339.6001287407
 20
925.5920206589
 30
0.0
 10
333.9642476169
 20
927.4745154351
 30
0.0
 10
327.6396353141
 20
928.3631191567
 30
0.0
 10
321.1389369923
 20
928.1832356893
 30
0.0
 10
314.9929403071
 20
926.9534200685
 30
0.0
 10
311.2219063578
 20
925.3975303271
 30
0.0
 10
309.556431857
 20
924.4359739154
 30
0.0
  0
SPLINE
  5
408
100
AcDbEntity
  8
0
100
AcDbSpline
 62
7
  6
CONTINUOUS
 70
0
 71
3
 72
15
 73
11
 74
0
 42
0.0000001
 43
0.0000001
 44
0.0000000001
 40
0.0
 40
0.0
 40
0.0
 40
0.0
 40
0.0869327083
 40
0.1864047499
 40
0.3037948446
 40
0.4376098866
 40
0.5821126063
 40
0.7294270266
 40
0.8711696688
 40
1.0
 40
1.0
 40
1.0
 40
1.0
 10
397.6920221641
 20
862.9953221952
 30
0.0
 10
397.6920805918
 20
862.4185408902
 30
0.0
 10
397.343808705
 20
861.1704494931
 30
0.0
 10
395.9834177649
 20
859.6234302775
 30
0.0
 10
393.9753771284
 20
858.3998179466
 30
0.0
 10
391.4684224653
 20
857.5623062828
 30
0.0
 10
388.6581680356
 20
857.1675831234
 30
0.0
 10
385.7688352877
 20
857.2474598706
 30
0.0
 10
383.0373158241
 20
857.7940115974
 30
0.0
 10
381.3612694134
 20
858.4855060409
 30
0.0
 10
380.6210181136
 20
858.9128806596
 30
0.0
  0
SPLINE
  5
409
100
AcDbEntity
  8
0
100
AcDbSpline
 62
7
  6
CONTINUOUS
 70
0
 71
3
 72
11
 73
7
 74
0
 42
0.0000001
 43
0.0000001
 44
0.0000000001
 40
0.0
 40
0.0
 40
0.0
 40
0.0
 40
0.2898111984
 40
0.5490481668
 40
0.7822299097
 40
1.0
 40
1.0
 40
1.0
 40
1.0
 10
309.556431857
 20
924.4359739154
 30
0.0
 10
308.5687854586
 20
923.8657594052
 30
0.0
 10
306.7772984039
 20
922.632636977
 30
0.0
 10
304.6374257611
 20
920.3820987721
 30
0.0
 10
303.2827128982
 20
917.8940391084
 30
0.0
 10
302.9665013394
 20
916.1075024841
 30
0.0
 10
302.9664525609
 20
915.2505568465
 30
0.0
  0
SPLINE
  5
40A
100
AcDbEntity
  8
0
100
AcDbSpline
 62
7
  6
CONTINUOUS
 70
0
 71
3
 72
11
 73
7
 74
0
 42
0.0000001
 43
0.0000001
 44
0.0000000001
 40
0.0
 40
0.0
 40
0.0
 40
0.0
 40
0.2177679732
 40
0.4509389806
 40
0.7102091312
 40
1.0
 40
1.0
 40
1.0
 40
1.0
 10
397.6920167559
 20
879.3253705396
 30
0.0
 10
397.6919788271
 20
879.7062359131
 30
0.0
 10
397.5514382271
 20
880.5002262166
 30
0.0
 10
396.9494076524
 20
881.6061302003
 30
0.0
 10
395.9982381381
 20
882.6062993972
 30
0.0
 10
395.2020248611
 20
883.154401457
 30
0.0
 10
394.7630948579
 20
883.4078120796
 30
0.0
  0
SPLINE
  5
40B
100
AcDbEntity
  8
0
100
AcDbSpline
 62
7
  6
CONTINUOUS
 70
0
 71
3
 72
15
 73
11
 74
0
 42
0.0000001
 43
0.0000001
 44
0.0000000001
 40
0.0
 40
0.0
 40
0.0
 40
0.0
 40
0.1288285069
 40
0.270569037
 40
0.417882836
 40
0.5623878015
 40
0.696204985
 40
0.8135955415
 40
0.9130670894
 40
1.0
 40
1.0
 40
1.0
 40
1.0
 10
380.6210181136
 20
875.2429290022
 30
0.0
 10
381.3612589188
 20
874.8155604424
 30
0.0
 10
383.0372792047
 20
874.124073967
 30
0.0
 10
385.7687655471
 20
873.5775110822
 30
0.0
 10
388.6580948458
 20
873.4976294928
 30
0.0
 10
391.4683763572
 20
873.8923388703
 30
0.0
 10
393.9753640034
 20
874.7298583236
 30
0.0
 10
395.9834146639
 20
875.9534787326
 30
0.0
 10
397.3438124748
 20
877.500495912
 30
0.0
 10
397.6920741953
 20
878.7485879023
 30
0.0
 10
397.6920167559
 20
879.3253705396
 30
0.0
  0
SPLINE
  5
40C
100
AcDbEntity
  8
0
100
AcDbSpline
 62
7
  6
CONTINUOUS
 70
0
 71
3
 72
11
 73
7
 74
0
 42
0.0000001
 43
0.0000001
 44
0.0000000001
 40
0.0
 40
0.0
 40
0.0
 40
0.0
 40
0.2177677571
 40
0.450948636
 40
0.7101877408
 40
1.0
 40
1.0
 40
1.0
 40
1.0
 10
347.9663245389
 20
873.6089337202
 30
0.0
 10
347.9663263652
 20
872.7519973747
 30
0.0
 10
347.6500799093
 20
870.9654686155
 30
0.0
 10
346.2954034892
 20
868.4774058042
 30
0.0
 10
344.1555135854
 20
866.2268635282
 30
0.0
 10
342.3640193727
 20
864.9937332111
 30
0.0
 10
341.3763694886
 20
864.4235166884
 30
0.0
  0
SPLINE
  5
40D
100
AcDbEntity
  8
0
100
AcDbSpline
 62
7
  6
CONTINUOUS
 70
0
 71
3
 72
9
 73
5
 74
0
 42
0.0000001
 43
0.0000001
 44
0.0000000001
 40
0.0
 40
0.0
 40
0.0
 40
0.0
 40
0.477492355
 40
1.0
 40
1.0
 40
1.0
 40
1.0
 10
341.3763694886
 20
864.4235166884
 30
0.0
 10
339.9169803747
 20
863.5809430201
 30
0.0
 10
336.6510533486
 20
862.1727489549
 30
0.0
 10
333.1995631185
 20
861.3615217342
 30
0.0
 10
331.3779192835
 20
861.0751127465
 30
0.0
  0
SPLINE
  5
40E
100
AcDbEntity
  8
0
100
AcDbSpline
 62
7
  6
CONTINUOUS
 70
0
 71
3
 72
9
 73
5
 74
0
 42
0.0000001
 43
0.0000001
 44
0.0000000001
 40
0.0
 40
0.0
 40
0.0
 40
0.0
 40
0.2488600951
 40
1.0
 40
1.0
 40
1.0
 40
1.0
 10
331.3779192835
 20
861.0751127465
 30
0.0
 10
330.4120882274
 20
860.9232594095
 30
0.0
 10
326.508157103
 20
860.4702062584
 30
0.0
 10
322.5338331615
 20
860.6120886338
 30
0.0
 10
319.6178386793
 20
861.0652790608
 30
0.0
  0
SPLINE
  5
40F
100
AcDbEntity
  8
0
100
AcDbSpline
 62
7
  6
CONTINUOUS
 70
0
 71
3
 72
13
 73
9
 74
0
 42
0.0000001
 43
0.0000001
 44
0.0000000001
 40
0.0
 40
0.0
 40
0.0
 40
0.0
 40
0.3070422469
 40
0.5776120798
 40
0.6966131128
 40
0.8049947922
 40
0.9048899273
 40
1.0
 40
1.0
 40
1.0
 40
1.0
 10
319.6178386793
 20
861.0652790608
 30
0.0
 10
317.3472350395
 20
861.4181658167
 30
0.0
 10
313.124786195
 20
862.4808622578
 30
0.0
 10
308.4235901168
 20
864.8991657471
 30
0.0
 10
305.6125198237
 20
867.3741727507
 30
0.0
 10
304.1120607746
 20
869.3342300818
 30
0.0
 10
303.1799797347
 20
871.4303026619
 30
0.0
 10
302.9664783235
 20
872.8971428779
 30
0.0
 10
302.9664768066
 20
873.60893361
 30
0.0
  0
SPLINE
  5
410
100
AcDbEntity
  8
0
100
AcDbSpline
 62
7
  6
CONTINUOUS
 70
0
 71
3
 72
15
 73
11
 74
0
 42
0.0000001
 43
0.0000001
 44
0.0000000001
 40
0.0
 40
0.0
 40
0.0
 40
0.0
 40
0.0876340464
 40
0.1839696989
 40
0.2941013602
 40
0.4189928719
 40
0.5565504585
 40
0.7027316216
 40
0.8523918742
 40
1.0
 40
1.0
 40
1.0
 40
1.0
 10
302.9664525609
 20
915.2505568465
 30
0.0
 10
302.9663934857
 20
914.2127191375
 30
0.0
 10
303.4447679273
 20
912.0155383588
 30
0.0
 10
305.4283683261
 20
909.078740772
 30
0.0
 10
308.4805524969
 20
906.5493550957
 30
0.0
 10
312.427791607
 20
904.5180063361
 30
0.0
 10
317.0669912448
 20
903.0711292635
 30
0.0
 10
322.1560882273
 20
902.2813938938
 30
0.0
 10
327.4219900954
 20
902.1898568189
 30
0.0
 10
330.9316477948
 20
902.6061132155
 30
0.0
 10
332.6476144518
 20
902.9397599342
 30
0.0
  0
SPLINE
  5
411
100
AcDbEntity
  8
0
100
AcDbSpline
 62
7
  6
CONTINUOUS
 70
0
 71
3
 72
11
 73
7
 74
0
 42
0.0000001
 43
0.0000001
 44
0.0000000001
 40
0.0
 40
0.0
 40
0.0
 40
0.0
 40
0.2372398078
 40
0.4999994051
 40
0.7627593222
 40
1.0
 40
1.0
 40
1.0
 40
1.0
 10
1002.1660387921
 20
803.7949900376
 30
0.0
 10
1001.6640933745
 20
803.5051934456
 30
0.0
 10
1000.496825768
 20
803.0823116993
 30
0.0
 10
998.6305108741
 20
802.8797042985
 30
0.0
 10
996.7641928932
 20
803.0823030226
 30
0.0
 10
995.5969203282
 20
803.5051790058
 30
0.0
 10
995.0949709803
 20
803.7949730409
 30
0.0
  0
SPLINE
  5
412
100
AcDbEntity
  8
0
100
AcDbSpline
 62
7
  6
CONTINUOUS
 70
0
 71
3
 72
9
 73
5
 74
0
 42
0.0000001
 43
0.0000001
 44
0.0000000001
 40
0.0
 40
0.0
 40
0.0
 40
0.0
 40
0.2312977793
 40
1.0
 40
1.0
 40
1.0
 40
1.0
 10
995.0949709803
 20
806.2444802923
 30
0.0
 10
995.2724987352
 20
806.1419869139
 30
0.0
 10
996.0689161304
 20
805.74927408
 30
0.0
 10
996.9474402073
 20
805.5383242583
 30
0.0
 10
997.6239741472
 20
805.4581252408
 30
0.0
  0
SPLINE
  5
413
100
AcDbEntity
  8
0
100
AcDbSpline
 62
7
  6
CONTINUOUS
 70
0
 71
3
 72
9
 73
5
 74
0
 42
0.0000001
 43
0.0000001
 44
0.0000000001
 40
0.0
 40
0.0
 40
0.0
 40
0.0
 40
0.2669132084
 40
1.0
 40
1.0
 40
1.0
 40
1.0
 10
999.6368026685
 20
805.458101116
 30
0.0
 10
999.8716521472
 20
805.4859352352
 30
0.0
 10
1000.7455408385
 20
805.6277672358
 30
0.0
 10
1001.603522381
 20
805.9197302262
 30
0.0
 10
1002.1660387921
 20
806.244497289
 30
0.0
  0
SPLINE
  5
414
100
AcDbEntity
  8
0
100
AcDbSpline
 62
7
  6
CONTINUOUS
 70
0
 71
3
 72
9
 73
5
 74
0
 42
0.0000001
 43
0.0000001
 44
0.0000000001
 40
0.0
 40
0.0
 40
0.0
 40
0.0
 40
0.4491668937
 40
1.0
 40
1.0
 40
1.0
 40
1.0
 10
286.9901174172
 20
655.9128922624
 30
0.0
 10
287.1250061733
 20
655.8350159881
 30
0.0
 10
287.4940902749
 20
655.7789671299
 30
0.0
 10
287.824625189
 20
655.9163468043
 30
0.0
 10
287.9900444988
 20
656.0118511172
 30
0.0
  0
SPLINE
  5
415
100
AcDbEntity
  8
0
100
AcDbSpline
 62
7
  6
CONTINUOUS
 70
0
 71
3
 72
9
 73
5
 74
0
 42
0.0000001
 43
0.0000001
 44
0.0000000001
 40
0.0
 40
0.0
 40
0.0
 40
0.0
 40
0.2572621344
 40
1.0
 40
1.0
 40
1.0
 40
1.0
 10
283.2863807178
 20
698.4043520717
 30
0.0
 10
283.3876103819
 20
698.4384964909
 30
0.0
 10
283.7788715025
 20
698.5776616772
 30
0.0
 10
284.161074961
 20
698.7428323386
 30
0.0
 10
284.4365455114
 20
698.8815721572
 30
0.0
  0
SPLINE
  5
416
100
AcDbEntity
  8
0
100
AcDbSpline
 62
7
  6
CONTINUOUS
 70
0
 71
3
 72
9
 73
5
 74
0
 42
0.0000001
 43
0.0000001
 44
0.0000000001
 40
0.0
 40
0.0
 40
0.0
 40
0.0
 40
0.5508354204
 40
1.0
 40
1.0
 40
1.0
 40
1.0
 10
286.5758368244
 20
656.8283676438
 30
0.0
 10
286.5758368244
 20
656.637349863
 30
0.0
 10
286.6221304938
 20
656.2823941297
 30
0.0
 10
286.8552240616
 20
655.9907711921
 30
0.0
 10
286.9901174172
 20
655.9128922624
 30
0.0
  0
SPLINE
  5
417
100
AcDbEntity
  8
0
100
AcDbSpline
 62
7
  6
CONTINUOUS
 70
0
 71
3
 72
8
 73
4
 74
0
 42
0.0000001
 43
0.0000001
 44
0.0000000001
 40
0.0
 40
0.0
 40
0.0
 40
0.0
 40
1.0
 40
1.0
 40
1.0
 40
1.0
 10
284.8078858735
 20
694.9993042473
 30
0.0
 10
284.5965964003
 20
694.8773169412
 30
0.0
 10
284.3787584321
 20
694.7662202976
 30
0.0
 10
284.1568126444
 20
694.6649078517
 30
0.0
  0
SPLINE
  5
418
100
AcDbEntity
  8
0
100
AcDbSpline
 62
7
  6
CONTINUOUS
 70
0
 71
3
 72
9
 73
5
 74
0
 42
0.0000001
 43
0.0000001
 44
0.0000000001
 40
0.0
 40
0.0
 40
0.0
 40
0.0
 40
0.4999996218
 40
1.0
 40
1.0
 40
1.0
 40
1.0
 10
1002.1660387921
 20
806.244497289
 30
0.0
 10
1001.1166495696
 20
805.6386357554
 30
0.0
 10
998.6305078652
 20
805.1596744261
 30
0.0
 10
996.1443661594
 20
805.6386254094
 30
0.0
 10
995.0949709803
 20
806.2444802923
 30
0.0
  0
SPLINE
  5
419
100
AcDbEntity
  8
0
100
AcDbSpline
 62
7
  6
CONTINUOUS
 70
0
 71
3
 72
8
 73
4
 74
0
 42
0.0000001
 43
0.0000001
 44
0.0000000001
 40
0.0
 40
0.0
 40
0.0
 40
0.0
 40
1.0
 40
1.0
 40
1.0
 40
1.0
 10
1070.0243241867
 20
1108.7138132677
 30
0.0
 10
1070.0292400675
 20
1108.8077582071
 30
0.0
 10
1070.0277777882
 20
1108.9023962976
 30
0.0
 10
1070.0180312424
 20
1108.9959635054
 30
0.0
  0
SPLINE
  5
41A
100
AcDbEntity
  8
0
100
AcDbSpline
 62
7
  6
CONTINUOUS
 70
0
 71
3
 72
10
 73
6
 74
0
 42
0.0000001
 43
0.0000001
 44
0.0000000001
 40
0.0
 40
0.0
 40
0.0
 40
0.0
 40
0.5272418881
 40
0.7890277804
 40
1.0
 40
1.0
 40
1.0
 40
1.0
 10
1061.5627316784
 20
1121.4137501631
 30
0.0
 10
1062.6359687717
 20
1120.794130456
 30
0.0
 10
1064.1098677665
 20
1119.6326541484
 30
0.0
 10
1065.7508771401
 20
1117.9515647875
 30
0.0
 10
1066.4314749497
 20
1117.0633461072
 30
0.0
 10
1066.6794125513
 20
1116.633898253
 30
0.0
  0
SPLINE
  5
41B
100
AcDbEntity
  8
0
100
AcDbSpline
 62
7
  6
CONTINUOUS
 70
0
 71
3
 72
9
 73
5
 74
0
 42
0.0000001
 43
0.0000001
 44
0.0000000001
 40
0.0
 40
0.0
 40
0.0
 40
0.0
 40
0.491944207
 40
1.0
 40
1.0
 40
1.0
 40
1.0
 10
1069.1122163918
 20
1107.9743220799
 30
0.0
 10
1069.1116723873
 20
1107.9639280212
 30
0.0
 10
1069.1082715431
 20
1107.9428605641
 30
0.0
 10
1069.1005426027
 20
1107.9229917297
 30
0.0
 10
1069.0957178058
 20
1107.9133862164
 30
0.0
  0
SPLINE
  5
41C
100
AcDbEntity
  8
0
100
AcDbSpline
 62
7
  6
CONTINUOUS
 70
0
 71
3
 72
8
 73
4
 74
0
 42
0.0000001
 43
0.0000001
 44
0.0000000001
 40
0.0
 40
0.0
 40
0.0
 40
0.0
 40
1.0
 40
1.0
 40
1.0
 40
1.0
 10
1069.0957178058
 20
1107.9133862164
 30
0.0
 10
1069.0696214296
 20
1107.861431886
 30
0.0
 10
1069.0182978454
 20
1107.8225577624
 30
0.0
 10
1068.9664083505
 20
1107.7963327053
 30
0.0
  0
SPLINE
  5
41D
100
AcDbEntity
  8
0
100
AcDbSpline
 62
7
  6
CONTINUOUS
 70
0
 71
3
 72
9
 73
5
 74
0
 42
0.0000001
 43
0.0000001
 44
0.0000000001
 40
0.0
 40
0.0
 40
0.0
 40
0.0
 40
0.3682487992
 40
1.0
 40
1.0
 40
1.0
 40
1.0
 10
839.2115674377
 20
1247.4075153389
 30
0.0
 10
839.106813221
 20
1247.286858541
 30
0.0
 10
839.1113387962
 20
1246.7829745247
 30
0.0
 10
839.3185621995
 20
1246.4128933482
 30
0.0
 10
839.4556211559
 20
1246.1754962193
 30
0.0
  0
SPLINE
  5
41E
100
AcDbEntity
  8
0
100
AcDbSpline
 62
7
  6
CONTINUOUS
 70
0
 71
3
 72
10
 73
6
 74
0
 42
0.0000001
 43
0.0000001
 44
0.0000000001
 40
0.0
 40
0.0
 40
0.0
 40
0.0
 40
0.3359500544
 40
0.6289578108
 40
1.0
 40
1.0
 40
1.0
 40
1.0
 10
840.1602467368
 20
1248.502958862
 30
0.0
 10
840.3319368522
 20
1248.7007135287
 30
0.0
 10
840.9526351222
 20
1248.6245379976
 30
0.0
 10
841.6369731367
 20
1248.3567658798
 30
0.0
 10
842.1082246002
 20
1248.1130025795
 30
0.0
 10
842.3587168828
 20
1247.9683840644
 30
0.0
  0
SPLINE
  5
41F
100
AcDbEntity
  8
0
100
AcDbSpline
 62
7
  6
CONTINUOUS
 70
0
 71
3
 72
9
 73
5
 74
0
 42
0.0000001
 43
0.0000001
 44
0.0000000001
 40
0.0
 40
0.0
 40
0.0
 40
0.0
 40
0.2700295488
 40
1.0
 40
1.0
 40
1.0
 40
1.0
 10
844.937307252
 20
1237.865858227
 30
0.0
 10
844.7625149771
 20
1237.8651038264
 30
0.0
 10
844.1170743129
 20
1237.8308725518
 30
0.0
 10
843.4679451604
 20
1237.6774708873
 30
0.0
 10
843.0462255418
 20
1237.4643329275
 30
0.0
  0
SPLINE
  5
420
100
AcDbEntity
  8
0
100
AcDbSpline
 62
7
  6
CONTINUOUS
 70
0
 71
3
 72
8
 73
4
 74
0
 42
0.0000001
 43
0.0000001
 44
0.0000000001
 40
0.0
 40
0.0
 40
0.0
 40
0.0
 40
1.0
 40
1.0
 40
1.0
 40
1.0
 10
845.5178875271
 20
1237.1822850437
 30
0.0
 10
845.520142503
 20
1237.2253787607
 30
0.0
 10
845.5281913528
 20
1237.2738799117
 30
0.0
 10
845.5066152915
 20
1237.311251384
 30
0.0
  0
SPLINE
  5
421
100
AcDbEntity
  8
0
100
AcDbSpline
 62
7
  6
CONTINUOUS
 70
0
 71
3
 72
9
 73
5
 74
0
 42
0.0000001
 43
0.0000001
 44
0.0000000001
 40
0.0
 40
0.0
 40
0.0
 40
0.0
 40
0.4795775192
 40
1.0
 40
1.0
 40
1.0
 40
1.0
 10
845.5066152915
 20
1237.311251384
 30
0.0
 10
845.5028585814
 20
1237.3177583079
 30
0.0
 10
845.4922323553
 20
1237.3301272012
 30
0.0
 10
845.4767730711
 20
1237.3355400271
 30
0.0
 10
845.4687133874
 20
1237.3367728924
 30
0.0
  0
SPLINE
  5
422
100
AcDbEntity
  8
0
100
AcDbSpline
 62
7
  6
CONTINUOUS
 70
0
 71
3
 72
10
 73
6
 74
0
 42
0.0000001
 43
0.0000001
 44
0.0000000001
 40
0.0
 40
0.0
 40
0.0
 40
0.0
 40
0.3710421908
 40
0.664050152
 40
1.0
 40
1.0
 40
1.0
 40
1.0
 10
841.4100375345
 20
1246.8729405842
 30
0.0
 10
841.1595452542
 20
1247.017559098
 30
0.0
 10
840.6882936266
 20
1247.2613222879
 30
0.0
 10
840.0039555418
 20
1247.5290947342
 30
0.0
 10
839.3832577085
 20
1247.6052696532
 30
0.0
 10
839.2115674377
 20
1247.4075153389
 30
0.0
  0
SPLINE
  5
423
100
AcDbEntity
  8
0
100
AcDbSpline
 62
7
  6
CONTINUOUS
 70
0
 71
3
 72
10
 73
6
 74
0
 42
0.0000001
 43
0.0000001
 44
0.0000000001
 40
0.0
 40
0.0
 40
0.0
 40
0.0
 40
0.2109724539
 40
0.472758458
 40
1.0
 40
1.0
 40
1.0
 40
1.0
 10
1065.730733203
 20
1115.5384547728
 30
0.0
 10
1065.4827953257
 20
1115.9679031045
 30
0.0
 10
1064.8021969062
 20
1116.8561223653
 30
0.0
 10
1063.1611873426
 20
1118.5372115383
 30
0.0
 10
1061.6872887201
 20
1119.6986873819
 30
0.0
 10
1060.61405233
 20
1120.318306683
 30
0.0
  0
SPLINE
  5
424
100
AcDbEntity
  8
0
100
AcDbSpline
 62
7
  6
CONTINUOUS
 70
0
 71
3
 72
9
 73
5
 74
0
 42
0.0000001
 43
0.0000001
 44
0.0000000001
 40
0.0
 40
0.0
 40
0.0
 40
0.0
 40
0.5000002077
 40
1.0
 40
1.0
 40
1.0
 40
1.0
 10
995.3596221142
 20
807.3272128445
 30
0.0
 10
996.357568972
 20
806.8294227248
 30
0.0
 10
998.6304920261
 20
806.4183890827
 30
0.0
 10
1000.903415028
 20
806.8294236296
 30
0.0
 10
1001.9013606961
 20
807.3272140583
 30
0.0
  0
SPLINE
  5
425
100
AcDbEntity
  8
0
100
AcDbSpline
 62
7
  6
CONTINUOUS
 70
0
 71
3
 72
8
 73
4
 74
0
 42
0.0000001
 43
0.0000001
 44
0.0000000001
 40
0.0
 40
0.0
 40
0.0
 40
0.0
 40
1.0
 40
1.0
 40
1.0
 40
1.0
 10
844.1068901295
 20
1236.8519717957
 30
0.0
 10
844.243570016
 20
1236.9210500905
 30
0.0
 10
844.3920380616
 20
1236.9681402397
 30
0.0
 10
844.5418466235
 20
1236.9999301272
 30
0.0
  0
SPLINE
  5
426
100
AcDbEntity
  8
0
100
AcDbSpline
 62
7
  6
CONTINUOUS
 70
0
 71
3
 72
8
 73
4
 74
0
 42
0.0000001
 43
0.0000001
 44
0.0000000001
 40
0.0
 40
0.0
 40
0.0
 40
0.0
 40
1.0
 40
1.0
 40
1.0
 40
1.0
 10
844.5418466235
 20
1236.9999301272
 30
0.0
 10
844.8560883504
 20
1237.0666132927
 30
0.0
 10
845.1882921989
 20
1237.0687922866
 30
0.0
 10
845.5054041491
 20
1237.0174647259
 30
0.0
  0
SPLINE
  5
427
100
AcDbEntity
  8
0
100
AcDbSpline
 62
7
  6
CONTINUOUS
 70
0
 71
3
 72
8
 73
4
 74
0
 42
0.0000001
 43
0.0000001
 44
0.0000000001
 40
0.0
 40
0.0
 40
0.0
 40
0.0
 40
1.0
 40
1.0
 40
1.0
 40
1.0
 10
845.8157105559
 20
1236.9470725915
 30
0.0
 10
845.8894751302
 20
1236.9251886184
 30
0.0
 10
845.9622777922
 20
1236.8995866915
 30
0.0
 10
846.0332121711
 20
1236.8697800716
 30
0.0
  0
SPLINE
  5
428
100
AcDbEntity
  8
0
100
AcDbSpline
 62
7
  6
CONTINUOUS
 70
0
 71
3
 72
8
 73
4
 74
0
 42
0.0000001
 43
0.0000001
 44
0.0000000001
 40
0.0
 40
0.0
 40
0.0
 40
0.0
 40
1.0
 40
1.0
 40
1.0
 40
1.0
 10
846.0332121711
 20
1236.8697800716
 30
0.0
 10
846.0993231167
 20
1236.8420002581
 30
0.0
 10
846.1640544001
 20
1236.8104853724
 30
0.0
 10
846.2261577413
 20
1236.7746308027
 30
0.0
  0
SPLINE
  5
429
100
AcDbEntity
  8
0
100
AcDbSpline
 62
7
  6
CONTINUOUS
 70
0
 71
3
 72
8
 73
4
 74
0
 42
0.0000001
 43
0.0000001
 44
0.0000000001
 40
0.0
 40
0.0
 40
0.0
 40
0.0
 40
1.0
 40
1.0
 40
1.0
 40
1.0
 10
1068.9657211626
 20
1108.1787931288
 30
0.0
 10
1069.0180173319
 20
1108.1486006045
 30
0.0
 10
1069.0689427753
 20
1108.1065997535
 30
0.0
 10
1069.0954424857
 20
1108.0523388726
 30
0.0
  0
SPLINE
  5
42A
100
AcDbEntity
  8
0
100
AcDbSpline
 62
7
  6
CONTINUOUS
 70
0
 71
3
 72
9
 73
5
 74
0
 42
0.0000001
 43
0.0000001
 44
0.0000000001
 40
0.0
 40
0.0
 40
0.0
 40
0.0
 40
0.5121177829
 40
1.0
 40
1.0
 40
1.0
 40
1.0
 10
1069.0954424857
 20
1108.0523388726
 30
0.0
 10
1069.1014695266
 20
1108.0399978868
 30
0.0
 10
1069.1106257221
 20
1108.014474322
 30
0.0
 10
1069.1129002536
 20
1107.9873883287
 30
0.0
 10
1069.1122163918
 20
1107.9743220799
 30
0.0
  0
SPLINE
  5
42B
100
AcDbEntity
  8
0
100
AcDbSpline
 62
7
  6
CONTINUOUS
 70
0
 71
3
 72
9
 73
5
 74
0
 42
0.0000001
 43
0.0000001
 44
0.0000000001
 40
0.0
 40
0.0
 40
0.0
 40
0.0
 40
0.6799192585
 40
1.0
 40
1.0
 40
1.0
 40
1.0
 10
1068.9290799374
 20
1108.3656009093
 30
0.0
 10
1068.950762438
 20
1108.3280450755
 30
0.0
 10
1068.9746949354
 20
1108.2622489227
 30
0.0
 10
1068.9556067342
 20
1108.1997947078
 30
0.0
 10
1068.9480288634
 20
1108.180838343
 30
0.0
  0
SPLINE
  5
42C
100
AcDbEntity
  8
0
100
AcDbSpline
 62
7
  6
CONTINUOUS
 70
0
 71
3
 72
11
 73
7
 74
0
 42
0.0000001
 43
0.0000001
 44
0.0000000001
 40
0.0
 40
0.0
 40
0.0
 40
0.0
 40
0.237228705
 40
0.5000005261
 40
0.7627720609
 40
1.0
 40
1.0
 40
1.0
 40
1.0
 10
795.6901580233
 20
1181.8330293236
 30
0.0
 10
791.6747645383
 20
1184.1512653875
 30
0.0
 10
782.3366584131
 20
1187.5344805206
 30
0.0
 10
767.4058423072
 20
1189.1550732308
 30
0.0
 10
752.4750487295
 20
1187.5344123845
 30
0.0
 10
743.1369793322
 20
1184.1511508841
 30
0.0
 10
739.1216155289
 20
1181.8328933495
 30
0.0
  0
SPLINE
  5
42D
100
AcDbEntity
  8
0
100
AcDbSpline
 62
7
  6
CONTINUOUS
 70
0
 71
3
 72
11
 73
7
 74
0
 42
0.0000001
 43
0.0000001
 44
0.0000000001
 40
0.0
 40
0.0
 40
0.0
 40
0.0
 40
0.2897776971
 40
0.5490719787
 40
0.7822272299
 40
1.0
 40
1.0
 40
1.0
 40
1.0
 10
180.50958413
 20
859.320011791
 30
0.0
 10
178.7539854814
 20
858.306422489
 30
0.0
 10
175.5693056977
 20
856.1138295279
 30
0.0
 10
171.764431533
 20
852.1134381306
 30
0.0
 10
169.3568900974
 20
847.6895983919
 30
0.0
 10
168.7942671478
 20
844.5138469452
 30
0.0
 10
168.7942671673
 20
842.9903816103
 30
0.0
  0
SPLINE
  5
42E
100
AcDbEntity
  8
0
100
AcDbSpline
 62
7
  6
CONTINUOUS
 70
0
 71
3
 72
9
 73
5
 74
0
 42
0.0000001
 43
0.0000001
 44
0.0000000001
 40
0.0
 40
0.0
 40
0.0
 40
0.0
 40
0.4491641734
 40
1.0
 40
1.0
 40
1.0
 40
1.0
 10
767.5069333536
 20
1020.1687330872
 30
0.0
 10
767.5069331803
 20
1019.3899599306
 30
0.0
 10
766.826913777
 20
1017.6516492342
 30
0.0
 10
765.4056926166
 20
1016.5638505284
 30
0.0
 10
764.5785901346
 20
1016.0863255382
 30
0.0
  0
SPLINE
  5
42F
100
AcDbEntity
  8
0
100
AcDbSpline
 62
7
  6
CONTINUOUS
 70
0
 71
3
 72
11
 73
7
 74
0
 42
0.0000001
 43
0.0000001
 44
0.0000000001
 40
0.0
 40
0.0
 40
0.0
 40
0.0
 40
0.2177727701
 40
0.4509280213
 40
0.7102223029
 40
1.0
 40
1.0
 40
1.0
 40
1.0
 10
955.8987527842
 20
1067.933419671
 30
0.0
 10
955.8987528037
 20
1066.409954336
 30
0.0
 10
955.3361298541
 20
1063.2342028894
 30
0.0
 10
952.9285884185
 20
1058.8103631507
 30
0.0
 10
949.1237142538
 20
1054.8099717534
 30
0.0
 10
945.9390344701
 20
1052.6173787923
 30
0.0
 10
944.1834358215
 20
1051.6037894903
 30
0.0
  0
SPLINE
  5
430
100
AcDbEntity
  8
0
100
AcDbSpline
 62
7
  6
CONTINUOUS
 70
0
 71
3
 72
11
 73
7
 74
0
 42
0.0000001
 43
0.0000001
 44
0.0000000001
 40
0.0
 40
0.0
 40
0.0
 40
0.0
 40
0.2177723091
 40
0.4509273687
 40
0.7102218233
 40
1.0
 40
1.0
 40
1.0
 40
1.0
 10
955.8987527842
 20
1079.7727047194
 30
0.0
 10
955.8987527647
 20
1081.2961864548
 30
0.0
 10
955.336116967
 20
1084.4719745438
 30
0.0
 10
952.9285234482
 20
1088.8958571158
 30
0.0
 10
949.1235720068
 20
1092.896278166
 30
0.0
 10
945.9388317835
 20
1095.0888794977
 30
0.0
 10
944.1832003042
 20
1096.1024708743
 30
0.0
  0
SPLINE
  5
431
100
AcDbEntity
  8
0
100
AcDbSpline
 62
7
  6
CONTINUOUS
 70
0
 71
3
 72
11
 73
7
 74
0
 42
0.0000001
 43
0.0000001
 44
0.0000000001
 40
0.0
 40
0.0
 40
0.0
 40
0.0
 40
0.2897781767
 40
0.5490726313
 40
0.7822276909
 40
1.0
 40
1.0
 40
1.0
 40
1.0
 10
180.5098196473
 20
814.821330407
 30
0.0
 10
178.754188168
 20
815.8349217836
 30
0.0
 10
175.5694479447
 20
818.0275231153
 30
0.0
 10
171.7644965033
 20
822.0279441655
 30
0.0
 10
169.3569029845
 20
826.4518267375
 30
0.0
 10
168.7942671868
 20
829.6276148265
 30
0.0
 10
168.7942671673
 20
831.1510965619
 30
0.0
  0
SPLINE
  5
432
100
AcDbEntity
  8
0
100
AcDbSpline
 62
7
  6
CONTINUOUS
 70
0
 71
3
 72
11
 73
7
 74
0
 42
0.0000001
 43
0.0000001
 44
0.0000000001
 40
0.0
 40
0.0
 40
0.0
 40
0.0
 40
0.2372279391
 40
0.4999994739
 40
0.762771295
 40
1.0
 40
1.0
 40
1.0
 40
1.0
 10
385.5714044226
 20
729.0909079318
 30
0.0
 10
381.5560406193
 20
726.7726503972
 30
0.0
 10
372.217971222
 20
723.3893888968
 30
0.0
 10
357.2871776443
 20
721.7687280505
 30
0.0
 10
342.3563615384
 20
723.3893207607
 30
0.0
 10
333.0182554131
 20
726.7725358938
 30
0.0
 10
329.0028619282
 20
729.0907719577
 30
0.0
  0
SPLINE
  5
433
100
AcDbEntity
  8
0
100
AcDbSpline
 62
7
  6
CONTINUOUS
 70
0
 71
3
 72
9
 73
5
 74
0
 42
0.0000001
 43
0.0000001
 44
0.0000000001
 40
0.0
 40
0.0
 40
0.0
 40
0.0
 40
0.5508366897
 40
1.0
 40
1.0
 40
1.0
 40
1.0
 10
608.308053317
 20
1007.5128583718
 30
0.0
 10
607.4809355383
 20
1007.9903842409
 30
0.0
 10
606.0596879283
 20
1009.0781862694
 30
0.0
 10
605.3796510454
 20
1010.8165183064
 30
0.0
 10
605.3796512187
 20
1011.5952999067
 30
0.0
  0
SPLINE
  5
434
100
AcDbEntity
  8
0
100
AcDbSpline
 62
7
  6
CONTINUOUS
 70
0
 71
3
 72
9
 73
5
 74
0
 42
0.0000001
 43
0.0000001
 44
0.0000000001
 40
0.0
 40
0.0
 40
0.0
 40
0.0
 40
0.4999996218
 40
1.0
 40
1.0
 40
1.0
 40
1.0
 10
686.0900642038
 20
970.7712244585
 30
0.0
 10
683.9912857588
 20
969.5595013913
 30
0.0
 10
679.0190023501
 20
968.6015787327
 30
0.0
 10
674.0467189385
 20
969.5594806992
 30
0.0
 10
671.9479285802
 20
970.7711904649
 30
0.0
  0
SPLINE
  5
435
100
AcDbEntity
  8
0
100
AcDbSpline
 62
7
  6
CONTINUOUS
 70
0
 71
3
 72
9
 73
5
 74
0
 42
0.0000001
 43
0.0000001
 44
0.0000000001
 40
0.0
 40
0.0
 40
0.0
 40
0.0
 40
0.5508366897
 40
1.0
 40
1.0
 40
1.0
 40
1.0
 10
764.5785312552
 20
1024.2511746221
 30
0.0
 10
765.4056490339
 20
1023.773648753
 30
0.0
 10
766.826896644
 20
1022.6858467245
 30
0.0
 10
767.5069335268
 20
1020.9475146875
 30
0.0
 10
767.5069333536
 20
1020.1687330872
 30
0.0
  0
SPLINE
  5
436
100
AcDbEntity
  8
0
100
AcDbSpline
 62
7
  6
CONTINUOUS
 70
0
 71
3
 72
11
 73
7
 74
0
 42
0.0000001
 43
0.0000001
 44
0.0000000001
 40
0.0
 40
0.0
 40
0.0
 40
0.0
 40
0.2897776971
 40
0.5490719787
 40
0.7822272299
 40
1.0
 40
1.0
 40
1.0
 40
1.0
 10
944.1834358215
 20
1063.4430745386
 30
0.0
 10
945.9390344701
 20
1064.4566638406
 30
0.0
 10
949.1237142538
 20
1066.6492568017
 30
0.0
 10
952.9285884185
 20
1070.649648199
 30
0.0
 10
955.3361298541
 20
1075.0734879378
 30
0.0
 10
955.8987528037
 20
1078.2492393844
 30
0.0
 10
955.8987527842
 20
1079.7727047194
 30
0.0
  0
SPLINE
  5
437
100
AcDbEntity
  8
0
100
AcDbSpline
 62
7
  6
CONTINUOUS
 70
0
 71
3
 72
11
 73
7
 74
0
 42
0.0000001
 43
0.0000001
 44
0.0000000001
 40
0.0
 40
0.0
 40
0.0
 40
0.0
 40
0.2177723091
 40
0.4509273687
 40
0.7102218233
 40
1.0
 40
1.0
 40
1.0
 40
1.0
 10
168.7942671673
 20
842.9903816103
 30
0.0
 10
168.7942671868
 20
841.4668998749
 30
0.0
 10
169.3569029845
 20
838.2911117859
 30
0.0
 10
171.7644965033
 20
833.8672292139
 30
0.0
 10
175.5694479447
 20
829.8668081637
 30
0.0
 10
178.754188168
 20
827.674206832
 30
0.0
 10
180.5098196473
 20
826.6606154554
 30
0.0
  0
SPLINE
  5
438
100
AcDbEntity
  8
0
100
AcDbSpline
 62
7
  6
CONTINUOUS
 70
0
 71
3
 72
9
 73
5
 74
0
 42
0.0000001
 43
0.0000001
 44
0.0000000001
 40
0.0
 40
0.0
 40
0.0
 40
0.0
 40
0.4491641734
 40
1.0
 40
1.0
 40
1.0
 40
1.0
 10
605.3796512187
 20
1011.5952999067
 30
0.0
 10
605.3796513919
 20
1012.3740730633
 30
0.0
 10
606.0596707952
 20
1014.1123837597
 30
0.0
 10
607.4808919556
 20
1015.2001824655
 30
0.0
 10
608.3079944377
 20
1015.6777074557
 30
0.0
  0
SPLINE
  5
439
100
AcDbEntity
  8
0
100
AcDbSpline
 62
7
  6
CONTINUOUS
 70
0
 71
3
 72
11
 73
7
 74
0
 42
0.0000001
 43
0.0000001
 44
0.0000000001
 40
0.0
 40
0.0
 40
0.0
 40
0.0
 40
0.237228705
 40
0.5000005261
 40
0.7627720609
 40
1.0
 40
1.0
 40
1.0
 40
1.0
 10
329.0028619282
 20
740.9300570061
 30
0.0
 10
333.0182554131
 20
738.6118209422
 30
0.0
 10
342.3563615384
 20
735.2286058091
 30
0.0
 10
357.2871776443
 20
733.6080130988
 30
0.0
 10
372.217971222
 20
735.2286739452
 30
0.0
 10
381.5560406193
 20
738.6119354456
 30
0.0
 10
385.5714044226
 20
740.9301929802
 30
0.0
  0
SPLINE
  5
43A
100
AcDbEntity
  8
0
100
AcDbSpline
 62
7
  6
CONTINUOUS
 70
0
 71
3
 72
9
 73
5
 74
0
 42
0.0000001
 43
0.0000001
 44
0.0000000001
 40
0.0
 40
0.0
 40
0.0
 40
0.0
 40
0.4818505824
 40
1.0
 40
1.0
 40
1.0
 40
1.0
 10
686.7965203684
 20
1060.9928085354
 30
0.0
 10
688.3870751349
 20
1061.9111102765
 30
0.0
 10
692.1905262378
 20
1062.91686919
 30
0.0
 10
696.0689026492
 20
1062.6708747826
 30
0.0
 10
697.9800929677
 20
1062.1730308706
 30
0.0
  0
SPLINE
  5
43B
100
AcDbEntity
  8
0
100
AcDbSpline
 62
7
  6
CONTINUOUS
 70
0
 71
3
 72
9
 73
5
 74
0
 42
0.0000001
 43
0.0000001
 44
0.0000000001
 40
0.0
 40
0.0
 40
0.0
 40
0.0
 40
0.2634299052
 40
1.0
 40
1.0
 40
1.0
 40
1.0
 10
697.9800929677
 20
1062.1730308706
 30
0.0
 10
698.2511934129
 20
1062.102412207
 30
0.0
 10
699.271765476
 20
1061.8041707037
 30
0.0
 10
700.2602832916
 20
1061.3844923298
 30
0.0
 10
700.938655992
 20
1060.9928425289
 30
0.0
  0
SPLINE
  5
43C
100
AcDbEntity
  8
0
100
AcDbSpline
 62
7
  6
CONTINUOUS
 70
0
 71
3
 72
8
 73
4
 74
0
 42
0.0000001
 43
0.0000001
 44
0.0000000001
 40
0.0
 40
0.0
 40
0.0
 40
0.0
 40
1.0
 40
1.0
 40
1.0
 40
1.0
 10
250.5136736049
 20
563.7478458269
 30
0.0
 10
250.5136736049
 20
563.2161274555
 30
0.0
 10
250.5729718501
 20
562.6827974429
 30
0.0
 10
250.6740335851
 20
562.1607716272
 30
0.0
  0
SPLINE
  5
43D
100
AcDbEntity
  8
0
100
AcDbSpline
 62
7
  6
CONTINUOUS
 70
0
 71
3
 72
9
 73
5
 74
0
 42
0.0000001
 43
0.0000001
 44
0.0000000001
 40
0.0
 40
0.0
 40
0.0
 40
0.0
 40
0.2758741856
 40
1.0
 40
1.0
 40
1.0
 40
1.0
 10
296.1222508769
 20
537.4163171604
 30
0.0
 10
296.1222508769
 20
535.6813567799
 30
0.0
 10
295.8234794568
 20
529.4122042804
 30
0.0
 10
294.1742105939
 20
523.0899555497
 30
0.0
 10
291.9119658007
 20
519.1375996869
 30
0.0
  0
SPLINE
  5
43E
100
AcDbEntity
  8
0
100
AcDbSpline
 62
7
  6
CONTINUOUS
 70
0
 71
3
 72
11
 73
7
 74
0
 42
0.0000001
 43
0.0000001
 44
0.0000000001
 40
0.0
 40
0.0
 40
0.0
 40
0.0
 40
0.2404419416
 40
0.5032496238
 40
0.7643030101
 40
1.0
 40
1.0
 40
1.0
 40
1.0
 10
257.9486233836
 20
605.9307980831
 30
0.0
 10
263.4257393828
 20
602.433017027
 30
0.0
 10
273.7119972016
 20
593.2412314357
 30
0.0
 10
285.6901736204
 20
576.2337510909
 30
0.0
 10
293.8134038698
 20
557.2231822238
 30
0.0
 10
296.1222508769
 20
543.7867827541
 30
0.0
 10
296.1222508769
 20
537.4163171604
 30
0.0
  0
SPLINE
  5
43F
100
AcDbEntity
  8
0
100
AcDbSpline
 62
7
  6
CONTINUOUS
 70
0
 71
3
 72
9
 73
5
 74
0
 42
0.0000001
 43
0.0000001
 44
0.0000000001
 40
0.0
 40
0.0
 40
0.0
 40
0.0
 40
0.2555080004
 40
1.0
 40
1.0
 40
1.0
 40
1.0
 10
290.1799499668
 20
516.5241009211
 30
0.0
 10
289.8333574815
 20
516.0713190407
 30
0.0
 10
288.4093913006
 20
514.3523425961
 30
0.0
 10
286.7045478552
 20
512.8627312053
 30
0.0
 10
285.3201413729
 20
511.9441127287
 30
0.0
  0
SPLINE
  5
440
100
AcDbEntity
  8
0
100
AcDbSpline
 62
7
  6
CONTINUOUS
 70
0
 71
3
 72
11
 73
7
 74
0
 42
0.0000001
 43
0.0000001
 44
0.0000000001
 40
0.0
 40
0.0
 40
0.0
 40
0.0
 40
0.3064103153
 40
0.5851855635
 40
0.8146167024
 40
1.0
 40
1.0
 40
1.0
 40
1.0
 10
251.8473101022
 20
558.9171986583
 30
0.0
 10
252.3193832785
 20
558.0293246407
 30
0.0
 10
253.4184238992
 20
556.4275669561
 30
0.0
 10
255.4421867596
 20
554.6401912077
 30
0.0
 10
257.57985541
 20
553.6918899999
 30
0.0
 10
259.0396596665
 20
553.8874235742
 30
0.0
 10
259.5668904176
 20
554.1910066022
 30
0.0
  0
SPLINE
  5
441
100
AcDbEntity
  8
0
100
AcDbSpline
 62
7
  6
CONTINUOUS
 70
0
 71
3
 72
8
 73
4
 74
0
 42
0.0000001
 43
0.0000001
 44
0.0000000001
 40
0.0
 40
0.0
 40
0.0
 40
0.0
 40
1.0
 40
1.0
 40
1.0
 40
1.0
 10
171.9330841284
 20
648.027213386
 30
0.0
 10
171.6460680537
 20
647.7727014801
 30
0.0
 10
171.3960901508
 20
647.4564397524
 30
0.0
 10
171.2478572636
 20
647.1026297065
 30
0.0
  0
SPLINE
  5
442
100
AcDbEntity
  8
0
100
AcDbSpline
 62
7
  6
CONTINUOUS
 70
0
 71
3
 72
9
 73
5
 74
0
 42
0.0000001
 43
0.0000001
 44
0.0000000001
 40
0.0
 40
0.0
 40
0.0
 40
0.0
 40
0.2305626426
 40
1.0
 40
1.0
 40
1.0
 40
1.0
 10
283.6154892592
 20
701.936123882
 30
0.0
 10
283.5182284502
 20
701.7166622276
 30
0.0
 10
283.1600928933
 20
700.7365117193
 30
0.0
 10
283.0407180177
 20
699.6805603188
 30
0.0
 10
283.0407180177
 20
698.8794679936
 30
0.0
  0
SPLINE
  5
443
100
AcDbEntity
  8
0
100
AcDbSpline
 62
7
  6
CONTINUOUS
 70
0
 71
3
 72
13
 73
9
 74
0
 42
0.0000001
 43
0.0000001
 44
0.0000000001
 40
0.0
 40
0.0
 40
0.0
 40
0.0
 40
0.0871398422
 40
0.1868478565
 40
0.3045221706
 40
0.4386565006
 40
0.7300925043
 40
1.0
 40
1.0
 40
1.0
 40
1.0
 10
280.7230006079
 20
701.261134482
 30
0.0
 10
281.2724121111
 20
701.5783489015
 30
0.0
 10
282.6527301904
 20
701.9332851172
 30
0.0
 10
284.8744919019
 20
701.4881296238
 30
0.0
 10
287.1449178744
 20
700.2487161037
 30
0.0
 10
290.1230155247
 20
697.6071079949
 30
0.0
 10
292.9205553465
 20
693.2831230126
 30
0.0
 10
294.0009570291
 20
689.2096146568
 30
0.0
 10
294.0009570291
 20
687.244584394
 30
0.0
  0
SPLINE
  5
444
100
AcDbEntity
  8
0
100
AcDbSpline
 62
7
  6
CONTINUOUS
 70
0
 71
3
 72
9
 73
5
 74
0
 42
0.0000001
 43
0.0000001
 44
0.0000000001
 40
0.0
 40
0.0
 40
0.0
 40
0.0
 40
0.2275978953
 40
1.0
 40
1.0
 40
1.0
 40
1.0
 10
205.0724561361
 20
694.0436184152
 30
0.0
 10
204.8354639714
 20
693.6090284904
 30
0.0
 10
203.9500416303
 20
691.6138498171
 30
0.0
 10
203.66765137
 20
689.3925420601
 30
0.0
 10
203.66765137
 20
687.7126239728
 30
0.0
  0
SPLINE
  5
445
100
AcDbEntity
  8
0
100
AcDbSpline
 62
7
  6
CONTINUOUS
 70
0
 71
3
 72
13
 73
9
 74
0
 42
0.0000001
 43
0.0000001
 44
0.0000000001
 40
0.0
 40
0.0
 40
0.0
 40
0.0
 40
0.08714391
 40
0.1868569539
 40
0.3045313596
 40
0.4386686425
 40
0.7301226347
 40
1.0
 40
1.0
 40
1.0
 40
1.0
 10
203.2655282352
 20
694.329142535
 30
0.0
 10
204.2769717093
 20
694.9131981194
 30
0.0
 10
206.818346396
 20
695.5660936344
 30
0.0
 10
210.9085132691
 20
694.7468080953
 30
0.0
 10
215.0882456441
 20
692.464812268
 30
0.0
 10
220.5707925513
 20
687.6014938117
 30
0.0
 10
225.720486983
 20
679.6412005072
 30
0.0
 10
227.7094202965
 20
672.1423713321
 30
0.0
 10
227.7094202965
 20
668.5252864146
 30
0.0
  0
SPLINE
  5
446
100
AcDbEntity
  8
0
100
AcDbSpline
 62
7
  6
CONTINUOUS
 70
0
 71
3
 72
12
 73
8
 74
0
 42
0.0000001
 43
0.0000001
 44
0.0000000001
 40
0.0
 40
0.0
 40
0.0
 40
0.0
 40
0.2644700419
 40
0.5523478505
 40
0.6877002619
 40
0.8089520753
 40
1.0
 40
1.0
 40
1.0
 40
1.0
 10
372.8435353527
 20
529.4561939281
 30
0.0
 10
372.8435353527
 20
532.4780300606
 30
0.0
 10
374.4253531815
 20
538.7745943451
 30
0.0
 10
378.5731442725
 20
545.5778514494
 30
0.0
 10
383.0716733627
 20
549.9494789841
 30
0.0
 10
387.3225853142
 20
552.7458613776
 30
0.0
 10
391.209826745
 20
553.5802205388
 30
0.0
 10
393.2980795619
 20
552.9443617303
 30
0.0
  0
SPLINE
  5
447
100
AcDbEntity
  8
0
100
AcDbSpline
 62
7
  6
CONTINUOUS
 70
0
 71
3
 72
12
 73
8
 74
0
 42
0.0000001
 43
0.0000001
 44
0.0000000001
 40
0.0
 40
0.0
 40
0.0
 40
0.0
 40
0.2644700419
 40
0.5523478505
 40
0.6877002619
 40
0.8089520753
 40
1.0
 40
1.0
 40
1.0
 40
1.0
 10
931.4555667517
 20
851.9690754865
 30
0.0
 10
931.4555667517
 20
854.9909116191
 30
0.0
 10
933.0373845805
 20
861.2874759036
 30
0.0
 10
937.1851756715
 20
868.0907330079
 30
0.0
 10
941.6837047616
 20
872.4623605426
 30
0.0
 10
945.9346167132
 20
875.2587429361
 30
0.0
 10
949.8218581439
 20
876.0931020973
 30
0.0
 10
951.9101109609
 20
875.4572432888
 30
0.0
  0
SPLINE
  5
448
100
AcDbEntity
  8
0
100
AcDbSpline
 62
7
  6
CONTINUOUS
 70
0
 71
3
 72
9
 73
5
 74
0
 42
0.0000001
 43
0.0000001
 44
0.0000000001
 40
0.0
 40
0.0
 40
0.0
 40
0.0
 40
0.5507896974
 40
1.0
 40
1.0
 40
1.0
 40
1.0
 10
306.905709513
 20
631.6205480133
 30
0.0
 10
306.905709513
 20
629.6865991652
 30
0.0
 10
306.4364311507
 20
626.0929859561
 30
0.0
 10
304.0775649698
 20
623.1391822923
 30
0.0
 10
302.7116577059
 20
622.350442451
 30
0.0
  0
SPLINE
  5
449
100
AcDbEntity
  8
0
100
AcDbSpline
 62
7
  6
CONTINUOUS
 70
0
 71
3
 72
9
 73
5
 74
0
 42
0.0000001
 43
0.0000001
 44
0.0000000001
 40
0.0
 40
0.0
 40
0.0
 40
0.0
 40
0.5507896974
 40
1.0
 40
1.0
 40
1.0
 40
1.0
 10
227.7094202965
 20
668.5252864146
 30
0.0
 10
227.7094202965
 20
666.5913375665
 30
0.0
 10
227.2401419342
 20
662.9977243574
 30
0.0
 10
224.8812757533
 20
660.0439206935
 30
0.0
 10
223.5153684894
 20
659.2551808522
 30
0.0
  0
SPLINE
  5
44A
100
AcDbEntity
  8
0
100
AcDbSpline
 62
7
  6
CONTINUOUS
 70
0
 71
3
 72
9
 73
5
 74
0
 42
0.0000001
 43
0.0000001
 44
0.0000000001
 40
0.0
 40
0.0
 40
0.0
 40
0.0
 40
0.550850831
 40
1.0
 40
1.0
 40
1.0
 40
1.0
 10
294.0009570291
 20
687.244584394
 30
0.0
 10
294.0009570291
 20
686.1939475426
 30
0.0
 10
293.7462674298
 20
684.241712069
 30
0.0
 10
292.4643833228
 20
682.637673315
 30
0.0
 10
291.722499497
 20
682.2093309054
 30
0.0
  0
SPLINE
  5
44B
100
AcDbEntity
  8
0
100
AcDbSpline
 62
7
  6
CONTINUOUS
 70
0
 71
3
 72
12
 73
8
 74
0
 42
0.0000001
 43
0.0000001
 44
0.0000000001
 40
0.0
 40
0.0
 40
0.0
 40
0.0
 40
0.2598369303
 40
0.5440135421
 40
0.6794809569
 40
0.8025795786
 40
1.0
 40
1.0
 40
1.0
 40
1.0
 10
203.66765137
 20
687.7126239728
 30
0.0
 10
203.66765137
 20
684.4657052943
 30
0.0
 10
205.3017198787
 20
677.6790211609
 30
0.0
 10
209.6474024653
 20
670.2588126012
 30
0.0
 10
214.3816340005
 20
665.3350438426
 30
0.0
 10
218.9755554958
 20
662.0056548615
 30
0.0
 10
223.1359476344
 20
660.6902868935
 30
0.0
 10
225.5774537223
 20
661.0437748283
 30
0.0
  0
SPLINE
  5
44C
100
AcDbEntity
  8
0
100
AcDbSpline
 62
7
  6
CONTINUOUS
 70
0
 71
3
 72
11
 73
7
 74
0
 42
0.0000001
 43
0.0000001
 44
0.0000000001
 40
0.0
 40
0.0
 40
0.0
 40
0.0
 40
0.2454794921
 40
0.5167254776
 40
0.7785973411
 40
1.0
 40
1.0
 40
1.0
 40
1.0
 10
283.0407180177
 20
698.8794679936
 30
0.0
 10
283.0407180177
 20
697.4006264201
 30
0.0
 10
283.6763251375
 20
694.2876552984
 30
0.0
 10
285.8033466088
 20
690.0577019065
 30
0.0
 10
288.7991262379
 20
686.583786121
 30
0.0
 10
291.3484921523
 20
684.9957178215
 30
0.0
 10
292.6253548731
 20
684.6101893701
 30
0.0
  0
SPLINE
  5
44D
100
AcDbEntity
  8
0
100
AcDbSpline
 62
7
  6
CONTINUOUS
 70
0
 71
3
 72
12
 73
8
 74
0
 42
0.0000001
 43
0.0000001
 44
0.0000000001
 40
0.0
 40
0.0
 40
0.0
 40
0.0
 40
0.2598369303
 40
0.5440135421
 40
0.6794809569
 40
0.8025795786
 40
1.0
 40
1.0
 40
1.0
 40
1.0
 10
282.8639405864
 20
650.8078855716
 30
0.0
 10
282.8639405864
 20
647.560966893
 30
0.0
 10
284.4980090952
 20
640.7742827596
 30
0.0
 10
288.8436916817
 20
633.3540741999
 30
0.0
 10
293.5779232169
 20
628.4303054413
 30
0.0
 10
298.1718447122
 20
625.1009164602
 30
0.0
 10
302.3322368508
 20
623.7855484922
 30
0.0
 10
304.7737429388
 20
624.1390364271
 30
0.0
  0
SPLINE
  5
44E
100
AcDbEntity
  8
0
100
AcDbSpline
 62
7
  6
CONTINUOUS
 70
0
 71
3
 72
12
 73
8
 74
0
 42
0.0000001
 43
0.0000001
 44
0.0000000001
 40
0.0
 40
0.0
 40
0.0
 40
0.0
 40
0.1910012317
 40
0.3122358559
 40
0.4475819033
 40
0.7354912875
 40
1.0
 40
1.0
 40
1.0
 40
1.0
 10
376.4242719627
 20
521.4831995184
 30
0.0
 10
378.5117322259
 20
520.8452273358
 30
0.0
 10
382.4000413839
 20
521.6770472269
 30
0.0
 10
386.6519273213
 20
524.4721316682
 30
0.0
 10
391.1524305407
 20
528.8435378316
 30
0.0
 10
395.3022807735
 20
535.6481780796
 30
0.0
 10
396.8850540421
 20
541.9466439997
 30
0.0
 10
396.8850540421
 20
544.9694649765
 30
0.0
  0
SPLINE
  5
44F
100
AcDbEntity
  8
0
100
AcDbSpline
 62
7
  6
CONTINUOUS
 70
0
 71
3
 72
8
 73
4
 74
0
 42
0.0000001
 43
0.0000001
 44
0.0000000001
 40
0.0
 40
0.0
 40
0.0
 40
0.0
 40
1.0
 40
1.0
 40
1.0
 40
1.0
 10
376.5717467962
 20
521.2163693637
 30
0.0
 10
376.1641631299
 20
521.4518985133
 30
0.0
 10
375.7822753387
 20
521.7377328842
 30
0.0
 10
375.4394087454
 20
522.0602866387
 30
0.0
  0
SPLINE
  5
450
100
AcDbEntity
  8
0
100
AcDbSpline
 62
7
  6
CONTINUOUS
 70
0
 71
3
 72
9
 73
5
 74
0
 42
0.0000001
 43
0.0000001
 44
0.0000000001
 40
0.0
 40
0.0
 40
0.0
 40
0.0
 40
0.2211323511
 40
1.0
 40
1.0
 40
1.0
 40
1.0
 10
375.4394087454
 20
522.0602866387
 30
0.0
 10
375.011450502
 20
522.4628908609
 30
0.0
 10
373.331156677
 20
524.5638173754
 30
0.0
 10
372.8435353527
 20
527.3866676718
 30
0.0
 10
372.8435353527
 20
529.4561939281
 30
0.0
  0
SPLINE
  5
451
100
AcDbEntity
  8
0
100
AcDbSpline
 62
7
  6
CONTINUOUS
 70
0
 71
3
 72
12
 73
8
 74
0
 42
0.0000001
 43
0.0000001
 44
0.0000000001
 40
0.0
 40
0.0
 40
0.0
 40
0.0
 40
0.1910012317
 40
0.3122358559
 40
0.4475819033
 40
0.7354912875
 40
1.0
 40
1.0
 40
1.0
 40
1.0
 10
935.0363033616
 20
843.9960810769
 30
0.0
 10
937.1237636249
 20
843.3581088943
 30
0.0
 10
941.0120727828
 20
844.1899287854
 30
0.0
 10
945.2639587202
 20
846.9850132267
 30
0.0
 10
949.7644619397
 20
851.3564193901
 30
0.0
 10
953.9143121724
 20
858.1610596381
 30
0.0
 10
955.4970854411
 20
864.4595255582
 30
0.0
 10
955.4970854411
 20
867.482346535
 30
0.0
  0
SPLINE
  5
452
100
AcDbEntity
  8
0
100
AcDbSpline
 62
7
  6
CONTINUOUS
 70
0
 71
3
 72
8
 73
4
 74
0
 42
0.0000001
 43
0.0000001
 44
0.0000000001
 40
0.0
 40
0.0
 40
0.0
 40
0.0
 40
1.0
 40
1.0
 40
1.0
 40
1.0
 10
935.1837781952
 20
843.7292509222
 30
0.0
 10
934.7761945288
 20
843.9647800718
 30
0.0
 10
934.3943067377
 20
844.2506144427
 30
0.0
 10
934.0514401443
 20
844.5731681972
 30
0.0
  0
SPLINE
  5
453
100
AcDbEntity
  8
0
100
AcDbSpline
 62
7
  6
CONTINUOUS
 70
0
 71
3
 72
9
 73
5
 74
0
 42
0.0000001
 43
0.0000001
 44
0.0000000001
 40
0.0
 40
0.0
 40
0.0
 40
0.0
 40
0.2211323511
 40
1.0
 40
1.0
 40
1.0
 40
1.0
 10
934.0514401443
 20
844.5731681972
 30
0.0
 10
933.6234819009
 20
844.9757724194
 30
0.0
 10
931.943188076
 20
847.0766989339
 30
0.0
 10
931.4555667517
 20
849.8995492303
 30
0.0
 10
931.4555667517
 20
851.9690754865
 30
0.0
  0
SPLINE
  5
454
100
AcDbEntity
  8
0
100
AcDbSpline
 62
7
  6
CONTINUOUS
 70
0
 71
3
 72
9
 73
5
 74
0
 42
0.0000001
 43
0.0000001
 44
0.0000000001
 40
0.0
 40
0.0
 40
0.0
 40
0.0
 40
0.7281018032
 40
1.0
 40
1.0
 40
1.0
 40
1.0
 10
340.5739450745
 20
452.7049835962
 30
0.0
 10
340.5740849051
 20
452.3959896632
 30
0.0
 10
340.429331767
 20
451.9651278942
 30
0.0
 10
340.172394494
 20
451.6279490684
 30
0.0
 10
340.0966322387
 20
451.5409163721
 30
0.0
  0
SPLINE
  5
455
100
AcDbEntity
  8
0
100
AcDbSpline
 62
7
  6
CONTINUOUS
 70
0
 71
3
 72
8
 73
4
 74
0
 42
0.0000001
 43
0.0000001
 44
0.0000000001
 40
0.0
 40
0.0
 40
0.0
 40
0.0
 40
1.0
 40
1.0
 40
1.0
 40
1.0
 10
340.0966322387
 20
451.5409163721
 30
0.0
 10
339.8609535293
 20
451.2701779485
 30
0.0
 10
339.5668704708
 20
451.0473732451
 30
0.0
 10
339.2560118221
 20
450.8678999918
 30
0.0
  0
SPLINE
  5
456
100
AcDbEntity
  8
0
100
AcDbSpline
 62
7
  6
CONTINUOUS
 70
0
 71
3
 72
9
 73
5
 74
0
 42
0.0000001
 43
0.0000001
 44
0.0000000001
 40
0.0
 40
0.0
 40
0.0
 40
0.0
 40
0.2281728462
 40
1.0
 40
1.0
 40
1.0
 40
1.0
 10
340.3049961202
 20
451.9565357761
 30
0.0
 10
340.248033548
 20
452.0474893519
 30
0.0
 10
339.9664400608
 20
452.4261954701
 30
0.0
 10
339.5820833276
 20
452.7192572682
 30
0.0
 10
339.2683147809
 20
452.9018311222
 30
0.0
  0
SPLINE
  5
457
100
AcDbEntity
  8
0
100
AcDbSpline
 62
7
  6
CONTINUOUS
 70
0
 71
3
 72
9
 73
5
 74
0
 42
0.0000001
 43
0.0000001
 44
0.0000000001
 40
0.0
 40
0.0
 40
0.0
 40
0.0
 40
0.4997042732
 40
1.0
 40
1.0
 40
1.0
 40
1.0
 10
339.2683147809
 20
452.9018311222
 30
0.0
 10
338.3242981667
 20
453.4511301305
 30
0.0
 10
336.0817509837
 20
453.886473099
 30
0.0
 10
333.8390165808
 20
453.4558049354
 30
0.0
 10
332.8920242958
 20
452.9090619483
 30
0.0
  0
SPLINE
  5
458
100
AcDbEntity
  8
0
100
AcDbSpline
 62
7
  6
CONTINUOUS
 70
0
 71
3
 72
11
 73
7
 74
0
 42
0.0000001
 43
0.0000001
 44
0.0000000001
 40
0.0
 40
0.0
 40
0.0
 40
0.0
 40
0.2177921581
 40
0.4518660706
 40
0.7113634061
 40
1.0
 40
1.0
 40
1.0
 40
1.0
 10
227.4429919345
 20
610.0854655975
 30
0.0
 10
225.6944331162
 20
608.9363318085
 30
0.0
 10
222.4515888559
 20
605.9212738069
 30
0.0
 10
219.0206483243
 20
599.9165445843
 30
0.0
 10
216.9757273726
 20
592.623467956
 30
0.0
 10
216.572397966
 20
587.3411006438
 30
0.0
 10
216.572397966
 20
584.5681294065
 30
0.0
  0
SPLINE
  5
459
100
AcDbEntity
  8
0
100
AcDbSpline
 62
7
  6
CONTINUOUS
 70
0
 71
3
 72
11
 73
7
 74
0
 42
0.0000001
 43
0.0000001
 44
0.0000000001
 40
0.0
 40
0.0
 40
0.0
 40
0.0
 40
0.2192359286
 40
0.4539150051
 40
0.7128808625
 40
1.0
 40
1.0
 40
1.0
 40
1.0
 10
228.2976357001
 20
610.5777633188
 30
0.0
 10
230.1001518476
 20
611.4819574201
 30
0.0
 10
234.1585905779
 20
612.7537121824
 30
0.0
 10
240.7897815861
 20
612.823993302
 30
0.0
 10
247.8357679863
 20
611.1729119424
 30
0.0
 10
252.4392610274
 20
609.0902192629
 30
0.0
 10
254.7563319558
 20
607.8229211059
 30
0.0
  0
SPLINE
  5
45A
100
AcDbEntity
  8
0
100
AcDbSpline
 62
7
  6
CONTINUOUS
 70
0
 71
3
 72
9
 73
5
 74
0
 42
0.0000001
 43
0.0000001
 44
0.0000000001
 40
0.0
 40
0.0
 40
0.0
 40
0.0
 40
0.4482124829
 40
1.0
 40
1.0
 40
1.0
 40
1.0
 10
176.1340588494
 20
638.8672345483
 30
0.0
 10
178.5111941171
 20
639.2353483792
 30
0.0
 10
183.4511883408
 20
641.9498755701
 30
0.0
 10
186.9950215435
 20
646.0626131492
 30
0.0
 10
188.6145190204
 20
648.5418745366
 30
0.0
  0
SPLINE
  5
45B
100
AcDbEntity
  8
0
100
AcDbSpline
 62
7
  6
CONTINUOUS
 70
0
 71
3
 72
8
 73
4
 74
0
 42
0.0000001
 43
0.0000001
 44
0.0000000001
 40
0.0
 40
0.0
 40
0.0
 40
0.0
 40
1.0
 40
1.0
 40
1.0
 40
1.0
 10
176.5328216342
 20
648.2925256169
 30
0.0
 10
176.2763043329
 20
648.550398227
 30
0.0
 10
175.9373741189
 20
648.7330702463
 30
0.0
 10
175.5906494013
 20
648.8429855735
 30
0.0
  0
SPLINE
  5
45C
100
AcDbEntity
  8
0
100
AcDbSpline
 62
7
  6
CONTINUOUS
 70
0
 71
3
 72
9
 73
5
 74
0
 42
0.0000001
 43
0.0000001
 44
0.0000000001
 40
0.0
 40
0.0
 40
0.0
 40
0.0
 40
0.2432107564
 40
1.0
 40
1.0
 40
1.0
 40
1.0
 10
175.5906494013
 20
648.8429855735
 30
0.0
 10
175.2943079725
 20
648.9369288762
 30
0.0
 10
174.0222043805
 20
649.1297311062
 30
0.0
 10
172.6568499714
 20
648.6690137602
 30
0.0
 10
171.9330841284
 20
648.027213386
 30
0.0
  0
SPLINE
  5
45D
100
AcDbEntity
  8
0
100
AcDbSpline
 62
7
  6
CONTINUOUS
 70
0
 71
3
 72
8
 73
4
 74
0
 42
0.0000001
 43
0.0000001
 44
0.0000000001
 40
0.0
 40
0.0
 40
0.0
 40
0.0
 40
1.0
 40
1.0
 40
1.0
 40
1.0
 10
176.5859682679
 20
648.9449228141
 30
0.0
 10
176.6422985
 20
648.7357425963
 30
0.0
 10
176.6510758674
 20
648.5098111994
 30
0.0
 10
176.6175240979
 20
648.2957931223
 30
0.0
  0
SPLINE
  5
45E
100
AcDbEntity
  8
0
100
AcDbSpline
 62
7
  6
CONTINUOUS
 70
0
 71
3
 72
8
 73
4
 74
0
 42
0.0000001
 43
0.0000001
 44
0.0000000001
 40
0.0
 40
0.0
 40
0.0
 40
0.0
 40
1.0
 40
1.0
 40
1.0
 40
1.0
 10
176.6175240979
 20
648.2957931223
 30
0.0
 10
176.5949070255
 20
648.1515246559
 30
0.0
 10
176.5534601421
 20
648.0093423703
 30
0.0
 10
176.4974681475
 20
647.8744727337
 30
0.0
  0
SPLINE
  5
45F
100
AcDbEntity
  8
0
100
AcDbSpline
 62
7
  6
CONTINUOUS
 70
0
 71
3
 72
8
 73
4
 74
0
 42
0.0000001
 43
0.0000001
 44
0.0000000001
 40
0.0
 40
0.0
 40
0.0
 40
0.0
 40
1.0
 40
1.0
 40
1.0
 40
1.0
 10
176.4974681475
 20
647.8744727337
 30
0.0
 10
176.349566354
 20
647.5182171418
 30
0.0
 10
176.0983281
 20
647.1997325571
 30
0.0
 10
175.8097185994
 20
646.9438076786
 30
0.0
  0
SPLINE
  5
460
100
AcDbEntity
  8
0
100
AcDbSpline
 62
7
  6
CONTINUOUS
 70
0
 71
3
 72
9
 73
5
 74
0
 42
0.0000001
 43
0.0000001
 44
0.0000000001
 40
0.0
 40
0.0
 40
0.0
 40
0.0
 40
0.7281018032
 40
1.0
 40
1.0
 40
1.0
 40
1.0
 10
163.7965137878
 20
554.7651722263
 30
0.0
 10
163.7966536184
 20
554.4561782933
 30
0.0
 10
163.6519004803
 20
554.0253165242
 30
0.0
 10
163.3949632072
 20
553.6881376985
 30
0.0
 10
163.319200952
 20
553.6011050022
 30
0.0
  0
SPLINE
  5
461
100
AcDbEntity
  8
0
100
AcDbSpline
 62
7
  6
CONTINUOUS
 70
0
 71
3
 72
8
 73
4
 74
0
 42
0.0000001
 43
0.0000001
 44
0.0000000001
 40
0.0
 40
0.0
 40
0.0
 40
0.0
 40
1.0
 40
1.0
 40
1.0
 40
1.0
 10
163.319200952
 20
553.6011050022
 30
0.0
 10
163.0835222425
 20
553.3303665786
 30
0.0
 10
162.7894391841
 20
553.1075618751
 30
0.0
 10
162.4785805354
 20
552.9280886219
 30
0.0
  0
SPLINE
  5
462
100
AcDbEntity
  8
0
100
AcDbSpline
 62
7
  6
CONTINUOUS
 70
0
 71
3
 72
9
 73
5
 74
0
 42
0.0000001
 43
0.0000001
 44
0.0000000001
 40
0.0
 40
0.0
 40
0.0
 40
0.0
 40
0.2281728462
 40
1.0
 40
1.0
 40
1.0
 40
1.0
 10
163.5275648335
 20
554.0167244062
 30
0.0
 10
163.4706022612
 20
554.107677982
 30
0.0
 10
163.189008774
 20
554.4863841002
 30
0.0
 10
162.8046520408
 20
554.7794458983
 30
0.0
 10
162.4908834942
 20
554.9620197523
 30
0.0
  0
SPLINE
  5
463
100
AcDbEntity
  8
0
100
AcDbSpline
 62
7
  6
CONTINUOUS
 70
0
 71
3
 72
9
 73
5
 74
0
 42
0.0000001
 43
0.0000001
 44
0.0000000001
 40
0.0
 40
0.0
 40
0.0
 40
0.0
 40
0.4997042732
 40
1.0
 40
1.0
 40
1.0
 40
1.0
 10
162.4908834942
 20
554.9620197523
 30
0.0
 10
161.54686688
 20
555.5113187606
 30
0.0
 10
159.304319697
 20
555.946661729
 30
0.0
 10
157.0615852941
 20
555.5159935654
 30
0.0
 10
156.114593009
 20
554.9692505783
 30
0.0
  0
SPLINE
  5
464
100
AcDbEntity
  8
0
100
AcDbSpline
 62
7
  6
CONTINUOUS
 70
0
 71
3
 72
9
 73
5
 74
0
 42
0.0000001
 43
0.0000001
 44
0.0000000001
 40
0.0
 40
0.0
 40
0.0
 40
0.0
 40
0.2275978953
 40
1.0
 40
1.0
 40
1.0
 40
1.0
 10
284.2687453526
 20
657.1388800139
 30
0.0
 10
284.0317531878
 20
656.7042900891
 30
0.0
 10
283.1463308467
 20
654.7091114158
 30
0.0
 10
282.8639405864
 20
652.4878036588
 30
0.0
 10
282.8639405864
 20
650.8078855716
 30
0.0
  0
SPLINE
  5
465
100
AcDbEntity
  8
0
100
AcDbSpline
 62
7
  6
CONTINUOUS
 70
0
 71
3
 72
13
 73
9
 74
0
 42
0.0000001
 43
0.0000001
 44
0.0000000001
 40
0.0
 40
0.0
 40
0.0
 40
0.0
 40
0.08714391
 40
0.1868569539
 40
0.3045313596
 40
0.4386686425
 40
0.7301226347
 40
1.0
 40
1.0
 40
1.0
 40
1.0
 10
282.4618174517
 20
657.4244041337
 30
0.0
 10
283.4732609257
 20
658.0084597181
 30
0.0
 10
286.0146356125
 20
658.6613552331
 30
0.0
 10
290.1048024855
 20
657.842069694
 30
0.0
 10
294.2845348605
 20
655.5600738668
 30
0.0
 10
299.7670817677
 20
650.6967554104
 30
0.0
 10
304.9167761995
 20
642.7364621059
 30
0.0
 10
306.905709513
 20
635.2376329309
 30
0.0
 10
306.905709513
 20
631.6205480133
 30
0.0
  0
SPLINE
  5
466
100
AcDbEntity
  8
0
100
AcDbSpline
 62
7
  6
CONTINUOUS
 70
0
 71
3
 72
9
 73
5
 74
0
 42
0.0000001
 43
0.0000001
 44
0.0000000001
 40
0.0
 40
0.0
 40
0.0
 40
0.0
 40
0.7364750433
 40
1.0
 40
1.0
 40
1.0
 40
1.0
 10
253.1277635297
 20
567.793441226
 30
0.0
 10
253.4602971712
 20
567.9853440291
 30
0.0
 10
253.9819331895
 20
568.1387134418
 30
0.0
 10
254.5032299792
 20
568.1473315767
 30
0.0
 10
254.6404954181
 20
568.1417474371
 30
0.0
  0
SPLINE
  5
467
100
AcDbEntity
  8
0
100
AcDbSpline
 62
7
  6
CONTINUOUS
 70
0
 71
3
 72
9
 73
5
 74
0
 42
0.0000001
 43
0.0000001
 44
0.0000000001
 40
0.0
 40
0.0
 40
0.0
 40
0.0
 40
0.4491274369
 40
1.0
 40
1.0
 40
1.0
 40
1.0
 10
252.0671077739
 20
567.1810749952
 30
0.0
 10
251.5612387092
 20
566.8891415503
 30
0.0
 10
250.6874920625
 20
565.7951736689
 30
0.0
 10
250.5136736049
 20
564.4642212062
 30
0.0
 10
250.5136736049
 20
563.7478458269
 30
0.0
  0
SPLINE
  5
468
100
AcDbEntity
  8
0
100
AcDbSpline
 62
7
  6
CONTINUOUS
 70
0
 71
3
 72
9
 73
5
 74
0
 42
0.0000001
 43
0.0000001
 44
0.0000000001
 40
0.0
 40
0.0
 40
0.0
 40
0.0
 40
0.7564772108
 40
1.0
 40
1.0
 40
1.0
 40
1.0
 10
175.8097185994
 20
646.9438076786
 30
0.0
 10
175.0900730086
 20
646.3056609439
 30
0.0
 10
173.7346489393
 20
645.8455812257
 30
0.0
 10
172.4685001663
 20
646.0302287695
 30
0.0
 10
172.1726621905
 20
646.1216105562
 30
0.0
  0
SPLINE
  5
469
100
AcDbEntity
  8
0
100
AcDbSpline
 62
7
  6
CONTINUOUS
 70
0
 71
3
 72
8
 73
4
 74
0
 42
0.0000001
 43
0.0000001
 44
0.0000000001
 40
0.0
 40
0.0
 40
0.0
 40
0.0
 40
1.0
 40
1.0
 40
1.0
 40
1.0
 10
172.1726621905
 20
646.1216105562
 30
0.0
 10
171.8171576215
 20
646.2314228364
 30
0.0
 10
171.4687435612
 20
646.4170565576
 30
0.0
 10
171.2070051205
 20
646.6815092455
 30
0.0
  0
SPLINE
  5
46A
100
AcDbEntity
  8
0
100
AcDbSpline
 62
7
  6
CONTINUOUS
 70
0
 71
3
 72
8
 73
4
 74
0
 42
0.0000001
 43
0.0000001
 44
0.0000000001
 40
0.0
 40
0.0
 40
0.0
 40
0.0
 40
1.0
 40
1.0
 40
1.0
 40
1.0
 10
171.2070051205
 20
646.6815092455
 30
0.0
 10
171.0138999132
 20
646.8766169681
 30
0.0
 10
170.8621910732
 20
647.1270682684
 30
0.0
 10
170.79081058
 20
647.3921370702
 30
0.0
  0
SPLINE
  5
46B
100
AcDbEntity
  8
0
100
AcDbSpline
 62
7
  6
CONTINUOUS
 70
0
 71
3
 72
9
 73
5
 74
0
 42
0.0000001
 43
0.0000001
 44
0.0000000001
 40
0.0
 40
0.0
 40
0.0
 40
0.0
 40
0.2673758694
 40
1.0
 40
1.0
 40
1.0
 40
1.0
 10
262.180975238
 20
558.2366007399
 30
0.0
 10
262.180975238
 20
558.0755508415
 30
0.0
 10
262.1604745309
 20
557.4738421539
 30
0.0
 10
262.0526997797
 20
556.8717319524
 30
0.0
 10
261.9080033285
 20
556.4548438897
 30
0.0
  0
SPLINE
  5
46C
100
AcDbEntity
  8
0
100
AcDbSpline
 62
7
  6
CONTINUOUS
 70
0
 71
3
 72
9
 73
5
 74
0
 42
0.0000001
 43
0.0000001
 44
0.0000000001
 40
0.0
 40
0.0
 40
0.0
 40
0.0
 40
0.5114662223
 40
1.0
 40
1.0
 40
1.0
 40
1.0
 10
257.9383168871
 20
566.6860881542
 30
0.0
 10
259.215605663
 20
565.6476010682
 30
0.0
 10
261.2050470237
 20
563.0052196345
 30
0.0
 10
262.180975238
 20
559.8089754059
 30
0.0
 10
262.180975238
 20
558.2366007399
 30
0.0
  0
SPLINE
  5
46D
100
AcDbEntity
  8
0
100
AcDbSpline
 62
7
  6
CONTINUOUS
 70
0
 71
3
 72
9
 73
5
 74
0
 42
0.0000001
 43
0.0000001
 44
0.0000000001
 40
0.0
 40
0.0
 40
0.0
 40
0.0
 40
0.2330299221
 40
1.0
 40
1.0
 40
1.0
 40
1.0
 10
216.572397966
 20
584.5681294065
 30
0.0
 10
216.572397966
 20
582.5820831653
 30
0.0
 10
217.0456468951
 20
574.0604619422
 30
0.0
 10
219.1872586695
 20
565.679230098
 30
0.0
 10
221.4540342884
 20
559.5481869714
 30
0.0
  0
SPLINE
  5
46E
100
AcDbEntity
  8
0
100
AcDbSpline
 62
7
  6
CONTINUOUS
 70
0
 71
3
 72
13
 73
9
 74
0
 42
0.0000001
 43
0.0000001
 44
0.0000000001
 40
0.0
 40
0.0
 40
0.0
 40
0.0
 40
0.3017775924
 40
0.5806426856
 40
0.7035030979
 40
0.8130802096
 40
0.9105504688
 40
1.0
 40
1.0
 40
1.0
 40
1.0
 10
224.8658288846
 20
551.5022159072
 30
0.0
 10
228.2562780851
 20
544.4274700741
 30
0.0
 10
236.4166116948
 20
531.5525834369
 30
0.0
 10
249.7967478271
 20
518.697251497
 30
0.0
 10
261.413917803
 20
512.0971640958
 30
0.0
 10
269.6434978848
 20
509.4274124001
 30
0.0
 10
277.443497819
 20
508.9905723478
 30
0.0
 10
282.2357643642
 20
510.3343296845
 30
0.0
 10
284.3190087136
 20
511.3675359374
 30
0.0
  0
SPLINE
  5
46F
100
AcDbEntity
  8
0
100
AcDbSpline
 62
7
  6
CONTINUOUS
 70
0
 71
3
 72
9
 73
5
 74
0
 42
0.0000001
 43
0.0000001
 44
0.0000000001
 40
0.0
 40
0.0
 40
0.0
 40
0.0
 40
0.2874804114
 40
1.0
 40
1.0
 40
1.0
 40
1.0
 10
396.8850540421
 20
544.9694649765
 30
0.0
 10
396.8850540421
 20
545.7312409881
 30
0.0
 10
396.7213943705
 20
548.3576567933
 30
0.0
 10
395.6639727376
 20
551.0722226624
 30
0.0
 10
394.2887059519
 20
552.3658271945
 30
0.0
  0
SPLINE
  5
470
100
AcDbEntity
  8
0
100
AcDbSpline
 62
7
  6
CONTINUOUS
 70
0
 71
3
 72
9
 73
5
 74
0
 42
0.0000001
 43
0.0000001
 44
0.0000000001
 40
0.0
 40
0.0
 40
0.0
 40
0.0
 40
0.2874804114
 40
1.0
 40
1.0
 40
1.0
 40
1.0
 10
955.4970854411
 20
867.482346535
 30
0.0
 10
955.4970854411
 20
868.2441225466
 30
0.0
 10
955.3334257694
 20
870.8705383518
 30
0.0
 10
954.2760041365
 20
873.5851042209
 30
0.0
 10
952.9007373509
 20
874.878708753
 30
0.0
  0
SPLINE
  5
471
100
AcDbEntity
  8
0
100
AcDbSpline
 62
7
  6
CONTINUOUS
 70
0
 71
3
 72
9
 73
5
 74
0
 42
0.0000001
 43
0.0000001
 44
0.0000000001
 40
0.0
 40
0.0
 40
0.0
 40
0.0
 40
0.4874422504
 40
1.0
 40
1.0
 40
1.0
 40
1.0
 10
261.1203194821
 20
557.6242345091
 30
0.0
 10
261.1203194821
 20
559.169369872
 30
0.0
 10
260.1734844406
 20
562.318987826
 30
0.0
 10
258.2369480967
 20
564.932956333
 30
0.0
 10
256.9931163747
 20
565.9782747522
 30
0.0
  0
SPLINE
  5
472
100
AcDbEntity
  8
0
100
AcDbSpline
 62
7
  6
CONTINUOUS
 70
0
 71
3
 72
8
 73
4
 74
0
 42
0.0000001
 43
0.0000001
 44
0.0000000001
 40
0.0
 40
0.0
 40
0.0
 40
0.0
 40
1.0
 40
1.0
 40
1.0
 40
1.0
 10
260.8473475727
 20
555.8424776589
 30
0.0
 10
260.9750443551
 20
556.2103876098
 30
0.0
 10
261.0515097026
 20
556.5978175322
 30
0.0
 10
261.0897550969
 20
556.985375902
 30
0.0
  0
SPLINE
  5
473
100
AcDbEntity
  8
0
100
AcDbSpline
 62
7
  6
CONTINUOUS
 70
0
 71
3
 72
8
 73
4
 74
0
 42
0.0000001
 43
0.0000001
 44
0.0000000001
 40
0.0
 40
0.0
 40
0.0
 40
0.0
 40
1.0
 40
1.0
 40
1.0
 40
1.0
 10
261.0897550969
 20
556.985375902
 30
0.0
 10
261.1106922463
 20
557.1975417762
 30
0.0
 10
261.1203194821
 20
557.4110380683
 30
0.0
 10
261.1203194821
 20
557.6242345091
 30
0.0
  0
SPLINE
  5
474
100
AcDbEntity
  8
0
100
AcDbSpline
 62
7
  6
CONTINUOUS
 70
0
 71
3
 72
13
 73
9
 74
0
 42
0.0000001
 43
0.0000001
 44
0.0000000001
 40
0.0
 40
0.0
 40
0.0
 40
0.0
 40
0.08714391
 40
0.1868569539
 40
0.3045313596
 40
0.4386686425
 40
0.7301226347
 40
1.0
 40
1.0
 40
1.0
 40
1.0
 10
223.5153684894
 20
659.2551808522
 30
0.0
 10
222.5039250154
 20
658.6711252679
 30
0.0
 10
219.9625503286
 20
658.0182297529
 30
0.0
 10
215.8723834556
 20
658.837515292
 30
0.0
 10
211.6926510806
 20
661.1195111192
 30
0.0
 10
206.2101041734
 20
665.9828295756
 30
0.0
 10
201.0604097416
 20
673.9431228801
 30
0.0
 10
199.0714764281
 20
681.4419520551
 30
0.0
 10
199.0714764281
 20
685.0590369727
 30
0.0
  0
SPLINE
  5
475
100
AcDbEntity
  8
0
100
AcDbSpline
 62
7
  6
CONTINUOUS
 70
0
 71
3
 72
9
 73
5
 74
0
 42
0.0000001
 43
0.0000001
 44
0.0000000001
 40
0.0
 40
0.0
 40
0.0
 40
0.0
 40
0.2659147287
 40
1.0
 40
1.0
 40
1.0
 40
1.0
 10
220.3933785326
 20
558.9358207406
 30
0.0
 10
219.6076688947
 20
561.0609625652
 30
0.0
 10
216.9564134292
 20
569.1538386045
 30
0.0
 10
215.5117422102
 20
577.7009585022
 30
0.0
 10
215.5117422102
 20
583.9557631757
 30
0.0
  0
SPLINE
  5
476
100
AcDbEntity
  8
0
100
AcDbSpline
 62
7
  6
CONTINUOUS
 70
0
 71
3
 72
10
 73
6
 74
0
 42
0.0000001
 43
0.0000001
 44
0.0000000001
 40
0.0
 40
0.0
 40
0.0
 40
0.0
 40
0.5428333756
 40
0.7781456585
 40
1.0
 40
1.0
 40
1.0
 40
1.0
 10
945.8874658178
 20
1049.385118705
 30
0.0
 10
948.7557888375
 20
1051.261964672
 30
0.0
 10
952.5885553061
 20
1054.6422570679
 30
0.0
 10
955.4277729181
 20
1060.3616393881
 30
0.0
 10
955.8987528021
 20
1063.2664777314
 30
0.0
 10
955.8987527842
 20
1064.6674100025
 30
0.0
  0
SPLINE
  5
477
100
AcDbEntity
  8
0
100
AcDbSpline
 62
7
  6
CONTINUOUS
 70
0
 71
3
 72
11
 73
7
 74
0
 42
0.0000001
 43
0.0000001
 44
0.0000000001
 40
0.0
 40
0.0
 40
0.0
 40
0.0
 40
0.237228705
 40
0.5000005261
 40
0.7627720609
 40
1.0
 40
1.0
 40
1.0
 40
1.0
 10
329.0028619282
 20
725.8247622892
 30
0.0
 10
333.0182554131
 20
723.5065262253
 30
0.0
 10
342.3563615384
 20
720.1233110922
 30
0.0
 10
357.2871776443
 20
718.5027183819
 30
0.0
 10
372.217971222
 20
720.1233792283
 30
0.0
 10
381.5560406193
 20
723.5066407287
 30
0.0
 10
385.5714044226
 20
725.8248982633
 30
0.0
  0
SPLINE
  5
478
100
AcDbEntity
  8
0
100
AcDbSpline
 62
7
  6
CONTINUOUS
 70
0
 71
3
 72
13
 73
9
 74
0
 42
0.0000001
 43
0.0000001
 44
0.0000000001
 40
0.0
 40
0.0
 40
0.0
 40
0.0
 40
0.08714391
 40
0.1868569539
 40
0.3045313596
 40
0.4386686425
 40
0.7301226347
 40
1.0
 40
1.0
 40
1.0
 40
1.0
 10
302.7116577059
 20
622.350442451
 30
0.0
 10
301.7002142318
 20
621.7663868666
 30
0.0
 10
299.1588395451
 20
621.1134913516
 30
0.0
 10
295.068672672
 20
621.9327768907
 30
0.0
 10
290.888940297
 20
624.2147727179
 30
0.0
 10
285.4063933898
 20
629.0780911743
 30
0.0
 10
280.2566989581
 20
637.0383844788
 30
0.0
 10
278.2677656446
 20
644.5372136538
 30
0.0
 10
278.2677656446
 20
648.1542985714
 30
0.0
  0
SPLINE
  5
479
100
AcDbEntity
  8
0
100
AcDbSpline
 62
7
  6
CONTINUOUS
 70
0
 71
3
 72
11
 73
7
 74
0
 42
0.0000001
 43
0.0000001
 44
0.0000000001
 40
0.0
 40
0.0
 40
0.0
 40
0.0
 40
0.2177727701
 40
0.4509280213
 40
0.7102223029
 40
1.0
 40
1.0
 40
1.0
 40
1.0
 10
955.8987527842
 20
908.3071971222
 30
0.0
 10
955.8987528037
 20
906.7837317872
 30
0.0
 10
955.3361298541
 20
903.6079803406
 30
0.0
 10
952.9285884185
 20
899.1841406018
 30
0.0
 10
949.1237142538
 20
895.1837492045
 30
0.0
 10
945.9390344701
 20
892.9911562434
 30
0.0
 10
944.1834358215
 20
891.9775669414
 30
0.0
  0
SPLINE
  5
47A
100
AcDbEntity
  8
0
100
AcDbSpline
 62
7
  6
CONTINUOUS
 70
0
 71
3
 72
10
 73
6
 74
0
 42
0.0000001
 43
0.0000001
 44
0.0000000001
 40
0.0
 40
0.0
 40
0.0
 40
0.0
 40
0.2218538222
 40
0.4571658792
 40
1.0
 40
1.0
 40
1.0
 40
1.0
 10
168.7942671673
 20
827.8850868934
 30
0.0
 10
168.7942671852
 20
826.4841363425
 30
0.0
 10
169.2652599684
 20
823.5792576657
 30
0.0
 10
172.1045546679
 20
817.8598022555
 30
0.0
 10
175.937413397
 20
814.4794871196
 30
0.0
 10
178.8058006345
 20
812.6026343592
 30
0.0
  0
SPLINE
  5
47B
100
AcDbEntity
  8
0
100
AcDbSpline
 62
7
  6
CONTINUOUS
 70
0
 71
3
 72
13
 73
9
 74
0
 42
0.0000001
 43
0.0000001
 44
0.0000000001
 40
0.0
 40
0.0
 40
0.0
 40
0.0
 40
0.0871398422
 40
0.1868478565
 40
0.3045221706
 40
0.4386565006
 40
0.7300925043
 40
1.0
 40
1.0
 40
1.0
 40
1.0
 10
291.722499497
 20
682.2093309054
 30
0.0
 10
291.1730879938
 20
681.8921164858
 30
0.0
 10
289.7927699146
 20
681.5371802702
 30
0.0
 10
287.571008203
 20
681.9823357635
 30
0.0
 10
285.3005822305
 20
683.2217492836
 30
0.0
 10
282.3224845803
 20
685.8633573924
 30
0.0
 10
279.5249447584
 20
690.1873423747
 30
0.0
 10
278.4445430758
 20
694.2608507305
 30
0.0
 10
278.4445430758
 20
696.2258809934
 30
0.0
  0
SPLINE
  5
47C
100
AcDbEntity
  8
0
100
AcDbSpline
 62
7
  6
CONTINUOUS
 70
0
 71
3
 72
11
 73
7
 74
0
 42
0.0000001
 43
0.0000001
 44
0.0000000001
 40
0.0
 40
0.0
 40
0.0
 40
0.0
 40
0.2372279391
 40
0.4999994739
 40
0.762771295
 40
1.0
 40
1.0
 40
1.0
 40
1.0
 10
385.5714044226
 20
569.4646853829
 30
0.0
 10
381.5560406193
 20
567.1464278483
 30
0.0
 10
372.217971222
 20
563.763166348
 30
0.0
 10
357.2871776443
 20
562.1425055016
 30
0.0
 10
342.3563615384
 20
563.7630982119
 30
0.0
 10
333.0182554131
 20
567.1463133449
 30
0.0
 10
329.0028619282
 20
569.4645494089
 30
0.0
  0
SPLINE
  5
47D
100
AcDbEntity
  8
0
100
AcDbSpline
 62
7
  6
CONTINUOUS
 70
0
 71
3
 72
9
 73
5
 74
0
 42
0.0000001
 43
0.0000001
 44
0.0000000001
 40
0.0
 40
0.0
 40
0.0
 40
0.0
 40
0.4553489489
 40
1.0
 40
1.0
 40
1.0
 40
1.0
 10
394.571062049
 20
552.3928080318
 30
0.0
 10
395.6658375611
 20
551.7601733935
 30
0.0
 10
397.6002943718
 20
549.5231559532
 30
0.0
 10
398.1647479811
 20
546.7177199476
 30
0.0
 10
398.2648714032
 20
545.2086413267
 30
0.0
  0
SPLINE
  5
47E
100
AcDbEntity
  8
0
100
AcDbSpline
 62
7
  6
CONTINUOUS
 70
0
 71
3
 72
12
 73
8
 74
0
 42
0.0000001
 43
0.0000001
 44
0.0000000001
 40
0.0
 40
0.0
 40
0.0
 40
0.0
 40
0.2712930882
 40
0.4196462998
 40
0.5652356706
 40
0.8165951115
 40
1.0
 40
1.0
 40
1.0
 40
1.0
 10
156.114593009
 20
556.6022554126
 30
0.0
 10
156.8108276777
 20
557.0042242865
 30
0.0
 10
158.0541347803
 20
557.3400308228
 30
0.0
 10
159.7315009896
 20
557.3891790967
 30
0.0
 10
161.3341641418
 20
557.1532776685
 30
0.0
 10
162.9883823497
 20
556.5367207487
 30
0.0
 10
163.7962678367
 20
555.3086684097
 30
0.0
 10
163.7965137878
 20
554.7651722263
 30
0.0
  0
SPLINE
  5
47F
100
AcDbEntity
  8
0
100
AcDbSpline
 62
7
  6
CONTINUOUS
 70
0
 71
3
 72
10
 73
6
 74
0
 42
0.0000001
 43
0.0000001
 44
0.0000000001
 40
0.0
 40
0.0
 40
0.0
 40
0.0
 40
0.2987305544
 40
0.5723825752
 40
1.0
 40
1.0
 40
1.0
 40
1.0
 10
189.8415123353
 20
647.4421977399
 30
0.0
 10
188.8325921881
 20
645.9343460384
 30
0.0
 10
186.6224433332
 20
643.1981551462
 30
0.0
 10
182.0300834475
 20
639.3019586988
 30
0.0
 10
177.5868606928
 20
637.6157786319
 30
0.0
 10
175.0254512343
 20
638.0443673128
 30
0.0
  0
SPLINE
  5
480
100
AcDbEntity
  8
0
100
AcDbSpline
 62
7
  6
CONTINUOUS
 70
0
 71
3
 72
9
 73
5
 74
0
 42
0.0000001
 43
0.0000001
 44
0.0000000001
 40
0.0
 40
0.0
 40
0.0
 40
0.0
 40
0.5310532416
 40
1.0
 40
1.0
 40
1.0
 40
1.0
 10
174.9016559623
 20
659.2598084709
 30
0.0
 10
173.0777571122
 20
660.9393079409
 30
0.0
 10
170.0296519679
 20
664.6270036778
 30
0.0
 10
168.7942671953
 20
669.3354565473
 30
0.0
 10
168.7942671673
 20
671.5248740131
 30
0.0
  0
SPLINE
  5
481
100
AcDbEntity
  8
0
100
AcDbSpline
 62
7
  6
CONTINUOUS
 70
0
 71
3
 72
8
 73
4
 74
0
 42
0.0000001
 43
0.0000001
 44
0.0000000001
 40
0.0
 40
0.0
 40
0.0
 40
0.0
 40
1.0
 40
1.0
 40
1.0
 40
1.0
 10
171.5670602485
 20
649.3932522057
 30
0.0
 10
171.8927627679
 20
649.6820693706
 30
0.0
 10
172.2803612847
 20
649.9080133072
 30
0.0
 10
172.6852633644
 20
650.0678625852
 30
0.0
  0
SPLINE
  5
482
100
AcDbEntity
  8
0
100
AcDbSpline
 62
7
  6
CONTINUOUS
 70
0
 71
3
 72
9
 73
5
 74
0
 42
0.0000001
 43
0.0000001
 44
0.0000000001
 40
0.0
 40
0.0
 40
0.0
 40
0.0
 40
0.5614444727
 40
1.0
 40
1.0
 40
1.0
 40
1.0
 10
172.6852633644
 20
650.0678625852
 30
0.0
 10
173.4508787829
 20
650.3701160882
 30
0.0
 10
174.9997661808
 20
650.6041702294
 30
0.0
 10
176.4187826416
 20
649.5657604079
 30
0.0
 10
176.5859682679
 20
648.9449228141
 30
0.0
  0
SPLINE
  5
483
100
AcDbEntity
  8
0
100
AcDbSpline
 62
7
  6
CONTINUOUS
 70
0
 71
3
 72
12
 73
8
 74
0
 42
0.0000001
 43
0.0000001
 44
0.0000000001
 40
0.0
 40
0.0
 40
0.0
 40
0.0
 40
0.2712930882
 40
0.4196462998
 40
0.5652356706
 40
0.8165951115
 40
1.0
 40
1.0
 40
1.0
 40
1.0
 10
332.8920242958
 20
454.5420667825
 30
0.0
 10
333.5882589645
 20
454.9440356565
 30
0.0
 10
334.831566067
 20
455.2798421927
 30
0.0
 10
336.5089322763
 20
455.3289904667
 30
0.0
 10
338.1115954285
 20
455.0930890385
 30
0.0
 10
339.7658136365
 20
454.4765321186
 30
0.0
 10
340.5736991234
 20
453.2484797796
 30
0.0
 10
340.5739450745
 20
452.7049835962
 30
0.0
  0
SPLINE
  5
484
100
AcDbEntity
  8
0
100
AcDbSpline
 62
7
  6
CONTINUOUS
 70
0
 71
3
 72
9
 73
5
 74
0
 42
0.0000001
 43
0.0000001
 44
0.0000000001
 40
0.0
 40
0.0
 40
0.0
 40
0.0
 40
0.4553489489
 40
1.0
 40
1.0
 40
1.0
 40
1.0
 10
953.1830934479
 20
874.9056895903
 30
0.0
 10
954.2778689601
 20
874.273054952
 30
0.0
 10
956.2123257707
 20
872.0360375116
 30
0.0
 10
956.77677938
 20
869.2306015061
 30
0.0
 10
956.8769028022
 20
867.7215228852
 30
0.0
  0
SPLINE
  5
485
100
AcDbEntity
  8
0
100
AcDbSpline
 62
7
  6
CONTINUOUS
 70
0
 71
3
 72
9
 73
5
 74
0
 42
0.0000001
 43
0.0000001
 44
0.0000000001
 40
0.0
 40
0.0
 40
0.0
 40
0.0
 40
0.268596087
 40
1.0
 40
1.0
 40
1.0
 40
1.0
 10
254.7563319558
 20
567.298444187
 30
0.0
 10
254.6091465323
 20
567.3487277679
 30
0.0
 10
254.0536263073
 20
567.5103786183
 30
0.0
 10
253.4596733846
 20
567.5617670628
 30
0.0
 10
253.0397771428
 20
567.5063378124
 30
0.0
  0
SPLINE
  5
486
100
AcDbEntity
  8
0
100
AcDbSpline
 62
7
  6
CONTINUOUS
 70
0
 71
3
 72
8
 73
4
 74
0
 42
0.0000001
 43
0.0000001
 44
0.0000000001
 40
0.0
 40
0.0
 40
0.0
 40
0.0
 40
1.0
 40
1.0
 40
1.0
 40
1.0
 10
253.0397771428
 20
567.5063378124
 30
0.0
 10
252.7008465351
 20
567.4615965938
 30
0.0
 10
252.3632096784
 20
567.3519533016
 30
0.0
 10
252.0671077739
 20
567.1810749952
 30
0.0
  0
SPLINE
  5
487
100
AcDbEntity
  8
0
100
AcDbSpline
 62
7
  6
CONTINUOUS
 70
0
 71
3
 72
9
 73
5
 74
0
 42
0.0000001
 43
0.0000001
 44
0.0000000001
 40
0.0
 40
0.0
 40
0.0
 40
0.0
 40
0.5507896974
 40
1.0
 40
1.0
 40
1.0
 40
1.0
 10
278.2677656446
 20
648.1542985714
 30
0.0
 10
278.2677656446
 20
650.0882474195
 30
0.0
 10
278.7370440069
 20
653.6818606286
 30
0.0
 10
281.0959101878
 20
656.6356642924
 30
0.0
 10
282.4618174517
 20
657.4244041337
 30
0.0
  0
SPLINE
  5
488
100
AcDbEntity
  8
0
100
AcDbSpline
 62
7
  6
CONTINUOUS
 70
0
 71
3
 72
9
 73
5
 74
0
 42
0.0000001
 43
0.0000001
 44
0.0000000001
 40
0.0
 40
0.0
 40
0.0
 40
0.0
 40
0.5507896974
 40
1.0
 40
1.0
 40
1.0
 40
1.0
 10
199.0714764281
 20
685.0590369727
 30
0.0
 10
199.0714764281
 20
686.9929858208
 30
0.0
 10
199.5407547904
 20
690.5865990299
 30
0.0
 10
201.8996209713
 20
693.5404026937
 30
0.0
 10
203.2655282352
 20
694.329142535
 30
0.0
  0
SPLINE
  5
489
100
AcDbEntity
  8
0
100
AcDbSpline
 62
7
  6
CONTINUOUS
 70
0
 71
3
 72
13
 73
9
 74
0
 42
0.0000001
 43
0.0000001
 44
0.0000000001
 40
0.0
 40
0.0
 40
0.0
 40
0.0
 40
0.2698713503
 40
0.5613142991
 40
0.6954586824
 40
0.813136848
 40
0.9128521826
 40
1.0
 40
1.0
 40
1.0
 40
1.0
 10
398.2992734924
 20
544.1529834674
 30
0.0
 10
398.2992734924
 20
540.9378870084
 30
0.0
 10
396.53158056
 20
534.2724707393
 30
0.0
 10
391.9542781413
 20
527.1967236272
 30
0.0
 10
387.0810857645
 20
522.8736448955
 30
0.0
 10
383.3656392487
 20
520.8450722283
 30
0.0
 10
379.7299536799
 20
520.1167942992
 30
0.0
 10
377.4706794916
 20
520.696905826
 30
0.0
 10
376.5717467962
 20
521.2163693637
 30
0.0
  0
SPLINE
  5
48A
100
AcDbEntity
  8
0
100
AcDbSpline
 62
7
  6
CONTINUOUS
 70
0
 71
3
 72
9
 73
5
 74
0
 42
0.0000001
 43
0.0000001
 44
0.0000000001
 40
0.0
 40
0.0
 40
0.0
 40
0.0
 40
0.7308805507
 40
1.0
 40
1.0
 40
1.0
 40
1.0
 10
170.79081058
 20
647.3921370702
 30
0.0
 10
170.7061339104
 20
647.7065807275
 30
0.0
 10
170.7441133157
 20
648.1872910205
 30
0.0
 10
170.9339126077
 20
648.5901770432
 30
0.0
 10
170.9928455462
 20
648.6946018518
 30
0.0
  0
SPLINE
  5
48B
100
AcDbEntity
  8
0
100
AcDbSpline
 62
7
  6
CONTINUOUS
 70
0
 71
3
 72
8
 73
4
 74
0
 42
0.0000001
 43
0.0000001
 44
0.0000000001
 40
0.0
 40
0.0
 40
0.0
 40
0.0
 40
1.0
 40
1.0
 40
1.0
 40
1.0
 10
170.9928455462
 20
648.6946018518
 30
0.0
 10
171.1410038391
 20
648.9571273899
 30
0.0
 10
171.3415164236
 20
649.1932509033
 30
0.0
 10
171.5670602485
 20
649.3932522057
 30
0.0
  0
SPLINE
  5
48C
100
AcDbEntity
  8
0
100
AcDbSpline
 62
7
  6
CONTINUOUS
 70
0
 71
3
 72
13
 73
9
 74
0
 42
0.0000001
 43
0.0000001
 44
0.0000000001
 40
0.0
 40
0.0
 40
0.0
 40
0.0
 40
0.089307377
 40
0.1859446817
 40
0.2946596488
 40
0.4170320797
 40
0.6963991953
 40
1.0
 40
1.0
 40
1.0
 40
1.0
 10
284.3168959639
 20
511.322471825
 30
0.0
 10
282.2752407518
 20
510.1437173812
 30
0.0
 10
277.5138864344
 20
508.4997117694
 30
0.0
 10
269.6179258109
 20
508.6136473882
 30
0.0
 10
261.2394821414
 20
511.0841490616
 30
0.0
 10
249.3434463305
 20
517.5737063502
 30
0.0
 10
235.6086584861
 20
530.5693033442
 30
0.0
 10
227.2577014798
 20
543.6814256286
 30
0.0
 10
223.7957713098
 20
550.9094737894
 30
0.0
  0
SPLINE
  5
48D
100
AcDbEntity
  8
0
100
AcDbSpline
 62
7
  6
CONTINUOUS
 70
0
 71
3
 72
9
 73
5
 74
0
 42
0.0000001
 43
0.0000001
 44
0.0000000001
 40
0.0
 40
0.0
 40
0.0
 40
0.0
 40
0.550850831
 40
1.0
 40
1.0
 40
1.0
 40
1.0
 10
278.4445430758
 20
696.2258809934
 30
0.0
 10
278.4445430758
 20
697.2765178447
 30
0.0
 10
278.6992326752
 20
699.2287533184
 30
0.0
 10
279.9811167822
 20
700.8327920723
 30
0.0
 10
280.7230006079
 20
701.261134482
 30
0.0
  0
SPLINE
  5
48E
100
AcDbEntity
  8
0
100
AcDbSpline
 62
7
  6
CONTINUOUS
 70
0
 71
3
 72
11
 73
7
 74
0
 42
0.0000001
 43
0.0000001
 44
0.0000000001
 40
0.0
 40
0.0
 40
0.0
 40
0.0
 40
0.2887508593
 40
0.5475824235
 40
0.7811961013
 40
1.0
 40
1.0
 40
1.0
 40
1.0
 10
215.5188549523
 20
584.8237024441
 30
0.0
 10
215.5648661969
 20
587.618902134
 30
0.0
 10
216.0724385566
 20
592.9308887436
 30
0.0
 10
218.3390120354
 20
600.2156726348
 30
0.0
 10
222.0447246857
 20
606.1273737449
 30
0.0
 10
225.4825474621
 20
608.9903859677
 30
0.0
 10
227.3171758341
 20
610.0494722375
 30
0.0
  0
SPLINE
  5
48F
100
AcDbEntity
  8
0
100
AcDbSpline
 62
7
  6
CONTINUOUS
 70
0
 71
3
 72
13
 73
9
 74
0
 42
0.0000001
 43
0.0000001
 44
0.0000000001
 40
0.0
 40
0.0
 40
0.0
 40
0.0
 40
0.2698713503
 40
0.5613142991
 40
0.6954586824
 40
0.813136848
 40
0.9128521826
 40
1.0
 40
1.0
 40
1.0
 40
1.0
 10
956.9113048914
 20
866.6658650259
 30
0.0
 10
956.9113048914
 20
863.4507685669
 30
0.0
 10
955.143611959
 20
856.7853522978
 30
0.0
 10
950.5663095402
 20
849.7096051857
 30
0.0
 10
945.6931171634
 20
845.386526454
 30
0.0
 10
941.9776706477
 20
843.3579537868
 30
0.0
 10
938.3419850788
 20
842.6296758576
 30
0.0
 10
936.0827108906
 20
843.2097873844
 30
0.0
 10
935.1837781952
 20
843.7292509222
 30
0.0
  0
ENDSEC
  0
SECTION
  2
OBJECTS
  0
DICTIONARY
  5
C
100
AcDbDictionary
280
0
281
1
  3
ACAD_GROUP
350
D
  3
ACAD_MLINESTYLE
350
17
  3
ACAD_LAYOUT
350
1A
  3
ACAD_PLOTSETTINGS
350
19
  3
ACAD_PLOTSTYLENAME
350
E
  0
DICTIONARY
  5
D
102
{ACAD_REACTORS
330
C
102
}
100
AcDbDictionary
280
0
281
1
  0
ACDBDICTIONARYWDFLT
  5
E
102
{ACAD_REACTORS
330
C
102
}
100
AcDbDictionary
281
1
  3
Normal
350
F
100
AcDbDictionaryWithDefault
340
F
  0
DICTIONARY
  5
17
102
{ACAD_REACTORS
330
C
102
}
100
AcDbDictionary
280
0
281
1
  3
Standard
350
18
  0
DICTIONARY
  5
19
102
{ACAD_REACTORS
330
C
102
}
100
AcDbDictionary
281
1
  0
DICTIONARY
  5
1A
102
{ACAD_REACTORS
330
C
102
}
100
AcDbDictionary
281
1
  3
Model
350
490
  3
Layout1
350
491
  0
ACDBPLACEHOLDER
  5
F
102
{ACAD_REACTORS
330
E
102
}
  0
MLINESTYLE
  5
18
102
{ACAD_REACTORS
330
17
102
}
100
AcDbMlineStyle
  2
STANDARD
 70
0
  3

 62
256
 51
90.0
 52
90.0
 71
2
 49
0.5
 62
256
  6
BYLAYER
 49
-0.5
 62
256
  6
BYLAYER
  0
LAYOUT
  5
490
102
{ACAD_REACTORS
330
1A
102
}
100
AcDbPlotSettings
  1

  2
none_device
  4

  6

 40
0.0
 41
0.0
 42
0.0
 43
0.0
 44
210.0
 45
297.0
 46
0.0
 47
0.0
 48
0.0
 49
0.0
140
0.0
141
0.0
142
1.0
143
1.0
 70
1024
 72
1
 73
0
 74
0
  7

 75
0
147
1.0
148
0.0
149
0.0
100
AcDbLayout
  1
Model
 70
0
 71
0
 10
0.0
 20
0.0
 11
210.0
 21
297.0
 12
0.0
 22
0.0
 32
0.0
 14
0.0
 24
0.0
 34
0.0
 15
0.0
 25
0.0
 35
0.0
146
0.0
 13
0.0
 23
0.0
 33
0.0
 16
1.0
 26
0.0
 36
0.0
 17
0.0
 27
1.0
 37
0.0
 76
0
330
210
345
0
346
0
  0
LAYOUT
  5
491
102
{ACAD_REACTORS
330
1A
102
}
100
AcDbPlotSettings
  1

  2
none_device
  4

  6

 40
0.0
 41
0.0
 42
0.0
 43
0.0
 44
210.0
 45
297.0
 46
0.0
 47
0.0
 48
0.0
 49
0.0
140
0.0
141
0.0
142
1.0
143
1.0
 70
0
 72
1
 73
0
 74
0
  7

 75
0
147
1.0
148
0.0
149
0.0
100
AcDbLayout
  1
Layout1
 70
0
 71
1
 10
0.0
 20
0.0
 11
210.0
 21
297.0
 12
0.0
 22
0.0
 32
0.0
 14
0.0
 24
0.0
 34
0.0
 15
0.0
 25
0.0
 35
0.0
146
0.0
 13
0.0
 23
0.0
 33
0.0
 16
1.0
 26
0.0
 36
0.0
 17
0.0
 27
1.0
 37
0.0
 76
0
330
211
345
0
346
0
  0
ENDSEC
  0
EOF
