999
DXF file: C:\Users\sesa63760\Dev\_Creo\CAD\MCADPD0004272_3D-CAD\drw0001_3.dxf
999
Pro/ENGINEER 2019471 by Parametric Technology Corporation
  0
SECTION
  2
HEADER
  9
$ACADVER
  1
AC1024
  9
$DWGCODEPAGE
  3
ANSI_1252
  9
$EXTMAX
 10
294.0210419291
 20
415.8297592998
 30
0.0
  9
$EXTMIN
 10
0.0
 20
0.0
 30
0.0
  9
$LIMMIN
 10
0.0
 20
0.0
  9
$LIMMAX
 10
294.0210419291
 20
415.8297592998
  9
$VIEWCTR
 10
147.0105209646
 20
207.9148796499
  9
$VIEWSIZE
 40
415.8297592998
  9
$CLAYER
  8
0
  9
$LTSCALE
 40
27.1059398655
  9
$CELTYPE
  6
BYLAYER
  9
$DIMSCALE
 40
1.0
  9
$DIMASZ
 40
3.5002504992
  9
$DIMEXO
 40
1.0
  9
$DIMDLI
 40
18.7277402707
  9
$DIMEXE
 40
1.0
  9
$DIMCEN
 40
4.4355174325
  9
$DIMLFAC
 40
1.0
  9
$DIMBLK
  1
_FILLED
  9
$DIMALT
 70
0
  9
$DIMALTF
 40
0.0393700787
  9
$DIMTXT
 40
4.9003506988
  9
$DIMTOL
 70
1
  9
$DIMLIM
 70
0
  9
$DIMTFAC
 40
1.0
  9
$DIMTP
 40
0.01
  9
$DIMTM
 40
0.01
  9
$DIMGAP
 40
0.625
  9
$DIMDSEP
 70
46
  9
$AUNITS
 70
0
  9
$PDMODE
 70
3
  9
$PDSIZE
 40
0.3125
  9
$HANDSEED
  5
316
  9
$TILEMODE
 70
1
  9
$MEASUREMENT
 70
1
  9
$INSUNITS
 70
4
  0
ENDSEC
  0
SECTION
  2
CLASSES
  0
CLASS
  1
ACDBDICTIONARYWDFLT
  2
AcDbDictionaryWithDefault
  3
AutoCAD 2000
 90
0
 91
1
280
0
281
0
  0
CLASS
  1
ACDBPLACEHOLDER
  2
AcDbPlaceHolder
  3
AutoCAD 2000
 90
0
 91
1
280
0
281
0
  0
CLASS
  1
LAYOUT
  2
AcDbLayout
  3
AutoCAD 2000
 90
0
 91
0
280
0
281
0
  0
ENDSEC
  0
SECTION
  2
TABLES
  0
TABLE
  2
VPORT
  5
8
100
AcDbSymbolTable
 70
2
  0
VPORT
  5
1F4
100
AcDbSymbolTableRecord
100
AcDbViewportTableRecord
  2
*ACTIVE
 70
0
 10
0.0
 20
0.0
 11
1.0
 21
1.0
 12
147.0105209646
 22
207.9148796499
 13
0.0
 23
0.0
 14
1.0
 24
1.0
 15
0.0
 25
0.0
 16
0.0
 26
0.0
 36
1.0
 17
0.0
 27
0.0
 37
0.0
 40
415.8297592998
 41
0.7070707071
 42
50.0
 43
0.0
 44
0.0
 50
0.0
 51
0.0
 71
0
 72
100
 73
1
 74
1
 75
0
 76
0
 77
0
 78
0
  0
ENDTAB
  0
TABLE
  2
LTYPE
  5
5
100
AcDbSymbolTable
 70
6
  0
LTYPE
  5
14
100
AcDbSymbolTableRecord
100
AcDbLinetypeTableRecord
  2
BYBLOCK
 70
0
  3

 72
65
 73
0
 40
0.0
  0
LTYPE
  5
15
100
AcDbSymbolTableRecord
100
AcDbLinetypeTableRecord
  2
BYLAYER
 70
0
  3

 72
65
 73
0
 40
0.0
  0
LTYPE
  5
16
100
AcDbSymbolTableRecord
100
AcDbLinetypeTableRecord
  2
CONTINUOUS
 70
64
  3
Solid line
 72
65
 73
0
 40
0.0
  0
LTYPE
  5
1F5
100
AcDbSymbolTableRecord
100
AcDbLinetypeTableRecord
  2
CENTER
 70
64
  3
____ _ ____ _ ____ _ ____ _ ____ _ ____ _ ____
 72
65
 73
4
 40
0.6
 49
0.375
 74
0
 49
-0.075
 74
0
 49
0.075
 74
0
 49
-0.075
 74
0
  0
LTYPE
  5
1F6
100
AcDbSymbolTableRecord
100
AcDbLinetypeTableRecord
  2
HIDDEN
 70
64
  3
- - - - - - - - - - - - - - - - - - - -
 72
65
 73
2
 40
0.2
 49
0.1
 74
0
 49
-0.1
 74
0
  0
LTYPE
  5
1F7
100
AcDbSymbolTableRecord
100
AcDbLinetypeTableRecord
  2
PHANTOM
 70
64
  3
_____ _ _ _____ _ _ _____ _ _ _____
 72
65
 73
6
 40
0.8
 49
0.45
 74
0
 49
-0.05
 74
0
 49
0.1
 74
0
 49
-0.05
 74
0
 49
0.1
 74
0
 49
-0.05
 74
0
  0
LTYPE
  5
1F8
100
AcDbSymbolTableRecord
100
AcDbLinetypeTableRecord
  2
DOT
 70
64
  3
. . . . . . . . . . . . . . . . . . . .
 72
65
 73
2
 40
0.2
 49
0.1
 74
0
 49
-0.1
 74
0
  0
LTYPE
  5
1F9
100
AcDbSymbolTableRecord
100
AcDbLinetypeTableRecord
  2
DASHED
 70
64
  3
- - - - - - - - - - - - - - - - - - - -
 72
65
 73
2
 40
0.2
 49
0.1
 74
0
 49
-0.1
 74
0
  0
ENDTAB
  0
TABLE
  2
LAYER
  5
2
100
AcDbSymbolTable
 70
36
  0
LAYER
  5
10
100
AcDbSymbolTableRecord
100
AcDbLayerTableRecord
  2
0
 70
0
 62
7
  6
CONTINUOUS
370
-3
390
F
  0
LAYER
  5
1FA
100
AcDbSymbolTableRecord
100
AcDbLayerTableRecord
  2
DEFAULT_1
 70
0
 62
7
  6
CENTER
370
-3
390
F
  0
LAYER
  5
1FB
100
AcDbSymbolTableRecord
100
AcDbLayerTableRecord
  2
DEFAULT_2
 70
0
 62
7
  6
HIDDEN
370
-3
390
F
  0
LAYER
  5
1FC
100
AcDbSymbolTableRecord
100
AcDbLayerTableRecord
  2
DEFAULT_3
 70
0
 62
7
  6
PHANTOM
370
-3
390
F
  0
LAYER
  5
1FD
100
AcDbSymbolTableRecord
100
AcDbLayerTableRecord
  2
00_COMPONENTS
 70
0
 62
7
  6
CONTINUOUS
370
-3
390
F
  0
LAYER
  5
1FE
100
AcDbSymbolTableRecord
100
AcDbLayerTableRecord
  2
01_1_DEFAULT_DATUMS
 70
0
 62
7
  6
CONTINUOUS
370
-3
390
F
  0
LAYER
  5
1FF
100
AcDbSymbolTableRecord
100
AcDbLayerTableRecord
  2
01_PLANES
 70
0
 62
7
  6
CONTINUOUS
370
-3
390
F
  0
LAYER
  5
200
100
AcDbSymbolTableRecord
100
AcDbLayerTableRecord
  2
02_COORD_SYS
 70
0
 62
7
  6
CONTINUOUS
370
-3
390
F
  0
LAYER
  5
201
100
AcDbSymbolTableRecord
100
AcDbLayerTableRecord
  2
03_AXES
 70
0
 62
7
  6
CONTINUOUS
370
-3
390
F
  0
LAYER
  5
202
100
AcDbSymbolTableRecord
100
AcDbLayerTableRecord
  2
04_POINTS
 70
0
 62
7
  6
CONTINUOUS
370
-3
390
F
  0
LAYER
  5
203
100
AcDbSymbolTableRecord
100
AcDbLayerTableRecord
  2
05_CURVES
 70
0
 62
7
  6
CONTINUOUS
370
-3
390
F
  0
LAYER
  5
204
100
AcDbSymbolTableRecord
100
AcDbLayerTableRecord
  2
06_SURFS
 70
0
 62
7
  6
CONTINUOUS
370
-3
390
F
  0
LAYER
  5
205
100
AcDbSymbolTableRecord
100
AcDbLayerTableRecord
  2
07_COSMETICS
 70
0
 62
7
  6
CONTINUOUS
370
-3
390
F
  0
LAYER
  5
206
100
AcDbSymbolTableRecord
100
AcDbLayerTableRecord
  2
10_NOTES
 70
0
 62
7
  6
CONTINUOUS
370
-3
390
F
  0
LAYER
  5
207
100
AcDbSymbolTableRecord
100
AcDbLayerTableRecord
  2
11_NOTES_PUB
 70
0
 62
7
  6
CONTINUOUS
370
-3
390
F
  0
LAYER
  5
208
100
AcDbSymbolTableRecord
100
AcDbLayerTableRecord
  2
13_REF_GTOL
 70
0
 62
7
  6
CONTINUOUS
370
-3
390
F
  0
LAYER
  5
209
100
AcDbSymbolTableRecord
100
AcDbLayerTableRecord
  2
16_MISC
 70
0
 62
7
  6
CONTINUOUS
370
-3
390
F
  0
LAYER
  5
20A
100
AcDbSymbolTableRecord
100
AcDbLayerTableRecord
  2
17_NO_PRINT
 70
0
 62
7
  6
CONTINUOUS
370
-3
390
F
  0
LAYER
  5
20B
100
AcDbSymbolTableRecord
100
AcDbLayerTableRecord
  2
18_DATUM_CAMS_JOINTS
 70
0
 62
7
  6
CONTINUOUS
370
-3
390
F
  0
LAYER
  5
20C
100
AcDbSymbolTableRecord
100
AcDbLayerTableRecord
  2
19_DATUM_FUNCTIONAL
 70
0
 62
7
  6
CONTINUOUS
370
-3
390
F
  0
LAYER
  5
20D
100
AcDbSymbolTableRecord
100
AcDbLayerTableRecord
  2
20_DATUM_KINEMATIC_SCHEME
 70
0
 62
7
  6
CONTINUOUS
370
-3
390
F
  0
ENDTAB
  0
TABLE
  2
STYLE
  5
3
100
AcDbSymbolTable
 70
1
  0
STYLE
  5
11
100
AcDbSymbolTableRecord
100
AcDbTextStyleTableRecord
  2
STANDARD
 70
0
 40
0.0
 41
1.0
 50
0.0
 71
0
 42
0.2
  3
ARIAL.TTF
  4

  0
STYLE
  5
20E
100
AcDbSymbolTableRecord
100
AcDbTextStyleTableRecord
  2
TEXTSTYLE_1
 70
0
 40
0.0
 41
0.8
 50
0.0
 71
0
 42
0.2
  3
gdt
  4

  0
ENDTAB
  0
TABLE
  2
VIEW
  5
6
100
AcDbSymbolTable
 70
0
  0
ENDTAB
  0
TABLE
  2
UCS
  5
7
100
AcDbSymbolTable
 70
0
  0
ENDTAB
  0
TABLE
  2
APPID
  5
9
100
AcDbSymbolTable
 70
1
  0
APPID
  5
20F
100
AcDbSymbolTableRecord
100
AcDbRegAppTableRecord
  2
ACAD
 70
0
  0
ENDTAB
  0
TABLE
  2
BLOCK_RECORD
  5
1
100
AcDbSymbolTable
 70
0
  0
BLOCK_RECORD
  5
210
100
AcDbSymbolTableRecord
100
AcDbBlockTableRecord
  2
*Model_Space
  0
BLOCK_RECORD
  5
211
100
AcDbSymbolTableRecord
100
AcDbBlockTableRecord
  2
*Paper_Space
  0
BLOCK_RECORD
  5
212
100
AcDbSymbolTableRecord
100
AcDbBlockTableRecord
  2
_FILLED
  0
ENDTAB
  0
TABLE
  2
DIMSTYLE
  5
A
100
AcDbSymbolTable
 70
1
100
AcDbDimStyleTable
 71
0
  0
DIMSTYLE
105
213
100
AcDbSymbolTableRecord
100
AcDbDimStyleTableRecord
  2
STANDARD
 70
0
  3

  4

 40
1.0
 41
3.5002504992
 42
1.0
 43
0.38
 44
1.0
 45
0.0
 46
0.0
 47
0.01
 48
0.01
140
4.9003506988
141
0.09
142
0.0
143
25.4
144
1.0
145
0.0
146
1.0
147
0.625
 71
1
 72
0
 73
0
 74
0
 75
0
 76
0
 77
1
 78
8
 79
2
170
0
171
1
172
0
173
0
174
0
175
0
176
0
177
0
178
0
270
2
179
2
271
2
272
2
273
2
274
2
275
0
280
0
281
0
282
0
283
1
284
8
285
0
286
0
287
3
288
0
340
11
278
46
341
212
342
212
343
212
344
212
  0
ENDTAB
  0
ENDSEC
  0
SECTION
  2
BLOCKS
  0
BLOCK
  5
20
100
AcDbEntity
  8
0
100
AcDbBlockBegin
  2
*Model_Space
 70
0
 10
0.0
 20
0.0
 30
0.0
  3
*Model_Space
  1

  0
ENDBLK
  5
21
100
AcDbEntity
  8
0
100
AcDbBlockEnd
  0
BLOCK
  5
1C
100
AcDbEntity
  8
0
100
AcDbBlockBegin
  2
*Paper_Space
 70
0
 10
0.0
 20
0.0
 30
0.0
  3
*Paper_Space
  1

  0
ENDBLK
  5
1D
100
AcDbEntity
  8
0
100
AcDbBlockEnd
  0
BLOCK
  5
214
100
AcDbEntity
  8
0
100
AcDbBlockBegin
  2
_FILLED
 70
64
 10
0.0
 20
0.0
  3
_FILLED
  1

  0
SOLID
  5
215
100
AcDbEntity
  8
0
  6
BYBLOCK
 62
0
100
AcDbTrace
 10
0.0
 20
0.0
 11
-1.0
 21
0.25
 12
-1.0
 22
-0.25
 13
-1.0
 23
-0.25
  0
ENDBLK
  5
216
100
AcDbEntity
  8
0
  6
BYBLOCK
 62
0
100
AcDbBlockEnd
  0
ENDSEC
  0
SECTION
  2
ENTITIES
  0
LINE
  5
217
100
AcDbEntity
  8
0
100
AcDbLine
 62
7
  6
BYLAYER
 10
34.7822933935
 20
218.0078227571
 11
34.7822933935
 21
186.5578227571
  0
LINE
  5
218
100
AcDbEntity
  8
0
100
AcDbLine
 62
7
  6
BYLAYER
 10
39.2522950073
 20
231.3078227571
 11
39.2522950073
 21
203.8078227571
  0
LINE
  5
219
100
AcDbEntity
  8
0
100
AcDbLine
 62
7
  6
BYLAYER
 10
41.3204997114
 20
220.0078221015
 11
41.3204997114
 21
231.3078227571
  0
LINE
  5
21A
100
AcDbEntity
  8
0
100
AcDbLine
 62
7
  6
BYLAYER
 10
41.420506406
 20
220.0078227562
 11
41.4205127301
 21
231.3078227571
  0
LWPOLYLINE
  5
21B
100
AcDbEntity
  8
0
100
AcDbPolyline
 62
7
  6
BYLAYER
 90
4
 70
0
 10
41.3205052094
 20
220.0078224044
 10
41.3234433105
 20
219.963766867
 10
41.5669238524
 20
219.6421730075
 10
42.1003550905
 20
219.507892485
  0
LINE
  5
21C
100
AcDbEntity
  8
0
100
AcDbLine
 62
7
  6
BYLAYER
 10
43.5740836037
 20
220.0078227571
 11
43.574077281
 21
231.3078227571
  0
LINE
  5
21D
100
AcDbEntity
  8
0
100
AcDbLine
 62
7
  6
BYLAYER
 10
43.6740902769
 20
220.0078221014
 11
43.6740902769
 21
231.3078227571
  0
LINE
  5
21E
100
AcDbEntity
  8
0
100
AcDbLine
 62
7
  6
BYLAYER
 10
47.2322950073
 20
228.8078227571
 11
47.2322950073
 21
231.3078227571
  0
LINE
  5
21F
100
AcDbEntity
  8
0
100
AcDbLine
 62
7
  6
BYLAYER
 10
57.2322950073
 20
228.8078227571
 11
57.2322950073
 21
231.3078227571
  0
LWPOLYLINE
  5
220
100
AcDbEntity
  8
0
100
AcDbPolyline
 62
7
  6
BYLAYER
 90
4
 70
0
 10
60.790505215
 20
220.0078224044
 10
60.7934433161
 20
219.9637668668
 10
61.0369238581
 20
219.6421730075
 10
61.570355096
 20
219.507892485
  0
LINE
  5
221
100
AcDbEntity
  8
0
100
AcDbLine
 62
7
  6
BYLAYER
 10
60.7904997158
 20
220.0078221015
 11
60.7904997158
 21
231.3078227571
  0
LINE
  5
222
100
AcDbEntity
  8
0
100
AcDbLine
 62
7
  6
BYLAYER
 10
60.8905064102
 20
220.0078227562
 11
60.8905127322
 21
231.3078227571
  0
LINE
  5
223
100
AcDbEntity
  8
0
100
AcDbLine
 62
7
  6
BYLAYER
 10
63.0440836044
 20
220.0078227571
 11
63.0440772823
 21
231.3078227571
  0
LINE
  5
224
100
AcDbEntity
  8
0
100
AcDbLine
 62
7
  6
BYLAYER
 10
63.1440902776
 20
220.0078221014
 11
63.1440902776
 21
231.3078227571
  0
LINE
  5
225
100
AcDbEntity
  8
0
100
AcDbLine
 62
7
  6
BYLAYER
 10
65.2122950073
 20
203.8078227571
 11
65.2122950073
 21
231.3078227571
  0
LWPOLYLINE
  5
226
100
AcDbEntity
  8
0
100
AcDbPolyline
 62
7
  6
BYLAYER
 90
4
 70
0
 10
76.320505215
 20
220.0078224044
 10
76.3234433162
 20
219.9637668665
 10
76.5669238583
 20
219.6421730073
 10
77.1003550961
 20
219.507892485
  0
LINE
  5
227
100
AcDbEntity
  8
0
100
AcDbLine
 62
7
  6
BYLAYER
 10
74.2522950073
 20
231.3078227571
 11
74.2522950073
 21
203.8078227571
  0
LINE
  5
228
100
AcDbEntity
  8
0
100
AcDbLine
 62
7
  6
BYLAYER
 10
76.3204997369
 20
231.3078227571
 11
76.3204997369
 21
220.0078221015
  0
LINE
  5
229
100
AcDbEntity
  8
0
100
AcDbLine
 62
7
  6
BYLAYER
 10
76.4205064102
 20
220.0078227562
 11
76.4205127323
 21
231.3078227571
  0
LINE
  5
22A
100
AcDbEntity
  8
0
100
AcDbLine
 62
7
  6
BYLAYER
 10
78.5740836044
 20
220.0078227571
 11
78.5740772823
 21
231.3078227571
  0
LINE
  5
22B
100
AcDbEntity
  8
0
100
AcDbLine
 62
7
  6
BYLAYER
 10
78.6740902987
 20
231.3078227571
 11
78.6740902987
 21
220.0078221014
  0
LINE
  5
22C
100
AcDbEntity
  8
0
100
AcDbLine
 62
7
  6
BYLAYER
 10
82.2322950073
 20
228.8078227571
 11
82.2322950073
 21
231.3078227571
  0
LWPOLYLINE
  5
22D
100
AcDbEntity
  8
0
100
AcDbPolyline
 62
7
  6
BYLAYER
 90
4
 70
0
 10
95.790505216
 20
220.0078224044
 10
95.7934433173
 20
219.9637668657
 10
96.0369238598
 20
219.6421730071
 10
96.5703550971
 20
219.507892485
  0
LINE
  5
22E
100
AcDbEntity
  8
0
100
AcDbLine
 62
7
  6
BYLAYER
 10
92.2322950073
 20
228.8078227571
 11
92.2322950073
 21
231.3078227571
  0
LINE
  5
22F
100
AcDbEntity
  8
0
100
AcDbLine
 62
7
  6
BYLAYER
 10
95.7904997377
 20
231.3078227571
 11
95.7904997377
 21
220.0078221015
  0
LINE
  5
230
100
AcDbEntity
  8
0
100
AcDbLine
 62
7
  6
BYLAYER
 10
95.8905064109
 20
220.0078227562
 11
95.8905127336
 21
231.3078227571
  0
LWPOLYLINE
  5
231
100
AcDbEntity
  8
0
100
AcDbPolyline
 62
7
  6
BYLAYER
 90
4
 70
0
 10
43.1132599346
 20
219.5290128836
 10
43.573299748
 20
219.759766298
 10
43.6576303306
 20
219.9041424924
 10
43.6740830312
 20
220.0078218057
  0
LINE
  5
232
100
AcDbEntity
  8
0
100
AcDbLine
 62
7
  6
BYLAYER
 10
98.0440836086
 20
220.0078227571
 11
98.0440772845
 21
231.3078227571
  0
LINE
  5
233
100
AcDbEntity
  8
0
100
AcDbLine
 62
7
  6
BYLAYER
 10
98.1440903032
 20
231.3078227571
 11
98.1440903032
 21
220.0078221014
  0
LINE
  5
234
100
AcDbEntity
  8
0
100
AcDbLine
 62
7
  6
BYLAYER
 10
100.2122950073
 20
203.8078227571
 11
100.2122950073
 21
231.3078227571
  0
LWPOLYLINE
  5
235
100
AcDbEntity
  8
0
100
AcDbPolyline
 62
7
  6
BYLAYER
 90
4
 70
0
 10
62.5832599366
 20
219.5290128838
 10
63.0432997491
 20
219.7597662982
 10
63.1276303316
 20
219.9041424924
 10
63.1440830322
 20
220.0078218057
  0
LWPOLYLINE
  5
236
100
AcDbEntity
  8
0
100
AcDbPolyline
 62
7
  6
BYLAYER
 90
4
 70
0
 10
111.3205052094
 20
220.0078224044
 10
111.3234433105
 20
219.9637668669
 10
111.5669238524
 20
219.6421730075
 10
112.1003550905
 20
219.507892485
  0
LINE
  5
237
100
AcDbEntity
  8
0
100
AcDbLine
 62
7
  6
BYLAYER
 10
109.2522950073
 20
231.3078227571
 11
109.2522950073
 21
203.8078227571
  0
LINE
  5
238
100
AcDbEntity
  8
0
100
AcDbLine
 62
7
  6
BYLAYER
 10
111.3204997114
 20
220.0078221015
 11
111.3204997114
 21
231.3078227571
  0
LINE
  5
239
100
AcDbEntity
  8
0
100
AcDbLine
 62
7
  6
BYLAYER
 10
111.420506406
 20
220.0078227562
 11
111.4205127301
 21
231.3078227571
  0
LWPOLYLINE
  5
23A
100
AcDbEntity
  8
0
100
AcDbPolyline
 62
7
  6
BYLAYER
 90
4
 70
0
 10
78.1132599358
 20
219.5290128837
 10
78.5732997489
 20
219.7597662979
 10
78.6576303316
 20
219.9041424922
 10
78.6740830322
 20
220.0078218057
  0
LINE
  5
23B
100
AcDbEntity
  8
0
100
AcDbLine
 62
7
  6
BYLAYER
 10
113.5740836037
 20
220.0078227571
 11
113.574077281
 21
231.3078227571
  0
LINE
  5
23C
100
AcDbEntity
  8
0
100
AcDbLine
 62
7
  6
BYLAYER
 10
113.6740902768
 20
220.0078221014
 11
113.6740902768
 21
231.3078227571
  0
LINE
  5
23D
100
AcDbEntity
  8
0
100
AcDbLine
 62
7
  6
BYLAYER
 10
117.2322950073
 20
228.8078227571
 11
117.2322950073
 21
231.3078227571
  0
LWPOLYLINE
  5
23E
100
AcDbEntity
  8
0
100
AcDbPolyline
 62
7
  6
BYLAYER
 90
4
 70
0
 10
97.5832599408
 20
219.5290128835
 10
98.0432997542
 20
219.7597662976
 10
98.1276303372
 20
219.9041424921
 10
98.1440830378
 20
220.0078218057
  0
LINE
  5
23F
100
AcDbEntity
  8
0
100
AcDbLine
 62
7
  6
BYLAYER
 10
127.2322950073
 20
228.8078227571
 11
127.2322950073
 21
231.3078227571
  0
LWPOLYLINE
  5
240
100
AcDbEntity
  8
0
100
AcDbPolyline
 62
7
  6
BYLAYER
 90
4
 70
0
 10
113.1132599349
 20
219.5290128837
 10
113.5732997481
 20
219.7597662981
 10
113.6576303307
 20
219.9041424925
 10
113.6740830312
 20
220.0078218057
  0
LWPOLYLINE
  5
241
100
AcDbEntity
  8
0
100
AcDbPolyline
 62
7
  6
BYLAYER
 90
4
 70
0
 10
130.790505215
 20
220.0078224044
 10
130.7934433161
 20
219.9637668668
 10
131.0369238581
 20
219.6421730075
 10
131.5703550961
 20
219.507892485
  0
LINE
  5
242
100
AcDbEntity
  8
0
100
AcDbLine
 62
7
  6
BYLAYER
 10
130.7904997158
 20
220.0078221015
 11
130.7904997158
 21
231.3078227571
  0
LINE
  5
243
100
AcDbEntity
  8
0
100
AcDbLine
 62
7
  6
BYLAYER
 10
130.8905064102
 20
220.0078227562
 11
130.8905127322
 21
231.3078227571
  0
LINE
  5
244
100
AcDbEntity
  8
0
100
AcDbLine
 62
7
  6
BYLAYER
 10
133.0440836044
 20
220.0078227571
 11
133.0440772823
 21
231.3078227571
  0
LINE
  5
245
100
AcDbEntity
  8
0
100
AcDbLine
 62
7
  6
BYLAYER
 10
133.1440902776
 20
220.0078221014
 11
133.1440902776
 21
231.3078227571
  0
LINE
  5
246
100
AcDbEntity
  8
0
100
AcDbLine
 62
7
  6
BYLAYER
 10
135.2122950073
 20
203.8078227571
 11
135.2122950073
 21
231.3078227571
  0
LWPOLYLINE
  5
247
100
AcDbEntity
  8
0
100
AcDbPolyline
 62
7
  6
BYLAYER
 90
4
 70
0
 10
132.5832599366
 20
219.5290128838
 10
133.0432997491
 20
219.7597662982
 10
133.1276303316
 20
219.9041424925
 10
133.1440830322
 20
220.0078218057
  0
LINE
  5
248
100
AcDbEntity
  8
0
100
AcDbLine
 62
7
  6
BYLAYER
 10
267.3822933935
 20
186.5578227571
 11
34.7822933935
 21
186.5578227571
  0
LINE
  5
249
100
AcDbEntity
  8
0
100
AcDbLine
 62
7
  6
BYLAYER
 10
267.3822933935
 20
188.3078227571
 11
34.7822933935
 21
188.3078227571
  0
LINE
  5
24A
100
AcDbEntity
  8
0
100
AcDbLine
 62
7
  6
BYLAYER
 10
34.7822933935
 20
190.3078227571
 11
267.3822933935
 21
190.3078227571
  0
LWPOLYLINE
  5
24B
100
AcDbEntity
  8
0
100
AcDbPolyline
 62
7
  6
BYLAYER
 90
4
 70
0
 10
170.8132599335
 20
219.5290128832
 10
171.2732997496
 20
219.7597662987
 10
171.3576303321
 20
219.904142494
 10
171.3740830322
 20
220.0078218057
  0
LINE
  5
24C
100
AcDbEntity
  8
0
100
AcDbLine
 62
7
  6
BYLAYER
 10
260.06769024
 20
219.5079635972
 11
260.2832599493
 21
219.5290128851
  0
LINE
  5
24D
100
AcDbEntity
  8
0
100
AcDbLine
 62
7
  6
BYLAYER
 10
262.9122950073
 20
203.8078227571
 11
236.9522950073
 21
203.8078227571
  0
LINE
  5
24E
100
AcDbEntity
  8
0
100
AcDbLine
 62
7
  6
BYLAYER
 10
227.9122950073
 20
203.8078227571
 11
201.9522950073
 21
203.8078227571
  0
LINE
  5
24F
100
AcDbEntity
  8
0
100
AcDbLine
 62
7
  6
BYLAYER
 10
192.9122950073
 20
203.8078227571
 11
166.9522950073
 21
203.8078227571
  0
LINE
  5
250
100
AcDbEntity
  8
0
100
AcDbLine
 62
7
  6
BYLAYER
 10
135.2122950073
 20
203.8078227571
 11
109.2522950073
 21
203.8078227571
  0
LINE
  5
251
100
AcDbEntity
  8
0
100
AcDbLine
 62
7
  6
BYLAYER
 10
100.2122950073
 20
203.8078227571
 11
74.2522950073
 21
203.8078227571
  0
LINE
  5
252
100
AcDbEntity
  8
0
100
AcDbLine
 62
7
  6
BYLAYER
 10
65.2122950073
 20
203.8078227571
 11
39.2522950073
 21
203.8078227571
  0
LWPOLYLINE
  5
253
100
AcDbEntity
  8
0
100
AcDbPolyline
 62
7
  6
BYLAYER
 90
4
 70
0
 10
190.2832599472
 20
219.5290128847
 10
190.7432997553
 20
219.7597662988
 10
190.8276303374
 20
219.9041424929
 10
190.8440830378
 20
220.0078218057
  0
LINE
  5
254
100
AcDbEntity
  8
0
100
AcDbLine
 62
7
  6
BYLAYER
 10
240.5976902338
 20
219.5079635972
 11
240.8132599357
 21
219.5290128836
  0
LINE
  5
255
100
AcDbEntity
  8
0
100
AcDbLine
 62
7
  6
BYLAYER
 10
225.0676902338
 20
219.5079635972
 11
225.2832599357
 21
219.5290128836
  0
LINE
  5
256
100
AcDbEntity
  8
0
100
AcDbLine
 62
7
  6
BYLAYER
 10
205.5976902332
 20
219.5079635972
 11
205.8132599404
 21
219.5290128847
  0
LINE
  5
257
100
AcDbEntity
  8
0
100
AcDbLine
 62
7
  6
BYLAYER
 10
190.0676902398
 20
219.5079635972
 11
190.2832599472
 21
219.5290128847
  0
LINE
  5
258
100
AcDbEntity
  8
0
100
AcDbLine
 62
7
  6
BYLAYER
 10
170.5976902336
 20
219.5079635972
 11
170.8132599335
 21
219.5290128832
  0
LINE
  5
259
100
AcDbEntity
  8
0
100
AcDbLine
 62
7
  6
BYLAYER
 10
34.7822933935
 20
216.0078227571
 11
39.2522950073
 21
216.0078227571
  0
LINE
  5
25A
100
AcDbEntity
  8
0
100
AcDbLine
 62
7
  6
BYLAYER
 10
262.9122950073
 20
216.0078227571
 11
267.3822933935
 21
216.0078227571
  0
LINE
  5
25B
100
AcDbEntity
  8
0
100
AcDbLine
 62
7
  6
BYLAYER
 10
65.2122950073
 20
216.1578227571
 11
74.2522950073
 21
216.1578227571
  0
LINE
  5
25C
100
AcDbEntity
  8
0
100
AcDbLine
 62
7
  6
BYLAYER
 10
100.2122950073
 20
216.1578227571
 11
109.2522950073
 21
216.1578227571
  0
LINE
  5
25D
100
AcDbEntity
  8
0
100
AcDbLine
 62
7
  6
BYLAYER
 10
135.2122950073
 20
216.1578227571
 11
166.9522950073
 21
216.1578227571
  0
LINE
  5
25E
100
AcDbEntity
  8
0
100
AcDbLine
 62
7
  6
BYLAYER
 10
192.9122950073
 20
216.1578227571
 11
201.9522950073
 21
216.1578227571
  0
LINE
  5
25F
100
AcDbEntity
  8
0
100
AcDbLine
 62
7
  6
BYLAYER
 10
227.9122950073
 20
216.1578227571
 11
236.9522950073
 21
216.1578227571
  0
LINE
  5
260
100
AcDbEntity
  8
0
100
AcDbLine
 62
7
  6
BYLAYER
 10
166.9522950073
 20
231.3078227571
 11
166.9522950073
 21
203.8078227571
  0
LWPOLYLINE
  5
261
100
AcDbEntity
  8
0
100
AcDbPolyline
 62
7
  6
BYLAYER
 90
4
 70
0
 10
205.8132599404
 20
219.5290128847
 10
206.273299749
 20
219.7597662992
 10
206.3576303309
 20
219.9041424931
 10
206.3740830312
 20
220.0078218057
  0
LINE
  5
262
100
AcDbEntity
  8
0
100
AcDbLine
 62
7
  6
BYLAYER
 10
132.3676902338
 20
219.5079635972
 11
132.5832599366
 21
219.5290128838
  0
LINE
  5
263
100
AcDbEntity
  8
0
100
AcDbLine
 62
7
  6
BYLAYER
 10
112.8976902327
 20
219.5079635972
 11
113.1132599349
 21
219.5290128837
  0
LINE
  5
264
100
AcDbEntity
  8
0
100
AcDbLine
 62
7
  6
BYLAYER
 10
97.3676902392
 20
219.5079635972
 11
97.5832599408
 21
219.5290128835
  0
LINE
  5
265
100
AcDbEntity
  8
0
100
AcDbLine
 62
7
  6
BYLAYER
 10
260.0677478965
 20
219.5079611392
 11
260.0512696092
 21
219.5078227571
  0
LINE
  5
266
100
AcDbEntity
  8
0
100
AcDbLine
 62
7
  6
BYLAYER
 10
240.5977478903
 20
219.5079611392
 11
240.5812696035
 21
219.5078227571
  0
LINE
  5
267
100
AcDbEntity
  8
0
100
AcDbLine
 62
7
  6
BYLAYER
 10
225.0677478903
 20
219.5079611392
 11
225.0512696035
 21
219.5078227571
  0
LINE
  5
268
100
AcDbEntity
  8
0
100
AcDbLine
 62
7
  6
BYLAYER
 10
205.5977478898
 20
219.5079611392
 11
205.5812696026
 21
219.5078227571
  0
LINE
  5
269
100
AcDbEntity
  8
0
100
AcDbLine
 62
7
  6
BYLAYER
 10
190.0677478963
 20
219.5079611392
 11
190.0512696092
 21
219.5078227571
  0
LINE
  5
26A
100
AcDbEntity
  8
0
100
AcDbLine
 62
7
  6
BYLAYER
 10
170.5977478901
 20
219.5079611392
 11
170.5812696035
 21
219.5078227571
  0
LINE
  5
26B
100
AcDbEntity
  8
0
100
AcDbLine
 62
7
  6
BYLAYER
 10
132.3677478903
 20
219.5079611392
 11
132.3512696035
 21
219.5078227571
  0
LINE
  5
26C
100
AcDbEntity
  8
0
100
AcDbLine
 62
7
  6
BYLAYER
 10
112.8977478892
 20
219.5079611392
 11
112.8812696025
 21
219.5078227571
  0
LINE
  5
26D
100
AcDbEntity
  8
0
100
AcDbLine
 62
7
  6
BYLAYER
 10
97.3677478958
 20
219.5079611392
 11
97.3512696091
 21
219.5078227571
  0
LINE
  5
26E
100
AcDbEntity
  8
0
100
AcDbLine
 62
7
  6
BYLAYER
 10
77.8977478902
 20
219.5079611392
 11
77.8812696035
 21
219.5078227571
  0
LINE
  5
26F
100
AcDbEntity
  8
0
100
AcDbLine
 62
7
  6
BYLAYER
 10
62.3677478903
 20
219.5079611392
 11
62.3512696035
 21
219.5078227571
  0
LINE
  5
270
100
AcDbEntity
  8
0
100
AcDbLine
 62
7
  6
BYLAYER
 10
42.8977478892
 20
219.5079611392
 11
42.8812696025
 21
219.5078227571
  0
LINE
  5
271
100
AcDbEntity
  8
0
100
AcDbLine
 62
7
  6
BYLAYER
 10
34.7822933935
 20
218.0078227571
 11
39.2522950073
 21
218.0078227571
  0
LINE
  5
272
100
AcDbEntity
  8
0
100
AcDbLine
 62
7
  6
BYLAYER
 10
65.2122950073
 20
218.0078227571
 11
74.2522950073
 21
218.0078227571
  0
LINE
  5
273
100
AcDbEntity
  8
0
100
AcDbLine
 62
7
  6
BYLAYER
 10
100.2122950073
 20
218.0078227571
 11
109.2522950073
 21
218.0078227571
  0
LINE
  5
274
100
AcDbEntity
  8
0
100
AcDbLine
 62
7
  6
BYLAYER
 10
135.2122950073
 20
218.0078227571
 11
166.9522950073
 21
218.0078227571
  0
LINE
  5
275
100
AcDbEntity
  8
0
100
AcDbLine
 62
7
  6
BYLAYER
 10
192.9122950072
 20
218.0078227571
 11
201.9522950073
 21
218.0078227571
  0
LINE
  5
276
100
AcDbEntity
  8
0
100
AcDbLine
 62
7
  6
BYLAYER
 10
227.9122950072
 20
218.0078227571
 11
236.9522950073
 21
218.0078227571
  0
LINE
  5
277
100
AcDbEntity
  8
0
100
AcDbLine
 62
7
  6
BYLAYER
 10
262.9122950073
 20
218.0078227571
 11
267.3822933935
 21
218.0078227571
  0
LINE
  5
278
100
AcDbEntity
  8
0
100
AcDbLine
 62
7
  6
BYLAYER
 10
260.0512696092
 20
219.5078227571
 11
259.2833204121
 21
219.5078227571
  0
LINE
  5
279
100
AcDbEntity
  8
0
100
AcDbLine
 62
7
  6
BYLAYER
 10
240.5812696035
 20
219.5078227571
 11
239.8133204111
 21
219.5078227571
  0
LINE
  5
27A
100
AcDbEntity
  8
0
100
AcDbLine
 62
7
  6
BYLAYER
 10
225.0512696035
 20
219.5078227571
 11
224.2833204111
 21
219.5078227571
  0
LINE
  5
27B
100
AcDbEntity
  8
0
100
AcDbLine
 62
7
  6
BYLAYER
 10
205.5812696025
 20
219.5078227571
 11
204.8133204054
 21
219.5078227571
  0
LINE
  5
27C
100
AcDbEntity
  8
0
100
AcDbLine
 62
7
  6
BYLAYER
 10
190.0512696091
 20
219.5078227571
 11
189.2833204121
 21
219.5078227571
  0
LINE
  5
27D
100
AcDbEntity
  8
0
100
AcDbLine
 62
7
  6
BYLAYER
 10
170.5812696035
 20
219.5078227571
 11
169.8133204111
 21
219.5078227571
  0
LINE
  5
27E
100
AcDbEntity
  8
0
100
AcDbLine
 62
7
  6
BYLAYER
 10
132.3512696035
 20
219.5078227571
 11
131.583320411
 21
219.5078227571
  0
LINE
  5
27F
100
AcDbEntity
  8
0
100
AcDbLine
 62
7
  6
BYLAYER
 10
112.8812696025
 20
219.5078227571
 11
112.1133204054
 21
219.5078227571
  0
LINE
  5
280
100
AcDbEntity
  8
0
100
AcDbLine
 62
7
  6
BYLAYER
 10
97.3512696091
 20
219.5078227571
 11
96.583320412
 21
219.5078227571
  0
LINE
  5
281
100
AcDbEntity
  8
0
100
AcDbLine
 62
7
  6
BYLAYER
 10
77.8812696035
 20
219.5078227571
 11
77.113320411
 21
219.5078227571
  0
LINE
  5
282
100
AcDbEntity
  8
0
100
AcDbLine
 62
7
  6
BYLAYER
 10
62.3512696035
 20
219.5078227571
 11
61.583320411
 21
219.5078227571
  0
LINE
  5
283
100
AcDbEntity
  8
0
100
AcDbLine
 62
7
  6
BYLAYER
 10
42.8812696025
 20
219.5078227571
 11
42.1133204054
 21
219.5078227571
  0
LINE
  5
284
100
AcDbEntity
  8
0
100
AcDbLine
 62
7
  6
BYLAYER
 10
133.1440842748
 20
220.0078220949
 11
130.7905033939
 21
220.0078220965
  0
LINE
  5
285
100
AcDbEntity
  8
0
100
AcDbLine
 62
7
  6
BYLAYER
 10
171.3740842958
 20
220.0078220949
 11
169.020503415
 21
220.0078220965
  0
LINE
  5
286
100
AcDbEntity
  8
0
100
AcDbLine
 62
7
  6
BYLAYER
 10
113.6740842741
 20
220.0078220949
 11
111.3205033895
 21
220.0078220965
  0
LINE
  5
287
100
AcDbEntity
  8
0
100
AcDbLine
 62
7
  6
BYLAYER
 10
190.8440843003
 20
220.0078220949
 11
188.4905034157
 21
220.0078220965
  0
LINE
  5
288
100
AcDbEntity
  8
0
100
AcDbLine
 62
7
  6
BYLAYER
 10
98.1440843003
 20
220.0078220949
 11
95.7905034158
 21
220.0078220965
  0
LINE
  5
289
100
AcDbEntity
  8
0
100
AcDbLine
 62
7
  6
BYLAYER
 10
206.3740842741
 20
220.0078220949
 11
204.0205033895
 21
220.0078220965
  0
LINE
  5
28A
100
AcDbEntity
  8
0
100
AcDbLine
 62
7
  6
BYLAYER
 10
78.6740842959
 20
220.0078220949
 11
76.320503415
 21
220.0078220965
  0
LINE
  5
28B
100
AcDbEntity
  8
0
100
AcDbLine
 62
7
  6
BYLAYER
 10
225.8440842748
 20
220.0078220949
 11
223.4905033939
 21
220.0078220965
  0
LINE
  5
28C
100
AcDbEntity
  8
0
100
AcDbLine
 62
7
  6
BYLAYER
 10
63.1440842748
 20
220.0078220949
 11
60.790503394
 21
220.0078220965
  0
LINE
  5
28D
100
AcDbEntity
  8
0
100
AcDbLine
 62
7
  6
BYLAYER
 10
241.3740842958
 20
220.0078220949
 11
239.020503415
 21
220.0078220965
  0
LINE
  5
28E
100
AcDbEntity
  8
0
100
AcDbLine
 62
7
  6
BYLAYER
 10
43.6740842741
 20
220.0078220949
 11
41.3205033895
 21
220.0078220965
  0
LINE
  5
28F
100
AcDbEntity
  8
0
100
AcDbLine
 62
7
  6
BYLAYER
 10
260.8440843003
 20
220.0078220949
 11
258.4905034158
 21
220.0078220965
  0
LWPOLYLINE
  5
290
100
AcDbEntity
  8
0
100
AcDbPolyline
 62
7
  6
BYLAYER
 90
4
 70
0
 10
169.020505215
 20
220.0078224044
 10
169.0234433161
 20
219.9637668669
 10
169.2669238578
 20
219.6421730077
 10
169.8003550961
 20
219.507892485
  0
LINE
  5
291
100
AcDbEntity
  8
0
100
AcDbLine
 62
7
  6
BYLAYER
 10
169.0204997369
 20
231.3078227571
 11
169.0204997369
 21
220.0078221015
  0
LINE
  5
292
100
AcDbEntity
  8
0
100
AcDbLine
 62
7
  6
BYLAYER
 10
169.1205064102
 20
220.0078227562
 11
169.1205127323
 21
231.3078227571
  0
LINE
  5
293
100
AcDbEntity
  8
0
100
AcDbLine
 62
7
  6
BYLAYER
 10
171.2740836044
 20
220.0078227571
 11
171.2740772823
 21
231.3078227571
  0
LINE
  5
294
100
AcDbEntity
  8
0
100
AcDbLine
 62
7
  6
BYLAYER
 10
171.3740902987
 20
231.3078227571
 11
171.3740902987
 21
220.0078221014
  0
LINE
  5
295
100
AcDbEntity
  8
0
100
AcDbLine
 62
7
  6
BYLAYER
 10
174.9322950073
 20
228.8078227571
 11
174.9322950073
 21
231.3078227571
  0
LWPOLYLINE
  5
296
100
AcDbEntity
  8
0
100
AcDbPolyline
 62
7
  6
BYLAYER
 90
4
 70
0
 10
225.2832599357
 20
219.5290128836
 10
225.74329975
 20
219.7597662992
 10
225.8276303322
 20
219.9041424943
 10
225.8440830322
 20
220.0078218057
  0
LINE
  5
297
100
AcDbEntity
  8
0
100
AcDbLine
 62
7
  6
BYLAYER
 10
77.8976902337
 20
219.5079635972
 11
78.1132599358
 21
219.5290128837
  0
LINE
  5
298
100
AcDbEntity
  8
0
100
AcDbLine
 62
7
  6
BYLAYER
 10
62.3676902337
 20
219.5079635972
 11
62.5832599366
 21
219.5290128838
  0
LINE
  5
299
100
AcDbEntity
  8
0
100
AcDbLine
 62
7
  6
BYLAYER
 10
42.8976902327
 20
219.5079635972
 11
43.1132599346
 21
219.5290128836
  0
LINE
  5
29A
100
AcDbEntity
  8
0
100
AcDbLine
 62
7
  6
BYLAYER
 10
219.9322950073
 20
228.8078227571
 11
209.9322950073
 21
228.8078227571
  0
LINE
  5
29B
100
AcDbEntity
  8
0
100
AcDbLine
 62
7
  6
BYLAYER
 10
127.2322950073
 20
228.8078227571
 11
117.2322950073
 21
228.8078227571
  0
LINE
  5
29C
100
AcDbEntity
  8
0
100
AcDbLine
 62
7
  6
BYLAYER
 10
57.2322950073
 20
228.8078227571
 11
47.2322950073
 21
228.8078227571
  0
LINE
  5
29D
100
AcDbEntity
  8
0
100
AcDbLine
 62
7
  6
BYLAYER
 10
82.2322950073
 20
228.8078227571
 11
92.2322950073
 21
228.8078227571
  0
LINE
  5
29E
100
AcDbEntity
  8
0
100
AcDbLine
 62
7
  6
BYLAYER
 10
174.9322950073
 20
228.8078227571
 11
184.9322950073
 21
228.8078227571
  0
LINE
  5
29F
100
AcDbEntity
  8
0
100
AcDbLine
 62
7
  6
BYLAYER
 10
244.9322950073
 20
228.8078227571
 11
254.9322950073
 21
228.8078227571
  0
LINE
  5
2A0
100
AcDbEntity
  8
0
100
AcDbLine
 62
7
  6
BYLAYER
 10
39.2522950073
 20
231.3078227571
 11
65.2122950073
 21
231.3078227571
  0
LINE
  5
2A1
100
AcDbEntity
  8
0
100
AcDbLine
 62
7
  6
BYLAYER
 10
74.2522950073
 20
231.3078227571
 11
100.2122950073
 21
231.3078227571
  0
LINE
  5
2A2
100
AcDbEntity
  8
0
100
AcDbLine
 62
7
  6
BYLAYER
 10
109.2522950073
 20
231.3078227571
 11
135.2122950073
 21
231.3078227571
  0
LINE
  5
2A3
100
AcDbEntity
  8
0
100
AcDbLine
 62
7
  6
BYLAYER
 10
166.9522950073
 20
231.3078227571
 11
192.9122950073
 21
231.3078227571
  0
LINE
  5
2A4
100
AcDbEntity
  8
0
100
AcDbLine
 62
7
  6
BYLAYER
 10
201.9522950073
 20
231.3078227571
 11
227.9122950073
 21
231.3078227571
  0
LINE
  5
2A5
100
AcDbEntity
  8
0
100
AcDbLine
 62
7
  6
BYLAYER
 10
236.9522950073
 20
231.3078227571
 11
262.9122950073
 21
231.3078227571
  0
LWPOLYLINE
  5
2A6
100
AcDbEntity
  8
0
100
AcDbPolyline
 62
7
  6
BYLAYER
 90
4
 70
0
 10
240.8132599357
 20
219.5290128836
 10
241.27329975
 20
219.7597662992
 10
241.3576303322
 20
219.9041424943
 10
241.3740830322
 20
220.0078218057
  0
LWPOLYLINE
  5
2A7
100
AcDbEntity
  8
0
100
AcDbPolyline
 62
7
  6
BYLAYER
 90
4
 70
0
 10
188.490505216
 20
220.0078224044
 10
188.4934433171
 20
219.9637668668
 10
188.7369238591
 20
219.6421730075
 10
189.2703550967
 20
219.507892485
  0
LINE
  5
2A8
100
AcDbEntity
  8
0
100
AcDbLine
 62
7
  6
BYLAYER
 10
184.9322950073
 20
228.8078227571
 11
184.9322950073
 21
231.3078227571
  0
LINE
  5
2A9
100
AcDbEntity
  8
0
100
AcDbLine
 62
7
  6
BYLAYER
 10
188.4904997377
 20
231.3078227571
 11
188.4904997377
 21
220.0078221015
  0
LINE
  5
2AA
100
AcDbEntity
  8
0
100
AcDbLine
 62
7
  6
BYLAYER
 10
188.5905064109
 20
220.0078227562
 11
188.5905127336
 21
231.3078227571
  0
LINE
  5
2AB
100
AcDbEntity
  8
0
100
AcDbLine
 62
7
  6
BYLAYER
 10
190.7440836086
 20
220.0078227571
 11
190.7440772845
 21
231.3078227571
  0
LINE
  5
2AC
100
AcDbEntity
  8
0
100
AcDbLine
 62
7
  6
BYLAYER
 10
190.8440903032
 20
231.3078227571
 11
190.8440903032
 21
220.0078221014
  0
LWPOLYLINE
  5
2AD
100
AcDbEntity
  8
0
100
AcDbPolyline
 62
7
  6
BYLAYER
 90
4
 70
0
 10
260.2832599493
 20
219.5290128851
 10
260.7432997557
 20
219.7597662993
 10
260.8276303375
 20
219.9041424932
 10
260.8440830378
 20
220.0078218057
  0
LINE
  5
2AE
100
AcDbEntity
  8
0
100
AcDbLine
 62
7
  6
BYLAYER
 10
192.9122950073
 20
203.8078227571
 11
192.9122950073
 21
231.3078227571
  0
LWPOLYLINE
  5
2AF
100
AcDbEntity
  8
0
100
AcDbPolyline
 62
7
  6
BYLAYER
 90
4
 70
0
 10
204.0205052094
 20
220.0078224044
 10
204.0234433104
 20
219.9637668679
 10
204.2669238518
 20
219.6421730079
 10
204.8003550906
 20
219.507892485
  0
LINE
  5
2B0
100
AcDbEntity
  8
0
100
AcDbLine
 62
7
  6
BYLAYER
 10
201.9522950073
 20
231.3078227571
 11
201.9522950073
 21
203.8078227571
  0
LINE
  5
2B1
100
AcDbEntity
  8
0
100
AcDbLine
 62
7
  6
BYLAYER
 10
204.0204997114
 20
220.0078221015
 11
204.0204997114
 21
231.3078227571
  0
LINE
  5
2B2
100
AcDbEntity
  8
0
100
AcDbLine
 62
7
  6
BYLAYER
 10
204.120506406
 20
220.0078227562
 11
204.1205127301
 21
231.3078227571
  0
LINE
  5
2B3
100
AcDbEntity
  8
0
100
AcDbLine
 62
7
  6
BYLAYER
 10
206.2740836036
 20
220.0078227571
 11
206.274077281
 21
231.3078227571
  0
LINE
  5
2B4
100
AcDbEntity
  8
0
100
AcDbLine
 62
7
  6
BYLAYER
 10
206.3740902769
 20
220.0078221014
 11
206.3740902769
 21
231.3078227571
  0
LINE
  5
2B5
100
AcDbEntity
  8
0
100
AcDbLine
 62
7
  6
BYLAYER
 10
209.9322950073
 20
228.8078227571
 11
209.9322950073
 21
231.3078227571
  0
LINE
  5
2B6
100
AcDbEntity
  8
0
100
AcDbLine
 62
7
  6
BYLAYER
 10
219.9322950073
 20
228.8078227571
 11
219.9322950073
 21
231.3078227571
  0
LWPOLYLINE
  5
2B7
100
AcDbEntity
  8
0
100
AcDbPolyline
 62
7
  6
BYLAYER
 90
4
 70
0
 10
223.490505215
 20
220.0078224044
 10
223.4934433163
 20
219.9637668658
 10
223.7369238584
 20
219.6421730073
 10
224.2703550959
 20
219.507892485
  0
LINE
  5
2B8
100
AcDbEntity
  8
0
100
AcDbLine
 62
7
  6
BYLAYER
 10
223.4904997158
 20
220.0078221015
 11
223.4904997158
 21
231.3078227571
  0
LINE
  5
2B9
100
AcDbEntity
  8
0
100
AcDbLine
 62
7
  6
BYLAYER
 10
223.5905064102
 20
220.0078227562
 11
223.5905127323
 21
231.3078227571
  0
LINE
  5
2BA
100
AcDbEntity
  8
0
100
AcDbLine
 62
7
  6
BYLAYER
 10
225.7440836044
 20
220.0078227571
 11
225.7440772823
 21
231.3078227571
  0
LINE
  5
2BB
100
AcDbEntity
  8
0
100
AcDbLine
 62
7
  6
BYLAYER
 10
225.8440902776
 20
220.0078221014
 11
225.8440902776
 21
231.3078227571
  0
LINE
  5
2BC
100
AcDbEntity
  8
0
100
AcDbLine
 62
7
  6
BYLAYER
 10
227.9122950073
 20
203.8078227571
 11
227.9122950073
 21
231.3078227571
  0
LINE
  5
2BD
100
AcDbEntity
  8
0
100
AcDbLine
 62
7
  6
BYLAYER
 10
236.9522950073
 20
231.3078227571
 11
236.9522950073
 21
203.8078227571
  0
LWPOLYLINE
  5
2BE
100
AcDbEntity
  8
0
100
AcDbPolyline
 62
7
  6
BYLAYER
 90
4
 70
0
 10
239.020505215
 20
220.0078224044
 10
239.0234433161
 20
219.9637668669
 10
239.2669238578
 20
219.6421730077
 10
239.8003550961
 20
219.507892485
  0
LINE
  5
2BF
100
AcDbEntity
  8
0
100
AcDbLine
 62
7
  6
BYLAYER
 10
239.0204997369
 20
231.3078227571
 11
239.0204997369
 21
220.0078221015
  0
LINE
  5
2C0
100
AcDbEntity
  8
0
100
AcDbLine
 62
7
  6
BYLAYER
 10
239.1205064102
 20
220.0078227562
 11
239.1205127323
 21
231.3078227571
  0
LINE
  5
2C1
100
AcDbEntity
  8
0
100
AcDbLine
 62
7
  6
BYLAYER
 10
241.2740836044
 20
220.0078227571
 11
241.2740772823
 21
231.3078227571
  0
LINE
  5
2C2
100
AcDbEntity
  8
0
100
AcDbLine
 62
7
  6
BYLAYER
 10
241.3740902987
 20
231.3078227571
 11
241.3740902987
 21
220.0078221014
  0
LINE
  5
2C3
100
AcDbEntity
  8
0
100
AcDbLine
 62
7
  6
BYLAYER
 10
244.9322950073
 20
228.8078227571
 11
244.9322950073
 21
231.3078227571
  0
LWPOLYLINE
  5
2C4
100
AcDbEntity
  8
0
100
AcDbPolyline
 62
7
  6
BYLAYER
 90
4
 70
0
 10
258.490505216
 20
220.0078224044
 10
258.4934433171
 20
219.9637668669
 10
258.7369238591
 20
219.6421730075
 10
259.2703550967
 20
219.507892485
  0
LINE
  5
2C5
100
AcDbEntity
  8
0
100
AcDbLine
 62
7
  6
BYLAYER
 10
254.9322950073
 20
228.8078227571
 11
254.9322950073
 21
231.3078227571
  0
LINE
  5
2C6
100
AcDbEntity
  8
0
100
AcDbLine
 62
7
  6
BYLAYER
 10
258.4904997377
 20
231.3078227571
 11
258.4904997377
 21
220.0078221015
  0
LINE
  5
2C7
100
AcDbEntity
  8
0
100
AcDbLine
 62
7
  6
BYLAYER
 10
258.5905064109
 20
220.0078227562
 11
258.5905127336
 21
231.3078227571
  0
LINE
  5
2C8
100
AcDbEntity
  8
0
100
AcDbLine
 62
7
  6
BYLAYER
 10
260.7440836086
 20
220.0078227571
 11
260.7440772845
 21
231.3078227571
  0
LINE
  5
2C9
100
AcDbEntity
  8
0
100
AcDbLine
 62
7
  6
BYLAYER
 10
260.8440903032
 20
231.3078227571
 11
260.8440903032
 21
220.0078221014
  0
LINE
  5
2CA
100
AcDbEntity
  8
0
100
AcDbLine
 62
7
  6
BYLAYER
 10
262.9122950073
 20
203.8078227571
 11
262.9122950073
 21
231.3078227571
  0
LINE
  5
2CB
100
AcDbEntity
  8
0
100
AcDbLine
 62
7
  6
BYLAYER
 10
267.3822933935
 20
186.5578227571
 11
267.3822933935
 21
218.0078227571
  0
SPLINE
  5
2CC
100
AcDbEntity
  8
0
100
AcDbSpline
 62
7
  6
BYLAYER
 70
0
 71
3
 72
8
 73
4
 74
0
 42
0.0000001
 43
0.0000001
 44
0.0000000001
 40
0.0
 40
0.0
 40
0.0
 40
0.0
 40
1.0
 40
1.0
 40
1.0
 40
1.0
 10
204.120506406
 20
220.0078227566
 30
0.0
 10
204.1204827928
 20
219.9564337236
 30
0.0
 10
204.1321266012
 20
219.9041358417
 30
0.0
 10
204.1527433911
 20
219.8570637561
 30
0.0
  0
SPLINE
  5
2CD
100
AcDbEntity
  8
0
100
AcDbSpline
 62
7
  6
BYLAYER
 70
0
 71
3
 72
9
 73
5
 74
0
 42
0.0000001
 43
0.0000001
 44
0.0000000001
 40
0.0
 40
0.0
 40
0.0
 40
0.0
 40
0.2656888069
 40
1.0
 40
1.0
 40
1.0
 40
1.0
 10
204.1527433911
 20
219.8570637561
 30
0.0
 10
204.1664215074
 20
219.825833993
 30
0.0
 10
204.2328129771
 20
219.7146731346
 30
0.0
 10
204.3413575279
 20
219.634419539
 30
0.0
 10
204.4260959984
 20
219.5932076932
 30
0.0
  0
SPLINE
  5
2CE
100
AcDbEntity
  8
0
100
AcDbSpline
 62
7
  6
BYLAYER
 70
0
 71
3
 72
8
 73
4
 74
0
 42
0.0000001
 43
0.0000001
 44
0.0000000001
 40
0.0
 40
0.0
 40
0.0
 40
0.0
 40
1.0
 40
1.0
 40
1.0
 40
1.0
 10
204.4260959984
 20
219.5932076932
 30
0.0
 10
204.4634515133
 20
219.5750401512
 30
0.0
 10
204.5024059912
 20
219.5599142039
 30
0.0
 10
204.5421158613
 20
219.5477232116
 30
0.0
  0
SPLINE
  5
2CF
100
AcDbEntity
  8
0
100
AcDbSpline
 62
7
  6
BYLAYER
 70
0
 71
3
 72
8
 73
4
 74
0
 42
0.0000001
 43
0.0000001
 44
0.0000000001
 40
0.0
 40
0.0
 40
0.0
 40
0.0
 40
1.0
 40
1.0
 40
1.0
 40
1.0
 10
204.5421158613
 20
219.5477232116
 30
0.0
 10
204.6294667822
 20
219.5209063421
 30
0.0
 10
204.7219457487
 20
219.5078268023
 30
0.0
 10
204.8133204054
 20
219.5078227571
 30
0.0
  0
SPLINE
  5
2D0
100
AcDbEntity
  8
0
100
AcDbSpline
 62
7
  6
BYLAYER
 70
0
 71
3
 72
8
 73
4
 74
0
 42
0.0000001
 43
0.0000001
 44
0.0000000001
 40
0.0
 40
0.0
 40
0.0
 40
0.0
 40
1.0
 40
1.0
 40
1.0
 40
1.0
 10
76.4205064102
 20
220.0078227566
 30
0.0
 10
76.420482797
 20
219.9564337233
 30
0.0
 10
76.432126607
 20
219.9041358415
 30
0.0
 10
76.4527433969
 20
219.8570637556
 30
0.0
  0
SPLINE
  5
2D1
100
AcDbEntity
  8
0
100
AcDbSpline
 62
7
  6
BYLAYER
 70
0
 71
3
 72
9
 73
5
 74
0
 42
0.0000001
 43
0.0000001
 44
0.0000000001
 40
0.0
 40
0.0
 40
0.0
 40
0.0
 40
0.2656888069
 40
1.0
 40
1.0
 40
1.0
 40
1.0
 10
76.4527433969
 20
219.8570637556
 30
0.0
 10
76.4664215132
 20
219.8258339924
 30
0.0
 10
76.5328129835
 20
219.7146731342
 30
0.0
 10
76.6413575342
 20
219.6344195385
 30
0.0
 10
76.7260960048
 20
219.5932076928
 30
0.0
  0
SPLINE
  5
2D2
100
AcDbEntity
  8
0
100
AcDbSpline
 62
7
  6
BYLAYER
 70
0
 71
3
 72
8
 73
4
 74
0
 42
0.0000001
 43
0.0000001
 44
0.0000000001
 40
0.0
 40
0.0
 40
0.0
 40
0.0
 40
1.0
 40
1.0
 40
1.0
 40
1.0
 10
76.7260960048
 20
219.5932076928
 30
0.0
 10
76.7634515198
 20
219.5750401509
 30
0.0
 10
76.8024059978
 20
219.5599142035
 30
0.0
 10
76.8421158679
 20
219.5477232113
 30
0.0
  0
SPLINE
  5
2D3
100
AcDbEntity
  8
0
100
AcDbSpline
 62
7
  6
BYLAYER
 70
0
 71
3
 72
8
 73
4
 74
0
 42
0.0000001
 43
0.0000001
 44
0.0000000001
 40
0.0
 40
0.0
 40
0.0
 40
0.0
 40
1.0
 40
1.0
 40
1.0
 40
1.0
 10
76.8421158679
 20
219.5477232113
 30
0.0
 10
76.9294667886
 20
219.520906342
 30
0.0
 10
77.0219457548
 20
219.5078268023
 30
0.0
 10
77.113320411
 20
219.5078227571
 30
0.0
  0
SPLINE
  5
2D4
100
AcDbEntity
  8
0
100
AcDbSpline
 62
7
  6
BYLAYER
 70
0
 71
3
 72
8
 73
4
 74
0
 42
0.0000001
 43
0.0000001
 44
0.0000000001
 40
0.0
 40
0.0
 40
0.0
 40
0.0
 40
1.0
 40
1.0
 40
1.0
 40
1.0
 10
206.2740883128
 20
220.0078227571
 30
0.0
 10
206.2740965421
 20
219.9486924014
 30
0.0
 10
206.2576165875
 20
219.8885342412
 30
0.0
 10
206.2309559987
 20
219.8357553435
 30
0.0
  0
SPLINE
  5
2D5
100
AcDbEntity
  8
0
100
AcDbSpline
 62
7
  6
BYLAYER
 70
0
 71
3
 72
10
 73
6
 74
0
 42
0.0000001
 43
0.0000001
 44
0.0000000001
 40
0.0
 40
0.0
 40
0.0
 40
0.0
 40
0.2717051867
 40
0.522724349
 40
1.0
 40
1.0
 40
1.0
 40
1.0
 10
206.2309559987
 20
219.8357553435
 30
0.0
 10
206.2006138003
 20
219.7756881111
 30
0.0
 10
206.1148132575
 20
219.6726532153
 30
0.0
 10
205.8985013583
 20
219.5475232868
 30
0.0
 10
205.7158813513
 20
219.5099496319
 30
0.0
 10
205.5976867305
 20
219.5079613452
 30
0.0
  0
SPLINE
  5
2D6
100
AcDbEntity
  8
0
100
AcDbSpline
 62
7
  6
BYLAYER
 70
0
 71
3
 72
8
 73
4
 74
0
 42
0.0000001
 43
0.0000001
 44
0.0000000001
 40
0.0
 40
0.0
 40
0.0
 40
0.0
 40
1.0
 40
1.0
 40
1.0
 40
1.0
 10
133.0440883138
 20
220.0078227571
 30
0.0
 10
133.0440965431
 20
219.9486924013
 30
0.0
 10
133.0276165885
 20
219.888534241
 30
0.0
 10
133.0009559995
 20
219.8357553432
 30
0.0
  0
SPLINE
  5
2D7
100
AcDbEntity
  8
0
100
AcDbSpline
 62
7
  6
BYLAYER
 70
0
 71
3
 72
10
 73
6
 74
0
 42
0.0000001
 43
0.0000001
 44
0.0000000001
 40
0.0
 40
0.0
 40
0.0
 40
0.0
 40
0.2717051867
 40
0.5227243489
 40
1.0
 40
1.0
 40
1.0
 40
1.0
 10
133.0009559995
 20
219.8357553432
 30
0.0
 10
132.9706138011
 20
219.7756881109
 30
0.0
 10
132.8848132583
 20
219.6726532151
 30
0.0
 10
132.6685013589
 20
219.5475232867
 30
0.0
 10
132.4858813518
 20
219.5099496318
 30
0.0
 10
132.367686731
 20
219.5079613452
 30
0.0
  0
SPLINE
  5
2D8
100
AcDbEntity
  8
0
100
AcDbSpline
 62
7
  6
BYLAYER
 70
0
 71
3
 72
8
 73
4
 74
0
 42
0.0000001
 43
0.0000001
 44
0.0000000001
 40
0.0
 40
0.0
 40
0.0
 40
0.0
 40
1.0
 40
1.0
 40
1.0
 40
1.0
 10
78.5740883138
 20
220.0078227571
 30
0.0
 10
78.5740965431
 20
219.9486924013
 30
0.0
 10
78.5576165885
 20
219.888534241
 30
0.0
 10
78.5309559995
 20
219.8357553432
 30
0.0
  0
SPLINE
  5
2D9
100
AcDbEntity
  8
0
100
AcDbSpline
 62
7
  6
BYLAYER
 70
0
 71
3
 72
10
 73
6
 74
0
 42
0.0000001
 43
0.0000001
 44
0.0000000001
 40
0.0
 40
0.0
 40
0.0
 40
0.0
 40
0.2717051867
 40
0.5227243489
 40
1.0
 40
1.0
 40
1.0
 40
1.0
 10
78.5309559995
 20
219.8357553432
 30
0.0
 10
78.5006138011
 20
219.7756881109
 30
0.0
 10
78.4148132582
 20
219.6726532151
 30
0.0
 10
78.1985013589
 20
219.5475232867
 30
0.0
 10
78.0158813517
 20
219.5099496318
 30
0.0
 10
77.8976867309
 20
219.5079613452
 30
0.0
  0
SPLINE
  5
2DA
100
AcDbEntity
  8
0
100
AcDbSpline
 62
7
  6
BYLAYER
 70
0
 71
3
 72
8
 73
4
 74
0
 42
0.0000001
 43
0.0000001
 44
0.0000000001
 40
0.0
 40
0.0
 40
0.0
 40
0.0
 40
1.0
 40
1.0
 40
1.0
 40
1.0
 10
43.5740883128
 20
220.0078227571
 30
0.0
 10
43.5740965421
 20
219.9486924013
 30
0.0
 10
43.5576165875
 20
219.888534241
 30
0.0
 10
43.5309559986
 20
219.8357553432
 30
0.0
  0
SPLINE
  5
2DB
100
AcDbEntity
  8
0
100
AcDbSpline
 62
7
  6
BYLAYER
 70
0
 71
3
 72
10
 73
6
 74
0
 42
0.0000001
 43
0.0000001
 44
0.0000000001
 40
0.0
 40
0.0
 40
0.0
 40
0.0
 40
0.2717051867
 40
0.5227243489
 40
1.0
 40
1.0
 40
1.0
 40
1.0
 10
43.5309559986
 20
219.8357553432
 30
0.0
 10
43.5006138001
 20
219.7756881109
 30
0.0
 10
43.4148132573
 20
219.6726532151
 30
0.0
 10
43.1985013579
 20
219.5475232867
 30
0.0
 10
43.0158813507
 20
219.5099496318
 30
0.0
 10
42.8976867299
 20
219.5079613452
 30
0.0
  0
SPLINE
  5
2DC
100
AcDbEntity
  8
0
100
AcDbSpline
 62
7
  6
BYLAYER
 70
0
 71
3
 72
8
 73
4
 74
0
 42
0.0000001
 43
0.0000001
 44
0.0000000001
 40
0.0
 40
0.0
 40
0.0
 40
0.0
 40
1.0
 40
1.0
 40
1.0
 40
1.0
 10
41.420506406
 20
220.0078227566
 30
0.0
 10
41.4204827928
 20
219.9564337236
 30
0.0
 10
41.4321266011
 20
219.9041358417
 30
0.0
 10
41.452743391
 20
219.8570637561
 30
0.0
  0
SPLINE
  5
2DD
100
AcDbEntity
  8
0
100
AcDbSpline
 62
7
  6
BYLAYER
 70
0
 71
3
 72
9
 73
5
 74
0
 42
0.0000001
 43
0.0000001
 44
0.0000000001
 40
0.0
 40
0.0
 40
0.0
 40
0.0
 40
0.2656888069
 40
1.0
 40
1.0
 40
1.0
 40
1.0
 10
41.452743391
 20
219.8570637561
 30
0.0
 10
41.4664215074
 20
219.8258339929
 30
0.0
 10
41.5328129773
 20
219.7146731344
 30
0.0
 10
41.6413575283
 20
219.6344195387
 30
0.0
 10
41.726095999
 20
219.5932076929
 30
0.0
  0
SPLINE
  5
2DE
100
AcDbEntity
  8
0
100
AcDbSpline
 62
7
  6
BYLAYER
 70
0
 71
3
 72
8
 73
4
 74
0
 42
0.0000001
 43
0.0000001
 44
0.0000000001
 40
0.0
 40
0.0
 40
0.0
 40
0.0
 40
1.0
 40
1.0
 40
1.0
 40
1.0
 10
41.726095999
 20
219.5932076929
 30
0.0
 10
41.7634515137
 20
219.5750401511
 30
0.0
 10
41.8024059915
 20
219.5599142038
 30
0.0
 10
41.8421158613
 20
219.5477232116
 30
0.0
  0
SPLINE
  5
2DF
100
AcDbEntity
  8
0
100
AcDbSpline
 62
7
  6
BYLAYER
 70
0
 71
3
 72
8
 73
4
 74
0
 42
0.0000001
 43
0.0000001
 44
0.0000000001
 40
0.0
 40
0.0
 40
0.0
 40
0.0
 40
1.0
 40
1.0
 40
1.0
 40
1.0
 10
41.8421158613
 20
219.5477232116
 30
0.0
 10
41.9294667823
 20
219.520906342
 30
0.0
 10
42.0219457488
 20
219.5078268023
 30
0.0
 10
42.1133204054
 20
219.5078227571
 30
0.0
  0
SPLINE
  5
2E0
100
AcDbEntity
  8
0
100
AcDbSpline
 62
7
  6
BYLAYER
 70
0
 71
3
 72
8
 73
4
 74
0
 42
0.0000001
 43
0.0000001
 44
0.0000000001
 40
0.0
 40
0.0
 40
0.0
 40
0.0
 40
1.0
 40
1.0
 40
1.0
 40
1.0
 10
223.5905064102
 20
220.0078227566
 30
0.0
 10
223.5904827971
 20
219.9564337233
 30
0.0
 10
223.602126607
 20
219.9041358415
 30
0.0
 10
223.6227433969
 20
219.8570637555
 30
0.0
  0
SPLINE
  5
2E1
100
AcDbEntity
  8
0
100
AcDbSpline
 62
7
  6
BYLAYER
 70
0
 71
3
 72
9
 73
5
 74
0
 42
0.0000001
 43
0.0000001
 44
0.0000000001
 40
0.0
 40
0.0
 40
0.0
 40
0.0
 40
0.2656888069
 40
1.0
 40
1.0
 40
1.0
 40
1.0
 10
223.6227433969
 20
219.8570637555
 30
0.0
 10
223.6364215132
 20
219.8258339923
 30
0.0
 10
223.7028129835
 20
219.7146731342
 30
0.0
 10
223.8113575343
 20
219.6344195385
 30
0.0
 10
223.8960960049
 20
219.5932076928
 30
0.0
  0
SPLINE
  5
2E2
100
AcDbEntity
  8
0
100
AcDbSpline
 62
7
  6
BYLAYER
 70
0
 71
3
 72
8
 73
4
 74
0
 42
0.0000001
 43
0.0000001
 44
0.0000000001
 40
0.0
 40
0.0
 40
0.0
 40
0.0
 40
1.0
 40
1.0
 40
1.0
 40
1.0
 10
223.8960960049
 20
219.5932076928
 30
0.0
 10
223.9334515199
 20
219.5750401508
 30
0.0
 10
223.9724059979
 20
219.5599142035
 30
0.0
 10
224.012115868
 20
219.5477232113
 30
0.0
  0
SPLINE
  5
2E3
100
AcDbEntity
  8
0
100
AcDbSpline
 62
7
  6
BYLAYER
 70
0
 71
3
 72
8
 73
4
 74
0
 42
0.0000001
 43
0.0000001
 44
0.0000000001
 40
0.0
 40
0.0
 40
0.0
 40
0.0
 40
1.0
 40
1.0
 40
1.0
 40
1.0
 10
224.012115868
 20
219.5477232113
 30
0.0
 10
224.0994667887
 20
219.5209063419
 30
0.0
 10
224.1919457548
 20
219.5078268023
 30
0.0
 10
224.2833204111
 20
219.5078227571
 30
0.0
  0
SPLINE
  5
2E4
100
AcDbEntity
  8
0
100
AcDbSpline
 62
7
  6
BYLAYER
 70
0
 71
3
 72
8
 73
4
 74
0
 42
0.0000001
 43
0.0000001
 44
0.0000000001
 40
0.0
 40
0.0
 40
0.0
 40
0.0
 40
1.0
 40
1.0
 40
1.0
 40
1.0
 10
225.7440883138
 20
220.0078227571
 30
0.0
 10
225.7440965431
 20
219.9486924013
 30
0.0
 10
225.7276165885
 20
219.8885342411
 30
0.0
 10
225.7009559996
 20
219.8357553433
 30
0.0
  0
SPLINE
  5
2E5
100
AcDbEntity
  8
0
100
AcDbSpline
 62
7
  6
BYLAYER
 70
0
 71
3
 72
10
 73
6
 74
0
 42
0.0000001
 43
0.0000001
 44
0.0000000001
 40
0.0
 40
0.0
 40
0.0
 40
0.0
 40
0.2717051867
 40
0.522724349
 40
1.0
 40
1.0
 40
1.0
 40
1.0
 10
225.7009559996
 20
219.8357553433
 30
0.0
 10
225.6706138012
 20
219.775688111
 30
0.0
 10
225.5848132584
 20
219.6726532151
 30
0.0
 10
225.368501359
 20
219.5475232867
 30
0.0
 10
225.1858813518
 20
219.5099496318
 30
0.0
 10
225.067686731
 20
219.5079613452
 30
0.0
  0
SPLINE
  5
2E6
100
AcDbEntity
  8
0
100
AcDbSpline
 62
7
  6
BYLAYER
 70
0
 71
3
 72
8
 73
4
 74
0
 42
0.0000001
 43
0.0000001
 44
0.0000000001
 40
0.0
 40
0.0
 40
0.0
 40
0.0
 40
1.0
 40
1.0
 40
1.0
 40
1.0
 10
63.0440883138
 20
220.0078227571
 30
0.0
 10
63.0440965431
 20
219.9486924013
 30
0.0
 10
63.0276165885
 20
219.888534241
 30
0.0
 10
63.0009559995
 20
219.8357553432
 30
0.0
  0
SPLINE
  5
2E7
100
AcDbEntity
  8
0
100
AcDbSpline
 62
7
  6
BYLAYER
 70
0
 71
3
 72
10
 73
6
 74
0
 42
0.0000001
 43
0.0000001
 44
0.0000000001
 40
0.0
 40
0.0
 40
0.0
 40
0.0
 40
0.2717051867
 40
0.5227243489
 40
1.0
 40
1.0
 40
1.0
 40
1.0
 10
63.0009559995
 20
219.8357553432
 30
0.0
 10
62.9706138011
 20
219.7756881109
 30
0.0
 10
62.8848132583
 20
219.6726532151
 30
0.0
 10
62.6685013589
 20
219.5475232867
 30
0.0
 10
62.4858813518
 20
219.5099496318
 30
0.0
 10
62.367686731
 20
219.5079613452
 30
0.0
  0
SPLINE
  5
2E8
100
AcDbEntity
  8
0
100
AcDbSpline
 62
7
  6
BYLAYER
 70
0
 71
3
 72
8
 73
4
 74
0
 42
0.0000001
 43
0.0000001
 44
0.0000000001
 40
0.0
 40
0.0
 40
0.0
 40
0.0
 40
1.0
 40
1.0
 40
1.0
 40
1.0
 10
60.8905064102
 20
220.0078227566
 30
0.0
 10
60.890482797
 20
219.9564337233
 30
0.0
 10
60.902126607
 20
219.9041358415
 30
0.0
 10
60.9227433969
 20
219.8570637556
 30
0.0
  0
SPLINE
  5
2E9
100
AcDbEntity
  8
0
100
AcDbSpline
 62
7
  6
BYLAYER
 70
0
 71
3
 72
9
 73
5
 74
0
 42
0.0000001
 43
0.0000001
 44
0.0000000001
 40
0.0
 40
0.0
 40
0.0
 40
0.0
 40
0.2656888069
 40
1.0
 40
1.0
 40
1.0
 40
1.0
 10
60.9227433969
 20
219.8570637556
 30
0.0
 10
60.9364215132
 20
219.8258339924
 30
0.0
 10
61.0028129834
 20
219.7146731343
 30
0.0
 10
61.1113575341
 20
219.6344195386
 30
0.0
 10
61.1960960046
 20
219.5932076929
 30
0.0
  0
SPLINE
  5
2EA
100
AcDbEntity
  8
0
100
AcDbSpline
 62
7
  6
BYLAYER
 70
0
 71
3
 72
8
 73
4
 74
0
 42
0.0000001
 43
0.0000001
 44
0.0000000001
 40
0.0
 40
0.0
 40
0.0
 40
0.0
 40
1.0
 40
1.0
 40
1.0
 40
1.0
 10
61.1960960046
 20
219.5932076929
 30
0.0
 10
61.2334515196
 20
219.5750401509
 30
0.0
 10
61.2724059977
 20
219.5599142036
 30
0.0
 10
61.3121158679
 20
219.5477232113
 30
0.0
  0
SPLINE
  5
2EB
100
AcDbEntity
  8
0
100
AcDbSpline
 62
7
  6
BYLAYER
 70
0
 71
3
 72
8
 73
4
 74
0
 42
0.0000001
 43
0.0000001
 44
0.0000000001
 40
0.0
 40
0.0
 40
0.0
 40
0.0
 40
1.0
 40
1.0
 40
1.0
 40
1.0
 10
61.3121158679
 20
219.5477232113
 30
0.0
 10
61.3994667886
 20
219.520906342
 30
0.0
 10
61.4919457547
 20
219.5078268023
 30
0.0
 10
61.583320411
 20
219.5078227571
 30
0.0
  0
SPLINE
  5
2EC
100
AcDbEntity
  8
0
100
AcDbSpline
 62
7
  6
BYLAYER
 70
0
 71
3
 72
8
 73
4
 74
0
 42
0.0000001
 43
0.0000001
 44
0.0000000001
 40
0.0
 40
0.0
 40
0.0
 40
0.0
 40
1.0
 40
1.0
 40
1.0
 40
1.0
 10
239.1205064102
 20
220.0078227566
 30
0.0
 10
239.1204827971
 20
219.9564337233
 30
0.0
 10
239.132126607
 20
219.9041358415
 30
0.0
 10
239.1527433969
 20
219.8570637555
 30
0.0
  0
SPLINE
  5
2ED
100
AcDbEntity
  8
0
100
AcDbSpline
 62
7
  6
BYLAYER
 70
0
 71
3
 72
9
 73
5
 74
0
 42
0.0000001
 43
0.0000001
 44
0.0000000001
 40
0.0
 40
0.0
 40
0.0
 40
0.0
 40
0.2656888069
 40
1.0
 40
1.0
 40
1.0
 40
1.0
 10
239.1527433969
 20
219.8570637555
 30
0.0
 10
239.1664215132
 20
219.8258339924
 30
0.0
 10
239.2328129834
 20
219.7146731345
 30
0.0
 10
239.3413575338
 20
219.6344195388
 30
0.0
 10
239.4260960042
 20
219.5932076931
 30
0.0
  0
SPLINE
  5
2EE
100
AcDbEntity
  8
0
100
AcDbSpline
 62
7
  6
BYLAYER
 70
0
 71
3
 72
8
 73
4
 74
0
 42
0.0000001
 43
0.0000001
 44
0.0000000001
 40
0.0
 40
0.0
 40
0.0
 40
0.0
 40
1.0
 40
1.0
 40
1.0
 40
1.0
 10
239.4260960042
 20
219.5932076931
 30
0.0
 10
239.4634515194
 20
219.575040151
 30
0.0
 10
239.5024059976
 20
219.5599142036
 30
0.0
 10
239.542115868
 20
219.5477232113
 30
0.0
  0
SPLINE
  5
2EF
100
AcDbEntity
  8
0
100
AcDbSpline
 62
7
  6
BYLAYER
 70
0
 71
3
 72
8
 73
4
 74
0
 42
0.0000001
 43
0.0000001
 44
0.0000000001
 40
0.0
 40
0.0
 40
0.0
 40
0.0
 40
1.0
 40
1.0
 40
1.0
 40
1.0
 10
239.542115868
 20
219.5477232113
 30
0.0
 10
239.6294667887
 20
219.5209063419
 30
0.0
 10
239.7219457548
 20
219.5078268023
 30
0.0
 10
239.8133204111
 20
219.5078227571
 30
0.0
  0
SPLINE
  5
2F0
100
AcDbEntity
  8
0
100
AcDbSpline
 62
7
  6
BYLAYER
 70
0
 71
3
 72
8
 73
4
 74
0
 42
0.0000001
 43
0.0000001
 44
0.0000000001
 40
0.0
 40
0.0
 40
0.0
 40
0.0
 40
1.0
 40
1.0
 40
1.0
 40
1.0
 10
241.2740883138
 20
220.0078227571
 30
0.0
 10
241.2740965431
 20
219.9486924013
 30
0.0
 10
241.2576165885
 20
219.8885342411
 30
0.0
 10
241.2309559996
 20
219.8357553433
 30
0.0
  0
SPLINE
  5
2F1
100
AcDbEntity
  8
0
100
AcDbSpline
 62
7
  6
BYLAYER
 70
0
 71
3
 72
10
 73
6
 74
0
 42
0.0000001
 43
0.0000001
 44
0.0000000001
 40
0.0
 40
0.0
 40
0.0
 40
0.0
 40
0.2717051867
 40
0.522724349
 40
1.0
 40
1.0
 40
1.0
 40
1.0
 10
241.2309559996
 20
219.8357553433
 30
0.0
 10
241.2006138012
 20
219.775688111
 30
0.0
 10
241.1148132584
 20
219.6726532151
 30
0.0
 10
240.898501359
 20
219.5475232867
 30
0.0
 10
240.7158813518
 20
219.5099496318
 30
0.0
 10
240.597686731
 20
219.5079613452
 30
0.0
  0
SPLINE
  5
2F2
100
AcDbEntity
  8
0
100
AcDbSpline
 62
7
  6
BYLAYER
 70
0
 71
3
 72
8
 73
4
 74
0
 42
0.0000001
 43
0.0000001
 44
0.0000000001
 40
0.0
 40
0.0
 40
0.0
 40
0.0
 40
1.0
 40
1.0
 40
1.0
 40
1.0
 10
190.7440883194
 20
220.0078227571
 30
0.0
 10
190.7440965487
 20
219.9486924014
 30
0.0
 10
190.7276165942
 20
219.8885342413
 30
0.0
 10
190.7009560054
 20
219.8357553437
 30
0.0
  0
SPLINE
  5
2F3
100
AcDbEntity
  8
0
100
AcDbSpline
 62
7
  6
BYLAYER
 70
0
 71
3
 72
10
 73
6
 74
0
 42
0.0000001
 43
0.0000001
 44
0.0000000001
 40
0.0
 40
0.0
 40
0.0
 40
0.0
 40
0.2717051867
 40
0.522724349
 40
1.0
 40
1.0
 40
1.0
 40
1.0
 10
190.7009560054
 20
219.8357553437
 30
0.0
 10
190.670613807
 20
219.7756881113
 30
0.0
 10
190.5848132643
 20
219.6726532154
 30
0.0
 10
190.368501365
 20
219.5475232869
 30
0.0
 10
190.1858813578
 20
219.5099496319
 30
0.0
 10
190.067686737
 20
219.5079613452
 30
0.0
  0
SPLINE
  5
2F4
100
AcDbEntity
  8
0
100
AcDbSpline
 62
7
  6
BYLAYER
 70
0
 71
3
 72
8
 73
4
 74
0
 42
0.0000001
 43
0.0000001
 44
0.0000000001
 40
0.0
 40
0.0
 40
0.0
 40
0.0
 40
1.0
 40
1.0
 40
1.0
 40
1.0
 10
188.5905064109
 20
220.0078227566
 30
0.0
 10
188.5904827977
 20
219.9564337233
 30
0.0
 10
188.6021266081
 20
219.9041358415
 30
0.0
 10
188.6227433979
 20
219.8570637555
 30
0.0
  0
SPLINE
  5
2F5
100
AcDbEntity
  8
0
100
AcDbSpline
 62
7
  6
BYLAYER
 70
0
 71
3
 72
9
 73
5
 74
0
 42
0.0000001
 43
0.0000001
 44
0.0000000001
 40
0.0
 40
0.0
 40
0.0
 40
0.0
 40
0.2656888069
 40
1.0
 40
1.0
 40
1.0
 40
1.0
 10
188.6227433979
 20
219.8570637555
 30
0.0
 10
188.6364215141
 20
219.8258339923
 30
0.0
 10
188.7028129845
 20
219.7146731343
 30
0.0
 10
188.8113575351
 20
219.6344195386
 30
0.0
 10
188.8960960057
 20
219.5932076929
 30
0.0
  0
SPLINE
  5
2F6
100
AcDbEntity
  8
0
100
AcDbSpline
 62
7
  6
BYLAYER
 70
0
 71
3
 72
8
 73
4
 74
0
 42
0.0000001
 43
0.0000001
 44
0.0000000001
 40
0.0
 40
0.0
 40
0.0
 40
0.0
 40
1.0
 40
1.0
 40
1.0
 40
1.0
 10
188.8960960057
 20
219.5932076929
 30
0.0
 10
188.9334515207
 20
219.5750401509
 30
0.0
 10
188.9724059988
 20
219.5599142035
 30
0.0
 10
189.012115869
 20
219.5477232113
 30
0.0
  0
SPLINE
  5
2F7
100
AcDbEntity
  8
0
100
AcDbSpline
 62
7
  6
BYLAYER
 70
0
 71
3
 72
8
 73
4
 74
0
 42
0.0000001
 43
0.0000001
 44
0.0000000001
 40
0.0
 40
0.0
 40
0.0
 40
0.0
 40
1.0
 40
1.0
 40
1.0
 40
1.0
 10
189.012115869
 20
219.5477232113
 30
0.0
 10
189.0994667897
 20
219.5209063419
 30
0.0
 10
189.1919457558
 20
219.5078268023
 30
0.0
 10
189.2833204121
 20
219.5078227571
 30
0.0
  0
SPLINE
  5
2F8
100
AcDbEntity
  8
0
100
AcDbSpline
 62
7
  6
BYLAYER
 70
0
 71
3
 72
8
 73
4
 74
0
 42
0.0000001
 43
0.0000001
 44
0.0000000001
 40
0.0
 40
0.0
 40
0.0
 40
0.0
 40
1.0
 40
1.0
 40
1.0
 40
1.0
 10
95.8905064109
 20
220.0078227566
 30
0.0
 10
95.8904827978
 20
219.9564337233
 30
0.0
 10
95.9021266081
 20
219.9041358415
 30
0.0
 10
95.9227433979
 20
219.8570637555
 30
0.0
  0
SPLINE
  5
2F9
100
AcDbEntity
  8
0
100
AcDbSpline
 62
7
  6
BYLAYER
 70
0
 71
3
 72
9
 73
5
 74
0
 42
0.0000001
 43
0.0000001
 44
0.0000000001
 40
0.0
 40
0.0
 40
0.0
 40
0.0
 40
0.265688807
 40
1.0
 40
1.0
 40
1.0
 40
1.0
 10
95.9227433979
 20
219.8570637555
 30
0.0
 10
95.9364215142
 20
219.8258339923
 30
0.0
 10
96.0028129847
 20
219.714673134
 30
0.0
 10
96.1113575355
 20
219.6344195383
 30
0.0
 10
96.1960960063
 20
219.5932076926
 30
0.0
  0
SPLINE
  5
2FA
100
AcDbEntity
  8
0
100
AcDbSpline
 62
7
  6
BYLAYER
 70
0
 71
3
 72
8
 73
4
 74
0
 42
0.0000001
 43
0.0000001
 44
0.0000000001
 40
0.0
 40
0.0
 40
0.0
 40
0.0
 40
1.0
 40
1.0
 40
1.0
 40
1.0
 10
96.1960960063
 20
219.5932076926
 30
0.0
 10
96.2334515211
 20
219.5750401507
 30
0.0
 10
96.272405999
 20
219.5599142035
 30
0.0
 10
96.312115869
 20
219.5477232112
 30
0.0
  0
SPLINE
  5
2FB
100
AcDbEntity
  8
0
100
AcDbSpline
 62
7
  6
BYLAYER
 70
0
 71
3
 72
8
 73
4
 74
0
 42
0.0000001
 43
0.0000001
 44
0.0000000001
 40
0.0
 40
0.0
 40
0.0
 40
0.0
 40
1.0
 40
1.0
 40
1.0
 40
1.0
 10
96.312115869
 20
219.5477232112
 30
0.0
 10
96.3994667897
 20
219.5209063419
 30
0.0
 10
96.4919457558
 20
219.5078268023
 30
0.0
 10
96.583320412
 20
219.5078227571
 30
0.0
  0
SPLINE
  5
2FC
100
AcDbEntity
  8
0
100
AcDbSpline
 62
7
  6
BYLAYER
 70
0
 71
3
 72
8
 73
4
 74
0
 42
0.0000001
 43
0.0000001
 44
0.0000000001
 40
0.0
 40
0.0
 40
0.0
 40
0.0
 40
1.0
 40
1.0
 40
1.0
 40
1.0
 10
98.0440883194
 20
220.0078227571
 30
0.0
 10
98.0440965487
 20
219.9486924013
 30
0.0
 10
98.0276165941
 20
219.8885342411
 30
0.0
 10
98.0009560052
 20
219.8357553434
 30
0.0
  0
SPLINE
  5
2FD
100
AcDbEntity
  8
0
100
AcDbSpline
 62
7
  6
BYLAYER
 70
0
 71
3
 72
10
 73
6
 74
0
 42
0.0000001
 43
0.0000001
 44
0.0000000001
 40
0.0
 40
0.0
 40
0.0
 40
0.0
 40
0.2717051867
 40
0.5227243489
 40
1.0
 40
1.0
 40
1.0
 40
1.0
 10
98.0009560052
 20
219.8357553434
 30
0.0
 10
97.9706138068
 20
219.775688111
 30
0.0
 10
97.884813264
 20
219.6726532151
 30
0.0
 10
97.6685013645
 20
219.5475232867
 30
0.0
 10
97.4858813573
 20
219.5099496318
 30
0.0
 10
97.3676867365
 20
219.5079613452
 30
0.0
  0
SPLINE
  5
2FE
100
AcDbEntity
  8
0
100
AcDbSpline
 62
7
  6
BYLAYER
 70
0
 71
3
 72
8
 73
4
 74
0
 42
0.0000001
 43
0.0000001
 44
0.0000000001
 40
0.0
 40
0.0
 40
0.0
 40
0.0
 40
1.0
 40
1.0
 40
1.0
 40
1.0
 10
260.7440883194
 20
220.0078227571
 30
0.0
 10
260.7440965487
 20
219.9486924014
 30
0.0
 10
260.7276165942
 20
219.8885342413
 30
0.0
 10
260.7009560054
 20
219.8357553437
 30
0.0
  0
SPLINE
  5
2FF
100
AcDbEntity
  8
0
100
AcDbSpline
 62
7
  6
BYLAYER
 70
0
 71
3
 72
10
 73
6
 74
0
 42
0.0000001
 43
0.0000001
 44
0.0000000001
 40
0.0
 40
0.0
 40
0.0
 40
0.0
 40
0.2717051867
 40
0.522724349
 40
1.0
 40
1.0
 40
1.0
 40
1.0
 10
260.7009560054
 20
219.8357553437
 30
0.0
 10
260.670613807
 20
219.7756881113
 30
0.0
 10
260.5848132643
 20
219.6726532154
 30
0.0
 10
260.3685013651
 20
219.5475232869
 30
0.0
 10
260.185881358
 20
219.5099496319
 30
0.0
 10
260.0676867372
 20
219.5079613452
 30
0.0
  0
SPLINE
  5
300
100
AcDbEntity
  8
0
100
AcDbSpline
 62
7
  6
BYLAYER
 70
0
 71
3
 72
8
 73
4
 74
0
 42
0.0000001
 43
0.0000001
 44
0.0000000001
 40
0.0
 40
0.0
 40
0.0
 40
0.0
 40
1.0
 40
1.0
 40
1.0
 40
1.0
 10
258.5905064109
 20
220.0078227566
 30
0.0
 10
258.5904827977
 20
219.9564337233
 30
0.0
 10
258.6021266081
 20
219.9041358415
 30
0.0
 10
258.6227433979
 20
219.8570637555
 30
0.0
  0
SPLINE
  5
301
100
AcDbEntity
  8
0
100
AcDbSpline
 62
7
  6
BYLAYER
 70
0
 71
3
 72
9
 73
5
 74
0
 42
0.0000001
 43
0.0000001
 44
0.0000000001
 40
0.0
 40
0.0
 40
0.0
 40
0.0
 40
0.2656888069
 40
1.0
 40
1.0
 40
1.0
 40
1.0
 10
258.6227433979
 20
219.8570637555
 30
0.0
 10
258.6364215141
 20
219.8258339923
 30
0.0
 10
258.7028129845
 20
219.7146731343
 30
0.0
 10
258.8113575351
 20
219.6344195386
 30
0.0
 10
258.8960960057
 20
219.5932076929
 30
0.0
  0
SPLINE
  5
302
100
AcDbEntity
  8
0
100
AcDbSpline
 62
7
  6
BYLAYER
 70
0
 71
3
 72
8
 73
4
 74
0
 42
0.0000001
 43
0.0000001
 44
0.0000000001
 40
0.0
 40
0.0
 40
0.0
 40
0.0
 40
1.0
 40
1.0
 40
1.0
 40
1.0
 10
258.8960960057
 20
219.5932076929
 30
0.0
 10
258.9334515207
 20
219.5750401509
 30
0.0
 10
258.9724059988
 20
219.5599142035
 30
0.0
 10
259.012115869
 20
219.5477232113
 30
0.0
  0
SPLINE
  5
303
100
AcDbEntity
  8
0
100
AcDbSpline
 62
7
  6
BYLAYER
 70
0
 71
3
 72
8
 73
4
 74
0
 42
0.0000001
 43
0.0000001
 44
0.0000000001
 40
0.0
 40
0.0
 40
0.0
 40
0.0
 40
1.0
 40
1.0
 40
1.0
 40
1.0
 10
259.012115869
 20
219.5477232113
 30
0.0
 10
259.0994667897
 20
219.5209063419
 30
0.0
 10
259.1919457558
 20
219.5078268023
 30
0.0
 10
259.2833204121
 20
219.5078227571
 30
0.0
  0
SPLINE
  5
304
100
AcDbEntity
  8
0
100
AcDbSpline
 62
7
  6
BYLAYER
 70
0
 71
3
 72
8
 73
4
 74
0
 42
0.0000001
 43
0.0000001
 44
0.0000000001
 40
0.0
 40
0.0
 40
0.0
 40
0.0
 40
1.0
 40
1.0
 40
1.0
 40
1.0
 10
130.8905064102
 20
220.0078227566
 30
0.0
 10
130.890482797
 20
219.9564337233
 30
0.0
 10
130.902126607
 20
219.9041358415
 30
0.0
 10
130.9227433969
 20
219.8570637556
 30
0.0
  0
SPLINE
  5
305
100
AcDbEntity
  8
0
100
AcDbSpline
 62
7
  6
BYLAYER
 70
0
 71
3
 72
9
 73
5
 74
0
 42
0.0000001
 43
0.0000001
 44
0.0000000001
 40
0.0
 40
0.0
 40
0.0
 40
0.0
 40
0.2656888069
 40
1.0
 40
1.0
 40
1.0
 40
1.0
 10
130.9227433969
 20
219.8570637556
 30
0.0
 10
130.9364215132
 20
219.8258339924
 30
0.0
 10
131.0028129834
 20
219.7146731343
 30
0.0
 10
131.1113575341
 20
219.6344195386
 30
0.0
 10
131.1960960046
 20
219.5932076929
 30
0.0
  0
SPLINE
  5
306
100
AcDbEntity
  8
0
100
AcDbSpline
 62
7
  6
BYLAYER
 70
0
 71
3
 72
8
 73
4
 74
0
 42
0.0000001
 43
0.0000001
 44
0.0000000001
 40
0.0
 40
0.0
 40
0.0
 40
0.0
 40
1.0
 40
1.0
 40
1.0
 40
1.0
 10
131.1960960046
 20
219.5932076929
 30
0.0
 10
131.2334515196
 20
219.5750401509
 30
0.0
 10
131.2724059977
 20
219.5599142036
 30
0.0
 10
131.3121158679
 20
219.5477232113
 30
0.0
  0
SPLINE
  5
307
100
AcDbEntity
  8
0
100
AcDbSpline
 62
7
  6
BYLAYER
 70
0
 71
3
 72
8
 73
4
 74
0
 42
0.0000001
 43
0.0000001
 44
0.0000000001
 40
0.0
 40
0.0
 40
0.0
 40
0.0
 40
1.0
 40
1.0
 40
1.0
 40
1.0
 10
131.3121158679
 20
219.5477232113
 30
0.0
 10
131.3994667886
 20
219.520906342
 30
0.0
 10
131.4919457547
 20
219.5078268023
 30
0.0
 10
131.583320411
 20
219.5078227571
 30
0.0
  0
SPLINE
  5
308
100
AcDbEntity
  8
0
100
AcDbSpline
 62
7
  6
BYLAYER
 70
0
 71
3
 72
8
 73
4
 74
0
 42
0.0000001
 43
0.0000001
 44
0.0000000001
 40
0.0
 40
0.0
 40
0.0
 40
0.0
 40
1.0
 40
1.0
 40
1.0
 40
1.0
 10
169.1205064102
 20
220.0078227566
 30
0.0
 10
169.1204827971
 20
219.9564337233
 30
0.0
 10
169.132126607
 20
219.9041358415
 30
0.0
 10
169.1527433969
 20
219.8570637555
 30
0.0
  0
SPLINE
  5
309
100
AcDbEntity
  8
0
100
AcDbSpline
 62
7
  6
BYLAYER
 70
0
 71
3
 72
9
 73
5
 74
0
 42
0.0000001
 43
0.0000001
 44
0.0000000001
 40
0.0
 40
0.0
 40
0.0
 40
0.0
 40
0.2656888069
 40
1.0
 40
1.0
 40
1.0
 40
1.0
 10
169.1527433969
 20
219.8570637555
 30
0.0
 10
169.1664215132
 20
219.8258339924
 30
0.0
 10
169.2328129834
 20
219.7146731345
 30
0.0
 10
169.3413575338
 20
219.6344195388
 30
0.0
 10
169.4260960042
 20
219.5932076931
 30
0.0
  0
SPLINE
  5
30A
100
AcDbEntity
  8
0
100
AcDbSpline
 62
7
  6
BYLAYER
 70
0
 71
3
 72
8
 73
4
 74
0
 42
0.0000001
 43
0.0000001
 44
0.0000000001
 40
0.0
 40
0.0
 40
0.0
 40
0.0
 40
1.0
 40
1.0
 40
1.0
 40
1.0
 10
169.4260960042
 20
219.5932076931
 30
0.0
 10
169.4634515194
 20
219.575040151
 30
0.0
 10
169.5024059976
 20
219.5599142036
 30
0.0
 10
169.542115868
 20
219.5477232113
 30
0.0
  0
SPLINE
  5
30B
100
AcDbEntity
  8
0
100
AcDbSpline
 62
7
  6
BYLAYER
 70
0
 71
3
 72
8
 73
4
 74
0
 42
0.0000001
 43
0.0000001
 44
0.0000000001
 40
0.0
 40
0.0
 40
0.0
 40
0.0
 40
1.0
 40
1.0
 40
1.0
 40
1.0
 10
169.542115868
 20
219.5477232113
 30
0.0
 10
169.6294667887
 20
219.5209063419
 30
0.0
 10
169.7219457548
 20
219.5078268023
 30
0.0
 10
169.8133204111
 20
219.5078227571
 30
0.0
  0
SPLINE
  5
30C
100
AcDbEntity
  8
0
100
AcDbSpline
 62
7
  6
BYLAYER
 70
0
 71
3
 72
8
 73
4
 74
0
 42
0.0000001
 43
0.0000001
 44
0.0000000001
 40
0.0
 40
0.0
 40
0.0
 40
0.0
 40
1.0
 40
1.0
 40
1.0
 40
1.0
 10
111.420506406
 20
220.0078227566
 30
0.0
 10
111.4204827928
 20
219.9564337236
 30
0.0
 10
111.4321266011
 20
219.9041358417
 30
0.0
 10
111.452743391
 20
219.8570637561
 30
0.0
  0
SPLINE
  5
30D
100
AcDbEntity
  8
0
100
AcDbSpline
 62
7
  6
BYLAYER
 70
0
 71
3
 72
9
 73
5
 74
0
 42
0.0000001
 43
0.0000001
 44
0.0000000001
 40
0.0
 40
0.0
 40
0.0
 40
0.0
 40
0.265688807
 40
1.0
 40
1.0
 40
1.0
 40
1.0
 10
111.452743391
 20
219.8570637561
 30
0.0
 10
111.4664215074
 20
219.8258339929
 30
0.0
 10
111.5328129773
 20
219.7146731344
 30
0.0
 10
111.6413575284
 20
219.6344195386
 30
0.0
 10
111.7260959991
 20
219.5932076929
 30
0.0
  0
SPLINE
  5
30E
100
AcDbEntity
  8
0
100
AcDbSpline
 62
7
  6
BYLAYER
 70
0
 71
3
 72
8
 73
4
 74
0
 42
0.0000001
 43
0.0000001
 44
0.0000000001
 40
0.0
 40
0.0
 40
0.0
 40
0.0
 40
1.0
 40
1.0
 40
1.0
 40
1.0
 10
111.7260959991
 20
219.5932076929
 30
0.0
 10
111.7634515137
 20
219.5750401511
 30
0.0
 10
111.8024059915
 20
219.5599142038
 30
0.0
 10
111.8421158613
 20
219.5477232116
 30
0.0
  0
SPLINE
  5
30F
100
AcDbEntity
  8
0
100
AcDbSpline
 62
7
  6
BYLAYER
 70
0
 71
3
 72
8
 73
4
 74
0
 42
0.0000001
 43
0.0000001
 44
0.0000000001
 40
0.0
 40
0.0
 40
0.0
 40
0.0
 40
1.0
 40
1.0
 40
1.0
 40
1.0
 10
111.8421158613
 20
219.5477232116
 30
0.0
 10
111.9294667823
 20
219.520906342
 30
0.0
 10
112.0219457488
 20
219.5078268023
 30
0.0
 10
112.1133204054
 20
219.5078227571
 30
0.0
  0
SPLINE
  5
310
100
AcDbEntity
  8
0
100
AcDbSpline
 62
7
  6
BYLAYER
 70
0
 71
3
 72
8
 73
4
 74
0
 42
0.0000001
 43
0.0000001
 44
0.0000000001
 40
0.0
 40
0.0
 40
0.0
 40
0.0
 40
1.0
 40
1.0
 40
1.0
 40
1.0
 10
171.2740883138
 20
220.0078227571
 30
0.0
 10
171.2740965431
 20
219.9486924013
 30
0.0
 10
171.2576165885
 20
219.8885342411
 30
0.0
 10
171.2309559996
 20
219.8357553433
 30
0.0
  0
SPLINE
  5
311
100
AcDbEntity
  8
0
100
AcDbSpline
 62
7
  6
BYLAYER
 70
0
 71
3
 72
10
 73
6
 74
0
 42
0.0000001
 43
0.0000001
 44
0.0000000001
 40
0.0
 40
0.0
 40
0.0
 40
0.0
 40
0.2717051867
 40
0.522724349
 40
1.0
 40
1.0
 40
1.0
 40
1.0
 10
171.2309559996
 20
219.8357553433
 30
0.0
 10
171.2006138012
 20
219.775688111
 30
0.0
 10
171.1148132583
 20
219.6726532151
 30
0.0
 10
170.8985013589
 20
219.5475232867
 30
0.0
 10
170.7158813516
 20
219.5099496318
 30
0.0
 10
170.5976867308
 20
219.5079613452
 30
0.0
  0
SPLINE
  5
312
100
AcDbEntity
  8
0
100
AcDbSpline
 62
7
  6
BYLAYER
 70
0
 71
3
 72
8
 73
4
 74
0
 42
0.0000001
 43
0.0000001
 44
0.0000000001
 40
0.0
 40
0.0
 40
0.0
 40
0.0
 40
1.0
 40
1.0
 40
1.0
 40
1.0
 10
113.5740883128
 20
220.0078227571
 30
0.0
 10
113.5740965421
 20
219.9486924013
 30
0.0
 10
113.5576165875
 20
219.888534241
 30
0.0
 10
113.5309559986
 20
219.8357553432
 30
0.0
  0
SPLINE
  5
313
100
AcDbEntity
  8
0
100
AcDbSpline
 62
7
  6
BYLAYER
 70
0
 71
3
 72
10
 73
6
 74
0
 42
0.0000001
 43
0.0000001
 44
0.0000000001
 40
0.0
 40
0.0
 40
0.0
 40
0.0
 40
0.2717051867
 40
0.5227243489
 40
1.0
 40
1.0
 40
1.0
 40
1.0
 10
113.5309559986
 20
219.8357553432
 30
0.0
 10
113.5006138001
 20
219.7756881109
 30
0.0
 10
113.4148132573
 20
219.6726532151
 30
0.0
 10
113.1985013579
 20
219.5475232867
 30
0.0
 10
113.0158813508
 20
219.5099496318
 30
0.0
 10
112.89768673
 20
219.5079613452
 30
0.0
  0
ENDSEC
  0
SECTION
  2
OBJECTS
  0
DICTIONARY
  5
C
100
AcDbDictionary
280
0
281
1
  3
ACAD_GROUP
350
D
  3
ACAD_MLINESTYLE
350
17
  3
ACAD_LAYOUT
350
1A
  3
ACAD_PLOTSETTINGS
350
19
  3
ACAD_PLOTSTYLENAME
350
E
  0
DICTIONARY
  5
D
102
{ACAD_REACTORS
330
C
102
}
100
AcDbDictionary
280
0
281
1
  0
ACDBDICTIONARYWDFLT
  5
E
102
{ACAD_REACTORS
330
C
102
}
100
AcDbDictionary
281
1
  3
Normal
350
F
100
AcDbDictionaryWithDefault
340
F
  0
DICTIONARY
  5
17
102
{ACAD_REACTORS
330
C
102
}
100
AcDbDictionary
280
0
281
1
  3
Standard
350
18
  0
DICTIONARY
  5
19
102
{ACAD_REACTORS
330
C
102
}
100
AcDbDictionary
281
1
  0
DICTIONARY
  5
1A
102
{ACAD_REACTORS
330
C
102
}
100
AcDbDictionary
281
1
  3
Model
350
314
  3
Layout1
350
315
  0
ACDBPLACEHOLDER
  5
F
102
{ACAD_REACTORS
330
E
102
}
  0
MLINESTYLE
  5
18
102
{ACAD_REACTORS
330
17
102
}
100
AcDbMlineStyle
  2
STANDARD
 70
0
  3

 62
256
 51
90.0
 52
90.0
 71
2
 49
0.5
 62
256
  6
BYLAYER
 49
-0.5
 62
256
  6
BYLAYER
  0
LAYOUT
  5
314
102
{ACAD_REACTORS
330
1A
102
}
100
AcDbPlotSettings
  1

  2
none_device
  4

  6

 40
0.0
 41
0.0
 42
0.0
 43
0.0
 44
210.0
 45
297.0
 46
0.0
 47
0.0
 48
0.0
 49
0.0
140
0.0
141
0.0
142
1.0
143
1.0
 70
1024
 72
1
 73
0
 74
0
  7

 75
0
147
1.0
148
0.0
149
0.0
100
AcDbLayout
  1
Model
 70
0
 71
0
 10
0.0
 20
0.0
 11
210.0
 21
297.0
 12
0.0
 22
0.0
 32
0.0
 14
0.0
 24
0.0
 34
0.0
 15
0.0
 25
0.0
 35
0.0
146
0.0
 13
0.0
 23
0.0
 33
0.0
 16
1.0
 26
0.0
 36
0.0
 17
0.0
 27
1.0
 37
0.0
 76
0
330
210
345
0
346
0
  0
LAYOUT
  5
315
102
{ACAD_REACTORS
330
1A
102
}
100
AcDbPlotSettings
  1

  2
none_device
  4

  6

 40
0.0
 41
0.0
 42
0.0
 43
0.0
 44
210.0
 45
297.0
 46
0.0
 47
0.0
 48
0.0
 49
0.0
140
0.0
141
0.0
142
1.0
143
1.0
 70
0
 72
1
 73
0
 74
0
  7

 75
0
147
1.0
148
0.0
149
0.0
100
AcDbLayout
  1
Layout1
 70
0
 71
1
 10
0.0
 20
0.0
 11
210.0
 21
297.0
 12
0.0
 22
0.0
 32
0.0
 14
0.0
 24
0.0
 34
0.0
 15
0.0
 25
0.0
 35
0.0
146
0.0
 13
0.0
 23
0.0
 33
0.0
 16
1.0
 26
0.0
 36
0.0
 17
0.0
 27
1.0
 37
0.0
 76
0
330
211
345
0
346
0
  0
ENDSEC
  0
EOF
