999
DXF file: C:\Users\sesa63760\Dev\_Creo\CAD\MCADID0005616_3D-CAD\mcadid0005616_3d-simplified_4.dxf
999
Pro/ENGINEER 2019471 by Parametric Technology Corporation
  0
SECTION
  2
HEADER
  9
$ACADVER
  1
AC1024
  9
$DWGCODEPAGE
  3
ANSI_1252
  9
$EXTMAX
 10
63.8781025775
 20
90.341887931
 30
0.0
  9
$EXTMIN
 10
0.0
 20
0.0
 30
0.0
  9
$LIMMIN
 10
0.0
 20
0.0
  9
$LIMMAX
 10
63.8781025775
 20
90.341887931
  9
$VIEWCTR
 10
31.9390512887
 20
45.1709439655
  9
$VIEWSIZE
 40
90.341887931
  9
$CLAYER
  8
0
  9
$LTSCALE
 40
5.8889526948
  9
$CELTYPE
  6
BYLAYER
  9
$DIMSCALE
 40
1.0
  9
$DIMASZ
 40
0.7604536021
  9
$DIMEXO
 40
1.0
  9
$DIMDLI
 40
4.0687309527
  9
$DIMEXE
 40
1.0
  9
$DIMCEN
 40
0.9636468046
  9
$DIMLFAC
 40
1.0
  9
$DIMBLK
  1
_FILLED
  9
$DIMALT
 70
0
  9
$DIMALTF
 40
0.0393700787
  9
$DIMTXT
 40
1.064635043
  9
$DIMTOL
 70
1
  9
$DIMLIM
 70
0
  9
$DIMTFAC
 40
1.0
  9
$DIMTP
 40
0.01
  9
$DIMTM
 40
0.01
  9
$DIMGAP
 40
0.625
  9
$DIMDSEP
 70
46
  9
$AUNITS
 70
0
  9
$PDMODE
 70
3
  9
$PDSIZE
 40
0.3125
  9
$HANDSEED
  5
281
  9
$TILEMODE
 70
1
  9
$MEASUREMENT
 70
1
  9
$INSUNITS
 70
4
  0
ENDSEC
  0
SECTION
  2
CLASSES
  0
CLASS
  1
ACDBDICTIONARYWDFLT
  2
AcDbDictionaryWithDefault
  3
AutoCAD 2000
 90
0
 91
1
280
0
281
0
  0
CLASS
  1
ACDBPLACEHOLDER
  2
AcDbPlaceHolder
  3
AutoCAD 2000
 90
0
 91
1
280
0
281
0
  0
CLASS
  1
LAYOUT
  2
AcDbLayout
  3
AutoCAD 2000
 90
0
 91
0
280
0
281
0
  0
ENDSEC
  0
SECTION
  2
TABLES
  0
TABLE
  2
VPORT
  5
8
100
AcDbSymbolTable
 70
2
  0
VPORT
  5
1F4
100
AcDbSymbolTableRecord
100
AcDbViewportTableRecord
  2
*ACTIVE
 70
0
 10
0.0
 20
0.0
 11
1.0
 21
1.0
 12
31.9390512887
 22
45.1709439655
 13
0.0
 23
0.0
 14
1.0
 24
1.0
 15
0.0
 25
0.0
 16
0.0
 26
0.0
 36
1.0
 17
0.0
 27
0.0
 37
0.0
 40
90.341887931
 41
0.7070707071
 42
50.0
 43
0.0
 44
0.0
 50
0.0
 51
0.0
 71
0
 72
100
 73
1
 74
1
 75
0
 76
0
 77
0
 78
0
  0
ENDTAB
  0
TABLE
  2
LTYPE
  5
5
100
AcDbSymbolTable
 70
6
  0
LTYPE
  5
14
100
AcDbSymbolTableRecord
100
AcDbLinetypeTableRecord
  2
BYBLOCK
 70
0
  3

 72
65
 73
0
 40
0.0
  0
LTYPE
  5
15
100
AcDbSymbolTableRecord
100
AcDbLinetypeTableRecord
  2
BYLAYER
 70
0
  3

 72
65
 73
0
 40
0.0
  0
LTYPE
  5
16
100
AcDbSymbolTableRecord
100
AcDbLinetypeTableRecord
  2
CONTINUOUS
 70
64
  3
Solid line
 72
65
 73
0
 40
0.0
  0
LTYPE
  5
1F5
100
AcDbSymbolTableRecord
100
AcDbLinetypeTableRecord
  2
CENTER
 70
64
  3
____ _ ____ _ ____ _ ____ _ ____ _ ____ _ ____
 72
65
 73
4
 40
0.6
 49
0.375
 74
0
 49
-0.075
 74
0
 49
0.075
 74
0
 49
-0.075
 74
0
  0
LTYPE
  5
1F6
100
AcDbSymbolTableRecord
100
AcDbLinetypeTableRecord
  2
HIDDEN
 70
64
  3
- - - - - - - - - - - - - - - - - - - -
 72
65
 73
2
 40
0.2
 49
0.1
 74
0
 49
-0.1
 74
0
  0
LTYPE
  5
1F7
100
AcDbSymbolTableRecord
100
AcDbLinetypeTableRecord
  2
PHANTOM
 70
64
  3
_____ _ _ _____ _ _ _____ _ _ _____
 72
65
 73
6
 40
0.8
 49
0.45
 74
0
 49
-0.05
 74
0
 49
0.1
 74
0
 49
-0.05
 74
0
 49
0.1
 74
0
 49
-0.05
 74
0
  0
LTYPE
  5
1F8
100
AcDbSymbolTableRecord
100
AcDbLinetypeTableRecord
  2
DOT
 70
64
  3
. . . . . . . . . . . . . . . . . . . .
 72
65
 73
2
 40
0.2
 49
0.1
 74
0
 49
-0.1
 74
0
  0
LTYPE
  5
1F9
100
AcDbSymbolTableRecord
100
AcDbLinetypeTableRecord
  2
DASHED
 70
64
  3
- - - - - - - - - - - - - - - - - - - -
 72
65
 73
2
 40
0.2
 49
0.1
 74
0
 49
-0.1
 74
0
  0
ENDTAB
  0
TABLE
  2
LAYER
  5
2
100
AcDbSymbolTable
 70
36
  0
LAYER
  5
10
100
AcDbSymbolTableRecord
100
AcDbLayerTableRecord
  2
0
 70
0
 62
7
  6
CONTINUOUS
370
-3
390
F
  0
LAYER
  5
1FA
100
AcDbSymbolTableRecord
100
AcDbLayerTableRecord
  2
DEFAULT_1
 70
0
 62
7
  6
CENTER
370
-3
390
F
  0
LAYER
  5
1FB
100
AcDbSymbolTableRecord
100
AcDbLayerTableRecord
  2
DEFAULT_2
 70
0
 62
7
  6
HIDDEN
370
-3
390
F
  0
LAYER
  5
1FC
100
AcDbSymbolTableRecord
100
AcDbLayerTableRecord
  2
DEFAULT_3
 70
0
 62
7
  6
PHANTOM
370
-3
390
F
  0
LAYER
  5
1FD
100
AcDbSymbolTableRecord
100
AcDbLayerTableRecord
  2
00_COMPONENTS
 70
0
 62
7
  6
CONTINUOUS
370
-3
390
F
  0
LAYER
  5
1FE
100
AcDbSymbolTableRecord
100
AcDbLayerTableRecord
  2
00_COMPONENTS_1
 70
0
 62
7
  6
CONTINUOUS
370
-3
390
F
  0
LAYER
  5
1FF
100
AcDbSymbolTableRecord
100
AcDbLayerTableRecord
  2
01_1_DEFAULT_DATUMS
 70
0
 62
7
  6
CONTINUOUS
370
-3
390
F
  0
LAYER
  5
200
100
AcDbSymbolTableRecord
100
AcDbLayerTableRecord
  2
01_PLANES
 70
0
 62
7
  6
CONTINUOUS
370
-3
390
F
  0
LAYER
  5
201
100
AcDbSymbolTableRecord
100
AcDbLayerTableRecord
  2
02_COORD_SYS
 70
0
 62
7
  6
CONTINUOUS
370
-3
390
F
  0
LAYER
  5
202
100
AcDbSymbolTableRecord
100
AcDbLayerTableRecord
  2
03_AXES
 70
0
 62
7
  6
CONTINUOUS
370
-3
390
F
  0
LAYER
  5
203
100
AcDbSymbolTableRecord
100
AcDbLayerTableRecord
  2
03_AXES_1
 70
0
 62
7
  6
CONTINUOUS
370
-3
390
F
  0
LAYER
  5
204
100
AcDbSymbolTableRecord
100
AcDbLayerTableRecord
  2
04_POINTS
 70
0
 62
7
  6
CONTINUOUS
370
-3
390
F
  0
LAYER
  5
205
100
AcDbSymbolTableRecord
100
AcDbLayerTableRecord
  2
05_CURVES
 70
0
 62
7
  6
CONTINUOUS
370
-3
390
F
  0
LAYER
  5
206
100
AcDbSymbolTableRecord
100
AcDbLayerTableRecord
  2
06_SURFS
 70
0
 62
7
  6
CONTINUOUS
370
-3
390
F
  0
LAYER
  5
207
100
AcDbSymbolTableRecord
100
AcDbLayerTableRecord
  2
07_COSMETICS
 70
0
 62
7
  6
CONTINUOUS
370
-3
390
F
  0
LAYER
  5
208
100
AcDbSymbolTableRecord
100
AcDbLayerTableRecord
  2
10_NOTES
 70
0
 62
7
  6
CONTINUOUS
370
-3
390
F
  0
LAYER
  5
209
100
AcDbSymbolTableRecord
100
AcDbLayerTableRecord
  2
11_NOTES_PUB
 70
0
 62
7
  6
CONTINUOUS
370
-3
390
F
  0
LAYER
  5
20A
100
AcDbSymbolTableRecord
100
AcDbLayerTableRecord
  2
13_REF_GTOL
 70
0
 62
7
  6
CONTINUOUS
370
-3
390
F
  0
LAYER
  5
20B
100
AcDbSymbolTableRecord
100
AcDbLayerTableRecord
  2
16_MISC
 70
0
 62
7
  6
CONTINUOUS
370
-3
390
F
  0
LAYER
  5
20C
100
AcDbSymbolTableRecord
100
AcDbLayerTableRecord
  2
17_NO_PRINT
 70
0
 62
7
  6
CONTINUOUS
370
-3
390
F
  0
LAYER
  5
20D
100
AcDbSymbolTableRecord
100
AcDbLayerTableRecord
  2
18_DATUM_CAMS_JOINTS
 70
0
 62
7
  6
CONTINUOUS
370
-3
390
F
  0
LAYER
  5
20E
100
AcDbSymbolTableRecord
100
AcDbLayerTableRecord
  2
19_DATUM_FUNCTIONAL
 70
0
 62
7
  6
CONTINUOUS
370
-3
390
F
  0
LAYER
  5
20F
100
AcDbSymbolTableRecord
100
AcDbLayerTableRecord
  2
20_DATUM_KINEMATIC_SCHEME
 70
0
 62
7
  6
CONTINUOUS
370
-3
390
F
  0
LAYER
  5
210
100
AcDbSymbolTableRecord
100
AcDbLayerTableRecord
  2
black
 70
0
 62
7
  6
CONTINUOUS
370
-3
390
F
  0
ENDTAB
  0
TABLE
  2
STYLE
  5
3
100
AcDbSymbolTable
 70
1
  0
STYLE
  5
11
100
AcDbSymbolTableRecord
100
AcDbTextStyleTableRecord
  2
STANDARD
 70
0
 40
0.0
 41
1.0
 50
0.0
 71
0
 42
0.2
  3
ARIAL.TTF
  4

  0
STYLE
  5
211
100
AcDbSymbolTableRecord
100
AcDbTextStyleTableRecord
  2
TEXTSTYLE_1
 70
0
 40
0.0
 41
0.8
 50
0.0
 71
0
 42
0.2
  3
gdt
  4

  0
ENDTAB
  0
TABLE
  2
VIEW
  5
6
100
AcDbSymbolTable
 70
0
  0
ENDTAB
  0
TABLE
  2
UCS
  5
7
100
AcDbSymbolTable
 70
0
  0
ENDTAB
  0
TABLE
  2
APPID
  5
9
100
AcDbSymbolTable
 70
1
  0
APPID
  5
212
100
AcDbSymbolTableRecord
100
AcDbRegAppTableRecord
  2
ACAD
 70
0
  0
ENDTAB
  0
TABLE
  2
BLOCK_RECORD
  5
1
100
AcDbSymbolTable
 70
0
  0
BLOCK_RECORD
  5
213
100
AcDbSymbolTableRecord
100
AcDbBlockTableRecord
  2
*Model_Space
  0
BLOCK_RECORD
  5
214
100
AcDbSymbolTableRecord
100
AcDbBlockTableRecord
  2
*Paper_Space
  0
BLOCK_RECORD
  5
215
100
AcDbSymbolTableRecord
100
AcDbBlockTableRecord
  2
_FILLED
  0
ENDTAB
  0
TABLE
  2
DIMSTYLE
  5
A
100
AcDbSymbolTable
 70
1
100
AcDbDimStyleTable
 71
0
  0
DIMSTYLE
105
216
100
AcDbSymbolTableRecord
100
AcDbDimStyleTableRecord
  2
STANDARD
 70
0
  3

  4

 40
1.0
 41
0.7604536021
 42
1.0
 43
0.38
 44
1.0
 45
0.0
 46
0.0
 47
0.01
 48
0.01
140
1.064635043
141
0.09
142
0.0
143
25.4
144
1.0
145
0.0
146
1.0
147
0.625
 71
1
 72
0
 73
0
 74
0
 75
0
 76
0
 77
1
 78
8
 79
2
170
0
171
1
172
0
173
0
174
0
175
0
176
0
177
0
178
0
270
2
179
2
271
2
272
2
273
2
274
2
275
0
280
0
281
0
282
0
283
1
284
8
285
0
286
0
287
3
288
0
340
11
278
46
341
215
342
215
343
215
344
215
  0
ENDTAB
  0
ENDSEC
  0
SECTION
  2
BLOCKS
  0
BLOCK
  5
20
100
AcDbEntity
  8
0
100
AcDbBlockBegin
  2
*Model_Space
 70
0
 10
0.0
 20
0.0
 30
0.0
  3
*Model_Space
  1

  0
ENDBLK
  5
21
100
AcDbEntity
  8
0
100
AcDbBlockEnd
  0
BLOCK
  5
1C
100
AcDbEntity
  8
0
100
AcDbBlockBegin
  2
*Paper_Space
 70
0
 10
0.0
 20
0.0
 30
0.0
  3
*Paper_Space
  1

  0
ENDBLK
  5
1D
100
AcDbEntity
  8
0
100
AcDbBlockEnd
  0
BLOCK
  5
217
100
AcDbEntity
  8
0
100
AcDbBlockBegin
  2
_FILLED
 70
64
 10
0.0
 20
0.0
  3
_FILLED
  1

  0
SOLID
  5
218
100
AcDbEntity
  8
0
  6
BYBLOCK
 62
0
100
AcDbTrace
 10
0.0
 20
0.0
 11
-1.0
 21
0.25
 12
-1.0
 22
-0.25
 13
-1.0
 23
-0.25
  0
ENDBLK
  5
219
100
AcDbEntity
  8
0
  6
BYBLOCK
 62
0
100
AcDbBlockEnd
  0
ENDSEC
  0
SECTION
  2
ENTITIES
  0
LINE
  5
21A
100
AcDbEntity
  8
00_COMPONENTS
100
AcDbLine
 62
7
  6
BYLAYER
 10
7.1143831853
 20
34.0962089706
 11
7.1143831853
 21
58.4294089706
  0
LINE
  5
21B
100
AcDbEntity
  8
0
100
AcDbLine
 62
7
  6
BYLAYER
 10
8.5703831853
 20
60.5223278293
 11
8.5703831853
 21
53.5622041179
  0
LINE
  5
21C
100
AcDbEntity
  8
0
100
AcDbLine
 62
7
  6
BYLAYER
 10
8.5703831853
 20
34.0962089706
 11
8.5703831853
 21
22.6714186299
  0
LINE
  5
21D
100
AcDbEntity
  8
00_COMPONENTS
100
AcDbLine
 62
7
  6
BYLAYER
 10
8.6383831853
 20
34.0962089706
 11
8.6383831853
 21
54.2638089706
  0
LINE
  5
21E
100
AcDbEntity
  8
0
100
AcDbLine
 62
7
  6
BYLAYER
 10
10.0943831853
 20
22.6714187251
 11
10.0943831853
 21
60.5223278293
  0
LINE
  5
21F
100
AcDbEntity
  8
00_COMPONENTS
100
AcDbLine
 62
7
  6
BYLAYER
 10
11.1783831853
 20
41.0304089706
 11
11.1783831853
 21
45.2214089706
  0
LINE
  5
220
100
AcDbEntity
  8
00_COMPONENTS
100
AcDbLine
 62
7
  6
BYLAYER
 10
12.7023831853
 20
41.0304089706
 11
12.7023831853
 21
45.2214089706
  0
LINE
  5
221
100
AcDbEntity
  8
0
100
AcDbLine
 62
7
  6
BYLAYER
 10
10.0943831853
 20
22.6713579434
 11
8.5703831853
 21
22.6713579434
  0
LINE
  5
222
100
AcDbEntity
  8
0
100
AcDbLine
 62
7
  6
BYLAYER
 10
54.7983831853
 20
22.6713579434
 11
56.3223831853
 21
22.6713579434
  0
LINE
  5
223
100
AcDbEntity
  8
0
100
AcDbLine
 62
7
  6
BYLAYER
 10
8.5703831853
 20
23.0806744451
 11
10.0943831853
 21
23.0806744451
  0
LINE
  5
224
100
AcDbEntity
  8
0
100
AcDbLine
 62
7
  6
BYLAYER
 10
54.7983831853
 20
23.0806744451
 11
56.3223831853
 21
23.0806744451
  0
LINE
  5
225
100
AcDbEntity
  8
0
100
AcDbLine
 62
7
  6
BYLAYER
 10
13.3963831853
 20
38.1912762829
 11
13.3963831853
 21
43.5017092726
  0
LINE
  5
226
100
AcDbEntity
  8
00_COMPONENTS
100
AcDbLine
 62
7
  6
BYLAYER
 10
23.3703831853
 20
62.0362089706
 11
23.3703831853
 21
61.6535443241
  0
LINE
  5
227
100
AcDbEntity
  8
00_COMPONENTS
100
AcDbLine
 62
7
  6
BYLAYER
 10
58.4223831853
 20
34.0962089706
 11
56.8983831853
 21
34.0962089706
  0
LINE
  5
228
100
AcDbEntity
  8
00_COMPONENTS
100
AcDbLine
 62
7
  6
BYLAYER
 10
8.6383831853
 20
34.0962089706
 11
7.1143831853
 21
34.0962089706
  0
LINE
  5
229
100
AcDbEntity
  8
0
100
AcDbLine
 62
7
  6
BYLAYER
 10
38.2883831853
 20
35.0254412313
 11
27.1123831853
 21
35.0254412313
  0
LINE
  5
22A
100
AcDbEntity
  8
00_COMPONENTS
100
AcDbLine
 62
7
  6
BYLAYER
 10
7.1143831853
 20
35.6202089706
 11
8.6383831853
 21
35.6202089706
  0
LINE
  5
22B
100
AcDbEntity
  8
00_COMPONENTS
100
AcDbLine
 62
7
  6
BYLAYER
 10
56.8983831853
 20
35.6202089706
 11
58.4223831853
 21
35.6202089706
  0
LINE
  5
22C
100
AcDbEntity
  8
0
100
AcDbLine
 62
7
  6
BYLAYER
 10
54.7983831853
 20
36.0466783447
 11
38.2883831853
 21
36.0466783447
  0
LINE
  5
22D
100
AcDbEntity
  8
0
100
AcDbLine
 62
7
  6
BYLAYER
 10
27.1123831853
 20
36.0466783447
 11
10.0943831853
 21
36.0466783447
  0
LINE
  5
22E
100
AcDbEntity
  8
0
100
AcDbLine
 62
7
  6
BYLAYER
 10
29.1443831853
 20
36.5402762829
 11
35.2403831853
 21
36.5402762829
  0
LINE
  5
22F
100
AcDbEntity
  8
0
100
AcDbLine
 62
7
  6
BYLAYER
 10
29.1443831853
 20
37.6714927777
 11
35.2403831853
 21
37.6714927777
  0
LINE
  5
230
100
AcDbEntity
  8
0
100
AcDbLine
 62
7
  6
BYLAYER
 10
13.3963831853
 20
38.1912762829
 11
10.0943831853
 21
38.1912762829
  0
LINE
  5
231
100
AcDbEntity
  8
0
100
AcDbLine
 62
7
  6
BYLAYER
 10
51.4963831853
 20
38.1912762829
 11
54.7983831853
 21
38.1912762829
  0
LINE
  5
232
100
AcDbEntity
  8
0
100
AcDbLine
 62
7
  6
BYLAYER
 10
27.1123831853
 20
35.0254412313
 11
27.1123831853
 21
36.0466783447
  0
LINE
  5
233
100
AcDbEntity
  8
00_COMPONENTS
100
AcDbLine
 62
7
  6
BYLAYER
 10
10.4163831853
 20
38.7444089706
 11
10.0943831853
 21
38.7444089706
  0
LINE
  5
234
100
AcDbEntity
  8
0
100
AcDbLine
 62
7
  6
BYLAYER
 10
53.6752219102
 20
39.3224927777
 11
51.4963831853
 21
39.3224927777
  0
LINE
  5
235
100
AcDbEntity
  8
0
100
AcDbLine
 62
7
  6
BYLAYER
 10
13.3963831853
 20
39.3224927777
 11
11.8615406826
 21
39.3224927777
  0
LINE
  5
236
100
AcDbEntity
  8
0
100
AcDbLine
 62
7
  6
BYLAYER
 10
56.3223831853
 20
39.547688654
 11
54.7983831853
 21
39.547688654
  0
LINE
  5
237
100
AcDbEntity
  8
0
100
AcDbLine
 62
7
  6
BYLAYER
 10
10.0943831853
 20
39.547688654
 11
8.6383831853
 21
39.547688654
  0
LINE
  5
238
100
AcDbEntity
  8
00_COMPONENTS
100
AcDbLine
 62
7
  6
BYLAYER
 10
10.4163831853
 20
40.2684089706
 11
10.0943831853
 21
40.2684089706
  0
LINE
  5
239
100
AcDbEntity
  8
00_COMPONENTS
100
AcDbLine
 62
7
  6
BYLAYER
 10
54.6991718369
 20
40.3954089706
 11
52.9243478941
 21
40.3954089706
  0
LINE
  5
23A
100
AcDbEntity
  8
00_COMPONENTS
100
AcDbLine
 62
7
  6
BYLAYER
 10
12.6124184765
 20
40.3954089706
 11
10.8375945337
 21
40.3954089706
  0
LINE
  5
23B
100
AcDbEntity
  8
00_COMPONENTS
100
AcDbLine
 62
7
  6
BYLAYER
 10
56.8983831853
 20
40.5224089706
 11
56.7043444516
 21
40.5224089706
  0
LINE
  5
23C
100
AcDbEntity
  8
0
100
AcDbLine
 62
7
  6
BYLAYER
 10
29.1443831853
 20
39.4023542847
 11
29.1443831853
 21
36.5402762829
  0
LINE
  5
23D
100
AcDbEntity
  8
0
100
AcDbLine
 62
7
  6
BYLAYER
 10
30.1603831853
 20
57.6458432932
 11
30.1603831853
 21
58.4243678488
  0
LINE
  5
23E
100
AcDbEntity
  8
0
100
AcDbLine
 62
7
  6
BYLAYER
 10
8.6383831853
 20
41.7001422623
 11
10.0943831853
 21
41.7001422623
  0
LINE
  5
23F
100
AcDbEntity
  8
0
100
AcDbLine
 62
7
  6
BYLAYER
 10
54.7983831853
 20
41.7001422623
 11
56.3223831853
 21
41.7001422623
  0
LINE
  5
240
100
AcDbEntity
  8
00_COMPONENTS
100
AcDbLine
 62
7
  6
BYLAYER
 10
54.3583831853
 20
41.823015513
 11
52.8343831853
 21
41.823015513
  0
LINE
  5
241
100
AcDbEntity
  8
00_COMPONENTS
100
AcDbLine
 62
7
  6
BYLAYER
 10
11.1783831853
 20
41.823015513
 11
12.7023831853
 21
41.823015513
  0
LINE
  5
242
100
AcDbEntity
  8
00_COMPONENTS
100
AcDbLine
 62
7
  6
BYLAYER
 10
32.7683831853
 20
34.0962089706
 11
32.7683831853
 21
57.6458432932
  0
LINE
  5
243
100
AcDbEntity
  8
00_COMPONENTS
100
AcDbLine
 62
7
  6
BYLAYER
 10
11.1783831853
 20
43.2506220555
 11
12.7023831853
 21
43.2506220555
  0
LINE
  5
244
100
AcDbEntity
  8
00_COMPONENTS
100
AcDbLine
 62
7
  6
BYLAYER
 10
52.8343831853
 20
43.2506220555
 11
54.3583831853
 21
43.2506220555
  0
LINE
  5
245
100
AcDbEntity
  8
0
100
AcDbLine
 62
7
  6
BYLAYER
 10
13.3963831853
 20
43.5017092726
 11
12.7023831853
 21
43.5017092726
  0
LINE
  5
246
100
AcDbEntity
  8
0
100
AcDbLine
 62
7
  6
BYLAYER
 10
11.1783831853
 20
43.5017092726
 11
10.0943831853
 21
43.5017092726
  0
LINE
  5
247
100
AcDbEntity
  8
0
100
AcDbLine
 62
7
  6
BYLAYER
 10
51.4963831853
 20
43.5017092726
 11
52.8343831853
 21
43.5017092726
  0
LINE
  5
248
100
AcDbEntity
  8
0
100
AcDbLine
 62
7
  6
BYLAYER
 10
54.3583831853
 20
43.5017092726
 11
54.7983831853
 21
43.5017092726
  0
LINE
  5
249
100
AcDbEntity
  8
00_COMPONENTS
100
AcDbLine
 62
7
  6
BYLAYER
 10
54.3583831853
 20
43.6974089706
 11
52.8343831853
 21
43.6974089706
  0
LINE
  5
24A
100
AcDbEntity
  8
00_COMPONENTS
100
AcDbLine
 62
7
  6
BYLAYER
 10
12.7023831853
 20
43.6974089706
 11
11.1783831853
 21
43.6974089706
  0
LINE
  5
24B
100
AcDbEntity
  8
0
100
AcDbLine
 62
7
  6
BYLAYER
 10
56.3223831853
 20
44.6790123654
 11
54.7983831853
 21
44.6790123654
  0
LINE
  5
24C
100
AcDbEntity
  8
0
100
AcDbLine
 62
7
  6
BYLAYER
 10
34.7323831853
 20
58.4243678488
 11
34.7323831853
 21
57.6458432932
  0
LINE
  5
24D
100
AcDbEntity
  8
0
100
AcDbLine
 62
7
  6
BYLAYER
 10
35.2403831853
 20
36.5402762829
 11
35.2403831853
 21
39.3331578259
  0
LINE
  5
24E
100
AcDbEntity
  8
00_COMPONENTS
100
AcDbLine
 62
7
  6
BYLAYER
 10
11.1783831853
 20
45.2214089706
 11
12.7023831853
 21
45.2214089706
  0
LINE
  5
24F
100
AcDbEntity
  8
00_COMPONENTS
100
AcDbLine
 62
7
  6
BYLAYER
 10
52.8343831853
 20
45.2214089706
 11
54.3583831853
 21
45.2214089706
  0
LINE
  5
250
100
AcDbEntity
  8
0
100
AcDbLine
 62
7
  6
BYLAYER
 10
10.0943831853
 20
45.3765958705
 11
8.6383831853
 21
45.3765958705
  0
LINE
  5
251
100
AcDbEntity
  8
00_COMPONENTS
100
AcDbLine
 62
7
  6
BYLAYER
 10
58.4223831853
 20
46.3898089706
 11
56.8983831853
 21
46.3898089706
  0
LINE
  5
252
100
AcDbEntity
  8
00_COMPONENTS
100
AcDbLine
 62
7
  6
BYLAYER
 10
56.8983831853
 20
46.3898089706
 11
56.3223831853
 21
46.3898089706
  0
LINE
  5
253
100
AcDbEntity
  8
00_COMPONENTS
100
AcDbLine
 62
7
  6
BYLAYER
 10
54.7983831853
 20
46.3898089706
 11
10.0943831853
 21
46.3898089706
  0
LINE
  5
254
100
AcDbEntity
  8
00_COMPONENTS
100
AcDbLine
 62
7
  6
BYLAYER
 10
8.6383831853
 20
46.3898089706
 11
7.1143831853
 21
46.3898089706
  0
LINE
  5
255
100
AcDbEntity
  8
0
100
AcDbLine
 62
7
  6
BYLAYER
 10
8.6383831853
 20
49.681503087
 11
10.0943831853
 21
49.681503087
  0
LINE
  5
256
100
AcDbEntity
  8
0
100
AcDbLine
 62
7
  6
BYLAYER
 10
38.2883831853
 20
36.0466783447
 11
38.2883831853
 21
35.0254412313
  0
LINE
  5
257
100
AcDbEntity
  8
0
100
AcDbLine
 62
7
  6
BYLAYER
 10
54.7983831853
 20
52.5713422623
 11
56.3223831853
 21
52.5713422623
  0
LINE
  5
258
100
AcDbEntity
  8
0
100
AcDbLine
 62
7
  6
BYLAYER
 10
10.0943831853
 20
53.5622041179
 11
8.5703831853
 21
53.5622041179
  0
LINE
  5
259
100
AcDbEntity
  8
00_COMPONENTS
100
AcDbLine
 62
7
  6
BYLAYER
 10
42.1663831853
 20
62.0362089706
 11
42.1663831853
 21
61.6535443241
  0
LINE
  5
25A
100
AcDbEntity
  8
00_COMPONENTS
100
AcDbLine
 62
7
  6
BYLAYER
 10
7.1143831853
 20
54.2638089706
 11
8.5703831853
 21
54.2638089706
  0
LINE
  5
25B
100
AcDbEntity
  8
00_COMPONENTS
100
AcDbLine
 62
7
  6
BYLAYER
 10
56.8983831853
 20
54.2638089706
 11
58.4223831853
 21
54.2638089706
  0
LINE
  5
25C
100
AcDbEntity
  8
0
100
AcDbLine
 62
7
  6
BYLAYER
 10
56.3223831853
 20
54.7499814375
 11
54.7983831853
 21
54.7499814375
  0
LINE
  5
25D
100
AcDbEntity
  8
0
100
AcDbLine
 62
7
  6
BYLAYER
 10
8.5703831853
 20
55.7146577262
 11
10.0943831853
 21
55.7146577262
  0
LINE
  5
25E
100
AcDbEntity
  8
00_COMPONENTS
100
AcDbLine
 62
7
  6
BYLAYER
 10
7.1143831853
 20
55.7878089706
 11
8.5703831853
 21
55.7878089706
  0
LINE
  5
25F
100
AcDbEntity
  8
00_COMPONENTS
100
AcDbLine
 62
7
  6
BYLAYER
 10
56.8983831853
 20
55.7878089706
 11
58.4223831853
 21
55.7878089706
  0
LINE
  5
260
100
AcDbEntity
  8
0
100
AcDbLine
 62
7
  6
BYLAYER
 10
54.7983831853
 20
56.9024350458
 11
56.3223831853
 21
56.9024350458
  0
LINE
  5
261
100
AcDbEntity
  8
0
100
AcDbLine
 62
7
  6
BYLAYER
 10
34.7323831853
 20
57.6458432932
 11
30.1603831853
 21
57.6458432932
  0
LINE
  5
262
100
AcDbEntity
  8
0
100
AcDbLine
 62
7
  6
BYLAYER
 10
10.0943831853
 20
60.5223278293
 11
54.7983831853
 21
60.5223278293
  0
LINE
  5
263
100
AcDbEntity
  8
0
100
AcDbLine
 62
7
  6
BYLAYER
 10
54.7983831853
 20
61.6535443241
 11
10.0943831853
 21
61.6535443241
  0
LINE
  5
264
100
AcDbEntity
  8
0
100
AcDbLine
 62
7
  6
BYLAYER
 10
51.4963831853
 20
43.5017092726
 11
51.4963831853
 21
38.1912762829
  0
LINE
  5
265
100
AcDbEntity
  8
00_COMPONENTS
100
AcDbLine
 62
7
  6
BYLAYER
 10
52.8343831853
 20
45.2214089706
 11
52.8343831853
 21
41.0304089706
  0
LINE
  5
266
100
AcDbEntity
  8
00_COMPONENTS
100
AcDbLine
 62
7
  6
BYLAYER
 10
54.3583831853
 20
41.0304089706
 11
54.3583831853
 21
45.2214089706
  0
LINE
  5
267
100
AcDbEntity
  8
0
100
AcDbLine
 62
7
  6
BYLAYER
 10
54.7983831853
 20
22.6714186299
 11
54.7983831853
 21
60.5223278293
  0
LINE
  5
268
100
AcDbEntity
  8
00_COMPONENTS
100
AcDbLine
 62
7
  6
BYLAYER
 10
28.4503831853
 20
67.1162089706
 11
37.0863831853
 21
67.1162089706
  0
LINE
  5
269
100
AcDbEntity
  8
0
100
AcDbLine
 62
7
  6
BYLAYER
 10
56.3223831853
 20
22.6714187251
 11
56.3223831853
 21
60.5223278293
  0
LINE
  5
26A
100
AcDbEntity
  8
00_COMPONENTS
100
AcDbLine
 62
7
  6
BYLAYER
 10
56.8983831853
 20
34.0962089706
 11
56.8983831853
 21
58.4294089706
  0
LINE
  5
26B
100
AcDbEntity
  8
00_COMPONENTS
100
AcDbLine
 62
7
  6
BYLAYER
 10
58.4223831853
 20
34.0962089706
 11
58.4223831853
 21
58.4294089706
  0
ARC
  5
26C
100
AcDbEntity
  8
00_COMPONENTS
100
AcDbCircle
 62
7
  6
BYLAYER
 10
28.4503831853
 20
62.0362089706
 40
5.08
100
AcDbArc
 50
90.0
 51
180.0
  0
ARC
  5
26D
100
AcDbEntity
  8
00_COMPONENTS
100
AcDbCircle
 62
7
  6
BYLAYER
 10
37.0863831853
 20
62.0362089706
 40
5.08
100
AcDbArc
 50
0.0
 51
90.0
  0
ARC
  5
26E
100
AcDbEntity
  8
00_COMPONENTS
100
AcDbCircle
 62
7
  6
BYLAYER
 10
56.1363831853
 20
58.4294089706
 40
2.286
100
AcDbArc
 50
0.0
 51
85.6652287492
  0
ARC
  5
26F
100
AcDbEntity
  8
00_COMPONENTS
100
AcDbCircle
 62
7
  6
BYLAYER
 10
56.1363831853
 20
41.0304089706
 40
2.286
100
AcDbArc
 50
274.8727149306
 51
289.7684641318
  0
ARC
  5
270
100
AcDbEntity
  8
00_COMPONENTS
100
AcDbCircle
 62
7
  6
BYLAYER
 10
10.4163831853
 20
41.0304089706
 40
2.286
100
AcDbArc
 50
270.0
 51
360.0
  0
ARC
  5
271
100
AcDbEntity
  8
00_COMPONENTS
100
AcDbCircle
 62
7
  6
BYLAYER
 10
55.1203831853
 20
41.0304089706
 40
2.286
100
AcDbArc
 50
180.0
 51
261.6356616902
  0
ARC
  5
272
100
AcDbEntity
  8
00_COMPONENTS
100
AcDbCircle
 62
7
  6
BYLAYER
 10
9.4003831853
 20
58.4294089706
 40
2.286
100
AcDbArc
 50
114.2035534728
 51
180.0
  0
ARC
  5
273
100
AcDbEntity
  8
00_COMPONENTS
100
AcDbCircle
 62
7
  6
BYLAYER
 10
56.1363831853
 20
58.4294089706
 40
0.762
100
AcDbArc
 50
0.0
 51
77.4186913393
  0
ARC
  5
274
100
AcDbEntity
  8
00_COMPONENTS
100
AcDbCircle
 62
7
  6
BYLAYER
 10
10.4163831853
 20
41.0304089706
 40
0.762
100
AcDbArc
 50
270.0
 51
360.0
  0
ARC
  5
275
100
AcDbEntity
  8
00_COMPONENTS
100
AcDbCircle
 62
7
  6
BYLAYER
 10
55.1203831853
 20
41.0304089706
 40
0.762
100
AcDbArc
 50
180.0
 51
244.9182435376
  0
ARC
  5
276
100
AcDbEntity
  8
00_COMPONENTS
100
AcDbCircle
 62
7
  6
BYLAYER
 10
56.1363831853
 20
41.0304089706
 40
0.762
100
AcDbArc
 50
284.19465612
 51
360.0
  0
SPLINE
  5
277
100
AcDbEntity
  8
0
100
AcDbSpline
 62
7
  6
BYLAYER
 70
0
 71
3
 72
19
 73
15
 74
0
 42
0.0000001
 43
0.0000001
 44
0.0000000001
 40
0.0
 40
0.0
 40
0.0
 40
0.0
 40
0.0508242704
 40
0.1023393221
 40
0.1549251526
 40
0.2089159222
 40
0.264572151
 40
0.3220897678
 40
0.4430536315
 40
0.5066819014
 40
0.5723210665
 40
0.7091189269
 40
0.8522621831
 40
1.0
 40
1.0
 40
1.0
 40
1.0
 10
47.7256855068
 20
48.8396248024
 30
0.0
 10
47.7017438467
 20
48.5546335759
 30
0.0
 10
47.6177880319
 20
47.9831721122
 30
0.0
 10
47.3866635552
 20
47.140528933
 30
0.0
 10
47.0517674834
 20
46.3142302032
 30
0.0
 10
46.6157154133
 20
45.5101716577
 30
0.0
 10
46.0816568643
 20
44.7337642518
 30
0.0
 10
45.230283118
 20
43.7259968638
 30
0.0
 10
44.2076314003
 20
42.8135325721
 30
0.0
 10
43.0525356308
 20
42.0067328029
 30
0.0
 10
41.7626697851
 20
41.2439575899
 30
0.0
 10
39.9858336136
 20
40.4377418554
 30
0.0
 10
37.6800968478
 20
39.7291669158
 30
0.0
 10
36.0653616849
 20
39.4358131281
 30
0.0
 10
35.2403831853
 20
39.3331578259
 30
0.0
  0
SPLINE
  5
278
100
AcDbEntity
  8
0
100
AcDbSpline
 62
7
  6
BYLAYER
 70
0
 71
3
 72
19
 73
15
 74
0
 42
0.0000001
 43
0.0000001
 44
0.0000000001
 40
0.0
 40
0.0
 40
0.0
 40
0.0
 40
0.1478038183
 40
0.2907602155
 40
0.4272554389
 40
0.5561479234
 40
0.6176181158
 40
0.6770762028
 40
0.7345970899
 40
0.790314175
 40
0.8444235849
 40
0.8971829937
 40
0.9489223052
 40
1.0
 40
1.0
 40
1.0
 40
1.0
 10
29.1443831853
 20
39.4023542847
 30
0.0
 10
28.3454712728
 20
39.5206527609
 30
0.0
 10
26.7850522919
 20
39.8401000072
 30
0.0
 10
24.5629382336
 20
40.5739834686
 30
0.0
 10
22.5438025809
 20
41.5383225929
 30
0.0
 10
21.0498102176
 20
42.5305854218
 30
0.0
 10
20.0115076851
 20
43.4189110492
 30
0.0
 10
19.3265173801
 20
44.1146749107
 30
0.0
 10
18.7276531545
 20
44.8457357269
 30
0.0
 10
18.2190977719
 20
45.6075461955
 30
0.0
 10
17.8041898726
 20
46.3950027779
 30
0.0
 10
17.4860315764
 20
47.2031442809
 30
0.0
 10
17.2668846335
 20
48.0264178421
 30
0.0
 10
17.1876627552
 20
48.5842270788
 30
0.0
 10
17.1652120429
 20
48.8624190593
 30
0.0
  0
SPLINE
  5
279
100
AcDbEntity
  8
0
100
AcDbSpline
 62
7
  6
BYLAYER
 70
0
 71
3
 72
14
 73
10
 74
0
 42
0.0000001
 43
0.0000001
 44
0.0000000001
 40
0.0
 40
0.0
 40
0.0
 40
0.0
 40
0.1063941742
 40
0.2160333746
 40
0.331224108
 40
0.4533919797
 40
0.5826705405
 40
0.7181491854
 40
1.0
 40
1.0
 40
1.0
 40
1.0
 10
8.5703831853
 20
60.5223278293
 30
0.0
 10
8.5703831853
 20
60.5965133772
 30
0.0
 10
8.5908020207
 20
60.747844911
 30
0.0
 10
8.6801657877
 20
60.9632807477
 30
0.0
 10
8.8240655892
 20
61.1603469588
 30
0.0
 10
9.0158859256
 20
61.3318281648
 30
0.0
 10
9.2482545032
 20
61.4718103546
 30
0.0
 10
9.6040854236
 20
61.6117425613
 30
0.0
 10
9.8978568504
 20
61.6535443241
 30
0.0
 10
10.0943831853
 20
61.6535443241
 30
0.0
  0
SPLINE
  5
27A
100
AcDbEntity
  8
0
100
AcDbSpline
 62
7
  6
BYLAYER
 70
0
 71
3
 72
14
 73
10
 74
0
 42
0.0000001
 43
0.0000001
 44
0.0000000001
 40
0.0
 40
0.0
 40
0.0
 40
0.0
 40
0.2818507027
 40
0.4173293309
 40
0.5466078921
 40
0.6687757782
 40
0.7839665354
 40
0.8936057936
 40
1.0
 40
1.0
 40
1.0
 40
1.0
 10
54.7983831853
 20
61.6535443241
 30
0.0
 10
54.9949094419
 20
61.6535443241
 30
0.0
 10
55.2886807764
 20
61.6117425956
 30
0.0
 10
55.6445116292
 20
61.4718104655
 30
0.0
 10
55.8768802318
 20
61.3318283216
 30
0.0
 10
56.0687006227
 20
61.1603471383
 30
0.0
 10
56.2126005091
 20
60.9632809016
 30
0.0
 10
56.3019643029
 20
60.7478449908
 30
0.0
 10
56.3223831853
 20
60.5965133996
 30
0.0
 10
56.3223831853
 20
60.5223278293
 30
0.0
  0
SPLINE
  5
27B
100
AcDbEntity
  8
0
100
AcDbSpline
 62
7
  6
BYLAYER
 70
0
 71
3
 72
20
 73
16
 74
0
 42
0.0000001
 43
0.0000001
 44
0.0000000001
 40
0.0
 40
0.0
 40
0.0
 40
0.0
 40
0.0507152572
 40
0.1019344576
 40
0.1540802483
 40
0.2075697136
 40
0.2627372503
 40
0.3198345294
 40
0.3790331574
 40
0.4404246517
 40
0.5040261304
 40
0.5697850901
 40
0.7071949349
 40
0.851281718
 40
1.0
 40
1.0
 40
1.0
 40
1.0
 10
47.7498831853
 20
48.284503087
 30
0.0
 10
47.7498831853
 20
48.5882770895
 30
0.0
 10
47.7091128992
 20
49.1995969973
 30
0.0
 10
47.5268864403
 20
50.1068642508
 30
0.0
 10
47.2249032251
 20
50.9991781187
 30
0.0
 10
46.8060464145
 20
51.8690239365
 30
0.0
 10
46.2740461585
 20
52.7097442387
 30
0.0
 10
45.633254814
 20
53.5147330114
 30
0.0
 10
44.8889836483
 20
54.2778647097
 30
0.0
 10
44.0472240668
 20
54.9933514232
 30
0.0
 10
43.1145405791
 20
55.6556996185
 30
0.0
 10
41.7398189802
 20
56.473048705
 30
0.0
 10
39.8341055948
 20
57.3263607197
 30
0.0
 10
37.3551798571
 20
58.0539993109
 30
0.0
 10
35.6186454377
 20
58.3346477877
 30
0.0
 10
34.7323831853
 20
58.4243678488
 30
0.0
  0
SPLINE
  5
27C
100
AcDbEntity
  8
0
100
AcDbSpline
 62
7
  6
BYLAYER
 70
0
 71
3
 72
20
 73
16
 74
0
 42
0.0000001
 43
0.0000001
 44
0.0000000001
 40
0.0
 40
0.0
 40
0.0
 40
0.0
 40
0.148718282
 40
0.2928050651
 40
0.4302149099
 40
0.4959738696
 40
0.5595753483
 40
0.6209668426
 40
0.6801654706
 40
0.7372627497
 40
0.7924302864
 40
0.8459197517
 40
0.8980655424
 40
0.9492847428
 40
1.0
 40
1.0
 40
1.0
 40
1.0
 10
30.1603831853
 20
58.4243678488
 30
0.0
 10
29.2741209329
 20
58.3346477877
 30
0.0
 10
27.5375865135
 20
58.0539993109
 30
0.0
 10
25.0586607758
 20
57.3263607197
 30
0.0
 10
23.1529473904
 20
56.473048705
 30
0.0
 10
21.7782257915
 20
55.6556996185
 30
0.0
 10
20.8455423038
 20
54.9933514232
 30
0.0
 10
20.0037827223
 20
54.2778647097
 30
0.0
 10
19.2595115566
 20
53.5147330114
 30
0.0
 10
18.6187202121
 20
52.7097442387
 30
0.0
 10
18.0867199561
 20
51.8690239365
 30
0.0
 10
17.6678631455
 20
50.9991781187
 30
0.0
 10
17.3658799303
 20
50.1068642508
 30
0.0
 10
17.1836534714
 20
49.1995969973
 30
0.0
 10
17.1428831853
 20
48.5882770895
 30
0.0
 10
17.1428831853
 20
48.284503087
 30
0.0
  0
SPLINE
  5
27D
100
AcDbEntity
  8
0
100
AcDbSpline
 62
7
  6
BYLAYER
 70
0
 71
3
 72
19
 73
15
 74
0
 42
0.0000001
 43
0.0000001
 44
0.0000000001
 40
0.0
 40
0.0
 40
0.0
 40
0.0
 40
0.1488113338
 40
0.2927114823
 40
0.4298129319
 40
0.5587879313
 40
0.6200905034
 40
0.6792509478
 40
0.7363684646
 40
0.7916177069
 40
0.8452480741
 40
0.8975859587
 40
0.9490344916
 40
1.0
 40
1.0
 40
1.0
 40
1.0
 10
35.2403831853
 20
38.201941331
 30
0.0
 10
36.0996853277
 20
38.3088676584
 30
0.0
 10
37.7795806212
 20
38.6180361448
 30
0.0
 10
40.1710363539
 20
39.3728841419
 30
0.0
 10
42.3365210434
 20
40.3919302947
 30
0.0
 10
43.9273074555
 20
41.4566039746
 30
0.0
 10
45.0192095251
 20
42.4155393247
 30
0.0
 10
45.7305449102
 20
43.1672840254
 30
0.0
 10
46.3424458885
 20
43.958042692
 30
0.0
 10
46.850103875
 20
44.7821055122
 30
0.0
 10
47.2495507844
 20
45.6332785511
 30
0.0
 10
47.537401451
 20
46.505340978
 30
0.0
 10
47.7110461486
 20
47.3912897037
 30
0.0
 10
47.7498831853
 20
47.9879361409
 30
0.0
 10
47.7498831853
 20
48.284503087
 30
0.0
  0
SPLINE
  5
27E
100
AcDbEntity
  8
0
100
AcDbSpline
 62
7
  6
BYLAYER
 70
0
 71
3
 72
19
 73
15
 74
0
 42
0.0000001
 43
0.0000001
 44
0.0000000001
 40
0.0
 40
0.0
 40
0.0
 40
0.0
 40
0.0512172406
 40
0.1029052148
 40
0.1554437728
 40
0.2092195357
 40
0.2645567887
 40
0.3217005209
 40
0.3808264042
 40
0.4420422164
 40
0.5707313612
 40
0.7075000301
 40
0.8511668372
 40
1.0
 40
1.0
 40
1.0
 40
1.0
 10
17.1428831853
 20
48.284503087
 30
0.0
 10
17.1428831853
 20
47.995213133
 30
0.0
 10
17.1798539607
 20
47.4133254033
 30
0.0
 10
17.3450257827
 20
46.5488261498
 30
0.0
 10
17.6190226399
 20
45.6971949839
 30
0.0
 10
17.9993762677
 20
44.8649542658
 30
0.0
 10
18.4830780172
 20
44.0579102602
 30
0.0
 10
19.066499668
 20
43.2818141302
 30
0.0
 10
19.7452595472
 20
42.5419967369
 30
0.0
 10
20.7879420901
 20
41.5954508469
 30
0.0
 10
22.3098187549
 20
40.53682794
 30
0.0
 10
24.3878684191
 20
39.5095024697
 30
0.0
 10
26.6905314044
 20
38.7301426142
 30
0.0
 10
28.3127972219
 20
38.3942744596
 30
0.0
 10
29.1443831853
 20
38.2711377899
 30
0.0
  0
ENDSEC
  0
SECTION
  2
OBJECTS
  0
DICTIONARY
  5
C
100
AcDbDictionary
280
0
281
1
  3
ACAD_GROUP
350
D
  3
ACAD_MLINESTYLE
350
17
  3
ACAD_LAYOUT
350
1A
  3
ACAD_PLOTSETTINGS
350
19
  3
ACAD_PLOTSTYLENAME
350
E
  0
DICTIONARY
  5
D
102
{ACAD_REACTORS
330
C
102
}
100
AcDbDictionary
280
0
281
1
  0
ACDBDICTIONARYWDFLT
  5
E
102
{ACAD_REACTORS
330
C
102
}
100
AcDbDictionary
281
1
  3
Normal
350
F
100
AcDbDictionaryWithDefault
340
F
  0
DICTIONARY
  5
17
102
{ACAD_REACTORS
330
C
102
}
100
AcDbDictionary
280
0
281
1
  3
Standard
350
18
  0
DICTIONARY
  5
19
102
{ACAD_REACTORS
330
C
102
}
100
AcDbDictionary
281
1
  0
DICTIONARY
  5
1A
102
{ACAD_REACTORS
330
C
102
}
100
AcDbDictionary
281
1
  3
Model
350
27F
  3
Layout1
350
280
  0
ACDBPLACEHOLDER
  5
F
102
{ACAD_REACTORS
330
E
102
}
  0
MLINESTYLE
  5
18
102
{ACAD_REACTORS
330
17
102
}
100
AcDbMlineStyle
  2
STANDARD
 70
0
  3

 62
256
 51
90.0
 52
90.0
 71
2
 49
0.5
 62
256
  6
BYLAYER
 49
-0.5
 62
256
  6
BYLAYER
  0
LAYOUT
  5
27F
102
{ACAD_REACTORS
330
1A
102
}
100
AcDbPlotSettings
  1

  2
none_device
  4

  6

 40
0.0
 41
0.0
 42
0.0
 43
0.0
 44
210.0
 45
297.0
 46
0.0
 47
0.0
 48
0.0
 49
0.0
140
0.0
141
0.0
142
1.0
143
1.0
 70
1024
 72
1
 73
0
 74
0
  7

 75
0
147
1.0
148
0.0
149
0.0
100
AcDbLayout
  1
Model
 70
0
 71
0
 10
0.0
 20
0.0
 11
210.0
 21
297.0
 12
0.0
 22
0.0
 32
0.0
 14
0.0
 24
0.0
 34
0.0
 15
0.0
 25
0.0
 35
0.0
146
0.0
 13
0.0
 23
0.0
 33
0.0
 16
1.0
 26
0.0
 36
0.0
 17
0.0
 27
1.0
 37
0.0
 76
0
330
213
345
0
346
0
  0
LAYOUT
  5
280
102
{ACAD_REACTORS
330
1A
102
}
100
AcDbPlotSettings
  1

  2
none_device
  4

  6

 40
0.0
 41
0.0
 42
0.0
 43
0.0
 44
210.0
 45
297.0
 46
0.0
 47
0.0
 48
0.0
 49
0.0
140
0.0
141
0.0
142
1.0
143
1.0
 70
0
 72
1
 73
0
 74
0
  7

 75
0
147
1.0
148
0.0
149
0.0
100
AcDbLayout
  1
Layout1
 70
0
 71
1
 10
0.0
 20
0.0
 11
210.0
 21
297.0
 12
0.0
 22
0.0
 32
0.0
 14
0.0
 24
0.0
 34
0.0
 15
0.0
 25
0.0
 35
0.0
146
0.0
 13
0.0
 23
0.0
 33
0.0
 16
1.0
 26
0.0
 36
0.0
 17
0.0
 27
1.0
 37
0.0
 76
0
330
214
345
0
346
0
  0
ENDSEC
  0
EOF
