999
DXF file: Y:\001_SCHNEIDER_PARIS\maxime fuentes - génération CAD 2D\TRAVAIL\RM35TF30_2D-Views\rm35tf30_2d-views_6.dxf
999
Pro/ENGINEER 2018260 by Parametric Technology Corporation
  0
SECTION
  2
HEADER
  9
$ACADVER
  1
AC1027
  9
$DWGCODEPAGE
  3
ANSI_1252
  9
$EXTMAX
 10
558.8
 20
431.8
 30
0.0
  9
$EXTMIN
 10
0.0
 20
0.0
 30
0.0
  9
$LIMMIN
 10
0.0
 20
0.0
  9
$LIMMAX
 10
558.8
 20
431.8
  9
$VIEWCTR
 10
279.4
 20
215.9
  9
$VIEWSIZE
 40
431.8
  9
$CLAYER
  8
0
  9
$LTSCALE
 40
30.734
  9
$CELTYPE
  6
BYLAYER
  9
$DIMSCALE
 40
1.0
  9
$DIMASZ
 40
3.5
  9
$DIMEXO
 40
1.0
  9
$DIMDLI
 40
21.2344
  9
$DIMEXE
 40
3.0
  9
$DIMCEN
 40
5.0292
  9
$DIMLFAC
 40
1.0
  9
$DIMBLK
  1
_FILLED
  9
$DIMALT
 70
0
  9
$DIMALTF
 40
0.0393700787
  9
$DIMTXT
 40
4.0
  9
$DIMTOL
 70
1
  9
$DIMLIM
 70
0
  9
$DIMTFAC
 40
1.0
  9
$DIMTP
 40
0.0001
  9
$DIMTM
 40
0.0001
  9
$DIMGAP
 40
0.625
  9
$DIMDSEP
 70
46
  9
$AUNITS
 70
0
  9
$PDMODE
 70
0
  9
$PDSIZE
 40
0.01
  9
$HANDSEED
  5
4B9
  9
$TILEMODE
 70
1
  9
$MEASUREMENT
 70
1
  9
$INSUNITS
 70
4
  0
ENDSEC
  0
SECTION
  2
CLASSES
  0
CLASS
  1
ACDBDICTIONARYWDFLT
  2
AcDbDictionaryWithDefault
  3
AutoCAD 2000
 90
0
 91
1
280
0
281
0
  0
CLASS
  1
ACDBPLACEHOLDER
  2
AcDbPlaceHolder
  3
AutoCAD 2000
 90
0
 91
1
280
0
281
0
  0
CLASS
  1
LAYOUT
  2
AcDbLayout
  3
AutoCAD 2000
 90
0
 91
0
280
0
281
0
  0
ENDSEC
  0
SECTION
  2
TABLES
  0
TABLE
  2
VPORT
  5
8
100
AcDbSymbolTable
 70
2
  0
VPORT
  5
1F4
100
AcDbSymbolTableRecord
100
AcDbViewportTableRecord
  2
*ACTIVE
 70
0
 10
0.0
 20
0.0
 11
1.0
 21
1.0
 12
279.4
 22
215.9
 13
0.0
 23
0.0
 14
1.0
 24
1.0
 15
0.0
 25
0.0
 16
0.0
 26
0.0
 36
1.0
 17
0.0
 27
0.0
 37
0.0
 40
431.8
 41
1.2941176471
 42
50.0
 43
0.0
 44
0.0
 50
0.0
 51
0.0
 71
0
 72
100
 73
1
 74
1
 75
0
 76
0
 77
0
 78
0
  0
ENDTAB
  0
TABLE
  2
LTYPE
  5
5
100
AcDbSymbolTable
 70
6
  0
LTYPE
  5
14
100
AcDbSymbolTableRecord
100
AcDbLinetypeTableRecord
  2
BYBLOCK
 70
0
  3

 72
65
 73
0
 40
0.0
  0
LTYPE
  5
15
100
AcDbSymbolTableRecord
100
AcDbLinetypeTableRecord
  2
BYLAYER
 70
0
  3

 72
65
 73
0
 40
0.0
  0
LTYPE
  5
16
100
AcDbSymbolTableRecord
100
AcDbLinetypeTableRecord
  2
CONTINUOUS
 70
64
  3
Solid line
 72
65
 73
0
 40
0.0
  0
LTYPE
  5
1F5
100
AcDbSymbolTableRecord
100
AcDbLinetypeTableRecord
  2
CENTER
 70
64
  3
____ _ ____ _ ____ _ ____ _ ____ _ ____ _ ____
 72
65
 73
4
 40
0.6
 49
0.375
 74
0
 49
-0.075
 74
0
 49
0.075
 74
0
 49
-0.075
 74
0
  0
LTYPE
  5
1F6
100
AcDbSymbolTableRecord
100
AcDbLinetypeTableRecord
  2
HIDDEN
 70
64
  3
- - - - - - - - - - - - - - - - - - - -
 72
65
 73
2
 40
0.2
 49
0.1
 74
0
 49
-0.1
 74
0
  0
LTYPE
  5
1F7
100
AcDbSymbolTableRecord
100
AcDbLinetypeTableRecord
  2
PHANTOM
 70
64
  3
_____ _ _ _____ _ _ _____ _ _ _____
 72
65
 73
6
 40
0.8
 49
0.45
 74
0
 49
-0.05
 74
0
 49
0.1
 74
0
 49
-0.05
 74
0
 49
0.1
 74
0
 49
-0.05
 74
0
  0
LTYPE
  5
1F8
100
AcDbSymbolTableRecord
100
AcDbLinetypeTableRecord
  2
DOT
 70
64
  3
. . . . . . . . . . . . . . . . . . . .
 72
65
 73
2
 40
0.2
 49
0.1
 74
0
 49
-0.1
 74
0
  0
LTYPE
  5
1F9
100
AcDbSymbolTableRecord
100
AcDbLinetypeTableRecord
  2
DASHED
 70
64
  3
- - - - - - - - - - - - - - - - - - - -
 72
65
 73
2
 40
0.2
 49
0.1
 74
0
 49
-0.1
 74
0
  0
ENDTAB
  0
TABLE
  2
LAYER
  5
2
100
AcDbSymbolTable
 70
36
  0
LAYER
  5
10
100
AcDbSymbolTableRecord
100
AcDbLayerTableRecord
  2
0
 70
0
 62
7
  6
CONTINUOUS
370
-3
390
F
  0
LAYER
  5
1FA
100
AcDbSymbolTableRecord
100
AcDbLayerTableRecord
  2
DEFAULT_1
 70
0
 62
7
  6
CENTER
370
-3
390
F
  0
LAYER
  5
1FB
100
AcDbSymbolTableRecord
100
AcDbLayerTableRecord
  2
DEFAULT_2
 70
0
 62
8
  6
HIDDEN
370
-3
390
F
  0
LAYER
  5
1FC
100
AcDbSymbolTableRecord
100
AcDbLayerTableRecord
  2
DEFAULT_3
 70
0
 62
7
  6
PHANTOM
370
-3
390
F
  0
LAYER
  5
1FD
100
AcDbSymbolTableRecord
100
AcDbLayerTableRecord
  2
01_ALL_DTM_PLN
 70
0
 62
7
  6
CONTINUOUS
370
-3
390
F
  0
LAYER
  5
1FE
100
AcDbSymbolTableRecord
100
AcDbLayerTableRecord
  2
01__ASM_ALL_DTM_PLN
 70
0
 62
7
  6
CONTINUOUS
370
-3
390
F
  0
LAYER
  5
1FF
100
AcDbSymbolTableRecord
100
AcDbLayerTableRecord
  2
01__ASM_DEF_DTM_PLN
 70
0
 62
7
  6
CONTINUOUS
370
-3
390
F
  0
LAYER
  5
200
100
AcDbSymbolTableRecord
100
AcDbLayerTableRecord
  2
01___PRT_ALL_DTM_PLN
 70
0
 62
7
  6
CONTINUOUS
370
-3
390
F
  0
LAYER
  5
201
100
AcDbSymbolTableRecord
100
AcDbLayerTableRecord
  2
01___PRT_DEF_DTM_PLN
 70
0
 62
7
  6
CONTINUOUS
370
-3
390
F
  0
LAYER
  5
202
100
AcDbSymbolTableRecord
100
AcDbLayerTableRecord
  2
02_ALL_AXES
 70
0
 62
7
  6
CONTINUOUS
370
-3
390
F
  0
LAYER
  5
203
100
AcDbSymbolTableRecord
100
AcDbLayerTableRecord
  2
02__ASM_ALL_AXES
 70
0
 62
7
  6
CONTINUOUS
370
-3
390
F
  0
LAYER
  5
204
100
AcDbSymbolTableRecord
100
AcDbLayerTableRecord
  2
02___PRT_ALL_AXES
 70
0
 62
7
  6
CONTINUOUS
370
-3
390
F
  0
LAYER
  5
205
100
AcDbSymbolTableRecord
100
AcDbLayerTableRecord
  2
03_ALL_CURVES
 70
0
 62
7
  6
CONTINUOUS
370
-3
390
F
  0
LAYER
  5
206
100
AcDbSymbolTableRecord
100
AcDbLayerTableRecord
  2
03__ASM_ALL_CURVES
 70
0
 62
7
  6
CONTINUOUS
370
-3
390
F
  0
LAYER
  5
207
100
AcDbSymbolTableRecord
100
AcDbLayerTableRecord
  2
03___PRT_ALL_CURVES
 70
0
 62
7
  6
CONTINUOUS
370
-3
390
F
  0
LAYER
  5
208
100
AcDbSymbolTableRecord
100
AcDbLayerTableRecord
  2
04_ALL_DTM_PNT
 70
0
 62
7
  6
CONTINUOUS
370
-3
390
F
  0
LAYER
  5
209
100
AcDbSymbolTableRecord
100
AcDbLayerTableRecord
  2
04__ASM_ALL_DTM_PNT
 70
0
 62
7
  6
CONTINUOUS
370
-3
390
F
  0
LAYER
  5
20A
100
AcDbSymbolTableRecord
100
AcDbLayerTableRecord
  2
04___PRT_ALL_DTM_PNT
 70
0
 62
7
  6
CONTINUOUS
370
-3
390
F
  0
LAYER
  5
20B
100
AcDbSymbolTableRecord
100
AcDbLayerTableRecord
  2
05_ALL_DTM_CSYS
 70
0
 62
7
  6
CONTINUOUS
370
-3
390
F
  0
LAYER
  5
20C
100
AcDbSymbolTableRecord
100
AcDbLayerTableRecord
  2
05__ASM_ALL_DTM_CSYS
 70
0
 62
7
  6
CONTINUOUS
370
-3
390
F
  0
LAYER
  5
20D
100
AcDbSymbolTableRecord
100
AcDbLayerTableRecord
  2
05__ASM_DEF_DTM_CSYS
 70
0
 62
7
  6
CONTINUOUS
370
-3
390
F
  0
LAYER
  5
20E
100
AcDbSymbolTableRecord
100
AcDbLayerTableRecord
  2
05___PRT_ALL_DTM_CSYS
 70
0
 62
7
  6
CONTINUOUS
370
-3
390
F
  0
LAYER
  5
20F
100
AcDbSymbolTableRecord
100
AcDbLayerTableRecord
  2
05___PRT_DEF_DTM_CSYS
 70
0
 62
7
  6
CONTINUOUS
370
-3
390
F
  0
LAYER
  5
210
100
AcDbSymbolTableRecord
100
AcDbLayerTableRecord
  2
06_ALL_SURFS
 70
0
 62
7
  6
CONTINUOUS
370
-3
390
F
  0
LAYER
  5
211
100
AcDbSymbolTableRecord
100
AcDbLayerTableRecord
  2
06__ASM_ALL_SURFS
 70
0
 62
7
  6
CONTINUOUS
370
-3
390
F
  0
LAYER
  5
212
100
AcDbSymbolTableRecord
100
AcDbLayerTableRecord
  2
06___PRT_ALL_SURFS
 70
0
 62
7
  6
CONTINUOUS
370
-3
390
F
  0
LAYER
  5
213
100
AcDbSymbolTableRecord
100
AcDbLayerTableRecord
  2
07__ASM_ALL_SKELETONS
 70
0
 62
7
  6
CONTINUOUS
370
-3
390
F
  0
LAYER
  5
214
100
AcDbSymbolTableRecord
100
AcDbLayerTableRecord
  2
INTFCLR_169615
 70
0
 62
7
  6
CONTINUOUS
370
-3
390
F
  0
ENDTAB
  0
TABLE
  2
STYLE
  5
3
100
AcDbSymbolTable
 70
1
  0
STYLE
  5
11
100
AcDbSymbolTableRecord
100
AcDbTextStyleTableRecord
  2
STANDARD
 70
0
 40
0.0
 41
0.6
 50
0.0
 71
0
 42
0.2
  3
txt
  4

  0
STYLE
  5
215
100
AcDbSymbolTableRecord
100
AcDbTextStyleTableRecord
  2
TEXTSTYLE_1
 70
0
 40
0.0
 41
0.8
 50
0.0
 71
0
 42
0.2
  3
gdt
  4

  0
ENDTAB
  0
TABLE
  2
VIEW
  5
6
100
AcDbSymbolTable
 70
0
  0
ENDTAB
  0
TABLE
  2
UCS
  5
7
100
AcDbSymbolTable
 70
0
  0
ENDTAB
  0
TABLE
  2
APPID
  5
9
100
AcDbSymbolTable
 70
1
  0
APPID
  5
216
100
AcDbSymbolTableRecord
100
AcDbRegAppTableRecord
  2
ACAD
 70
0
  0
ENDTAB
  0
TABLE
  2
BLOCK_RECORD
  5
1
100
AcDbSymbolTable
 70
0
  0
BLOCK_RECORD
  5
217
100
AcDbSymbolTableRecord
100
AcDbBlockTableRecord
  2
*Model_Space
  0
BLOCK_RECORD
  5
218
100
AcDbSymbolTableRecord
100
AcDbBlockTableRecord
  2
*Paper_Space
  0
BLOCK_RECORD
  5
219
100
AcDbSymbolTableRecord
100
AcDbBlockTableRecord
  2
_FILLED
  0
ENDTAB
  0
TABLE
  2
DIMSTYLE
  5
A
100
AcDbSymbolTable
 70
1
100
AcDbDimStyleTable
 71
0
  0
DIMSTYLE
105
21A
100
AcDbSymbolTableRecord
100
AcDbDimStyleTableRecord
  2
STANDARD
 70
0
  3

  4

 40
1.0
 41
3.5
 42
1.0
 43
0.38
 44
3.0
 45
0.0
 46
0.0
 47
0.0001
 48
0.0001
140
4.0
141
0.09
142
0.0
143
25.4
144
1.0
145
0.0
146
1.0
147
0.625
 71
1.0
 72
0.0
 73
0
 74
0
 75
0
 76
0
 77
1
 78
8
 79
2
170
0
171
3
172
0
173
0
174
0
175
0
176
0
177
0
178
0
270
2
179
4
271
4
272
4
273
2
274
2
275
0
280
0
281
0
282
0
283
1
284
8
285
0
286
0
287
3
288
0
340
11
278
46
341
219
342
219
343
219
344
219
  0
ENDTAB
  0
ENDSEC
  0
SECTION
  2
BLOCKS
  0
BLOCK
  5
20
100
AcDbEntity
  8
0
100
AcDbBlockBegin
  2
*Model_Space
 70
0
 10
0.0
 20
0.0
 30
0.0
  3
*Model_Space
  1

  0
ENDBLK
  5
21
100
AcDbEntity
  8
0
100
AcDbBlockEnd
  0
BLOCK
  5
1C
100
AcDbEntity
  8
0
100
AcDbBlockBegin
  2
*Paper_Space
 70
0
 10
0.0
 20
0.0
 30
0.0
  3
*Paper_Space
  1

  0
ENDBLK
  5
1D
100
AcDbEntity
  8
0
100
AcDbBlockEnd
  0
BLOCK
  5
21B
100
AcDbEntity
  8
0
100
AcDbBlockBegin
  2
_FILLED
 70
64
 10
0.0
 20
0.0
  3
_FILLED
  1

  0
SOLID
  5
21C
100
AcDbEntity
  8
0
  6
BYBLOCK
 62
0
100
AcDbTrace
 10
0.0
 20
0.0
 11
-1.0
 21
0.2857142857
 12
-1.0
 22
-0.2857142857
 13
-1.0
 23
-0.2857142857
  0
ENDBLK
  5
21D
100
AcDbEntity
  8
0
  6
BYBLOCK
 62
0
100
AcDbBlockEnd
  0
ENDSEC
  0
SECTION
  2
ENTITIES
  0
LINE
  5
21E
100
AcDbEntity
  8
0
100
AcDbLine
 62
7
  6
CONTINUOUS
 10
118.7593113651
 20
285.7912991071
 11
154.3593113651
 21
285.7912991071
  0
LINE
  5
21F
100
AcDbEntity
  8
0
100
AcDbLine
 62
7
  6
CONTINUOUS
 10
139.5593113651
 20
286.2713866589
 11
133.5593113651
 21
286.2713866589
  0
LINE
  5
220
100
AcDbEntity
  8
0
100
AcDbLine
 62
7
  6
CONTINUOUS
 10
153.5893113651
 20
293.2136969369
 11
152.7593113651
 21
292.9912991071
  0
LINE
  5
221
100
AcDbEntity
  8
0
100
AcDbLine
 62
7
  6
CONTINUOUS
 10
152.7093113651
 20
292.9912991071
 11
153.5093113651
 21
293.2056584611
  0
LINE
  5
222
100
AcDbEntity
  8
0
100
AcDbLine
 62
7
  6
CONTINUOUS
 10
142.3093113651
 20
287.7412991071
 11
140.4253367689
 21
287.7412991071
  0
LINE
  5
223
100
AcDbEntity
  8
0
100
AcDbLine
 62
7
  6
CONTINUOUS
 10
132.6932859613
 20
287.7412991071
 11
130.8093113651
 21
287.7412991071
  0
LINE
  5
224
100
AcDbEntity
  8
0
100
AcDbLine
 62
7
  6
CONTINUOUS
 10
120.3593113651
 20
292.9912991071
 11
119.6093113651
 21
293.1922610015
  0
LINE
  5
225
100
AcDbEntity
  8
0
100
AcDbLine
 62
7
  6
CONTINUOUS
 10
119.6093113651
 20
293.2056584611
 11
120.4093113651
 21
292.9912991071
  0
LINE
  5
226
100
AcDbEntity
  8
0
100
AcDbLine
 62
7
  6
CONTINUOUS
 10
152.7593113651
 20
291.0412991071
 11
143.3753367689
 21
291.0412991071
  0
LINE
  5
227
100
AcDbEntity
  8
0
100
AcDbLine
 62
7
  6
CONTINUOUS
 10
151.8932859613
 20
291.2912991071
 11
130.6093113651
 21
291.2912991071
  0
LINE
  5
228
100
AcDbEntity
  8
0
100
AcDbLine
 62
7
  6
CONTINUOUS
 10
130.6093113651
 20
292.5037346724
 11
152.5645672535
 21
292.5037346724
  0
LINE
  5
229
100
AcDbEntity
  8
0
100
AcDbLine
 62
7
  6
CONTINUOUS
 10
133.5593113651
 20
287.2412991071
 11
132.6932859613
 21
287.7412991071
  0
LINE
  5
22A
100
AcDbEntity
  8
0
100
AcDbLine
 62
7
  6
CONTINUOUS
 10
120.3593113651
 20
292.9912991071
 11
120.4093113651
 21
292.9912991071
  0
LINE
  5
22B
100
AcDbEntity
  8
0
100
AcDbLine
 62
7
  6
CONTINUOUS
 10
152.7093113651
 20
292.9912991071
 11
152.7593113651
 21
292.9912991071
  0
LINE
  5
22C
100
AcDbEntity
  8
0
100
AcDbLine
 62
9
  6
CONTINUOUS
 10
121.2652365866
 20
294.9649620815
 11
124.3533861523
 21
294.9649620814
  0
LINE
  5
22D
100
AcDbEntity
  8
0
100
AcDbLine
 62
9
  6
CONTINUOUS
 10
126.7652365866
 20
294.9649620815
 11
129.8533861523
 21
294.9649620814
  0
LINE
  5
22E
100
AcDbEntity
  8
0
100
AcDbLine
 62
9
  6
CONTINUOUS
 10
132.2652365866
 20
294.9649620815
 11
135.3533861675
 21
294.9649620814
  0
LINE
  5
22F
100
AcDbEntity
  8
0
100
AcDbLine
 62
9
  6
CONTINUOUS
 10
137.7652365866
 20
294.9649620815
 11
140.8533871841
 21
294.9649620813
  0
LINE
  5
230
100
AcDbEntity
  8
0
100
AcDbLine
 62
9
  6
CONTINUOUS
 10
143.2652365866
 20
294.9649620815
 11
146.3533871841
 21
294.9649620813
  0
LINE
  5
231
100
AcDbEntity
  8
0
100
AcDbLine
 62
9
  6
CONTINUOUS
 10
148.7652365866
 20
294.9649620815
 11
151.8533871841
 21
294.9649620813
  0
LINE
  5
232
100
AcDbEntity
  8
0
100
AcDbLine
 62
9
  6
CONTINUOUS
 10
148.7652369487
 20
295.1462236423
 11
151.8533860901
 21
295.1462241913
  0
LINE
  5
233
100
AcDbEntity
  8
0
100
AcDbLine
 62
9
  6
CONTINUOUS
 10
137.7652369487
 20
295.1462236423
 11
140.8533860901
 21
295.1462241913
  0
LINE
  5
234
100
AcDbEntity
  8
0
100
AcDbLine
 62
9
  6
CONTINUOUS
 10
143.2652369487
 20
295.1462236423
 11
146.3533860901
 21
295.1462241913
  0
LINE
  5
235
100
AcDbEntity
  8
0
100
AcDbLine
 62
9
  6
CONTINUOUS
 10
121.2652369487
 20
295.1462236423
 11
124.3533861023
 21
295.1462240326
  0
LINE
  5
236
100
AcDbEntity
  8
0
100
AcDbLine
 62
9
  6
CONTINUOUS
 10
126.7652369487
 20
295.1462236423
 11
129.8533861023
 21
295.1462240326
  0
LINE
  5
237
100
AcDbEntity
  8
0
100
AcDbLine
 62
9
  6
CONTINUOUS
 10
132.2652369487
 20
295.1462236423
 11
135.3533861023
 21
295.1462240326
  0
LINE
  5
238
100
AcDbEntity
  8
0
100
AcDbLine
 62
7
  6
CONTINUOUS
 10
118.7593113651
 20
295.1912991071
 11
119.6093113651
 21
295.1912991071
  0
LINE
  5
239
100
AcDbEntity
  8
0
100
AcDbLine
 62
7
  6
CONTINUOUS
 10
153.5093113651
 20
295.1912991071
 11
154.3593113651
 21
295.1912991071
  0
LINE
  5
23A
100
AcDbEntity
  8
0
100
AcDbLine
 62
7
  6
CONTINUOUS
 10
118.7593113651
 20
295.2912991071
 11
119.6093113651
 21
295.2912991071
  0
LINE
  5
23B
100
AcDbEntity
  8
0
100
AcDbLine
 62
7
  6
CONTINUOUS
 10
153.5093113651
 20
295.2912991071
 11
154.3593113651
 21
295.2912991071
  0
LINE
  5
23C
100
AcDbEntity
  8
0
100
AcDbLine
 62
9
  6
CONTINUOUS
 10
152.6061122335
 20
295.782885837
 11
152.4091506833
 21
295.782885837
  0
LINE
  5
23D
100
AcDbEntity
  8
0
100
AcDbLine
 62
9
  6
CONTINUOUS
 10
147.1061122335
 20
295.782885837
 11
146.9091506833
 21
295.782885837
  0
LINE
  5
23E
100
AcDbEntity
  8
0
100
AcDbLine
 62
9
  6
CONTINUOUS
 10
141.6061122335
 20
295.782885837
 11
141.4091506833
 21
295.782885837
  0
LINE
  5
23F
100
AcDbEntity
  8
0
100
AcDbLine
 62
9
  6
CONTINUOUS
 10
136.1061122335
 20
295.782885837
 11
135.9091506833
 21
295.782885837
  0
LINE
  5
240
100
AcDbEntity
  8
0
100
AcDbLine
 62
9
  6
CONTINUOUS
 10
130.6061122335
 20
295.782885837
 11
130.4091506833
 21
295.782885837
  0
LINE
  5
241
100
AcDbEntity
  8
0
100
AcDbLine
 62
9
  6
CONTINUOUS
 10
125.1061122335
 20
295.782885837
 11
124.9091506833
 21
295.782885837
  0
LINE
  5
242
100
AcDbEntity
  8
0
100
AcDbLine
 62
9
  6
CONTINUOUS
 10
120.5125104968
 20
295.7828856256
 11
120.709472047
 21
295.7828856256
  0
LINE
  5
243
100
AcDbEntity
  8
0
100
AcDbLine
 62
9
  6
CONTINUOUS
 10
126.0125104968
 20
295.7828856256
 11
126.209472047
 21
295.7828856256
  0
LINE
  5
244
100
AcDbEntity
  8
0
100
AcDbLine
 62
9
  6
CONTINUOUS
 10
131.5125104968
 20
295.7828856256
 11
131.709472047
 21
295.7828856256
  0
LINE
  5
245
100
AcDbEntity
  8
0
100
AcDbLine
 62
9
  6
CONTINUOUS
 10
137.0125104968
 20
295.7828856256
 11
137.209472047
 21
295.7828856256
  0
LINE
  5
246
100
AcDbEntity
  8
0
100
AcDbLine
 62
9
  6
CONTINUOUS
 10
142.5125104968
 20
295.7828856256
 11
142.709472047
 21
295.7828856256
  0
LINE
  5
247
100
AcDbEntity
  8
0
100
AcDbLine
 62
9
  6
CONTINUOUS
 10
148.0125104968
 20
295.7828856256
 11
148.209472047
 21
295.7828856256
  0
LINE
  5
248
100
AcDbEntity
  8
0
100
AcDbLine
 62
7
  6
CONTINUOUS
 10
151.9093113651
 20
297.2607067431
 11
148.7093113651
 21
297.2607067431
  0
LINE
  5
249
100
AcDbEntity
  8
0
100
AcDbLine
 62
7
  6
CONTINUOUS
 10
146.4093113651
 20
297.2607067431
 11
143.2093113651
 21
297.2607067431
  0
LINE
  5
24A
100
AcDbEntity
  8
0
100
AcDbLine
 62
7
  6
CONTINUOUS
 10
140.9093113651
 20
297.2607067431
 11
137.7093113651
 21
297.2607067431
  0
LINE
  5
24B
100
AcDbEntity
  8
0
100
AcDbLine
 62
7
  6
CONTINUOUS
 10
135.4093113651
 20
297.2607067431
 11
132.2093113651
 21
297.2607067431
  0
LINE
  5
24C
100
AcDbEntity
  8
0
100
AcDbLine
 62
7
  6
CONTINUOUS
 10
129.9093113651
 20
297.2607067431
 11
126.7093113651
 21
297.2607067431
  0
LINE
  5
24D
100
AcDbEntity
  8
0
100
AcDbLine
 62
7
  6
CONTINUOUS
 10
124.4093113651
 20
297.2607067431
 11
121.2093113651
 21
297.2607067431
  0
LINE
  5
24E
100
AcDbEntity
  8
0
100
AcDbLine
 62
7
  6
CONTINUOUS
 10
141.3962101855
 20
351.2934383994
 11
141.4759780318
 21
351.3412991071
  0
LINE
  5
24F
100
AcDbEntity
  8
0
100
AcDbLine
 62
7
  6
CONTINUOUS
 10
126.7093113651
 20
299.7512991071
 11
126.7593113651
 21
299.7512991071
  0
LINE
  5
250
100
AcDbEntity
  8
0
100
AcDbLine
 62
7
  6
CONTINUOUS
 10
129.8593113651
 20
299.7512991071
 11
129.9093113651
 21
299.7512991071
  0
LINE
  5
251
100
AcDbEntity
  8
0
100
AcDbLine
 62
7
  6
CONTINUOUS
 10
132.2093113651
 20
299.7512991071
 11
132.2593113651
 21
299.7512991071
  0
LINE
  5
252
100
AcDbEntity
  8
0
100
AcDbLine
 62
7
  6
CONTINUOUS
 10
135.3593113651
 20
299.7512991071
 11
135.4093113651
 21
299.7512991071
  0
LINE
  5
253
100
AcDbEntity
  8
0
100
AcDbLine
 62
7
  6
CONTINUOUS
 10
137.7093113651
 20
299.7512991071
 11
137.7593113651
 21
299.7512991071
  0
LINE
  5
254
100
AcDbEntity
  8
0
100
AcDbLine
 62
7
  6
CONTINUOUS
 10
140.8593113651
 20
299.7512991071
 11
140.9093113651
 21
299.7512991071
  0
LINE
  5
255
100
AcDbEntity
  8
0
100
AcDbLine
 62
7
  6
CONTINUOUS
 10
143.2093113651
 20
299.7512991071
 11
143.2593113651
 21
299.7512991071
  0
LINE
  5
256
100
AcDbEntity
  8
0
100
AcDbLine
 62
7
  6
CONTINUOUS
 10
146.3593113651
 20
299.7512991071
 11
146.4093113651
 21
299.7512991071
  0
LINE
  5
257
100
AcDbEntity
  8
0
100
AcDbLine
 62
7
  6
CONTINUOUS
 10
148.7093113651
 20
299.7512991071
 11
148.7593113651
 21
299.7512991071
  0
LINE
  5
258
100
AcDbEntity
  8
0
100
AcDbLine
 62
7
  6
CONTINUOUS
 10
151.8593113651
 20
299.7512991071
 11
151.9093113651
 21
299.7512991071
  0
LINE
  5
259
100
AcDbEntity
  8
0
100
AcDbLine
 62
7
  6
CONTINUOUS
 10
118.7593113651
 20
333.5530014779
 11
118.7823842573
 21
333.699359528
  0
LINE
  5
25A
100
AcDbEntity
  8
0
100
AcDbLine
 62
7
  6
CONTINUOUS
 10
151.8593113651
 20
300.8912991071
 11
148.7593113651
 21
300.8912991071
  0
LINE
  5
25B
100
AcDbEntity
  8
0
100
AcDbLine
 62
7
  6
CONTINUOUS
 10
146.3593113651
 20
300.8912991071
 11
143.2593113651
 21
300.8912991071
  0
LINE
  5
25C
100
AcDbEntity
  8
0
100
AcDbLine
 62
7
  6
CONTINUOUS
 10
140.8593113651
 20
300.8912991071
 11
137.7593113651
 21
300.8912991071
  0
LINE
  5
25D
100
AcDbEntity
  8
0
100
AcDbLine
 62
7
  6
CONTINUOUS
 10
135.3593113651
 20
300.8912991071
 11
132.2593113651
 21
300.8912991071
  0
LINE
  5
25E
100
AcDbEntity
  8
0
100
AcDbLine
 62
7
  6
CONTINUOUS
 10
129.8593113651
 20
300.8912991071
 11
126.7593113651
 21
300.8912991071
  0
LINE
  5
25F
100
AcDbEntity
  8
0
100
AcDbLine
 62
7
  6
CONTINUOUS
 10
124.4093113651
 20
300.8912991071
 11
121.2093113651
 21
300.8912991071
  0
LINE
  5
260
100
AcDbEntity
  8
0
100
AcDbLine
 62
7
  6
CONTINUOUS
 10
121.2093113651
 20
300.9412991071
 11
124.4093113651
 21
300.9412991071
  0
LINE
  5
261
100
AcDbEntity
  8
0
100
AcDbLine
 62
7
  6
CONTINUOUS
 10
126.7593113651
 20
300.9412991071
 11
129.8593113651
 21
300.9412991071
  0
LINE
  5
262
100
AcDbEntity
  8
0
100
AcDbLine
 62
7
  6
CONTINUOUS
 10
132.2593113651
 20
300.9412991071
 11
135.3593113651
 21
300.9412991071
  0
LINE
  5
263
100
AcDbEntity
  8
0
100
AcDbLine
 62
7
  6
CONTINUOUS
 10
137.7593113651
 20
300.9412991071
 11
140.8593113651
 21
300.9412991071
  0
LINE
  5
264
100
AcDbEntity
  8
0
100
AcDbLine
 62
7
  6
CONTINUOUS
 10
143.2593113651
 20
300.9412991071
 11
146.3593113651
 21
300.9412991071
  0
LINE
  5
265
100
AcDbEntity
  8
0
100
AcDbLine
 62
7
  6
CONTINUOUS
 10
148.7593113651
 20
300.9412991071
 11
151.8593113651
 21
300.9412991071
  0
LINE
  5
266
100
AcDbEntity
  8
0
100
AcDbLine
 62
7
  6
CONTINUOUS
 10
121.2093113651
 20
300.9912991071
 11
124.4093113651
 21
300.9912991071
  0
LINE
  5
267
100
AcDbEntity
  8
0
100
AcDbLine
 62
7
  6
CONTINUOUS
 10
126.7093113651
 20
300.9912991071
 11
129.9093113651
 21
300.9912991071
  0
LINE
  5
268
100
AcDbEntity
  8
0
100
AcDbLine
 62
7
  6
CONTINUOUS
 10
132.2093113651
 20
300.9912991071
 11
135.4093113651
 21
300.9912991071
  0
LINE
  5
269
100
AcDbEntity
  8
0
100
AcDbLine
 62
7
  6
CONTINUOUS
 10
137.7093113651
 20
300.9912991071
 11
140.9093113651
 21
300.9912991071
  0
LINE
  5
26A
100
AcDbEntity
  8
0
100
AcDbLine
 62
7
  6
CONTINUOUS
 10
143.2093113651
 20
300.9912991071
 11
146.4093113651
 21
300.9912991071
  0
LINE
  5
26B
100
AcDbEntity
  8
0
100
AcDbLine
 62
7
  6
CONTINUOUS
 10
148.7093113651
 20
300.9912991071
 11
151.9093113651
 21
300.9912991071
  0
LINE
  5
26C
100
AcDbEntity
  8
0
100
AcDbLine
 62
9
  6
CONTINUOUS
 10
124.3533861023
 20
295.1462240326
 11
123.8447667994
 21
296.4912991071
  0
LINE
  5
26D
100
AcDbEntity
  8
0
100
AcDbLine
 62
9
  6
CONTINUOUS
 10
124.4093113651
 20
297.1047417735
 11
124.9091506837
 21
295.7828857387
  0
LINE
  5
26E
100
AcDbEntity
  8
0
100
AcDbLine
 62
9
  6
CONTINUOUS
 10
121.2093113651
 20
306.8778564408
 11
120.7094720466
 21
308.1997125191
  0
LINE
  5
26F
100
AcDbEntity
  8
0
100
AcDbLine
 62
9
  6
CONTINUOUS
 10
121.2652366278
 20
308.8363741843
 11
121.773855931
 21
307.4912991071
  0
LINE
  5
270
100
AcDbEntity
  8
0
100
AcDbLine
 62
9
  6
CONTINUOUS
 10
119.2593154593
 20
309.5084231006
 11
119.2007950969
 21
309.9203994855
  0
LINE
  5
271
100
AcDbEntity
  8
0
100
AcDbLine
 62
7
  6
CONTINUOUS
 10
120.4593128418
 20
312.4803873573
 11
120.4593113651
 21
312.4810674495
  0
LINE
  5
272
100
AcDbEntity
  8
0
100
AcDbLine
 62
7
  6
CONTINUOUS
 10
118.7593113651
 20
356.8413015603
 11
118.7593113651
 21
285.7912991071
  0
LINE
  5
273
100
AcDbEntity
  8
0
100
AcDbLine
 62
7
  6
CONTINUOUS
 10
118.8743113651
 20
356.2991206162
 11
118.8743113651
 21
351.3412991071
  0
LINE
  5
274
100
AcDbEntity
  8
0
100
AcDbLine
 62
9
  6
CONTINUOUS
 10
119.1888746336
 20
330.5713083006
 11
119.1888724214
 21
334.0490868784
  0
LINE
  5
275
100
AcDbEntity
  8
0
100
AcDbLine
 62
9
  6
CONTINUOUS
 10
119.2593094519
 20
309.5084381144
 11
119.2593113783
 21
295.2912991071
  0
LINE
  5
276
100
AcDbEntity
  8
0
100
AcDbLine
 62
9
  6
CONTINUOUS
 10
119.2593113651
 20
285.7912991071
 11
119.2593113651
 21
295.1912991071
  0
LINE
  5
277
100
AcDbEntity
  8
0
100
AcDbLine
 62
9
  6
CONTINUOUS
 10
119.2593113651
 20
334.0591100314
 11
119.2593113651
 21
351.3412991071
  0
LINE
  5
278
100
AcDbEntity
  8
0
100
AcDbLine
 62
9
  6
CONTINUOUS
 10
119.2593113651
 20
356.7784285389
 11
119.2593113651
 21
357.3412991071
  0
LINE
  5
279
100
AcDbEntity
  8
0
100
AcDbLine
 62
9
  6
CONTINUOUS
 10
119.3743115913
 20
356.2991256706
 11
119.3743118293
 21
351.3412991071
  0
LINE
  5
27A
100
AcDbEntity
  8
0
100
AcDbLine
 62
7
  6
CONTINUOUS
 10
119.6093113651
 20
295.2912991071
 11
119.6093113651
 21
295.1912991071
  0
LINE
  5
27B
100
AcDbEntity
  8
0
100
AcDbLine
 62
7
  6
CONTINUOUS
 10
119.6093113651
 20
293.2056584611
 11
119.6093113651
 21
293.1922610015
  0
LINE
  5
27C
100
AcDbEntity
  8
0
100
AcDbLine
 62
7
  6
CONTINUOUS
 10
120.3093113651
 20
351.3412991071
 11
120.3093113651
 21
351.2912991071
  0
LINE
  5
27D
100
AcDbEntity
  8
0
100
AcDbLine
 62
9
  6
CONTINUOUS
 10
120.5125104968
 20
308.1997125696
 11
120.5125104968
 21
295.7828855779
  0
LINE
  5
27E
100
AcDbEntity
  8
0
100
AcDbLine
 62
9
  6
CONTINUOUS
 10
120.7094720466
 20
308.1997125191
 11
120.7094720474
 21
295.7828856329
  0
LINE
  5
27F
100
AcDbEntity
  8
0
100
AcDbLine
 62
7
  6
CONTINUOUS
 10
120.7593113651
 20
357.100144834
 11
120.7593113651
 21
356.9632515678
  0
LWPOLYLINE
  5
280
100
AcDbEntity
  8
0
100
AcDbPolyline
 62
7
  6
CONTINUOUS
 90
5
 70
0
 10
119.1888771721
 20
334.0490875569
 10
119.0098167987
 20
333.9873788445
 10
118.8766708391
 20
333.8759252799
 10
118.7896264815
 20
333.7255333471
 10
118.7593113523
 20
333.5540624578
  0
LINE
  5
281
100
AcDbEntity
  8
0
100
AcDbLine
 62
7
  6
CONTINUOUS
 10
152.5645672535
 20
292.5037346724
 11
152.7593113651
 21
292.3912991071
  0
LINE
  5
282
100
AcDbEntity
  8
0
100
AcDbLine
 62
7
  6
CONTINUOUS
 10
121.2093113651
 20
297.1047417734
 11
121.2093113651
 21
306.8778564408
  0
LINE
  5
283
100
AcDbEntity
  8
0
100
AcDbLine
 62
9
  6
CONTINUOUS
 10
121.2652365631
 20
309.0176361329
 11
121.2652365631
 21
308.8363743745
  0
LINE
  5
284
100
AcDbEntity
  8
0
100
AcDbLine
 62
9
  6
CONTINUOUS
 10
121.2652373545
 20
294.9649620814
 11
121.2652373545
 21
295.1462238374
  0
LINE
  5
285
100
AcDbEntity
  8
0
100
AcDbLine
 62
7
  6
CONTINUOUS
 10
121.3093113651
 20
300.9912991071
 11
121.3093113651
 21
300.9412991071
  0
LINE
  5
286
100
AcDbEntity
  8
0
100
AcDbLine
 62
7
  6
CONTINUOUS
 10
121.7093113651
 20
300.9912991071
 11
121.7093113651
 21
300.9412991071
  0
LINE
  5
287
100
AcDbEntity
  8
0
100
AcDbLine
 62
7
  6
CONTINUOUS
 10
121.8743113651
 20
353.2412991071
 11
121.8743113651
 21
357.0834908378
  0
LINE
  5
288
100
AcDbEntity
  8
0
100
AcDbLine
 62
7
  6
CONTINUOUS
 10
122.3093113651
 20
300.8912991071
 11
122.3093113651
 21
300.9412991071
  0
LINE
  5
289
100
AcDbEntity
  8
0
100
AcDbLine
 62
7
  6
CONTINUOUS
 10
123.3093113651
 20
300.9412991071
 11
123.3093113651
 21
300.8912991071
  0
LINE
  5
28A
100
AcDbEntity
  8
0
100
AcDbLine
 62
7
  6
CONTINUOUS
 10
151.3447667993
 20
307.4912991071
 11
149.273855931
 21
307.4912991071
  0
LINE
  5
28B
100
AcDbEntity
  8
0
100
AcDbLine
 62
7
  6
CONTINUOUS
 10
145.8447667993
 20
307.4912991071
 11
143.773855931
 21
307.4912991071
  0
LINE
  5
28C
100
AcDbEntity
  8
0
100
AcDbLine
 62
7
  6
CONTINUOUS
 10
140.3447667993
 20
307.4912991071
 11
138.273855931
 21
307.4912991071
  0
LINE
  5
28D
100
AcDbEntity
  8
0
100
AcDbLine
 62
7
  6
CONTINUOUS
 10
134.8447667992
 20
307.4912991071
 11
132.773855931
 21
307.4912991071
  0
LINE
  5
28E
100
AcDbEntity
  8
0
100
AcDbLine
 62
7
  6
CONTINUOUS
 10
129.3447667992
 20
307.4912991071
 11
127.273855931
 21
307.4912991071
  0
LINE
  5
28F
100
AcDbEntity
  8
0
100
AcDbLine
 62
7
  6
CONTINUOUS
 10
123.8447667992
 20
307.4912991071
 11
121.773855931
 21
307.4912991071
  0
LINE
  5
290
100
AcDbEntity
  8
0
100
AcDbLine
 62
9
  6
CONTINUOUS
 10
152.6061122335
 20
308.1997125887
 11
152.4091506833
 21
308.1997125887
  0
LINE
  5
291
100
AcDbEntity
  8
0
100
AcDbLine
 62
9
  6
CONTINUOUS
 10
147.1061122335
 20
308.1997125887
 11
146.9091506833
 21
308.1997125887
  0
LINE
  5
292
100
AcDbEntity
  8
0
100
AcDbLine
 62
9
  6
CONTINUOUS
 10
141.6061122335
 20
308.1997125887
 11
141.4091506833
 21
308.1997125887
  0
LINE
  5
293
100
AcDbEntity
  8
0
100
AcDbLine
 62
9
  6
CONTINUOUS
 10
136.1061122335
 20
308.1997125887
 11
135.9091506833
 21
308.1997125887
  0
LINE
  5
294
100
AcDbEntity
  8
0
100
AcDbLine
 62
9
  6
CONTINUOUS
 10
131.709472047
 20
308.1997125517
 11
131.5125104968
 21
308.1997125517
  0
LINE
  5
295
100
AcDbEntity
  8
0
100
AcDbLine
 62
9
  6
CONTINUOUS
 10
130.6061122335
 20
308.1997125887
 11
130.4091506833
 21
308.1997125887
  0
LINE
  5
296
100
AcDbEntity
  8
0
100
AcDbLine
 62
9
  6
CONTINUOUS
 10
126.209472047
 20
308.1997125517
 11
126.0125104968
 21
308.1997125517
  0
LINE
  5
297
100
AcDbEntity
  8
0
100
AcDbLine
 62
9
  6
CONTINUOUS
 10
125.1061122335
 20
308.1997125887
 11
124.9091506833
 21
308.1997125887
  0
LINE
  5
298
100
AcDbEntity
  8
0
100
AcDbLine
 62
9
  6
CONTINUOUS
 10
120.709472047
 20
308.1997125517
 11
120.5125104968
 21
308.1997125517
  0
LINE
  5
299
100
AcDbEntity
  8
0
100
AcDbLine
 62
9
  6
CONTINUOUS
 10
137.0125104968
 20
308.1997123773
 11
137.209472047
 21
308.1997123773
  0
LINE
  5
29A
100
AcDbEntity
  8
0
100
AcDbLine
 62
9
  6
CONTINUOUS
 10
142.5125104968
 20
308.1997123773
 11
142.709472047
 21
308.1997123773
  0
LINE
  5
29B
100
AcDbEntity
  8
0
100
AcDbLine
 62
9
  6
CONTINUOUS
 10
148.0125104968
 20
308.1997123773
 11
148.209472047
 21
308.1997123773
  0
LINE
  5
29C
100
AcDbEntity
  8
0
100
AcDbLine
 62
9
  6
CONTINUOUS
 10
129.8533861023
 20
295.1462240326
 11
129.3447667994
 21
296.4912991071
  0
LINE
  5
29D
100
AcDbEntity
  8
0
100
AcDbLine
 62
9
  6
CONTINUOUS
 10
129.9093113651
 20
297.1047417735
 11
130.4091506837
 21
295.7828857387
  0
LINE
  5
29E
100
AcDbEntity
  8
0
100
AcDbLine
 62
9
  6
CONTINUOUS
 10
126.7093113651
 20
306.8778564408
 11
126.2094720466
 21
308.1997125191
  0
LINE
  5
29F
100
AcDbEntity
  8
0
100
AcDbLine
 62
9
  6
CONTINUOUS
 10
126.7652366278
 20
308.8363741843
 11
127.273855931
 21
307.4912991071
  0
LINE
  5
2A0
100
AcDbEntity
  8
0
100
AcDbLine
 62
7
  6
CONTINUOUS
 10
123.6593113651
 20
354.8912991071
 11
123.6593113651
 21
353.2412991071
  0
LINE
  5
2A1
100
AcDbEntity
  8
0
100
AcDbLine
 62
7
  6
CONTINUOUS
 10
123.6743113651
 20
353.2412991071
 11
123.6743113651
 21
357.2580712208
  0
LINE
  5
2A2
100
AcDbEntity
  8
0
100
AcDbLine
 62
7
  6
CONTINUOUS
 10
123.9093113651
 20
300.9412991071
 11
123.9093113651
 21
300.9912991071
  0
LINE
  5
2A3
100
AcDbEntity
  8
0
100
AcDbLine
 62
7
  6
CONTINUOUS
 10
124.3093113651
 20
300.9912991071
 11
124.3093113651
 21
300.9412991071
  0
LINE
  5
2A4
100
AcDbEntity
  8
0
100
AcDbLine
 62
9
  6
CONTINUOUS
 10
124.353385376
 20
309.0176361329
 11
124.353385376
 21
308.8363743745
  0
LINE
  5
2A5
100
AcDbEntity
  8
0
100
AcDbLine
 62
9
  6
CONTINUOUS
 10
124.3533861673
 20
294.9649620814
 11
124.3533861673
 21
295.1462238374
  0
LINE
  5
2A6
100
AcDbEntity
  8
0
100
AcDbLine
 62
7
  6
CONTINUOUS
 10
124.4093113651
 20
297.1047417735
 11
124.4093113651
 21
306.8778564408
  0
LINE
  5
2A7
100
AcDbEntity
  8
0
100
AcDbLine
 62
7
  6
CONTINUOUS
 10
124.8093113651
 20
351.3412991071
 11
124.8093113651
 21
351.2912991071
  0
LINE
  5
2A8
100
AcDbEntity
  8
0
100
AcDbLine
 62
9
  6
CONTINUOUS
 10
124.9091506837
 20
295.7828857387
 11
124.9091506829
 21
308.1997125814
  0
LINE
  5
2A9
100
AcDbEntity
  8
0
100
AcDbLine
 62
9
  6
CONTINUOUS
 10
125.1061122335
 20
295.7828857029
 11
125.1061122335
 21
308.1997126364
  0
LINE
  5
2AA
100
AcDbEntity
  8
0
100
AcDbLine
 62
9
  6
CONTINUOUS
 10
126.0125104968
 20
308.1997125696
 11
126.0125104968
 21
295.7828855779
  0
LINE
  5
2AB
100
AcDbEntity
  8
0
100
AcDbLine
 62
9
  6
CONTINUOUS
 10
151.8533857793
 20
308.8363745647
 11
148.7652366278
 21
308.8363741843
  0
LINE
  5
2AC
100
AcDbEntity
  8
0
100
AcDbLine
 62
9
  6
CONTINUOUS
 10
146.3533857793
 20
308.8363745647
 11
143.2652366278
 21
308.8363741843
  0
LINE
  5
2AD
100
AcDbEntity
  8
0
100
AcDbLine
 62
9
  6
CONTINUOUS
 10
140.8533857793
 20
308.8363745647
 11
137.7652366278
 21
308.8363741843
  0
LINE
  5
2AE
100
AcDbEntity
  8
0
100
AcDbLine
 62
9
  6
CONTINUOUS
 10
135.3533857793
 20
308.8363745647
 11
132.2652366278
 21
308.8363741843
  0
LINE
  5
2AF
100
AcDbEntity
  8
0
100
AcDbLine
 62
9
  6
CONTINUOUS
 10
129.8533857793
 20
308.8363745647
 11
126.7652366278
 21
308.8363741843
  0
LINE
  5
2B0
100
AcDbEntity
  8
0
100
AcDbLine
 62
9
  6
CONTINUOUS
 10
124.3533857793
 20
308.8363745647
 11
121.2652366278
 21
308.8363741843
  0
LINE
  5
2B1
100
AcDbEntity
  8
0
100
AcDbLine
 62
9
  6
CONTINUOUS
 10
151.8533861436
 20
309.0176361328
 11
148.765236578
 21
309.0176361329
  0
LINE
  5
2B2
100
AcDbEntity
  8
0
100
AcDbLine
 62
9
  6
CONTINUOUS
 10
146.3533861436
 20
309.0176361328
 11
143.2652365629
 21
309.0176361329
  0
LINE
  5
2B3
100
AcDbEntity
  8
0
100
AcDbLine
 62
9
  6
CONTINUOUS
 10
140.8533861436
 20
309.0176361328
 11
137.765236578
 21
309.0176361329
  0
LINE
  5
2B4
100
AcDbEntity
  8
0
100
AcDbLine
 62
9
  6
CONTINUOUS
 10
135.3533861436
 20
309.0176361328
 11
132.2652365781
 21
309.0176361329
  0
LINE
  5
2B5
100
AcDbEntity
  8
0
100
AcDbLine
 62
9
  6
CONTINUOUS
 10
129.8533861436
 20
309.0176361328
 11
126.7652365781
 21
309.0176361329
  0
LINE
  5
2B6
100
AcDbEntity
  8
0
100
AcDbLine
 62
9
  6
CONTINUOUS
 10
124.3533861436
 20
309.0176361328
 11
121.2652365781
 21
309.0176361329
  0
LINE
  5
2B7
100
AcDbEntity
  8
0
100
AcDbLine
 62
9
  6
CONTINUOUS
 10
118.7593113651
 20
309.5084231006
 11
119.2593104151
 21
309.5084231006
  0
LINE
  5
2B8
100
AcDbEntity
  8
0
100
AcDbLine
 62
9
  6
CONTINUOUS
 10
154.3593113651
 20
309.5084349499
 11
153.8593114343
 21
309.5084349499
  0
LINE
  5
2B9
100
AcDbEntity
  8
0
100
AcDbLine
 62
9
  6
CONTINUOUS
 10
135.3533861023
 20
295.1462240326
 11
134.8447667994
 21
296.4912991071
  0
LINE
  5
2BA
100
AcDbEntity
  8
0
100
AcDbLine
 62
9
  6
CONTINUOUS
 10
119.3139412311
 20
356.7954626487
 11
119.3743107583
 21
356.2991255714
  0
LINE
  5
2BB
100
AcDbEntity
  8
0
100
AcDbLine
 62
9
  6
CONTINUOUS
 10
126.2094720466
 20
308.1997125191
 11
126.2094720474
 21
295.7828856329
  0
LINE
  5
2BC
100
AcDbEntity
  8
0
100
AcDbLine
 62
7
  6
CONTINUOUS
 10
126.7093113651
 20
297.1047417734
 11
126.7093113651
 21
306.8778564408
  0
LINE
  5
2BD
100
AcDbEntity
  8
0
100
AcDbLine
 62
7
  6
CONTINUOUS
 10
126.7593113651
 20
297.5512991071
 11
126.7593113651
 21
300.9912991071
  0
LINE
  5
2BE
100
AcDbEntity
  8
0
100
AcDbLine
 62
9
  6
CONTINUOUS
 10
126.7652365631
 20
309.0176361329
 11
126.7652365631
 21
308.8363743745
  0
LINE
  5
2BF
100
AcDbEntity
  8
0
100
AcDbLine
 62
9
  6
CONTINUOUS
 10
126.7652373545
 20
294.9649620814
 11
126.7652373545
 21
295.1462238374
  0
LINE
  5
2C0
100
AcDbEntity
  8
0
100
AcDbLine
 62
7
  6
CONTINUOUS
 10
126.8093113651
 20
300.9912991071
 11
126.8093113651
 21
300.9412991071
  0
LINE
  5
2C1
100
AcDbEntity
  8
0
100
AcDbLine
 62
7
  6
CONTINUOUS
 10
126.8305926572
 20
316.1043301391
 11
126.8305926572
 21
326.7905477072
  0
LINE
  5
2C2
100
AcDbEntity
  8
0
100
AcDbLine
 62
7
  6
CONTINUOUS
 10
127.2093113651
 20
300.9912991071
 11
127.2093113651
 21
300.9412991071
  0
LINE
  5
2C3
100
AcDbEntity
  8
0
100
AcDbLine
 62
7
  6
CONTINUOUS
 10
127.2593113651
 20
316.5608653562
 11
127.2593113651
 21
326.3929212957
  0
LINE
  5
2C4
100
AcDbEntity
  8
0
100
AcDbLine
 62
7
  6
CONTINUOUS
 10
127.8093113651
 20
300.8912991071
 11
127.8093113651
 21
300.9412991071
  0
LINE
  5
2C5
100
AcDbEntity
  8
0
100
AcDbLine
 62
7
  6
CONTINUOUS
 10
128.8093113651
 20
300.9412991071
 11
128.8093113651
 21
300.8912991071
  0
LINE
  5
2C6
100
AcDbEntity
  8
0
100
AcDbLine
 62
9
  6
CONTINUOUS
 10
129.888030073
 20
326.9209245958
 11
129.4593113651
 21
326.4645636657
  0
LINE
  5
2C7
100
AcDbEntity
  8
0
100
AcDbLine
 62
9
  6
CONTINUOUS
 10
128.8424870785
 20
327.0429426562
 11
129.2734110326
 21
327.4993542085
  0
LINE
  5
2C8
100
AcDbEntity
  8
0
100
AcDbLine
 62
7
  6
CONTINUOUS
 10
129.4593113651
 20
316.6279062662
 11
129.888030073
 21
316.2236202565
  0
LINE
  5
2C9
100
AcDbEntity
  8
0
100
AcDbLine
 62
9
  6
CONTINUOUS
 10
129.3415845045
 20
315.6445068817
 11
128.9145787979
 21
316.0498670796
  0
LINE
  5
2CA
100
AcDbEntity
  8
0
100
AcDbLine
 62
9
  6
CONTINUOUS
 10
135.4093113651
 20
297.1047417735
 11
135.9091506837
 21
295.7828857387
  0
LINE
  5
2CB
100
AcDbEntity
  8
0
100
AcDbLine
 62
9
  6
CONTINUOUS
 10
132.2093113651
 20
306.8778564408
 11
131.7094720466
 21
308.1997125191
  0
LINE
  5
2CC
100
AcDbEntity
  8
0
100
AcDbLine
 62
9
  6
CONTINUOUS
 10
132.2652366278
 20
308.8363741843
 11
132.773855931
 21
307.4912991071
  0
LINE
  5
2CD
100
AcDbEntity
  8
0
100
AcDbLine
 62
7
  6
CONTINUOUS
 10
129.4093113651
 20
300.9412991071
 11
129.4093113651
 21
300.9912991071
  0
LINE
  5
2CE
100
AcDbEntity
  8
0
100
AcDbLine
 62
7
  6
CONTINUOUS
 10
129.4593113651
 20
326.4645636657
 11
129.4593113651
 21
316.6279062662
  0
LINE
  5
2CF
100
AcDbEntity
  8
0
100
AcDbLine
 62
7
  6
CONTINUOUS
 10
129.8093113651
 20
300.9912991071
 11
129.8093113651
 21
300.9412991071
  0
LINE
  5
2D0
100
AcDbEntity
  8
0
100
AcDbLine
 62
9
  6
CONTINUOUS
 10
129.853385376
 20
309.0176361329
 11
129.853385376
 21
308.8363743745
  0
LINE
  5
2D1
100
AcDbEntity
  8
0
100
AcDbLine
 62
9
  6
CONTINUOUS
 10
129.8533861673
 20
294.9649620814
 11
129.8533861673
 21
295.1462238374
  0
LINE
  5
2D2
100
AcDbEntity
  8
0
100
AcDbLine
 62
7
  6
CONTINUOUS
 10
129.8593113651
 20
297.5512991071
 11
129.8593113651
 21
300.9912991071
  0
LINE
  5
2D3
100
AcDbEntity
  8
0
100
AcDbLine
 62
7
  6
CONTINUOUS
 10
129.888030073
 20
326.9206409644
 11
129.888030073
 21
316.226103003
  0
LINE
  5
2D4
100
AcDbEntity
  8
0
100
AcDbLine
 62
7
  6
CONTINUOUS
 10
129.9093113651
 20
297.1047417735
 11
129.9093113651
 21
306.8778564409
  0
LINE
  5
2D5
100
AcDbEntity
  8
0
100
AcDbLine
 62
9
  6
CONTINUOUS
 10
130.4091506837
 20
295.7828857387
 11
130.4091506829
 21
308.1997125814
  0
LINE
  5
2D6
100
AcDbEntity
  8
0
100
AcDbLine
 62
9
  6
CONTINUOUS
 10
130.6061122335
 20
295.7828857029
 11
130.6061122335
 21
308.1997126364
  0
LINE
  5
2D7
100
AcDbEntity
  8
0
100
AcDbLine
 62
7
  6
CONTINUOUS
 10
130.6093113651
 20
287.9412991071
 11
130.6093113651
 21
292.5037346724
  0
LINE
  5
2D8
100
AcDbEntity
  8
0
100
AcDbLine
 62
7
  6
CONTINUOUS
 10
130.9305926572
 20
316.3328979476
 11
130.9305926572
 21
327.0298625948
  0
LINE
  5
2D9
100
AcDbEntity
  8
0
100
AcDbLine
 62
7
  6
CONTINUOUS
 10
131.3593113651
 20
316.77555365
 11
131.3593113651
 21
326.6223263064
  0
LINE
  5
2DA
100
AcDbEntity
  8
0
100
AcDbLine
 62
9
  6
CONTINUOUS
 10
131.5125104968
 20
308.1997125696
 11
131.5125104968
 21
295.7828855778
  0
LINE
  5
2DB
100
AcDbEntity
  8
0
100
AcDbLine
 62
9
  6
CONTINUOUS
 10
123.8447667993
 20
307.4912991071
 11
124.3533857793
 21
308.8363745647
  0
LINE
  5
2DC
100
AcDbEntity
  8
0
100
AcDbLine
 62
9
  6
CONTINUOUS
 10
124.9091506829
 20
308.1997125814
 11
124.4093113651
 21
306.8778564408
  0
LINE
  5
2DD
100
AcDbEntity
  8
0
100
AcDbLine
 62
9
  6
CONTINUOUS
 10
120.7094720474
 20
295.7828856329
 11
121.2093113651
 21
297.1047417734
  0
LWPOLYLINE
  5
2DE
100
AcDbEntity
  8
0
100
AcDbPolyline
 62
7
  6
CONTINUOUS
 90
14
 70
0
 10
125.1592140159
 20
313.0372327465
 10
125.1477617939
 20
313.0186316209
 10
125.0183489791
 20
312.8997287289
 10
124.7163627268
 20
312.7365823477
 10
124.2597619599
 20
312.568118285
 10
123.6927658508
 20
312.4194894636
 10
123.0663959422
 20
312.3067159425
 10
122.4287031751
 20
312.2383854609
 10
121.820994707
 20
312.2174411781
 10
121.2820346566
 20
312.2428841719
 10
120.8537165261
 20
312.3086716625
 10
120.5753834148
 20
312.398639112
 10
120.4652510658
 20
312.4734877163
 10
120.4593233668
 20
312.4804689228
  0
LINE
  5
2DF
100
AcDbEntity
  8
0
100
AcDbLine
 62
9
  6
CONTINUOUS
 10
133.988030073
 20
327.0990374036
 11
133.5593113651
 21
326.6580840233
  0
LINE
  5
2E0
100
AcDbEntity
  8
0
100
AcDbLine
 62
9
  6
CONTINUOUS
 10
132.9623866526
 20
327.2374000507
 11
133.3932356569
 21
327.6783332559
  0
LINE
  5
2E1
100
AcDbEntity
  8
0
100
AcDbLine
 62
7
  6
CONTINUOUS
 10
154.3593113651
 20
316.6912991071
 11
152.7593113651
 21
316.6912991071
  0
LINE
  5
2E2
100
AcDbEntity
  8
0
100
AcDbLine
 62
7
  6
CONTINUOUS
 10
133.5593113651
 20
316.8090220804
 11
133.988030073
 21
316.3914844548
  0
LINE
  5
2E3
100
AcDbEntity
  8
0
100
AcDbLine
 62
9
  6
CONTINUOUS
 10
133.4228729927
 20
315.8115934001
 11
132.9959450798
 21
316.2302023242
  0
LINE
  5
2E4
100
AcDbEntity
  8
0
100
AcDbLine
 62
9
  6
CONTINUOUS
 10
140.8533860901
 20
295.1462241913
 11
140.3447667994
 21
296.4912991071
  0
LINE
  5
2E5
100
AcDbEntity
  8
0
100
AcDbLine
 62
9
  6
CONTINUOUS
 10
131.7094720466
 20
308.1997125191
 11
131.7094720474
 21
295.7828856329
  0
LINE
  5
2E6
100
AcDbEntity
  8
0
100
AcDbLine
 62
7
  6
CONTINUOUS
 10
132.2093113651
 20
297.1047417734
 11
132.2093113651
 21
306.8778564407
  0
LINE
  5
2E7
100
AcDbEntity
  8
0
100
AcDbLine
 62
7
  6
CONTINUOUS
 10
132.2593113651
 20
297.5512991071
 11
132.2593113651
 21
300.9912991071
  0
LINE
  5
2E8
100
AcDbEntity
  8
0
100
AcDbLine
 62
9
  6
CONTINUOUS
 10
132.2652365631
 20
309.0176361329
 11
132.2652365631
 21
308.8363743745
  0
LINE
  5
2E9
100
AcDbEntity
  8
0
100
AcDbLine
 62
9
  6
CONTINUOUS
 10
132.2652373544
 20
294.9649620814
 11
132.2652373544
 21
295.1462238374
  0
LINE
  5
2EA
100
AcDbEntity
  8
0
100
AcDbLine
 62
7
  6
CONTINUOUS
 10
132.3093113651
 20
300.9912991071
 11
132.3093113651
 21
300.9412991071
  0
LINE
  5
2EB
100
AcDbEntity
  8
0
100
AcDbLine
 62
7
  6
CONTINUOUS
 10
132.7093113651
 20
300.9912991071
 11
132.7093113651
 21
300.9412991071
  0
LINE
  5
2EC
100
AcDbEntity
  8
0
100
AcDbLine
 62
7
  6
CONTINUOUS
 10
133.3093113651
 20
300.8912991071
 11
133.3093113651
 21
300.9412991071
  0
LINE
  5
2ED
100
AcDbEntity
  8
0
100
AcDbLine
 62
7
  6
CONTINUOUS
 10
133.5593113651
 20
326.6580840233
 11
133.5593113651
 21
316.8090220804
  0
LINE
  5
2EE
100
AcDbEntity
  8
0
100
AcDbLine
 62
7
  6
CONTINUOUS
 10
133.5593113651
 20
285.7912991071
 11
133.5593113651
 21
287.2412991071
  0
LINE
  5
2EF
100
AcDbEntity
  8
0
100
AcDbLine
 62
7
  6
CONTINUOUS
 10
133.5743113651
 20
351.3412991071
 11
133.5743113651
 21
352.5412991071
  0
LINE
  5
2F0
100
AcDbEntity
  8
0
100
AcDbLine
 62
7
  6
CONTINUOUS
 10
133.988030073
 20
327.0988210432
 11
133.988030073
 21
316.3918583245
  0
LINE
  5
2F1
100
AcDbEntity
  8
0
100
AcDbLine
 62
9
  6
CONTINUOUS
 10
121.7738559311
 20
296.4912991071
 11
121.2652369487
 21
295.1462236423
  0
LINE
  5
2F2
100
AcDbEntity
  8
0
100
AcDbLine
 62
9
  6
CONTINUOUS
 10
127.8784829161
 20
315.9832148592
 11
127.4518510273
 21
315.5222942771
  0
LINE
  5
2F3
100
AcDbEntity
  8
0
100
AcDbLine
 62
7
  6
CONTINUOUS
 10
126.8305926572
 20
316.1009376947
 11
127.2593113651
 21
316.5608653562
  0
LINE
  5
2F4
100
AcDbEntity
  8
0
100
AcDbLine
 62
9
  6
CONTINUOUS
 10
138.088030073
 20
327.1367037621
 11
137.6593113651
 21
326.7106095094
  0
LINE
  5
2F5
100
AcDbEntity
  8
0
100
AcDbLine
 62
9
  6
CONTINUOUS
 10
137.0822859272
 20
327.2901784228
 11
137.5131337843
 21
327.7162587441
  0
LINE
  5
2F6
100
AcDbEntity
  8
0
100
AcDbLine
 62
7
  6
CONTINUOUS
 10
152.7593113651
 20
317.0912991071
 11
154.3593113651
 21
317.0912991071
  0
LINE
  5
2F7
100
AcDbEntity
  8
0
100
AcDbLine
 62
7
  6
CONTINUOUS
 10
152.9593113651
 20
318.9162991071
 11
151.3093113651
 21
318.9162991071
  0
LINE
  5
2F8
100
AcDbEntity
  8
0
100
AcDbLine
 62
7
  6
CONTINUOUS
 10
151.6593113651
 20
319.1912991071
 11
152.7593113651
 21
319.1912991071
  0
LINE
  5
2F9
100
AcDbEntity
  8
0
100
AcDbLine
 62
9
  6
CONTINUOUS
 10
127.2593113651
 20
326.3929212957
 11
126.8305926572
 21
326.7907331617
  0
LINE
  5
2FA
100
AcDbEntity
  8
0
100
AcDbLine
 62
7
  6
CONTINUOUS
 10
137.6593113651
 20
316.8581869908
 11
138.088030073
 21
316.4269870594
  0
LINE
  5
2FB
100
AcDbEntity
  8
0
100
AcDbLine
 62
9
  6
CONTINUOUS
 10
137.5041808333
 20
315.8469030359
 11
137.077356793
 21
316.2791444765
  0
LINE
  5
2FC
100
AcDbEntity
  8
0
100
AcDbLine
 62
9
  6
CONTINUOUS
 10
140.9093113651
 20
297.1047417735
 11
141.4091506837
 21
295.7828857387
  0
LINE
  5
2FD
100
AcDbEntity
  8
0
100
AcDbLine
 62
9
  6
CONTINUOUS
 10
137.7093113651
 20
306.8778564408
 11
137.2094720466
 21
308.1997124754
  0
LINE
  5
2FE
100
AcDbEntity
  8
0
100
AcDbLine
 62
9
  6
CONTINUOUS
 10
137.7652366278
 20
308.8363741843
 11
138.273855931
 21
307.4912991071
  0
LINE
  5
2FF
100
AcDbEntity
  8
0
100
AcDbLine
 62
7
  6
CONTINUOUS
 10
134.3093113651
 20
300.9412991071
 11
134.3093113651
 21
300.8912991071
  0
LINE
  5
300
100
AcDbEntity
  8
0
100
AcDbLine
 62
7
  6
CONTINUOUS
 10
134.4593113651
 20
349.2912991071
 11
134.4593113651
 21
350.5912991071
  0
LINE
  5
301
100
AcDbEntity
  8
0
100
AcDbLine
 62
7
  6
CONTINUOUS
 10
134.9093113651
 20
300.9412991071
 11
134.9093113651
 21
300.9912991071
  0
LINE
  5
302
100
AcDbEntity
  8
0
100
AcDbLine
 62
7
  6
CONTINUOUS
 10
135.0305926572
 20
316.4295865336
 11
135.0305926572
 21
327.1423669909
  0
LINE
  5
303
100
AcDbEntity
  8
0
100
AcDbLine
 62
7
  6
CONTINUOUS
 10
135.3093113651
 20
300.9912991071
 11
135.3093113651
 21
300.9412991071
  0
LINE
  5
304
100
AcDbEntity
  8
0
100
AcDbLine
 62
9
  6
CONTINUOUS
 10
135.353385376
 20
309.0176361329
 11
135.353385376
 21
308.8363743745
  0
LINE
  5
305
100
AcDbEntity
  8
0
100
AcDbLine
 62
9
  6
CONTINUOUS
 10
135.3533861673
 20
294.9649620814
 11
135.3533861673
 21
295.1462238374
  0
LINE
  5
306
100
AcDbEntity
  8
0
100
AcDbLine
 62
7
  6
CONTINUOUS
 10
135.3593113651
 20
297.5512991071
 11
135.3593113651
 21
300.9912991071
  0
LINE
  5
307
100
AcDbEntity
  8
0
100
AcDbLine
 62
7
  6
CONTINUOUS
 10
135.4093113651
 20
297.1047417735
 11
135.4093113651
 21
306.8778564409
  0
LINE
  5
308
100
AcDbEntity
  8
0
100
AcDbLine
 62
7
  6
CONTINUOUS
 10
135.4593113651
 20
316.8581869924
 11
135.4593113651
 21
326.710609509
  0
LINE
  5
309
100
AcDbEntity
  8
0
100
AcDbLine
 62
9
  6
CONTINUOUS
 10
135.9091506837
 20
295.7828857387
 11
135.9091506829
 21
308.1997125814
  0
LINE
  5
30A
100
AcDbEntity
  8
0
100
AcDbLine
 62
9
  6
CONTINUOUS
 10
136.1061122335
 20
295.7828857029
 11
136.1061122335
 21
308.1997126364
  0
LINE
  5
30B
100
AcDbEntity
  8
0
100
AcDbLine
 62
9
  6
CONTINUOUS
 10
129.3447667992
 20
307.4912991071
 11
129.8533857793
 21
308.8363745647
  0
LINE
  5
30C
100
AcDbEntity
  8
0
100
AcDbLine
 62
9
  6
CONTINUOUS
 10
130.4091506829
 20
308.1997125814
 11
129.9093113651
 21
306.8778564408
  0
LINE
  5
30D
100
AcDbEntity
  8
0
100
AcDbLine
 62
9
  6
CONTINUOUS
 10
126.2094720474
 20
295.7828856329
 11
126.7093113651
 21
297.1047417734
  0
LINE
  5
30E
100
AcDbEntity
  8
0
100
AcDbLine
 62
9
  6
CONTINUOUS
 10
127.2738559311
 20
296.4912991071
 11
126.7652369487
 21
295.1462236423
  0
LWPOLYLINE
  5
30F
100
AcDbEntity
  8
0
100
AcDbPolyline
 62
7
  6
CONTINUOUS
 90
14
 70
0
 10
130.6592417675
 20
313.418481181
 10
130.6488801705
 20
313.4022392646
 10
130.5238717087
 20
313.292929637
 10
130.2275568855
 20
313.1453880642
 10
129.7790545574
 20
312.9989033216
 10
129.2210326724
 20
312.8761828545
 10
128.6009079492
 20
312.7906042376
 10
127.9638539898
 20
312.7490784696
 10
127.3522436243
 20
312.753647056
 10
126.8074945861
 20
312.8020544478
 10
126.3721117057
 20
312.88667388
 10
126.0856852423
 20
312.9903056394
 10
125.9676592937
 20
313.0746960034
 10
125.9593363534
 20
313.0853227483
  0
LINE
  5
310
100
AcDbEntity
  8
0
100
AcDbLine
 62
7
  6
CONTINUOUS
 10
130.9305926572
 20
316.33023903
 11
131.3593113651
 21
316.77555365
  0
LINE
  5
311
100
AcDbEntity
  8
0
100
AcDbLine
 62
9
  6
CONTINUOUS
 10
142.188030073
 20
327.0340562081
 11
141.7593113651
 21
326.6223263068
  0
LINE
  5
312
100
AcDbEntity
  8
0
100
AcDbLine
 62
9
  6
CONTINUOUS
 10
141.2021463201
 20
327.201427951
 11
141.6328198251
 21
327.6129837079
  0
LINE
  5
313
100
AcDbEntity
  8
0
100
AcDbLine
 62
9
  6
CONTINUOUS
 10
127.3659122605
 20
327.3685484511
 11
127.7965437696
 21
326.9709460495
  0
LINE
  5
314
100
AcDbEntity
  8
0
100
AcDbLine
 62
9
  6
CONTINUOUS
 10
131.3593113651
 20
326.6223263064
 11
130.9305926572
 21
327.0340562078
  0
LINE
  5
315
100
AcDbEntity
  8
0
100
AcDbLine
 62
7
  6
CONTINUOUS
 10
141.7593113651
 20
316.7755536485
 11
142.188030073
 21
316.330239028
  0
LINE
  5
316
100
AcDbEntity
  8
0
100
AcDbLine
 62
9
  6
CONTINUOUS
 10
141.5854771939
 20
315.7505730902
 11
141.1587478982
 21
316.1969069242
  0
LINE
  5
317
100
AcDbEntity
  8
0
100
AcDbLine
 62
9
  6
CONTINUOUS
 10
146.3533860901
 20
295.1462241913
 11
145.8447667994
 21
296.4912991071
  0
LINE
  5
318
100
AcDbEntity
  8
0
100
AcDbLine
 62
9
  6
CONTINUOUS
 10
137.0125104968
 20
308.1997125114
 11
137.0125104968
 21
295.7828855778
  0
LINE
  5
319
100
AcDbEntity
  8
0
100
AcDbLine
 62
9
  6
CONTINUOUS
 10
137.2094720466
 20
308.1997124754
 11
137.2094720474
 21
295.7828856329
  0
LINE
  5
31A
100
AcDbEntity
  8
0
100
AcDbLine
 62
7
  6
CONTINUOUS
 10
137.6593113651
 20
326.7106095094
 11
137.6593113651
 21
316.8581869908
  0
LINE
  5
31B
100
AcDbEntity
  8
0
100
AcDbLine
 62
7
  6
CONTINUOUS
 10
137.7093113651
 20
297.1047417734
 11
137.7093113651
 21
306.8778564407
  0
LINE
  5
31C
100
AcDbEntity
  8
0
100
AcDbLine
 62
7
  6
CONTINUOUS
 10
137.7593113651
 20
297.5512991071
 11
137.7593113651
 21
300.9912991071
  0
LINE
  5
31D
100
AcDbEntity
  8
0
100
AcDbLine
 62
9
  6
CONTINUOUS
 10
137.7652365631
 20
309.0176361328
 11
137.7652365631
 21
308.8363743745
  0
LINE
  5
31E
100
AcDbEntity
  8
0
100
AcDbLine
 62
9
  6
CONTINUOUS
 10
137.7652373544
 20
294.9649620814
 11
137.7652373544
 21
295.1462239168
  0
LINE
  5
31F
100
AcDbEntity
  8
0
100
AcDbLine
 62
7
  6
CONTINUOUS
 10
137.8093113651
 20
300.9912991071
 11
137.8093113651
 21
300.9412991071
  0
LINE
  5
320
100
AcDbEntity
  8
0
100
AcDbLine
 62
7
  6
CONTINUOUS
 10
138.088030073
 20
327.1423671892
 11
138.088030073
 21
316.4295623086
  0
LINE
  5
321
100
AcDbEntity
  8
0
100
AcDbLine
 62
7
  6
CONTINUOUS
 10
138.2093113651
 20
300.9912991071
 11
138.2093113651
 21
300.9412991071
  0
LINE
  5
322
100
AcDbEntity
  8
0
100
AcDbLine
 62
7
  6
CONTINUOUS
 10
138.6593113651
 20
350.5912991071
 11
138.6593113651
 21
349.2912991071
  0
LINE
  5
323
100
AcDbEntity
  8
0
100
AcDbLine
 62
7
  6
CONTINUOUS
 10
138.8093113651
 20
300.8912991071
 11
138.8093113651
 21
300.9412991071
  0
LINE
  5
324
100
AcDbEntity
  8
0
100
AcDbLine
 62
7
  6
CONTINUOUS
 10
139.1305926572
 20
316.3918793912
 11
139.1305926572
 21
327.0988258303
  0
LINE
  5
325
100
AcDbEntity
  8
0
100
AcDbLine
 62
7
  6
CONTINUOUS
 10
139.5593113651
 20
287.2412991071
 11
139.5593113651
 21
285.7912991071
  0
LINE
  5
326
100
AcDbEntity
  8
0
100
AcDbLine
 62
7
  6
CONTINUOUS
 10
139.5593113651
 20
316.8090220819
 11
139.5593113651
 21
326.6580840233
  0
LINE
  5
327
100
AcDbEntity
  8
0
100
AcDbLine
 62
7
  6
CONTINUOUS
 10
139.5743113651
 20
352.5412991071
 11
139.5743113651
 21
351.3412991071
  0
LINE
  5
328
100
AcDbEntity
  8
0
100
AcDbLine
 62
9
  6
CONTINUOUS
 10
131.9598764983
 20
316.1969071825
 11
131.5331479276
 21
315.7505734085
  0
LINE
  5
329
100
AcDbEntity
  8
0
100
AcDbLine
 62
7
  6
CONTINUOUS
 10
135.0305926572
 20
316.426987061
 11
135.4593113651
 21
316.8581869924
  0
LINE
  5
32A
100
AcDbEntity
  8
0
100
AcDbLine
 62
9
  6
CONTINUOUS
 10
146.288030073
 20
326.790733162
 11
145.8593113651
 21
326.3929212961
  0
LINE
  5
32B
100
AcDbEntity
  8
0
100
AcDbLine
 62
9
  6
CONTINUOUS
 10
145.3220837088
 20
326.9709446986
 11
145.7527108137
 21
327.3685507461
  0
LINE
  5
32C
100
AcDbEntity
  8
0
100
AcDbLine
 62
7
  6
CONTINUOUS
 10
151.6593113651
 20
322.1912991071
 11
152.7593113651
 21
322.1912991071
  0
LINE
  5
32D
100
AcDbEntity
  8
0
100
AcDbLine
 62
7
  6
CONTINUOUS
 10
151.3093113651
 20
322.4662991071
 11
152.9593113651
 21
322.4662991071
  0
LINE
  5
32E
100
AcDbEntity
  8
0
100
AcDbLine
 62
7
  6
CONTINUOUS
 10
154.3593113651
 20
324.2912991071
 11
152.7593113651
 21
324.2912991071
  0
LINE
  5
32F
100
AcDbEntity
  8
0
100
AcDbLine
 62
7
  6
CONTINUOUS
 10
152.7593113651
 20
324.6912991071
 11
154.3593113651
 21
324.6912991071
  0
LINE
  5
330
100
AcDbEntity
  8
0
100
AcDbLine
 62
9
  6
CONTINUOUS
 10
131.4858025692
 20
327.6129818711
 11
131.9164797303
 21
327.201429756
  0
LINE
  5
331
100
AcDbEntity
  8
0
100
AcDbLine
 62
9
  6
CONTINUOUS
 10
135.4593113651
 20
326.710609509
 11
135.0305926572
 21
327.1367037618
  0
LINE
  5
332
100
AcDbEntity
  8
0
100
AcDbLine
 62
9
  6
CONTINUOUS
 10
145.6667723549
 20
315.5222940448
 11
145.2401402563
 21
315.983214611
  0
LINE
  5
333
100
AcDbEntity
  8
0
100
AcDbLine
 62
9
  6
CONTINUOUS
 10
146.4093113651
 20
297.1047417735
 11
146.9091506837
 21
295.7828857387
  0
LINE
  5
334
100
AcDbEntity
  8
0
100
AcDbLine
 62
9
  6
CONTINUOUS
 10
143.2093113651
 20
306.8778564408
 11
142.7094720466
 21
308.1997124754
  0
LINE
  5
335
100
AcDbEntity
  8
0
100
AcDbLine
 62
9
  6
CONTINUOUS
 10
143.2652366278
 20
308.8363741843
 11
143.773855931
 21
307.4912991071
  0
LINE
  5
336
100
AcDbEntity
  8
0
100
AcDbLine
 62
7
  6
CONTINUOUS
 10
139.8093113651
 20
300.9412991071
 11
139.8093113651
 21
300.8912991071
  0
LINE
  5
337
100
AcDbEntity
  8
0
100
AcDbLine
 62
7
  6
CONTINUOUS
 10
140.4093113651
 20
300.9412991071
 11
140.4093113651
 21
300.9912991071
  0
LINE
  5
338
100
AcDbEntity
  8
0
100
AcDbLine
 62
7
  6
CONTINUOUS
 10
140.6093113651
 20
351.3412991071
 11
140.6093113651
 21
351.2912991071
  0
LINE
  5
339
100
AcDbEntity
  8
0
100
AcDbLine
 62
9
  6
CONTINUOUS
 10
140.6519537215
 20
351.2912991071
 11
140.6519537215
 21
351.3412991071
  0
LINE
  5
33A
100
AcDbEntity
  8
0
100
AcDbLine
 62
7
  6
CONTINUOUS
 10
140.8093113651
 20
300.9912991071
 11
140.8093113651
 21
300.9412991071
  0
LINE
  5
33B
100
AcDbEntity
  8
0
100
AcDbLine
 62
9
  6
CONTINUOUS
 10
140.853385376
 20
309.0176361328
 11
140.853385376
 21
308.8363743745
  0
LINE
  5
33C
100
AcDbEntity
  8
0
100
AcDbLine
 62
9
  6
CONTINUOUS
 10
140.8533874355
 20
295.1462239168
 11
140.8533874355
 21
294.9649620814
  0
LINE
  5
33D
100
AcDbEntity
  8
0
100
AcDbLine
 62
7
  6
CONTINUOUS
 10
140.8593113651
 20
297.5512991071
 11
140.8593113651
 21
300.9912991071
  0
LINE
  5
33E
100
AcDbEntity
  8
0
100
AcDbLine
 62
7
  6
CONTINUOUS
 10
140.9093113651
 20
297.1047417735
 11
140.9093113651
 21
306.8778564408
  0
LINE
  5
33F
100
AcDbEntity
  8
0
100
AcDbLine
 62
9
  6
CONTINUOUS
 10
141.4091506837
 20
295.7828857387
 11
141.4091506829
 21
308.1997125814
  0
LINE
  5
340
100
AcDbEntity
  8
0
100
AcDbLine
 62
9
  6
CONTINUOUS
 10
141.6061122335
 20
295.7828857029
 11
141.6061122335
 21
308.1997126364
  0
LINE
  5
341
100
AcDbEntity
  8
0
100
AcDbLine
 62
7
  6
CONTINUOUS
 10
141.6343113651
 20
351.3412991071
 11
141.6343113651
 21
351.2912991071
  0
LINE
  5
342
100
AcDbEntity
  8
0
100
AcDbLine
 62
7
  6
CONTINUOUS
 10
141.7593113651
 20
326.6223263068
 11
141.7593113651
 21
316.7755536485
  0
LINE
  5
343
100
AcDbEntity
  8
0
100
AcDbLine
 62
7
  6
CONTINUOUS
 10
141.9246540027
 20
351.2912991071
 11
141.9246540027
 21
351.3412991071
  0
LINE
  5
344
100
AcDbEntity
  8
0
100
AcDbLine
 62
7
  6
CONTINUOUS
 10
142.188030073
 20
327.0298631613
 11
142.188030073
 21
316.3328696139
  0
LINE
  5
345
100
AcDbEntity
  8
0
100
AcDbLine
 62
9
  6
CONTINUOUS
 10
134.8447667992
 20
307.4912991071
 11
135.3533857793
 21
308.8363745647
  0
LINE
  5
346
100
AcDbEntity
  8
0
100
AcDbLine
 62
9
  6
CONTINUOUS
 10
135.9091506829
 20
308.1997125814
 11
135.4093113651
 21
306.8778564408
  0
LINE
  5
347
100
AcDbEntity
  8
0
100
AcDbLine
 62
9
  6
CONTINUOUS
 10
131.7094720474
 20
295.7828856329
 11
132.2093113651
 21
297.1047417734
  0
LINE
  5
348
100
AcDbEntity
  8
0
100
AcDbLine
 62
9
  6
CONTINUOUS
 10
132.7738559311
 20
296.4912991071
 11
132.2652369487
 21
295.1462236423
  0
LWPOLYLINE
  5
349
100
AcDbEntity
  8
0
100
AcDbPolyline
 62
7
  6
CONTINUOUS
 90
14
 70
0
 10
136.1592641865
 20
313.5532539067
 10
136.1498722948
 20
313.5392133578
 10
136.0283320345
 20
313.4387314632
 10
135.7363209148
 20
313.3060451186
 10
135.2932369127
 20
313.1804392758
 10
134.7406724969
 20
313.0826807695
 10
134.1242556816
 20
313.0240692337
 10
133.4876858399
 20
313.0098665494
 10
132.87315067
 20
313.0408082852
 10
132.3231802215
 20
313.113288467
 10
131.8820789072
 20
313.2179973389
 10
131.5907115931
 20
313.3361002306
 10
131.4689041811
 20
313.4291097491
 10
131.4593479265
 20
313.4424085961
  0
LINE
  5
34A
100
AcDbEntity
  8
0
100
AcDbLine
 62
9
  6
CONTINUOUS
 10
136.0412686442
 20
316.2791443777
 11
135.6144457319
 21
315.8469029548
  0
LINE
  5
34B
100
AcDbEntity
  8
0
100
AcDbLine
 62
7
  6
CONTINUOUS
 10
139.1305926572
 20
316.3914844563
 11
139.5593113651
 21
316.8090220819
  0
LINE
  5
34C
100
AcDbEntity
  8
0
100
AcDbLine
 62
7
  6
CONTINUOUS
 10
127.2963455221
 20
326.5912991071
 11
129.4386964781
 21
326.5912991071
  0
LINE
  5
34D
100
AcDbEntity
  8
0
100
AcDbLine
 62
7
  6
CONTINUOUS
 10
131.3593113651
 20
326.5912991071
 11
133.5593113651
 21
326.5912991071
  0
LINE
  5
34E
100
AcDbEntity
  8
0
100
AcDbLine
 62
7
  6
CONTINUOUS
 10
135.4593113651
 20
326.5912991071
 11
137.6593113651
 21
326.5912991071
  0
LINE
  5
34F
100
AcDbEntity
  8
0
100
AcDbLine
 62
7
  6
CONTINUOUS
 10
139.5593113651
 20
326.5912991071
 11
141.7593113651
 21
326.5912991071
  0
LINE
  5
350
100
AcDbEntity
  8
0
100
AcDbLine
 62
7
  6
CONTINUOUS
 10
143.6796887012
 20
326.5912991071
 11
145.8227146635
 21
326.5912991071
  0
LINE
  5
351
100
AcDbEntity
  8
0
100
AcDbLine
 62
9
  6
CONTINUOUS
 10
135.605489839
 20
327.7162554583
 11
136.0363397731
 21
327.2901795599
  0
LINE
  5
352
100
AcDbEntity
  8
0
100
AcDbLine
 62
9
  6
CONTINUOUS
 10
139.5593113651
 20
326.6580840233
 11
139.1305926572
 21
327.0990374033
  0
LINE
  5
353
100
AcDbEntity
  8
0
100
AcDbLine
 62
7
  6
CONTINUOUS
 10
145.8593113651
 20
316.5608653546
 11
146.288030073
 21
316.1009376926
  0
LINE
  5
354
100
AcDbEntity
  8
0
100
AcDbLine
 62
9
  6
CONTINUOUS
 10
151.8533860901
 20
295.1462241913
 11
151.3447667994
 21
296.4912991071
  0
LINE
  5
355
100
AcDbEntity
  8
0
100
AcDbLine
 62
9
  6
CONTINUOUS
 10
151.9093113651
 20
297.1047417735
 11
152.4091506837
 21
295.7828857387
  0
LINE
  5
356
100
AcDbEntity
  8
0
100
AcDbLine
 62
7
  6
CONTINUOUS
 10
142.5093113651
 20
290.5412991071
 11
142.5093113651
 21
287.9412991071
  0
LINE
  5
357
100
AcDbEntity
  8
0
100
AcDbLine
 62
9
  6
CONTINUOUS
 10
142.5125104968
 20
308.1997125114
 11
142.5125104968
 21
295.7828855778
  0
LINE
  5
358
100
AcDbEntity
  8
0
100
AcDbLine
 62
7
  6
CONTINUOUS
 10
142.6593113651
 20
351.3412991071
 11
142.6593113651
 21
351.2912991071
  0
LINE
  5
359
100
AcDbEntity
  8
0
100
AcDbLine
 62
9
  6
CONTINUOUS
 10
142.7094720466
 20
308.1997124754
 11
142.7094720474
 21
295.7828856329
  0
LINE
  5
35A
100
AcDbEntity
  8
0
100
AcDbLine
 62
7
  6
CONTINUOUS
 10
142.8593113651
 20
351.3412991071
 11
142.8593113651
 21
351.2912991071
  0
LINE
  5
35B
100
AcDbEntity
  8
0
100
AcDbLine
 62
7
  6
CONTINUOUS
 10
143.0093113651
 20
291.2912991071
 11
143.0093113651
 21
290.8299742417
  0
LINE
  5
35C
100
AcDbEntity
  8
0
100
AcDbLine
 62
7
  6
CONTINUOUS
 10
143.2093113651
 20
297.1047417734
 11
143.2093113651
 21
306.8778564407
  0
LINE
  5
35D
100
AcDbEntity
  8
0
100
AcDbLine
 62
7
  6
CONTINUOUS
 10
143.2305926572
 20
316.226123265
 11
143.2305926572
 21
326.9206476273
  0
LINE
  5
35E
100
AcDbEntity
  8
0
100
AcDbLine
 62
7
  6
CONTINUOUS
 10
143.2593113651
 20
297.5512991071
 11
143.2593113651
 21
300.9912991071
  0
LINE
  5
35F
100
AcDbEntity
  8
0
100
AcDbLine
 62
9
  6
CONTINUOUS
 10
143.2652365631
 20
309.0176361328
 11
143.2652365631
 21
308.8363743745
  0
LINE
  5
360
100
AcDbEntity
  8
0
100
AcDbLine
 62
9
  6
CONTINUOUS
 10
143.2652373544
 20
294.9649620814
 11
143.2652373544
 21
295.1462239168
  0
LINE
  5
361
100
AcDbEntity
  8
0
100
AcDbLine
 62
7
  6
CONTINUOUS
 10
143.3093113651
 20
300.9912991071
 11
143.3093113651
 21
300.9412991071
  0
LINE
  5
362
100
AcDbEntity
  8
0
100
AcDbLine
 62
7
  6
CONTINUOUS
 10
143.5416763602
 20
351.2912991071
 11
143.5416763602
 21
351.3412991071
  0
LINE
  5
363
100
AcDbEntity
  8
0
100
AcDbLine
 62
7
  6
CONTINUOUS
 10
143.6593113651
 20
316.6279062676
 11
143.6593113651
 21
326.4645636657
  0
LINE
  5
364
100
AcDbEntity
  8
0
100
AcDbLine
 62
7
  6
CONTINUOUS
 10
143.7093113651
 20
300.9912991071
 11
143.7093113651
 21
300.9412991071
  0
LINE
  5
365
100
AcDbEntity
  8
0
100
AcDbLine
 62
7
  6
CONTINUOUS
 10
144.3093113651
 20
300.8912991071
 11
144.3093113651
 21
300.9412991071
  0
LINE
  5
366
100
AcDbEntity
  8
0
100
AcDbLine
 62
9
  6
CONTINUOUS
 10
140.1226815282
 20
316.2302023584
 11
139.6957548866
 21
315.8115931861
  0
LINE
  5
367
100
AcDbEntity
  8
0
100
AcDbLine
 62
7
  6
CONTINUOUS
 10
152.7593113651
 20
329.1912991071
 11
154.3593113651
 21
329.1912991071
  0
LINE
  5
368
100
AcDbEntity
  8
0
100
AcDbLine
 62
7
  6
CONTINUOUS
 10
154.3593113651
 20
329.4912991071
 11
152.7593113651
 21
329.4912991071
  0
LINE
  5
369
100
AcDbEntity
  8
0
100
AcDbLine
 62
9
  6
CONTINUOUS
 10
139.7253872489
 20
327.678330442
 11
140.156237923
 21
327.237401186
  0
LINE
  5
36A
100
AcDbEntity
  8
0
100
AcDbLine
 62
9
  6
CONTINUOUS
 10
143.6593113651
 20
326.4645636657
 11
143.2305926572
 21
326.9209245958
  0
LINE
  5
36B
100
AcDbEntity
  8
0
100
AcDbLine
 62
9
  6
CONTINUOUS
 10
148.7093113651
 20
306.8778564408
 11
148.2094720466
 21
308.1997124754
  0
LINE
  5
36C
100
AcDbEntity
  8
0
100
AcDbLine
 62
9
  6
CONTINUOUS
 10
148.7652366278
 20
308.8363741843
 11
149.273855931
 21
307.4912991071
  0
LINE
  5
36D
100
AcDbEntity
  8
0
100
AcDbLine
 62
7
  6
CONTINUOUS
 10
144.9769463698
 20
351.3412991071
 11
144.9769463699
 21
351.2912991071
  0
LINE
  5
36E
100
AcDbEntity
  8
0
100
AcDbLine
 62
7
  6
CONTINUOUS
 10
145.3093113651
 20
300.9412991071
 11
145.3093113651
 21
300.8912991071
  0
LINE
  5
36F
100
AcDbEntity
  8
0
100
AcDbLine
 62
7
  6
CONTINUOUS
 10
145.6593113651
 20
351.2912991071
 11
145.6593113651
 21
351.3412991071
  0
LINE
  5
370
100
AcDbEntity
  8
0
100
AcDbLine
 62
7
  6
CONTINUOUS
 10
145.8593113651
 20
326.3929212961
 11
145.8593113651
 21
316.5608653546
  0
LINE
  5
371
100
AcDbEntity
  8
0
100
AcDbLine
 62
7
  6
CONTINUOUS
 10
145.8593113651
 20
351.2912991071
 11
145.8593113651
 21
351.3412991071
  0
LINE
  5
372
100
AcDbEntity
  8
0
100
AcDbLine
 62
7
  6
CONTINUOUS
 10
145.9093113651
 20
300.9412991071
 11
145.9093113651
 21
300.9912991071
  0
LINE
  5
373
100
AcDbEntity
  8
0
100
AcDbLine
 62
7
  6
CONTINUOUS
 10
146.288030073
 20
326.7905438583
 11
146.288030073
 21
316.1042896743
  0
LINE
  5
374
100
AcDbEntity
  8
0
100
AcDbLine
 62
7
  6
CONTINUOUS
 10
146.3093113651
 20
300.9912991071
 11
146.3093113651
 21
300.9412991071
  0
LINE
  5
375
100
AcDbEntity
  8
0
100
AcDbLine
 62
9
  6
CONTINUOUS
 10
146.353385376
 20
309.0176361328
 11
146.353385376
 21
308.8363743745
  0
LINE
  5
376
100
AcDbEntity
  8
0
100
AcDbLine
 62
9
  6
CONTINUOUS
 10
146.3533874355
 20
295.1462239168
 11
146.3533874355
 21
294.9649620814
  0
LINE
  5
377
100
AcDbEntity
  8
0
100
AcDbLine
 62
7
  6
CONTINUOUS
 10
146.3593113651
 20
297.5512991071
 11
146.3593113651
 21
300.9912991071
  0
LINE
  5
378
100
AcDbEntity
  8
0
100
AcDbLine
 62
7
  6
CONTINUOUS
 10
146.4093113651
 20
297.1047417735
 11
146.4093113651
 21
306.8778564408
  0
LINE
  5
379
100
AcDbEntity
  8
0
100
AcDbLine
 62
7
  6
CONTINUOUS
 10
146.5939687276
 20
351.3412991071
 11
146.5939687276
 21
351.2912991071
  0
LINE
  5
37A
100
AcDbEntity
  8
0
100
AcDbLine
 62
7
  6
CONTINUOUS
 10
146.8843113651
 20
351.3412991071
 11
146.8843113651
 21
351.2912991071
  0
LINE
  5
37B
100
AcDbEntity
  8
0
100
AcDbLine
 62
9
  6
CONTINUOUS
 10
146.9091506837
 20
295.7828857387
 11
146.9091506829
 21
308.1997125814
  0
LINE
  5
37C
100
AcDbEntity
  8
0
100
AcDbLine
 62
9
  6
CONTINUOUS
 10
147.1061122335
 20
295.7828857029
 11
147.1061122335
 21
308.1997126364
  0
LINE
  5
37D
100
AcDbEntity
  8
0
100
AcDbLine
 62
9
  6
CONTINUOUS
 10
140.3447667992
 20
307.4912991071
 11
140.8533857793
 21
308.8363745647
  0
LINE
  5
37E
100
AcDbEntity
  8
0
100
AcDbLine
 62
9
  6
CONTINUOUS
 10
141.4091506829
 20
308.1997125814
 11
140.9093113651
 21
306.8778564408
  0
LINE
  5
37F
100
AcDbEntity
  8
0
100
AcDbLine
 62
9
  6
CONTINUOUS
 10
137.2094720474
 20
295.7828856329
 11
137.7093113651
 21
297.1047417734
  0
LINE
  5
380
100
AcDbEntity
  8
0
100
AcDbLine
 62
9
  6
CONTINUOUS
 10
138.2738559311
 20
296.4912991071
 11
137.7652369487
 21
295.1462236423
  0
LWPOLYLINE
  5
381
100
AcDbEntity
  8
0
100
AcDbPolyline
 62
7
  6
CONTINUOUS
 90
14
 70
0
 10
141.6592802369
 20
313.442465503
 10
141.6508681107
 20
313.4306721882
 10
141.5327114852
 20
313.3387818288
 10
141.2451551047
 20
313.220689378
 10
140.8076097804
 20
313.1154991301
 10
140.2603656815
 20
313.042156065
 10
139.6473302556
 20
313.0101059271
 10
139.0108879378
 20
313.0231221101
 10
138.3932093777
 20
313.0806469143
 10
137.8380612883
 20
313.1775924576
 10
137.3915241802
 20
313.3027643779
 10
137.0955617264
 20
313.4355540666
 10
136.9700830045
 20
313.5373287688
 10
136.9593642641
 20
313.5531986686
  0
LINE
  5
382
100
AcDbEntity
  8
0
100
AcDbLine
 62
9
  6
CONTINUOUS
 10
144.2040483691
 20
316.0498667282
 11
143.7770445473
 21
315.6445065035
  0
LINE
  5
383
100
AcDbEntity
  8
0
100
AcDbLine
 62
7
  6
CONTINUOUS
 10
143.2305926572
 20
316.2236202579
 11
143.6593113651
 21
316.6279062676
  0
LINE
  5
384
100
AcDbEntity
  8
0
100
AcDbLine
 62
9
  6
CONTINUOUS
 10
143.8452117908
 20
327.4993512273
 11
144.2761361845
 21
327.0429438959
  0
LINE
  5
385
100
AcDbEntity
  8
0
100
AcDbLine
 62
9
  6
CONTINUOUS
 10
148.0125104968
 20
308.1997125114
 11
148.0125104968
 21
295.7828855778
  0
LINE
  5
386
100
AcDbEntity
  8
0
100
AcDbLine
 62
9
  6
CONTINUOUS
 10
148.2094720466
 20
308.1997124754
 11
148.2094720474
 21
295.7828856329
  0
LINE
  5
387
100
AcDbEntity
  8
0
100
AcDbLine
 62
7
  6
CONTINUOUS
 10
148.7093113651
 20
297.1047417734
 11
148.7093113651
 21
306.8778564407
  0
LINE
  5
388
100
AcDbEntity
  8
0
100
AcDbLine
 62
7
  6
CONTINUOUS
 10
148.7593113651
 20
297.5512991071
 11
148.7593113651
 21
300.9912991071
  0
LINE
  5
389
100
AcDbEntity
  8
0
100
AcDbLine
 62
9
  6
CONTINUOUS
 10
148.7652365631
 20
309.0176361328
 11
148.7652365631
 21
308.8363743745
  0
LINE
  5
38A
100
AcDbEntity
  8
0
100
AcDbLine
 62
9
  6
CONTINUOUS
 10
148.7652373544
 20
294.9649620814
 11
148.7652373544
 21
295.1462239168
  0
LINE
  5
38B
100
AcDbEntity
  8
0
100
AcDbLine
 62
7
  6
CONTINUOUS
 10
148.8093113651
 20
300.9912991071
 11
148.8093113651
 21
300.9412991071
  0
LINE
  5
38C
100
AcDbEntity
  8
0
100
AcDbLine
 62
7
  6
CONTINUOUS
 10
149.2093113651
 20
300.9912991071
 11
149.2093113651
 21
300.9412991071
  0
LINE
  5
38D
100
AcDbEntity
  8
0
100
AcDbLine
 62
7
  6
CONTINUOUS
 10
149.8093113651
 20
300.8912991071
 11
149.8093113651
 21
300.9412991071
  0
LINE
  5
38E
100
AcDbEntity
  8
0
100
AcDbLine
 62
9
  6
CONTINUOUS
 10
153.7743111102
 20
356.2991206205
 11
153.8346812425
 21
356.79546268
  0
LINE
  5
38F
100
AcDbEntity
  8
0
100
AcDbLine
 62
9
  6
CONTINUOUS
 10
145.8447667992
 20
307.4912991071
 11
146.3533857793
 21
308.8363745647
  0
LWPOLYLINE
  5
390
100
AcDbEntity
  8
0
100
AcDbPolyline
 62
7
  6
CONTINUOUS
 90
14
 70
0
 10
147.1592946252
 20
313.0856421088
 10
147.1524510362
 20
313.0766469478
 10
147.0395915012
 20
312.9937406789
 10
146.7584113391
 20
312.8898907683
 10
146.3275821029
 20
312.8043451803
 10
145.7859225555
 20
312.7545840738
 10
145.1757648878
 20
312.7484912214
 10
144.5384441984
 20
312.7885327911
 10
143.9164091781
 20
312.8728711271
 10
143.3549475043
 20
312.9947912747
 10
142.9021047693
 20
313.1409880049
 10
142.6009369103
 20
313.2889331974
 10
142.471319631
 20
313.3999299039
 10
142.4593872865
 20
313.4184183202
  0
LINE
  5
391
100
AcDbEntity
  8
0
100
AcDbLine
 62
9
  6
CONTINUOUS
 10
152.907150448
 20
334.1598896359
 11
151.9521316882
 21
334.1598896359
  0
LINE
  5
392
100
AcDbEntity
  8
0
100
AcDbLine
 62
7
  6
CONTINUOUS
 10
150.8093113651
 20
300.9412991071
 11
150.8093113651
 21
300.8912991071
  0
LINE
  5
393
100
AcDbEntity
  8
0
100
AcDbLine
 62
7
  6
CONTINUOUS
 10
151.3093113651
 20
318.9162991071
 11
151.3093113651
 21
322.4662991071
  0
LINE
  5
394
100
AcDbEntity
  8
0
100
AcDbLine
 62
7
  6
CONTINUOUS
 10
151.4093113651
 20
300.9412991071
 11
151.4093113651
 21
300.9912991071
  0
LINE
  5
395
100
AcDbEntity
  8
0
100
AcDbLine
 62
7
  6
CONTINUOUS
 10
151.6593113651
 20
319.1912991071
 11
151.6593113651
 21
322.1912991071
  0
LINE
  5
396
100
AcDbEntity
  8
0
100
AcDbLine
 62
7
  6
CONTINUOUS
 10
151.8093113651
 20
300.9912991071
 11
151.8093113651
 21
300.9412991071
  0
LINE
  5
397
100
AcDbEntity
  8
0
100
AcDbLine
 62
9
  6
CONTINUOUS
 10
151.853385376
 20
309.0176361328
 11
151.853385376
 21
308.8363743745
  0
LINE
  5
398
100
AcDbEntity
  8
0
100
AcDbLine
 62
9
  6
CONTINUOUS
 10
151.8533874355
 20
295.1462239168
 11
151.8533874355
 21
294.9649620814
  0
LINE
  5
399
100
AcDbEntity
  8
0
100
AcDbLine
 62
7
  6
CONTINUOUS
 10
151.8593113651
 20
297.5512991071
 11
151.8593113651
 21
300.9912991071
  0
LINE
  5
39A
100
AcDbEntity
  8
0
100
AcDbLine
 62
7
  6
CONTINUOUS
 10
151.9093113651
 20
297.1047417735
 11
151.9093113651
 21
306.8778564408
  0
LINE
  5
39B
100
AcDbEntity
  8
0
100
AcDbLine
 62
7
  6
CONTINUOUS
 10
152.3593113651
 20
356.9671387911
 11
152.3593113651
 21
357.100144834
  0
LINE
  5
39C
100
AcDbEntity
  8
0
100
AcDbLine
 62
9
  6
CONTINUOUS
 10
152.4091506837
 20
295.7828857387
 11
152.4091506829
 21
308.1997125814
  0
LINE
  5
39D
100
AcDbEntity
  8
0
100
AcDbLine
 62
7
  6
CONTINUOUS
 10
152.5593113651
 20
319.1912991071
 11
152.5593113651
 21
322.1912991071
  0
LINE
  5
39E
100
AcDbEntity
  8
0
100
AcDbLine
 62
9
  6
CONTINUOUS
 10
152.6061122335
 20
295.7828857029
 11
152.6061122335
 21
308.1997126364
  0
LINE
  5
39F
100
AcDbEntity
  8
0
100
AcDbLine
 62
7
  6
CONTINUOUS
 10
152.7593113651
 20
322.1912991071
 11
152.7593113651
 21
319.1912991071
  0
LINE
  5
3A0
100
AcDbEntity
  8
0
100
AcDbLine
 62
7
  6
CONTINUOUS
 10
152.7593113651
 20
292.3912991071
 11
152.7593113651
 21
291.0412991071
  0
LINE
  5
3A1
100
AcDbEntity
  8
0
100
AcDbLine
 62
7
  6
CONTINUOUS
 10
152.7593113651
 20
316.6912991071
 11
152.7593113651
 21
317.0912991071
  0
LINE
  5
3A2
100
AcDbEntity
  8
0
100
AcDbLine
 62
7
  6
CONTINUOUS
 10
152.7593113651
 20
324.2912991071
 11
152.7593113651
 21
324.6912991071
  0
LINE
  5
3A3
100
AcDbEntity
  8
0
100
AcDbLine
 62
7
  6
CONTINUOUS
 10
152.7593113651
 20
329.1912991071
 11
152.7593113651
 21
329.4912991071
  0
LINE
  5
3A4
100
AcDbEntity
  8
0
100
AcDbLine
 62
7
  6
CONTINUOUS
 10
152.7593113651
 20
335.2912991071
 11
152.7593113651
 21
335.5912991071
  0
LINE
  5
3A5
100
AcDbEntity
  8
0
100
AcDbLine
 62
7
  6
CONTINUOUS
 10
152.9593113651
 20
322.4662991071
 11
152.9593113651
 21
318.9162991071
  0
LINE
  5
3A6
100
AcDbEntity
  8
0
100
AcDbLine
 62
7
  6
CONTINUOUS
 10
152.6593113651
 20
312.4810668516
 11
152.6593113006
 21
312.4809246173
  0
LINE
  5
3A7
100
AcDbEntity
  8
0
100
AcDbLine
 62
9
  6
CONTINUOUS
 10
146.9091506829
 20
308.1997125814
 11
146.4093113651
 21
306.8778564408
  0
LINE
  5
3A8
100
AcDbEntity
  8
0
100
AcDbLine
 62
9
  6
CONTINUOUS
 10
142.7094720474
 20
295.7828856329
 11
143.2093113651
 21
297.1047417734
  0
LINE
  5
3A9
100
AcDbEntity
  8
0
100
AcDbLine
 62
9
  6
CONTINUOUS
 10
143.7738559311
 20
296.4912991071
 11
143.2652369487
 21
295.1462236423
  0
LINE
  5
3AA
100
AcDbEntity
  8
0
100
AcDbLine
 62
7
  6
CONTINUOUS
 10
152.3543113651
 20
351.3412991071
 11
152.3593113651
 21
351.2912991071
  0
LINE
  5
3AB
100
AcDbEntity
  8
0
100
AcDbLine
 62
7
  6
CONTINUOUS
 10
153.5093113651
 20
293.2056584611
 11
153.5093113651
 21
295.2912991071
  0
LINE
  5
3AC
100
AcDbEntity
  8
0
100
AcDbLine
 62
7
  6
CONTINUOUS
 10
153.5893113651
 20
295.1912991071
 11
153.5893113651
 21
293.2136969369
  0
LINE
  5
3AD
100
AcDbEntity
  8
0
100
AcDbLine
 62
9
  6
CONTINUOUS
 10
153.7743113651
 20
351.3412991071
 11
153.7743111091
 21
356.2991206115
  0
LINE
  5
3AE
100
AcDbEntity
  8
0
100
AcDbLine
 62
9
  6
CONTINUOUS
 10
153.8593113651
 20
357.3412991071
 11
153.8593113651
 21
356.7954626644
  0
LINE
  5
3AF
100
AcDbEntity
  8
0
100
AcDbLine
 62
9
  6
CONTINUOUS
 10
153.8593113651
 20
351.3412991071
 11
153.8593113651
 21
335.1909318494
  0
LINE
  5
3B0
100
AcDbEntity
  8
0
100
AcDbLine
 62
9
  6
CONTINUOUS
 10
153.8593113651
 20
334.8909318495
 11
153.8593113651
 21
334.0591100314
  0
LINE
  5
3B1
100
AcDbEntity
  8
0
100
AcDbLine
 62
9
  6
CONTINUOUS
 10
153.8593113651
 20
295.1912991071
 11
153.8593113651
 21
285.7912991071
  0
LINE
  5
3B2
100
AcDbEntity
  8
0
100
AcDbLine
 62
9
  6
CONTINUOUS
 10
153.8593113651
 20
295.2912991071
 11
153.8593115034
 21
309.5084382859
  0
LINE
  5
3B3
100
AcDbEntity
  8
0
100
AcDbLine
 62
9
  6
CONTINUOUS
 10
153.9297396124
 20
330.5713249302
 11
153.9297478939
 21
334.0491050852
  0
LINE
  5
3B4
100
AcDbEntity
  8
0
100
AcDbLine
 62
7
  6
CONTINUOUS
 10
154.2743113651
 20
351.3412991071
 11
154.2743113651
 21
356.2991205823
  0
LINE
  5
3B5
100
AcDbEntity
  8
0
100
AcDbLine
 62
7
  6
CONTINUOUS
 10
154.3593113651
 20
285.7912991071
 11
154.3593113651
 21
356.8413015181
  0
LINE
  5
3B6
100
AcDbEntity
  8
0
100
AcDbLine
 62
9
  6
CONTINUOUS
 10
153.9176589049
 20
309.9204389585
 11
153.8593135431
 21
309.5084349497
  0
LINE
  5
3B7
100
AcDbEntity
  8
0
100
AcDbLine
 62
9
  6
CONTINUOUS
 10
151.3447667992
 20
307.4912991071
 11
151.8533857793
 21
308.8363745647
  0
LWPOLYLINE
  5
3B8
100
AcDbEntity
  8
0
100
AcDbPolyline
 62
7
  6
CONTINUOUS
 90
14
 70
0
 10
152.6593046715
 20
312.4809945049
 10
152.6548788389
 20
312.4754615611
 10
152.5510818284
 20
312.4024214973
 10
152.2795541192
 20
312.3120609634
 10
151.8563173338
 20
312.2448255965
 10
151.3201593539
 20
312.2175834322
 10
150.7131753495
 20
312.2367603662
 10
150.0753471307
 20
312.3034406481
 10
149.4474757726
 20
312.4147809779
 10
148.8768724428
 20
312.5625442443
 10
148.4151223044
 20
312.7309144494
 10
148.10701899
 20
312.8950903975
 10
147.9726694468
 20
313.0159104305
 10
147.9594150392
 20
313.0371581673
  0
LINE
  5
3B9
100
AcDbEntity
  8
0
100
AcDbLine
 62
7
  6
CONTINUOUS
 10
152.7593113651
 20
335.2912991071
 11
154.3593113651
 21
334.7089467323
  0
LINE
  5
3BA
100
AcDbEntity
  8
0
100
AcDbLine
 62
7
  6
CONTINUOUS
 10
152.7593113651
 20
335.5912991071
 11
154.3593113651
 21
335.0089467323
  0
LINE
  5
3BB
100
AcDbEntity
  8
0
100
AcDbLine
 62
9
  6
CONTINUOUS
 10
152.4091506829
 20
308.1997125814
 11
151.9093113651
 21
306.8778564408
  0
LINE
  5
3BC
100
AcDbEntity
  8
0
100
AcDbLine
 62
9
  6
CONTINUOUS
 10
148.2094720474
 20
295.7828856329
 11
148.7093113651
 21
297.1047417734
  0
LINE
  5
3BD
100
AcDbEntity
  8
0
100
AcDbLine
 62
9
  6
CONTINUOUS
 10
149.2738559311
 20
296.4912991071
 11
148.7652369487
 21
295.1462236423
  0
LWPOLYLINE
  5
3BE
100
AcDbEntity
  8
0
100
AcDbPolyline
 62
7
  6
CONTINUOUS
 90
6
 70
0
 10
154.3593113651
 20
333.5537667607
 10
154.329848593
 20
333.7228484903
 10
154.245086465
 20
333.8718171373
 10
154.1154380569
 20
333.9831382583
 10
153.9553065869
 20
334.0444129557
 10
153.9297536751
 20
334.0487271102
  0
LINE
  5
3BF
100
AcDbEntity
  8
0
100
AcDbLine
 62
7
  6
CONTINUOUS
 10
138.6593113651
 20
349.2912991071
 11
134.4593113651
 21
349.2912991071
  0
LINE
  5
3C0
100
AcDbEntity
  8
0
100
AcDbLine
 62
7
  6
CONTINUOUS
 10
134.4593113651
 20
350.5912991071
 11
138.6593113651
 21
350.5912991071
  0
LINE
  5
3C1
100
AcDbEntity
  8
0
100
AcDbLine
 62
9
  6
CONTINUOUS
 10
118.7593113651
 20
350.7912991071
 11
154.3593113651
 21
350.7912991071
  0
LINE
  5
3C2
100
AcDbEntity
  8
0
100
AcDbLine
 62
7
  6
CONTINUOUS
 10
118.7593113651
 20
351.2912991071
 11
154.3593113651
 21
351.2912991071
  0
LINE
  5
3C3
100
AcDbEntity
  8
0
100
AcDbLine
 62
7
  6
CONTINUOUS
 10
118.8743113651
 20
351.3412991071
 11
154.2743113651
 21
351.3412991071
  0
LINE
  5
3C4
100
AcDbEntity
  8
0
100
AcDbLine
 62
7
  6
CONTINUOUS
 10
143.3753367689
 20
291.0412991071
 11
142.5093113651
 21
290.5412991071
  0
LINE
  5
3C5
100
AcDbEntity
  8
0
100
AcDbLine
 62
7
  6
CONTINUOUS
 10
140.4253367689
 20
287.7412991071
 11
139.5593113651
 21
287.2412991071
  0
LINE
  5
3C6
100
AcDbEntity
  8
0
100
AcDbLine
 62
7
  6
CONTINUOUS
 10
133.5743113651
 20
352.5412991071
 11
139.5743113651
 21
352.5412991071
  0
LINE
  5
3C7
100
AcDbEntity
  8
0
100
AcDbLine
 62
7
  6
CONTINUOUS
 10
123.6743113651
 20
353.2412991071
 11
121.8743113651
 21
353.2412991071
  0
LINE
  5
3C8
100
AcDbEntity
  8
0
100
AcDbLine
 62
7
  6
CONTINUOUS
 10
152.7593113651
 20
291.7912991071
 11
151.8932859613
 21
291.2912991071
  0
LINE
  5
3C9
100
AcDbEntity
  8
0
100
AcDbLine
 62
7
  6
CONTINUOUS
 10
121.8743113651
 20
354.8912991071
 11
123.6593113651
 21
354.8912991071
  0
LINE
  5
3CA
100
AcDbEntity
  8
0
100
AcDbLine
 62
7
  6
CONTINUOUS
 10
123.6743113651
 20
355.7912991071
 11
121.8743113651
 21
355.7912991071
  0
LINE
  5
3CB
100
AcDbEntity
  8
0
100
AcDbLine
 62
7
  6
CONTINUOUS
 10
121.8743113651
 20
356.2912991071
 11
123.6743113651
 21
356.2912991071
  0
LINE
  5
3CC
100
AcDbEntity
  8
0
100
AcDbLine
 62
9
  6
CONTINUOUS
 10
118.8743113651
 20
356.2991206501
 11
119.3743117103
 21
356.2991206501
  0
LINE
  5
3CD
100
AcDbEntity
  8
0
100
AcDbLine
 62
9
  6
CONTINUOUS
 10
153.7743112371
 20
356.2991205823
 11
154.2743113651
 21
356.2991205823
  0
LINE
  5
3CE
100
AcDbEntity
  8
0
100
AcDbLine
 62
7
  6
CONTINUOUS
 10
119.2593113651
 20
357.3412991071
 11
119.8593113651
 21
357.3412991071
  0
LINE
  5
3CF
100
AcDbEntity
  8
0
100
AcDbLine
 62
7
  6
CONTINUOUS
 10
153.2593113651
 20
357.3412991071
 11
153.8593113651
 21
357.3412991071
  0
ARC
  5
3D0
100
AcDbEntity
  8
0
100
AcDbCircle
 62
7
  6
CONTINUOUS
 10
136.5319496459
 20
188.8536923831
 40
126.9981558632
100
AcDbArc
 50
85.8735553389
 51
86.7307468031
  0
ARC
  5
3D1
100
AcDbEntity
  8
0
100
AcDbCircle
 62
7
  6
CONTINUOUS
 10
136.548892068
 20
188.9522145862
 40
126.8989225008
100
AcDbArc
 50
87.7240554733
 51
88.579908498
  0
ARC
  5
3D2
100
AcDbEntity
  8
0
100
AcDbCircle
 62
7
  6
CONTINUOUS
 10
136.5593065582
 20
189.9283402493
 40
126.3513547243
100
AcDbArc
 50
89.7662764639
 51
90.2337351611
  0
ARC
  5
3D3
100
AcDbEntity
  8
0
100
AcDbCircle
 62
7
  6
CONTINUOUS
 10
136.5121829384
 20
190.0137771271
 40
126.2644068393
100
AcDbArc
 50
93.4508284659
 51
93.9192563127
  0
ARC
  5
3D4
100
AcDbEntity
  8
0
100
AcDbCircle
 62
7
  6
CONTINUOUS
 10
136.5314428824
 20
190.1380788953
 40
126.1411644355
100
AcDbArc
 50
91.6080307444
 51
92.0757314263
  0
ARC
  5
3D5
100
AcDbEntity
  8
0
100
AcDbCircle
 62
7
  6
CONTINUOUS
 10
136.5565354042
 20
207.331461437
 40
120.3884609691
100
AcDbArc
 50
93.4685202277
 51
94.3781780377
  0
ARC
  5
3D6
100
AcDbEntity
  8
0
100
AcDbCircle
 62
7
  6
CONTINUOUS
 10
136.5484375803
 20
207.6325036038
 40
120.0873455055
100
AcDbArc
 50
91.5057145483
 51
92.4137745912
  0
ARC
  5
3D7
100
AcDbEntity
  8
0
100
AcDbCircle
 62
7
  6
CONTINUOUS
 10
136.5574427895
 20
207.2642995198
 40
120.0270640818
100
AcDbArc
 50
85.8123698052
 51
86.3129528878
  0
ARC
  5
3D8
100
AcDbEntity
  8
0
100
AcDbCircle
 62
7
  6
CONTINUOUS
 10
136.5593104581
 20
207.2678648767
 40
120.0234341555
100
AcDbArc
 50
89.7502999659
 51
90.2497008661
  0
ARC
  5
3D9
100
AcDbEntity
  8
0
100
AcDbCircle
 62
7
  6
CONTINUOUS
 10
136.5494690169
 20
207.5915620112
 40
119.6995771537
100
AcDbArc
 50
91.7172112798
 51
92.2169065852
  0
ARC
  5
3DA
100
AcDbEntity
  8
0
100
AcDbCircle
 62
7
  6
CONTINUOUS
 10
119.2593113651
 20
356.8412991071
 40
0.5
100
AcDbArc
 50
90.0
 51
179.9944818357
  0
ARC
  5
3DB
100
AcDbEntity
  8
0
100
AcDbCircle
 62
7
  6
CONTINUOUS
 10
119.2593113651
 20
350.7912991071
 40
0.5
100
AcDbArc
 50
90.0000000001
 51
180.0
  0
ARC
  5
3DC
100
AcDbEntity
  8
0
100
AcDbCircle
 62
7
  6
CONTINUOUS
 10
119.3743113651
 20
356.2991205823
 40
0.5
100
AcDbArc
 50
96.9348274628
 51
179.9999980591
  0
ARC
  5
3DD
100
AcDbEntity
  8
0
100
AcDbCircle
 62
7
  6
CONTINUOUS
 10
135.0593113651
 20
297.5512991071
 40
0.3
100
AcDbArc
 50
282.8864289896
 51
360.0
  0
ARC
  5
3DE
100
AcDbEntity
  8
0
100
AcDbCircle
 62
7
  6
CONTINUOUS
 10
132.5593113651
 20
297.5512991071
 40
0.3
100
AcDbArc
 50
180.0
 51
256.2150127392
  0
ARC
  5
3DF
100
AcDbEntity
  8
0
100
AcDbCircle
 62
7
  6
CONTINUOUS
 10
127.0593113651
 20
297.5512991071
 40
0.3
100
AcDbArc
 50
180.0
 51
256.2150127392
  0
ARC
  5
3E0
100
AcDbEntity
  8
0
100
AcDbCircle
 62
7
  6
CONTINUOUS
 10
129.5593113651
 20
297.5512991071
 40
0.3
100
AcDbArc
 50
282.8864289896
 51
360.0
  0
ARC
  5
3E1
100
AcDbEntity
  8
0
100
AcDbCircle
 62
7
  6
CONTINUOUS
 10
130.8093113651
 20
287.9412991071
 40
0.2
100
AcDbArc
 50
180.0
 51
270.0
  0
ARC
  5
3E2
100
AcDbEntity
  8
0
100
AcDbCircle
 62
7
  6
CONTINUOUS
 10
136.5743113651
 20
214.8867536526
 40
142.9545454545
100
AcDbArc
 50
83.0651725886
 51
96.9348274632
  0
ARC
  5
3E3
100
AcDbEntity
  8
0
100
AcDbCircle
 62
9
  6
CONTINUOUS
 10
136.5743113651
 20
214.8867536529
 40
142.4545504801
100
AcDbArc
 50
95.9229411887
 51
96.9348271258
  0
ARC
  5
3E4
100
AcDbEntity
  8
0
100
AcDbCircle
 62
9
  6
CONTINUOUS
 10
136.5743113651
 20
214.8867536526
 40
142.4545454616
100
AcDbArc
 50
83.0651726404
 51
95.1955479972
  0
ARC
  5
3E5
100
AcDbEntity
  8
0
100
AcDbCircle
 62
7
  6
CONTINUOUS
 10
136.5865866257
 20
188.8552021323
 40
126.9966436946
100
AcDbArc
 50
93.2692376831
 51
94.1264342357
  0
ARC
  5
3E6
100
AcDbEntity
  8
0
100
AcDbCircle
 62
7
  6
CONTINUOUS
 10
136.55931687
 20
188.9050106328
 40
126.9459603405
100
AcDbArc
 50
89.5722894726
 51
90.4277018247
  0
ARC
  5
3E7
100
AcDbEntity
  8
0
100
AcDbCircle
 62
7
  6
CONTINUOUS
 10
136.5697018912
 20
188.9533380554
 40
126.8977986982
100
AcDbArc
 50
91.4200802348
 51
92.2759356772
  0
ARC
  5
3E8
100
AcDbEntity
  8
0
100
AcDbCircle
 62
7
  6
CONTINUOUS
 10
136.6059029122
 20
190.0053713954
 40
126.2728296716
100
AcDbArc
 50
86.0807419245
 51
86.5491699564
  0
ARC
  5
3E9
100
AcDbEntity
  8
0
100
AcDbCircle
 62
7
  6
CONTINUOUS
 10
136.5869137811
 20
190.1297755946
 40
126.1494719734
100
AcDbArc
 50
87.9242703111
 51
88.3919709977
  0
ARC
  5
3EA
100
AcDbEntity
  8
0
100
AcDbCircle
 62
7
  6
CONTINUOUS
 10
136.5593113651
 20
211.8273117957
 40
123.4499999997
100
AcDbArc
 50
81.9441851334
 51
98.0558148667
  0
ARC
  5
3EB
100
AcDbEntity
  8
0
100
AcDbCircle
 62
9
  6
CONTINUOUS
 10
136.5593113485
 20
187.7202091778
 40
123.4256825354
100
AcDbArc
 50
81.9152339055
 51
98.0847667277
  0
ARC
  5
3EC
100
AcDbEntity
  8
0
100
AcDbCircle
 62
7
  6
CONTINUOUS
 10
136.5593113722
 20
191.0112130328
 40
123.4252850469
100
AcDbArc
 50
81.9099925373
 51
98.0899747048
  0
ARC
  5
3ED
100
AcDbEntity
  8
0
100
AcDbCircle
 62
9
  6
CONTINUOUS
 10
136.5593113485
 20
187.720209057
 40
123.01082388
100
AcDbArc
 50
81.9152319315
 51
98.0847688829
  0
ARC
  5
3EE
100
AcDbEntity
  8
0
100
AcDbCircle
 62
7
  6
CONTINUOUS
 10
136.5593134525
 20
206.7033452599
 40
121.0166663921
100
AcDbArc
 50
89.5462333435
 51
90.4537618204
  0
ARC
  5
3EF
100
AcDbEntity
  8
0
100
AcDbCircle
 62
7
  6
CONTINUOUS
 10
136.5621519498
 20
207.3323075098
 40
120.3876124675
100
AcDbArc
 50
85.6218150779
 51
86.5314751936
  0
ARC
  5
3F0
100
AcDbEntity
  8
0
100
AcDbCircle
 62
7
  6
CONTINUOUS
 10
136.5701975683
 20
207.6327362692
 40
120.087112554
100
AcDbArc
 50
87.5862202809
 51
88.4942802835
  0
ARC
  5
3F1
100
AcDbEntity
  8
0
100
AcDbCircle
 62
7
  6
CONTINUOUS
 10
136.561158432
 20
207.2645902994
 40
120.0267725107
100
AcDbArc
 50
93.6870484846
 51
94.1876306128
  0
ARC
  5
3F2
100
AcDbEntity
  8
0
100
AcDbCircle
 62
7
  6
CONTINUOUS
 10
136.5691813111
 20
207.5924404732
 40
119.6986982656
100
AcDbArc
 50
87.7830948107
 51
88.2827904633
  0
ARC
  5
3F3
100
AcDbEntity
  8
0
100
AcDbCircle
 62
7
  6
CONTINUOUS
 10
153.8593113651
 20
356.8412991071
 40
0.5
100
AcDbArc
 50
0.0055244263
 51
90.0
  0
ARC
  5
3F4
100
AcDbEntity
  8
0
100
AcDbCircle
 62
7
  6
CONTINUOUS
 10
153.8593113651
 20
350.7912991071
 40
0.5
100
AcDbArc
 50
0.0
 51
90.0
  0
ARC
  5
3F5
100
AcDbEntity
  8
0
100
AcDbCircle
 62
7
  6
CONTINUOUS
 10
153.7743113651
 20
356.2991205823
 40
0.5
100
AcDbArc
 50
0.0
 51
83.0651873562
  0
ARC
  5
3F6
100
AcDbEntity
  8
0
100
AcDbCircle
 62
7
  6
CONTINUOUS
 10
149.0593113651
 20
297.5512991071
 40
0.3
100
AcDbArc
 50
180.0
 51
256.2150127392
  0
ARC
  5
3F7
100
AcDbEntity
  8
0
100
AcDbCircle
 62
7
  6
CONTINUOUS
 10
151.5593113651
 20
297.5512991071
 40
0.3
100
AcDbArc
 50
282.8864289896
 51
360.0
  0
ARC
  5
3F8
100
AcDbEntity
  8
0
100
AcDbCircle
 62
7
  6
CONTINUOUS
 10
146.0593113651
 20
297.5512991071
 40
0.3
100
AcDbArc
 50
282.8864289896
 51
360.0
  0
ARC
  5
3F9
100
AcDbEntity
  8
0
100
AcDbCircle
 62
7
  6
CONTINUOUS
 10
143.5593113651
 20
297.5512991071
 40
0.3
100
AcDbArc
 50
180.0
 51
256.2150127392
  0
ARC
  5
3FA
100
AcDbEntity
  8
0
100
AcDbCircle
 62
7
  6
CONTINUOUS
 10
140.5593113651
 20
297.5512991071
 40
0.3
100
AcDbArc
 50
282.8864289896
 51
360.0
  0
ARC
  5
3FB
100
AcDbEntity
  8
0
100
AcDbCircle
 62
7
  6
CONTINUOUS
 10
138.0593113651
 20
297.5512991071
 40
0.3
100
AcDbArc
 50
180.0
 51
256.2150127392
  0
ARC
  5
3FC
100
AcDbEntity
  8
0
100
AcDbCircle
 62
7
  6
CONTINUOUS
 10
142.3093113651
 20
287.9412991071
 40
0.2
100
AcDbArc
 50
270.0
 51
360.0
  0
SPLINE
  5
3FD
100
AcDbEntity
  8
0
100
AcDbSpline
 62
7
  6
CONTINUOUS
 70
0
 71
3
 72
17
 73
13
 74
0
 42
0.0000001
 43
0.0000001
 44
0.0000000001
 40
0.0
 40
0.0
 40
0.0
 40
0.0
 40
0.0053441529
 40
0.0212329139
 40
0.0472575492
 40
0.0829594488
 40
0.1276106167
 40
0.1804020901
 40
0.3072927244
 40
0.4580551985
 40
0.6276000148
 40
1.0
 40
1.0
 40
1.0
 40
1.0
 10
153.2592979638
 20
357.3412991383
 30
0.0
 10
153.2609705829
 20
357.3412367297
 30
0.0
 10
153.2473863991
 20
357.336518498
 30
0.0
 10
153.2414234129
 20
357.3316019521
 30
0.0
 10
153.2154756976
 20
357.3200631307
 30
0.0
 10
153.1871470288
 20
357.3061351526
 30
0.0
 10
153.1486184246
 20
357.2885348879
 30
0.0
 10
153.0846437156
 20
357.2601986181
 30
0.0
 10
152.9886239772
 20
357.2210129413
 30
0.0
 10
152.8561332315
 20
357.1754238585
 30
0.0
 10
152.6462156936
 20
357.1201269466
 30
0.0
 10
152.4759466468
 20
357.100144834
 30
0.0
 10
152.3593113651
 20
357.100144834
 30
0.0
  0
SPLINE
  5
3FE
100
AcDbEntity
  8
0
100
AcDbSpline
 62
7
  6
CONTINUOUS
 70
0
 71
3
 72
18
 73
14
 74
0
 42
0.0000001
 43
0.0000001
 44
0.0000000001
 40
0.0
 40
0.0
 40
0.0
 40
0.0
 40
0.0053836616
 40
0.0212559688
 40
0.0472434333
 40
0.0829165306
 40
0.1275473039
 40
0.1803188596
 40
0.3071472165
 40
0.4578252688
 40
0.6272791489
 40
0.8102570329
 40
1.0
 40
1.0
 40
1.0
 40
1.0
 10
119.8592960894
 20
357.3412991064
 30
0.0
 10
119.860981488
 20
357.3413745396
 30
0.0
 10
119.8664970496
 20
357.3363616096
 30
0.0
 10
119.8801758753
 20
357.3317079985
 30
0.0
 10
119.9017957233
 20
357.3200115281
 30
0.0
 10
119.9319676021
 20
357.3061496524
 30
0.0
 10
119.9698077885
 20
357.2885272273
 30
0.0
 10
120.0340996852
 20
357.2602059665
 30
0.0
 10
120.1299405538
 20
357.2210109599
 30
0.0
 10
120.2624820027
 20
357.1754313974
 30
0.0
 10
120.4151224542
 20
357.1352144446
 30
0.0
 10
120.5829640456
 20
357.1072185421
 30
0.0
 10
120.6998513347
 20
357.100144834
 30
0.0
 10
120.7593113651
 20
357.100144834
 30
0.0
  0
LINE
  5
3FF
100
AcDbEntity
  8
0
100
AcDbLine
 62
7
  6
CONTINUOUS
 10
119.1888658121
 20
334.0491013949
 11
119.2593113651
 21
334.0591100314
  0
SPLINE
  5
400
100
AcDbEntity
  8
0
100
AcDbSpline
 62
7
  6
CONTINUOUS
 70
0
 71
3
 72
11
 73
7
 74
0
 42
0.0000001
 43
0.0000001
 44
0.0000000001
 40
0.0
 40
0.0
 40
0.0
 40
0.0
 40
0.4272407556
 40
0.7409695343
 40
0.9338887064
 40
1.0
 40
1.0
 40
1.0
 40
1.0
 10
153.1721403615
 20
357.2993612407
 30
0.0
 10
153.1846345192
 20
357.305161552
 30
0.0
 10
153.2063158265
 20
357.3149672504
 30
0.0
 10
153.2331379922
 20
357.3293952431
 30
0.0
 10
153.2502039142
 20
357.3352295928
 30
0.0
 10
153.2571679176
 20
357.3413786144
 30
0.0
 10
153.2592979638
 20
357.3412991383
 30
0.0
  0
LINE
  5
401
100
AcDbEntity
  8
0
100
AcDbLine
 62
7
  6
CONTINUOUS
 10
153.9298656814
 20
334.0488922511
 11
153.8593113651
 21
334.0591100314
  0
SPLINE
  5
402
100
AcDbEntity
  8
0
100
AcDbSpline
 62
7
  6
CONTINUOUS
 70
0
 71
3
 72
11
 73
7
 74
0
 42
0.0000001
 43
0.0000001
 44
0.0000000001
 40
0.0
 40
0.0
 40
0.0
 40
0.0
 40
0.2500696526
 40
0.5000221695
 40
0.749955861
 40
1.0
 40
1.0
 40
1.0
 40
1.0
 10
140.1561291949
 20
327.2373825784
 30
0.0
 10
140.0790904911
 20
327.2396820925
 30
0.0
 10
139.9223111721
 20
327.2149215348
 30
0.0
 10
139.7212419209
 20
327.0881640994
 30
0.0
 10
139.5886636953
 20
326.8908945546
 30
0.0
 10
139.5593086284
 20
326.7349357907
 30
0.0
 10
139.5593113651
 20
326.6578706391
 30
0.0
  0
SPLINE
  5
403
100
AcDbEntity
  8
0
100
AcDbSpline
 62
7
  6
CONTINUOUS
 70
0
 71
3
 72
11
 73
7
 74
0
 42
0.0000001
 43
0.0000001
 44
0.0000000001
 40
0.0
 40
0.0
 40
0.0
 40
0.0
 40
0.2501061474
 40
0.5000662728
 40
0.7499911923
 40
1.0
 40
1.0
 40
1.0
 40
1.0
 10
141.1560972432
 20
316.1964715998
 30
0.0
 10
141.2334177554
 20
316.1935810323
 30
0.0
 10
141.3909702917
 20
316.216902177
 30
0.0
 10
141.594157747
 20
316.3420236828
 30
0.0
 10
141.7289978932
 20
316.5389294541
 30
0.0
 10
141.7592276253
 20
316.695454606
 30
0.0
 10
141.7593113651
 20
316.7727989712
 30
0.0
  0
SPLINE
  5
404
100
AcDbEntity
  8
0
100
AcDbSpline
 62
7
  6
CONTINUOUS
 70
0
 71
3
 72
11
 73
7
 74
0
 42
0.0000001
 43
0.0000001
 44
0.0000000001
 40
0.0
 40
0.0
 40
0.0
 40
0.0
 40
0.2500388135
 40
0.4999832811
 40
0.7499233525
 40
1.0
 40
1.0
 40
1.0
 40
1.0
 10
131.3593113651
 20
316.7728277439
 30
0.0
 10
131.3593952072
 20
316.6954693022
 30
0.0
 10
131.3896266832
 20
316.5389181126
 30
0.0
 10
131.5244890191
 20
316.3419946717
 30
0.0
 10
131.7276940305
 20
316.2168902483
 30
0.0
 10
131.885240321
 20
316.1935821509
 30
0.0
 10
131.9625565001
 20
316.1964726752
 30
0.0
  0
SPLINE
  5
405
100
AcDbEntity
  8
0
100
AcDbSpline
 62
7
  6
CONTINUOUS
 70
0
 71
3
 72
11
 73
7
 74
0
 42
0.0000001
 43
0.0000001
 44
0.0000000001
 40
0.0
 40
0.0
 40
0.0
 40
0.0
 40
0.250073198
 40
0.5000260997
 40
0.7499592912
 40
1.0
 40
1.0
 40
1.0
 40
1.0
 10
133.5593113651
 20
326.6578702169
 30
0.0
 10
133.5593142664
 20
326.7349444645
 30
0.0
 10
133.5299509957
 20
326.8909188132
 30
0.0
 10
133.3973543319
 20
327.088188608
 30
0.0
 10
133.1962849309
 20
327.2149275267
 30
0.0
 10
133.0395210883
 20
327.239681569
 30
0.0
 10
132.9624911559
 20
327.2373825007
 30
0.0
  0
SPLINE
  5
406
100
AcDbEntity
  8
0
100
AcDbSpline
 62
7
  6
CONTINUOUS
 70
0
 71
3
 72
11
 73
7
 74
0
 42
0.0000001
 43
0.0000001
 44
0.0000000001
 40
0.0
 40
0.0
 40
0.0
 40
0.0
 40
0.2500802308
 40
0.4999765601
 40
0.7498413764
 40
1.0
 40
1.0
 40
1.0
 40
1.0
 10
127.2593113651
 20
316.5574012614
 30
0.0
 10
127.2593984679
 20
316.4784724916
 30
0.0
 10
127.2910086701
 20
316.3186994059
 30
0.0
 10
127.4313298569
 20
316.1194103343
 30
0.0
 10
127.6416411156
 20
315.9961975198
 30
0.0
 10
127.8031730739
 20
315.9774092067
 30
0.0
 10
127.8819356548
 20
315.9828974158
 30
0.0
  0
SPLINE
  5
407
100
AcDbEntity
  8
0
100
AcDbSpline
 62
7
  6
CONTINUOUS
 70
0
 71
3
 72
11
 73
7
 74
0
 42
0.0000001
 43
0.0000001
 44
0.0000000001
 40
0.0
 40
0.0
 40
0.0
 40
0.0
 40
0.2501328343
 40
0.5000175299
 40
0.7498956757
 40
1.0
 40
1.0
 40
1.0
 40
1.0
 10
129.4593113651
 20
326.4642836959
 30
0.0
 10
129.459314506
 20
326.5430399966
 30
0.0
 10
129.4288257289
 20
326.7024818477
 30
0.0
 10
129.2907176451
 20
326.9025711238
 30
0.0
 10
129.0822729939
 20
327.0276857295
 30
0.0
 10
128.9212141263
 20
327.0479812122
 30
0.0
 10
128.8426290369
 20
327.042929006
 30
0.0
  0
SPLINE
  5
408
100
AcDbEntity
  8
0
100
AcDbSpline
 62
7
  6
CONTINUOUS
 70
0
 71
3
 72
11
 73
7
 74
0
 42
0.0000001
 43
0.0000001
 44
0.0000000001
 40
0.0
 40
0.0
 40
0.0
 40
0.0
 40
0.2501274593
 40
0.5000135324
 40
0.7498903813
 40
1.0
 40
1.0
 40
1.0
 40
1.0
 10
144.2759880656
 20
327.0429293789
 30
0.0
 10
144.1973960845
 20
327.0479820443
 30
0.0
 10
144.0363272053
 20
327.0276815656
 30
0.0
 10
143.8278837942
 20
326.9025519343
 30
0.0
 10
143.689790575
 20
326.7024634143
 30
0.0
 10
143.659308402
 20
326.5430324962
 30
0.0
 10
143.6593113651
 20
326.4642838824
 30
0.0
  0
SPLINE
  5
409
100
AcDbEntity
  8
0
100
AcDbSpline
 62
7
  6
CONTINUOUS
 70
0
 71
3
 72
11
 73
7
 74
0
 42
0.0000001
 43
0.0000001
 44
0.0000000001
 40
0.0
 40
0.0
 40
0.0
 40
0.0
 40
0.2501815221
 40
0.5000551105
 40
0.7499440727
 40
1.0
 40
1.0
 40
1.0
 40
1.0
 10
145.2367297772
 20
315.9828945529
 30
0.0
 10
145.3154928488
 20
315.9774062776
 30
0.0
 10
145.477020964
 20
315.9962114762
 30
0.0
 10
145.6873118388
 20
316.1194303728
 30
0.0
 10
145.8276078142
 20
316.3186992344
 30
0.0
 10
145.8592243706
 20
316.4784459587
 30
0.0
 10
145.8593113651
 20
316.5573603284
 30
0.0
  0
SPLINE
  5
40A
100
AcDbEntity
  8
0
100
AcDbSpline
 62
7
  6
CONTINUOUS
 70
0
 71
3
 72
11
 73
7
 74
0
 42
0.0000001
 43
0.0000001
 44
0.0000000001
 40
0.0
 40
0.0
 40
0.0
 40
0.0
 40
0.2500447732
 40
0.5000225854
 40
0.7499816846
 40
1.0
 40
1.0
 40
1.0
 40
1.0
 10
145.3221648525
 20
326.9709232265
 30
0.0
 10
145.3940680187
 20
326.9656500019
 30
0.0
 10
145.5374595587
 20
326.929049343
 30
0.0
 10
145.716592397
 20
326.7987304883
 30
0.0
 10
145.833357952
 20
326.6104917579
 30
0.0
 10
145.8593136537
 20
326.4648190054
 30
0.0
 10
145.8593113651
 20
326.3927303637
 30
0.0
  0
SPLINE
  5
40B
100
AcDbEntity
  8
0
100
AcDbSpline
 62
7
  6
CONTINUOUS
 70
0
 71
3
 72
11
 73
7
 74
0
 42
0.0000001
 43
0.0000001
 44
0.0000000001
 40
0.0
 40
0.0
 40
0.0
 40
0.0
 40
0.250077783
 40
0.5000620512
 40
0.7500131814
 40
1.0
 40
1.0
 40
1.0
 40
1.0
 10
144.2065095249
 20
316.0492458693
 30
0.0
 10
144.1339242471
 20
316.0535430528
 30
0.0
 10
143.9887822849
 20
316.0882138852
 30
0.0
 10
143.8062016822
 20
316.2170684559
 30
0.0
 10
143.6863562777
 20
316.4057057367
 30
0.0
 10
143.6593854928
 20
316.5525999765
 30
0.0
 10
143.6593113651
 20
316.6252858572
 30
0.0
  0
SPLINE
  5
40C
100
AcDbEntity
  8
0
100
AcDbSpline
 62
7
  6
CONTINUOUS
 70
0
 71
3
 72
11
 73
7
 74
0
 42
0.0000001
 43
0.0000001
 44
0.0000000001
 40
0.0
 40
0.0
 40
0.0
 40
0.0
 40
0.2500178072
 40
0.4999887327
 40
0.7499526532
 40
1.0
 40
1.0
 40
1.0
 40
1.0
 10
129.4593113651
 20
316.6253175755
 30
0.0
 10
129.4592371819
 20
316.5526179899
 30
0.0
 10
129.4322654684
 20
316.4056987133
 30
0.0
 10
129.312402215
 20
316.2170420697
 30
0.0
 10
129.1298051234
 20
316.088200114
 30
0.0
 10
128.98466788
 20
316.0535417553
 30
0.0
 10
128.9120867828
 20
316.04924425
 30
0.0
  0
SPLINE
  5
40D
100
AcDbEntity
  8
0
100
AcDbSpline
 62
7
  6
CONTINUOUS
 70
0
 71
3
 72
11
 73
7
 74
0
 42
0.0000001
 43
0.0000001
 44
0.0000000001
 40
0.0
 40
0.0
 40
0.0
 40
0.0
 40
0.2500476232
 40
0.5000258182
 40
0.7499845175
 40
1.0
 40
1.0
 40
1.0
 40
1.0
 10
127.2593113651
 20
326.3927349601
 30
0.0
 10
127.259309205
 20
326.4648316592
 30
0.0
 10
127.2852723901
 20
326.6105178519
 30
0.0
 10
127.4020536421
 20
326.7987561382
 30
0.0
 10
127.5811850739
 20
326.9290590263
 30
0.0
 10
127.7245623966
 20
326.9656511029
 30
0.0
 10
127.796456787
 20
326.9709231494
 30
0.0
  0
SPLINE
  5
40E
100
AcDbEntity
  8
0
100
AcDbSpline
 62
7
  6
CONTINUOUS
 70
0
 71
3
 72
11
 73
7
 74
0
 42
0.0000001
 43
0.0000001
 44
0.0000000001
 40
0.0
 40
0.0
 40
0.0
 40
0.0
 40
0.250021876
 40
0.4999896596
 40
0.7499474844
 40
1.0
 40
1.0
 40
1.0
 40
1.0
 10
133.5593113651
 20
316.8053884458
 30
0.0
 10
133.5592342993
 20
316.731079519
 30
0.0
 10
133.5307049752
 20
316.580875214
 30
0.0
 10
133.405461885
 20
316.3895499403
 30
0.0
 10
133.215545981
 20
316.2620052736
 30
0.0
 10
133.0659925598
 20
316.2315705045
 30
0.0
 10
132.9917014734
 20
316.229567886
 30
0.0
  0
SPLINE
  5
40F
100
AcDbEntity
  8
0
100
AcDbSpline
 62
7
  6
CONTINUOUS
 70
0
 71
3
 72
11
 73
7
 74
0
 42
0.0000001
 43
0.0000001
 44
0.0000000001
 40
0.0
 40
0.0
 40
0.0
 40
0.0
 40
0.2500585172
 40
0.5000283278
 40
0.7499811536
 40
1.0
 40
1.0
 40
1.0
 40
1.0
 10
131.3593113651
 20
326.6182024774
 30
0.0
 10
131.3593090101
 20
326.6925112752
 30
0.0
 10
131.3851527692
 20
326.8429369259
 30
0.0
 10
131.5078523545
 20
327.0360277549
 30
0.0
 10
131.6956943699
 20
327.1665088159
 30
0.0
 10
131.8449292796
 20
327.1986660267
 30
0.0
 10
131.9191703141
 20
327.2015494901
 30
0.0
  0
SPLINE
  5
410
100
AcDbEntity
  8
0
100
AcDbSpline
 62
7
  6
CONTINUOUS
 70
0
 71
3
 72
11
 73
7
 74
0
 42
0.0000001
 43
0.0000001
 44
0.0000000001
 40
0.0
 40
0.0
 40
0.0
 40
0.0
 40
0.2500270359
 40
0.499992013
 40
0.7499460423
 40
1.0
 40
1.0
 40
1.0
 40
1.0
 10
137.6593113651
 20
316.855505606
 30
0.0
 10
137.6592306314
 20
316.7797023612
 30
0.0
 10
137.6300930161
 20
316.6263673713
 30
0.0
 10
137.5003108052
 20
316.432131644
 30
0.0
 10
137.304023018
 20
316.3055606046
 30
0.0
 10
137.1505337162
 20
316.2782494135
 30
0.0
 10
137.0747232917
 20
316.2786437166
 30
0.0
  0
SPLINE
  5
411
100
AcDbEntity
  8
0
100
AcDbSpline
 62
7
  6
CONTINUOUS
 70
0
 71
3
 72
11
 73
7
 74
0
 42
0.0000001
 43
0.0000001
 44
0.0000000001
 40
0.0
 40
0.0
 40
0.0
 40
0.0
 40
0.2500565514
 40
0.5000288585
 40
0.7499772267
 40
1.0
 40
1.0
 40
1.0
 40
1.0
 10
137.0823814588
 20
327.2901592358
 30
0.0
 10
137.1577923613
 20
327.2898205372
 30
0.0
 10
137.3101994119
 20
327.2608571904
 30
0.0
 10
137.5038954748
 20
327.1326573126
 30
0.0
 10
137.6311052694
 20
326.9383225705
 30
0.0
 10
137.6593140453
 20
326.7858028482
 30
0.0
 10
137.6593113651
 20
326.7104013718
 30
0.0
  0
SPLINE
  5
412
100
AcDbEntity
  8
0
100
AcDbSpline
 62
7
  6
CONTINUOUS
 70
0
 71
3
 72
11
 73
7
 74
0
 42
0.0000001
 43
0.0000001
 44
0.0000000001
 40
0.0
 40
0.0
 40
0.0
 40
0.0
 40
0.2500598275
 40
0.5000325368
 40
0.7499804724
 40
1.0
 40
1.0
 40
1.0
 40
1.0
 10
135.4593113651
 20
326.7104067072
 30
0.0
 10
135.4593088365
 20
326.7858187174
 30
0.0
 10
135.4875276279
 20
326.9383560942
 30
0.0
 10
135.6147585669
 20
327.1326892048
 30
0.0
 10
135.8084516369
 20
327.2608672969
 30
0.0
 10
135.9608386167
 20
327.2898209064
 30
0.0
 10
136.0362377144
 20
327.2901592282
 30
0.0
  0
SPLINE
  5
413
100
AcDbEntity
  8
0
100
AcDbSpline
 62
7
  6
CONTINUOUS
 70
0
 71
3
 72
11
 73
7
 74
0
 42
0.0000001
 43
0.0000001
 44
0.0000000001
 40
0.0
 40
0.0
 40
0.0
 40
0.0
 40
0.2500918621
 40
0.5000714223
 40
0.750011517
 40
1.0
 40
1.0
 40
1.0
 40
1.0
 10
136.0438641891
 20
316.278643612
 30
0.0
 10
135.9680481507
 20
316.2782488975
 30
0.0
 10
135.8145512682
 20
316.3055767042
 30
0.0
 10
135.6182845195
 20
316.4321668634
 30
0.0
 10
135.4885275587
 20
316.6263794871
 30
0.0
 10
135.4593920308
 20
316.7796822668
 30
0.0
 10
135.4593113651
 20
316.8554679497
 30
0.0
  0
SPLINE
  5
414
100
AcDbEntity
  8
0
100
AcDbSpline
 62
7
  6
CONTINUOUS
 70
0
 71
3
 72
11
 73
7
 74
0
 42
0.0000001
 43
0.0000001
 44
0.0000000001
 40
0.0
 40
0.0
 40
0.0
 40
0.0
 40
0.2500537261
 40
0.5000239876
 40
0.7499766237
 40
1.0
 40
1.0
 40
1.0
 40
1.0
 10
141.1994431021
 20
327.2015498346
 30
0.0
 10
141.2736955284
 20
327.1986654854
 30
0.0
 10
141.4229474049
 20
327.1664964698
 30
0.0
 10
141.6107948229
 20
327.0360004866
 30
0.0
 10
141.7334856392
 20
326.8429112013
 30
0.0
 10
141.7593138604
 20
326.6924977159
 30
0.0
 10
141.7593113651
 20
326.6181983081
 30
0.0
  0
SPLINE
  5
415
100
AcDbEntity
  8
0
100
AcDbSpline
 62
7
  6
CONTINUOUS
 70
0
 71
3
 72
11
 73
7
 74
0
 42
0.0000001
 43
0.0000001
 44
0.0000000001
 40
0.0
 40
0.0
 40
0.0
 40
0.0
 40
0.2500870105
 40
0.5000668858
 40
0.7500125542
 40
1.0
 40
1.0
 40
1.0
 40
1.0
 10
140.1268844799
 20
316.2295689593
 30
0.0
 10
140.0525889587
 20
316.2315712099
 30
0.0
 10
139.9030323826
 20
316.2620261852
 30
0.0
 10
139.7131337786
 20
316.389580909
 30
0.0
 10
139.5879183544
 20
316.5808874292
 30
0.0
 10
139.5593883664
 20
316.7310610943
 30
0.0
 10
139.5593113651
 20
316.8053539615
 30
0.0
  0
SPLINE
  5
416
100
AcDbEntity
  8
0
100
AcDbSpline
 62
7
  6
CONTINUOUS
 70
0
 71
3
 72
8
 73
4
 74
0
 42
0.0000001
 43
0.0000001
 44
0.0000000001
 40
0.0
 40
0.0
 40
0.0
 40
0.0
 40
1.0
 40
1.0
 40
1.0
 40
1.0
 10
146.0371803621
 20
296.5262341551
 30
0.0
 10
145.9762074675
 20
296.5031782044
 30
0.0
 10
145.90995323
 20
296.4912991161
 30
0.0
 10
145.8447667994
 20
296.4912991072
 30
0.0
  0
SPLINE
  5
417
100
AcDbEntity
  8
0
100
AcDbSpline
 62
7
  6
CONTINUOUS
 70
0
 71
3
 72
8
 73
4
 74
0
 42
0.0000001
 43
0.0000001
 44
0.0000000001
 40
0.0
 40
0.0
 40
0.0
 40
0.0
 40
1.0
 40
1.0
 40
1.0
 40
1.0
 10
143.7738559312
 20
296.4912991071
 30
0.0
 10
143.7086695004
 20
296.491299086
 30
0.0
 10
143.6424152629
 20
296.5031782043
 30
0.0
 10
143.5814423682
 20
296.5262341551
 30
0.0
  0
SPLINE
  5
418
100
AcDbEntity
  8
0
100
AcDbSpline
 62
7
  6
CONTINUOUS
 70
0
 71
3
 72
8
 73
4
 74
0
 42
0.0000001
 43
0.0000001
 44
0.0000000001
 40
0.0
 40
0.0
 40
0.0
 40
0.0
 40
1.0
 40
1.0
 40
1.0
 40
1.0
 10
149.2738559311
 20
296.4912991071
 30
0.0
 10
149.2086695004
 20
296.491299086
 30
0.0
 10
149.1424152629
 20
296.5031782043
 30
0.0
 10
149.0814423682
 20
296.5262341551
 30
0.0
  0
SPLINE
  5
419
100
AcDbEntity
  8
0
100
AcDbSpline
 62
7
  6
CONTINUOUS
 70
0
 71
3
 72
8
 73
4
 74
0
 42
0.0000001
 43
0.0000001
 44
0.0000000001
 40
0.0
 40
0.0
 40
0.0
 40
0.0
 40
1.0
 40
1.0
 40
1.0
 40
1.0
 10
151.5371803621
 20
296.5262341551
 30
0.0
 10
151.4762074675
 20
296.5031782044
 30
0.0
 10
151.40995323
 20
296.4912991161
 30
0.0
 10
151.3447667994
 20
296.4912991072
 30
0.0
  0
SPLINE
  5
41A
100
AcDbEntity
  8
0
100
AcDbSpline
 62
7
  6
CONTINUOUS
 70
0
 71
3
 72
8
 73
4
 74
0
 42
0.0000001
 43
0.0000001
 44
0.0000000001
 40
0.0
 40
0.0
 40
0.0
 40
0.0
 40
1.0
 40
1.0
 40
1.0
 40
1.0
 10
140.5371803621
 20
296.5262341551
 30
0.0
 10
140.4762074675
 20
296.5031782044
 30
0.0
 10
140.40995323
 20
296.4912991161
 30
0.0
 10
140.3447667994
 20
296.4912991072
 30
0.0
  0
SPLINE
  5
41B
100
AcDbEntity
  8
0
100
AcDbSpline
 62
7
  6
CONTINUOUS
 70
0
 71
3
 72
8
 73
4
 74
0
 42
0.0000001
 43
0.0000001
 44
0.0000000001
 40
0.0
 40
0.0
 40
0.0
 40
0.0
 40
1.0
 40
1.0
 40
1.0
 40
1.0
 10
138.2738559312
 20
296.4912991071
 30
0.0
 10
138.2086695004
 20
296.491299086
 30
0.0
 10
138.1424152629
 20
296.5031782043
 30
0.0
 10
138.0814423682
 20
296.5262341551
 30
0.0
  0
SPLINE
  5
41C
100
AcDbEntity
  8
0
100
AcDbSpline
 62
7
  6
CONTINUOUS
 70
0
 71
3
 72
8
 73
4
 74
0
 42
0.0000001
 43
0.0000001
 44
0.0000000001
 40
0.0
 40
0.0
 40
0.0
 40
0.0
 40
1.0
 40
1.0
 40
1.0
 40
1.0
 10
132.7738559312
 20
296.4912991071
 30
0.0
 10
132.7086695005
 20
296.491299086
 30
0.0
 10
132.6424152629
 20
296.5031782043
 30
0.0
 10
132.5814423682
 20
296.5262341552
 30
0.0
  0
SPLINE
  5
41D
100
AcDbEntity
  8
0
100
AcDbSpline
 62
7
  6
CONTINUOUS
 70
0
 71
3
 72
8
 73
4
 74
0
 42
0.0000001
 43
0.0000001
 44
0.0000000001
 40
0.0
 40
0.0
 40
0.0
 40
0.0
 40
1.0
 40
1.0
 40
1.0
 40
1.0
 10
121.7738559312
 20
296.4912991071
 30
0.0
 10
121.7086695005
 20
296.491299086
 30
0.0
 10
121.6424152629
 20
296.5031782043
 30
0.0
 10
121.5814423682
 20
296.5262341552
 30
0.0
  0
SPLINE
  5
41E
100
AcDbEntity
  8
0
100
AcDbSpline
 62
7
  6
CONTINUOUS
 70
0
 71
3
 72
8
 73
4
 74
0
 42
0.0000001
 43
0.0000001
 44
0.0000000001
 40
0.0
 40
0.0
 40
0.0
 40
0.0
 40
1.0
 40
1.0
 40
1.0
 40
1.0
 10
127.2738559312
 20
296.4912991071
 30
0.0
 10
127.2086695005
 20
296.491299086
 30
0.0
 10
127.1424152629
 20
296.5031782043
 30
0.0
 10
127.0814423682
 20
296.5262341552
 30
0.0
  0
SPLINE
  5
41F
100
AcDbEntity
  8
0
100
AcDbSpline
 62
9
  6
CONTINUOUS
 70
0
 71
3
 72
11
 73
7
 74
0
 42
0.0000001
 43
0.0000001
 44
0.0000000001
 40
0.0
 40
0.0
 40
0.0
 40
0.0
 40
0.250412432
 40
0.5005300417
 40
0.7502704478
 40
1.0
 40
1.0
 40
1.0
 40
1.0
 10
131.5125104968
 20
308.1997125696
 30
0.0
 10
131.5164444969
 20
308.3023519969
 30
0.0
 10
131.5438718832
 20
308.5098855271
 30
0.0
 10
131.7034282312
 20
308.7824806656
 30
0.0
 10
131.9542911809
 20
308.9757767129
 30
0.0
 10
132.162806349
 20
309.0166805708
 30
0.0
 10
132.2652365781
 20
309.0176361329
 30
0.0
  0
SPLINE
  5
420
100
AcDbEntity
  8
0
100
AcDbSpline
 62
9
  6
CONTINUOUS
 70
0
 71
3
 72
11
 73
7
 74
0
 42
0.0000001
 43
0.0000001
 44
0.0000000001
 40
0.0
 40
0.0
 40
0.0
 40
0.0
 40
0.2497123345
 40
0.4994993748
 40
0.7496067841
 40
1.0
 40
1.0
 40
1.0
 40
1.0
 10
126.7652365866
 20
294.9649620815
 30
0.0
 10
126.6628506044
 20
294.9649688292
 30
0.0
 10
126.4551169831
 20
295.0090279084
 30
0.0
 10
126.2024779796
 20
295.1996993335
 30
0.0
 10
126.0460248655
 20
295.4731215667
 30
0.0
 10
126.0125039849
 20
295.6802204235
 30
0.0
 10
126.0125104968
 20
295.7828855779
 30
0.0
  0
SPLINE
  5
421
100
AcDbEntity
  8
0
100
AcDbSpline
 62
9
  6
CONTINUOUS
 70
0
 71
3
 72
11
 73
7
 74
0
 42
0.0000001
 43
0.0000001
 44
0.0000000001
 40
0.0
 40
0.0
 40
0.0
 40
0.0
 40
0.2504124324
 40
0.5005300422
 40
0.7502704479
 40
1.0
 40
1.0
 40
1.0
 40
1.0
 10
130.6061122335
 20
295.7828857029
 30
0.0
 10
130.6021782333
 20
295.6802462706
 30
0.0
 10
130.5747508668
 20
295.4727127283
 30
0.0
 10
130.4151945188
 20
295.2001175701
 30
0.0
 10
130.1643315642
 20
295.0068215055
 30
0.0
 10
129.9558163861
 20
294.9659176435
 30
0.0
 10
129.8533861523
 20
294.9649620814
 30
0.0
  0
SPLINE
  5
422
100
AcDbEntity
  8
0
100
AcDbSpline
 62
9
  6
CONTINUOUS
 70
0
 71
3
 72
11
 73
7
 74
0
 42
0.0000001
 43
0.0000001
 44
0.0000000001
 40
0.0
 40
0.0
 40
0.0
 40
0.0
 40
0.2497123345
 40
0.4994993748
 40
0.7496067841
 40
1.0
 40
1.0
 40
1.0
 40
1.0
 10
129.8533861436
 20
309.0176361328
 30
0.0
 10
129.9557721259
 20
309.0176293851
 30
0.0
 10
130.1635057471
 20
308.9735703059
 30
0.0
 10
130.4161447507
 20
308.7828988808
 30
0.0
 10
130.5725978648
 20
308.5094766476
 30
0.0
 10
130.6061187454
 20
308.3023777907
 30
0.0
 10
130.6061122335
 20
308.1997126364
 30
0.0
  0
SPLINE
  5
423
100
AcDbEntity
  8
0
100
AcDbSpline
 62
9
  6
CONTINUOUS
 70
0
 71
3
 72
11
 73
7
 74
0
 42
0.0000001
 43
0.0000001
 44
0.0000000001
 40
0.0
 40
0.0
 40
0.0
 40
0.0
 40
0.250412432
 40
0.5005300417
 40
0.7502704478
 40
1.0
 40
1.0
 40
1.0
 40
1.0
 10
126.0125104968
 20
308.1997125696
 30
0.0
 10
126.0164444969
 20
308.3023519969
 30
0.0
 10
126.0438718832
 20
308.5098855271
 30
0.0
 10
126.2034282312
 20
308.7824806656
 30
0.0
 10
126.4542911809
 20
308.9757767129
 30
0.0
 10
126.662806349
 20
309.0166805708
 30
0.0
 10
126.7652365781
 20
309.0176361329
 30
0.0
  0
SPLINE
  5
424
100
AcDbEntity
  8
0
100
AcDbSpline
 62
9
  6
CONTINUOUS
 70
0
 71
3
 72
11
 73
7
 74
0
 42
0.0000001
 43
0.0000001
 44
0.0000000001
 40
0.0
 40
0.0
 40
0.0
 40
0.0
 40
0.2497123345
 40
0.4994993748
 40
0.7496067841
 40
1.0
 40
1.0
 40
1.0
 40
1.0
 10
121.2652365866
 20
294.9649620815
 30
0.0
 10
121.1628506044
 20
294.9649688292
 30
0.0
 10
120.9551169831
 20
295.0090279084
 30
0.0
 10
120.7024779796
 20
295.1996993335
 30
0.0
 10
120.5460248655
 20
295.4731215667
 30
0.0
 10
120.5125039849
 20
295.6802204235
 30
0.0
 10
120.5125104968
 20
295.7828855779
 30
0.0
  0
SPLINE
  5
425
100
AcDbEntity
  8
0
100
AcDbSpline
 62
9
  6
CONTINUOUS
 70
0
 71
3
 72
11
 73
7
 74
0
 42
0.0000001
 43
0.0000001
 44
0.0000000001
 40
0.0
 40
0.0
 40
0.0
 40
0.0
 40
0.2504124324
 40
0.5005300422
 40
0.7502704479
 40
1.0
 40
1.0
 40
1.0
 40
1.0
 10
125.1061122335
 20
295.7828857029
 30
0.0
 10
125.1021782333
 20
295.6802462706
 30
0.0
 10
125.0747508668
 20
295.4727127283
 30
0.0
 10
124.9151945188
 20
295.2001175701
 30
0.0
 10
124.6643315642
 20
295.0068215055
 30
0.0
 10
124.4558163861
 20
294.9659176435
 30
0.0
 10
124.3533861523
 20
294.9649620814
 30
0.0
  0
SPLINE
  5
426
100
AcDbEntity
  8
0
100
AcDbSpline
 62
9
  6
CONTINUOUS
 70
0
 71
3
 72
11
 73
7
 74
0
 42
0.0000001
 43
0.0000001
 44
0.0000000001
 40
0.0
 40
0.0
 40
0.0
 40
0.0
 40
0.2497123345
 40
0.4994993748
 40
0.7496067841
 40
1.0
 40
1.0
 40
1.0
 40
1.0
 10
124.3533861436
 20
309.0176361328
 30
0.0
 10
124.4557721259
 20
309.0176293851
 30
0.0
 10
124.6635057471
 20
308.9735703059
 30
0.0
 10
124.9161447506
 20
308.7828988808
 30
0.0
 10
125.0725978648
 20
308.5094766476
 30
0.0
 10
125.1061187454
 20
308.3023777908
 30
0.0
 10
125.1061122335
 20
308.1997126364
 30
0.0
  0
SPLINE
  5
427
100
AcDbEntity
  8
0
100
AcDbSpline
 62
9
  6
CONTINUOUS
 70
0
 71
3
 72
11
 73
7
 74
0
 42
0.0000001
 43
0.0000001
 44
0.0000000001
 40
0.0
 40
0.0
 40
0.0
 40
0.0
 40
0.250412432
 40
0.5005300417
 40
0.7502704478
 40
1.0
 40
1.0
 40
1.0
 40
1.0
 10
120.5125104968
 20
308.1997125696
 30
0.0
 10
120.5164444969
 20
308.3023519969
 30
0.0
 10
120.5438718832
 20
308.5098855271
 30
0.0
 10
120.7034282312
 20
308.7824806656
 30
0.0
 10
120.9542911809
 20
308.9757767129
 30
0.0
 10
121.162806349
 20
309.0166805708
 30
0.0
 10
121.2652365781
 20
309.0176361329
 30
0.0
  0
SPLINE
  5
428
100
AcDbEntity
  8
0
100
AcDbSpline
 62
9
  6
CONTINUOUS
 70
0
 71
3
 72
11
 73
7
 74
0
 42
0.0000001
 43
0.0000001
 44
0.0000000001
 40
0.0
 40
0.0
 40
0.0
 40
0.0
 40
0.2497123345
 40
0.4994993748
 40
0.7496067841
 40
1.0
 40
1.0
 40
1.0
 40
1.0
 10
151.8533861436
 20
309.0176361328
 30
0.0
 10
151.9557721259
 20
309.0176293851
 30
0.0
 10
152.1635057471
 20
308.9735703059
 30
0.0
 10
152.4161447507
 20
308.7828988808
 30
0.0
 10
152.5725978648
 20
308.5094766476
 30
0.0
 10
152.6061187454
 20
308.3023777907
 30
0.0
 10
152.6061122335
 20
308.1997126364
 30
0.0
  0
SPLINE
  5
429
100
AcDbEntity
  8
0
100
AcDbSpline
 62
9
  6
CONTINUOUS
 70
0
 71
3
 72
11
 73
7
 74
0
 42
0.0000001
 43
0.0000001
 44
0.0000000001
 40
0.0
 40
0.0
 40
0.0
 40
0.0
 40
0.2504124324
 40
0.5005300422
 40
0.7502704479
 40
1.0
 40
1.0
 40
1.0
 40
1.0
 10
148.0125104968
 20
308.1997125114
 30
0.0
 10
148.016444497
 20
308.3023519437
 30
0.0
 10
148.0438718634
 20
308.509885486
 30
0.0
 10
148.2034282115
 20
308.7824806442
 30
0.0
 10
148.4542911661
 20
308.9757767088
 30
0.0
 10
148.6628063442
 20
309.0166805707
 30
0.0
 10
148.765236578
 20
309.0176361329
 30
0.0
  0
SPLINE
  5
42A
100
AcDbEntity
  8
0
100
AcDbSpline
 62
9
  6
CONTINUOUS
 70
0
 71
3
 72
11
 73
7
 74
0
 42
0.0000001
 43
0.0000001
 44
0.0000000001
 40
0.0
 40
0.0
 40
0.0
 40
0.0
 40
0.2497123345
 40
0.4994993748
 40
0.7496067841
 40
1.0
 40
1.0
 40
1.0
 40
1.0
 10
148.7652365866
 20
294.9649620815
 30
0.0
 10
148.6628506044
 20
294.9649688292
 30
0.0
 10
148.4551169831
 20
295.0090279084
 30
0.0
 10
148.2024779796
 20
295.1996993335
 30
0.0
 10
148.0460248655
 20
295.4731215666
 30
0.0
 10
148.0125039849
 20
295.6802204234
 30
0.0
 10
148.0125104968
 20
295.7828855778
 30
0.0
  0
SPLINE
  5
42B
100
AcDbEntity
  8
0
100
AcDbSpline
 62
9
  6
CONTINUOUS
 70
0
 71
3
 72
11
 73
7
 74
0
 42
0.0000001
 43
0.0000001
 44
0.0000000001
 40
0.0
 40
0.0
 40
0.0
 40
0.0
 40
0.2504124321
 40
0.5005300408
 40
0.7502704529
 40
1.0
 40
1.0
 40
1.0
 40
1.0
 10
152.6061122335
 20
295.7828857029
 30
0.0
 10
152.6021782443
 20
295.6802463537
 30
0.0
 10
152.5747509185
 20
295.4727129835
 30
0.0
 10
152.415194824
 20
295.2001179883
 30
0.0
 10
152.1643322959
 20
295.0068218622
 30
0.0
 10
151.9558173325
 20
294.9659176844
 30
0.0
 10
151.8533871841
 20
294.9649620813
 30
0.0
  0
SPLINE
  5
42C
100
AcDbEntity
  8
0
100
AcDbSpline
 62
9
  6
CONTINUOUS
 70
0
 71
3
 72
23
 73
19
 74
0
 42
0.0000001
 43
0.0000001
 44
0.0000000001
 40
0.0
 40
0.0
 40
0.0
 40
0.0
 40
0.011425936
 40
0.0239684539
 40
0.0388126342
 40
0.0566731496
 40
0.1025996353
 40
0.1622284128
 40
0.2343735122
 40
0.3165660349
 40
0.4985513462
 40
0.591205813
 40
0.6802073266
 40
0.7622326734
 40
0.8346047512
 40
0.8951187269
 40
0.94259586
 40
1.0
 40
1.0
 40
1.0
 40
1.0
 10
142.4593191871
 20
313.4226168513
 30
0.0
 10
142.4593302367
 20
313.4417244751
 30
0.0
 10
142.467626384
 20
313.4821801648
 30
0.0
 10
142.5037546522
 20
313.5374167225
 30
0.0
 10
142.5610777284
 20
313.5877662175
 30
0.0
 10
142.6749049273
 20
313.654648251
 30
0.0
 10
142.8719299687
 20
313.7212783107
 30
0.0
 10
143.1636921505
 20
313.7789542921
 30
0.0
 10
143.5199981758
 20
313.8163890511
 30
0.0
 10
144.0821407106
 20
313.8398088848
 30
0.0
 10
144.6795127701
 20
313.8193316182
 30
0.0
 10
145.2851044575
 20
313.7626083306
 30
0.0
 10
145.7220166383
 20
313.7026341993
 30
0.0
 10
146.1225603999
 20
313.626924317
 30
0.0
 10
146.4702166968
 20
313.5398371796
 30
0.0
 10
146.7590133215
 20
313.4387800772
 30
0.0
 10
146.9987033676
 20
313.3244141662
 30
0.0
 10
147.1593116468
 20
313.1831150085
 30
0.0
 10
147.159311067
 20
313.0871178935
 30
0.0
  0
SPLINE
  5
42D
100
AcDbEntity
  8
0
100
AcDbSpline
 62
9
  6
CONTINUOUS
 70
0
 71
3
 72
9
 73
5
 74
0
 42
0.0000001
 43
0.0000001
 44
0.0000000001
 40
0.0
 40
0.0
 40
0.0
 40
0.0
 40
0.5112759803
 40
1.0
 40
1.0
 40
1.0
 40
1.0
 10
142.3161194217
 20
313.568399369
 30
0.0
 10
142.353609881
 20
313.5667442816
 30
0.0
 10
142.4288481717
 20
313.5344954494
 30
0.0
 10
142.4593189843
 20
313.4584885359
 30
0.0
 10
142.4593191871
 20
313.4226168446
 30
0.0
  0
SPLINE
  5
42E
100
AcDbEntity
  8
0
100
AcDbSpline
 62
9
  6
CONTINUOUS
 70
0
 71
3
 72
9
 73
5
 74
0
 42
0.0000001
 43
0.0000001
 44
0.0000000001
 40
0.0
 40
0.0
 40
0.0
 40
0.0
 40
0.4949672028
 40
1.0
 40
1.0
 40
1.0
 40
1.0
 10
147.159311067
 20
313.0871178712
 30
0.0
 10
147.1593113484
 20
313.12642792
 30
0.0
 10
147.1962351847
 20
313.2091670356
 30
0.0
 10
147.2820684841
 20
313.235836422
 30
0.0
 10
147.3220409368
 20
313.2325241319
 30
0.0
  0
SPLINE
  5
42F
100
AcDbEntity
  8
0
100
AcDbSpline
 62
9
  6
CONTINUOUS
 70
0
 71
3
 72
9
 73
5
 74
0
 42
0.0000001
 43
0.0000001
 44
0.0000000001
 40
0.0
 40
0.0
 40
0.0
 40
0.0
 40
0.6182781882
 40
1.0
 40
1.0
 40
1.0
 40
1.0
 10
154.2822796964
 20
355.9467700213
 30
0.0
 10
154.3027118622
 20
355.9383852855
 30
0.0
 10
154.3351495474
 20
355.9240141091
 30
0.0
 10
154.3593115501
 20
355.8913989971
 30
0.0
 10
154.3593113651
 20
355.8777634114
 30
0.0
  0
SPLINE
  5
430
100
AcDbEntity
  8
0
100
AcDbSpline
 62
9
  6
CONTINUOUS
 70
0
 71
3
 72
9
 73
5
 74
0
 42
0.0000001
 43
0.0000001
 44
0.0000000001
 40
0.0
 40
0.0
 40
0.0
 40
0.0
 40
0.5353468938
 40
1.0
 40
1.0
 40
1.0
 40
1.0
 10
119.0155722869
 20
309.8706265115
 30
0.0
 10
118.9406856555
 20
309.8359400894
 30
0.0
 10
118.8115833117
 20
309.7366388386
 30
0.0
 10
118.7593084901
 20
309.5800579407
 30
0.0
 10
118.7593113654
 20
309.5084264559
 30
0.0
  0
SPLINE
  5
431
100
AcDbEntity
  8
0
100
AcDbSpline
 62
9
  6
CONTINUOUS
 70
0
 71
3
 72
9
 73
5
 74
0
 42
0.0000001
 43
0.0000001
 44
0.0000000001
 40
0.0
 40
0.0
 40
0.0
 40
0.0
 40
0.2431483025
 40
1.0
 40
1.0
 40
1.0
 40
1.0
 10
119.2007940238
 20
309.9204053592
 30
0.0
 10
119.185284146
 20
309.9188890038
 30
0.0
 10
119.1217890371
 20
309.9100869241
 30
0.0
 10
119.0595879689
 20
309.8910183432
 30
0.0
 10
119.0155722859
 20
309.8706308786
 30
0.0
  0
SPLINE
  5
432
100
AcDbEntity
  8
0
100
AcDbSpline
 62
9
  6
CONTINUOUS
 70
0
 71
3
 72
9
 73
5
 74
0
 42
0.0000001
 43
0.0000001
 44
0.0000000001
 40
0.0
 40
0.0
 40
0.0
 40
0.0
 40
0.4948951186
 40
1.0
 40
1.0
 40
1.0
 40
1.0
 10
152.6593109168
 20
312.4810670304
 30
0.0
 10
152.6593109927
 20
312.5213608071
 30
0.0
 10
152.6983414075
 20
312.6063300631
 30
0.0
 10
152.7877497836
 20
312.6309297098
 30
0.0
 10
152.828553006
 20
312.6257949025
 30
0.0
  0
SPLINE
  5
433
100
AcDbEntity
  8
0
100
AcDbSpline
 62
9
  6
CONTINUOUS
 70
0
 71
3
 72
9
 73
5
 74
0
 42
0.0000001
 43
0.0000001
 44
0.0000000001
 40
0.0
 40
0.0
 40
0.0
 40
0.0
 40
0.5151903978
 40
1.0
 40
1.0
 40
1.0
 40
1.0
 10
147.8226327909
 20
313.1876763707
 30
0.0
 10
147.8592634508
 20
313.1844991858
 30
0.0
 10
147.930964065
 20
313.1506575015
 30
0.0
 10
147.9593125947
 20
313.0769193544
 30
0.0
 10
147.9593126507
 20
313.0423193864
 30
0.0
  0
SPLINE
  5
434
100
AcDbEntity
  8
0
100
AcDbSpline
 62
9
  6
CONTINUOUS
 70
0
 71
3
 72
25
 73
21
 74
0
 42
0.0000001
 43
0.0000001
 44
0.0000000001
 40
0.0
 40
0.0
 40
0.0
 40
0.0
 40
0.0238712607
 40
0.0395666873
 40
0.0584205642
 40
0.1060735809
 40
0.1668011879
 40
0.2395218155
 40
0.321933198
 40
0.5036554334
 40
0.5967567869
 40
0.6862153596
 40
0.768637129
 40
0.8412312973
 40
0.9005114525
 40
0.9457669265
 40
0.9632288543
 40
0.9774855008
 40
0.9892949168
 40
1.0
 40
1.0
 40
1.0
 40
1.0
 10
152.828553006
 20
312.6257949025
 30
0.0
 10
152.8281100468
 20
312.6682808997
 30
0.0
 10
152.7937852936
 20
312.7369086498
 30
0.0
 10
152.7205275654
 20
312.8099195527
 30
0.0
 10
152.6023087217
 20
312.8974223388
 30
0.0
 10
152.3993487934
 20
313.0000637035
 30
0.0
 10
152.0969020031
 20
313.1125449306
 30
0.0
 10
151.7267402277
 20
313.2167585352
 30
0.0
 10
151.1412425643
 20
313.3466618323
 30
0.0
 10
150.5117659356
 20
313.4425244686
 30
0.0
 10
149.8662049853
 20
313.5037887017
 30
0.0
 10
149.3950749936
 20
313.5295897592
 30
0.0
 10
148.9598125079
 20
313.5315017601
 30
0.0
 10
148.5784320552
 20
313.5127045185
 30
0.0
 10
148.2659524462
 20
313.4685830936
 30
0.0
 10
148.0551216631
 20
313.4106321933
 30
0.0
 10
147.932039828
 20
313.3492833196
 30
0.0
 10
147.8700916326
 20
313.3015799479
 30
0.0
 10
147.8311767003
 20
313.2473091112
 30
0.0
 10
147.8225575137
 20
313.2067301321
 30
0.0
 10
147.8226327909
 20
313.1876763707
 30
0.0
  0
SPLINE
  5
435
100
AcDbEntity
  8
0
100
AcDbSpline
 62
9
  6
CONTINUOUS
 70
0
 71
3
 72
25
 73
21
 74
0
 42
0.0000001
 43
0.0000001
 44
0.0000000001
 40
0.0
 40
0.0
 40
0.0
 40
0.0
 40
0.0112784253
 40
0.0235173739
 40
0.0379910302
 40
0.0554835454
 40
0.1008119471
 40
0.1600655315
 40
0.2320211223
 40
0.3140925624
 40
0.4031730241
 40
0.4957019045
 40
0.6767079403
 40
0.758578329
 40
0.8310165899
 40
0.8918688254
 40
0.939902339
 40
0.9590230375
 40
0.9750850159
 40
1.0
 40
1.0
 40
1.0
 40
1.0
 10
147.9593126507
 20
313.0423193326
 30
0.0
 10
147.9593141694
 20
313.0612882261
 30
0.0
 10
147.9674539718
 20
313.1012768958
 30
0.0
 10
148.0038713676
 20
313.1552354782
 30
0.0
 10
148.061690098
 20
313.2030561493
 30
0.0
 10
148.1767242806
 20
313.2648114551
 30
0.0
 10
148.3756643857
 20
313.3220218225
 30
0.0
 10
148.6695906723
 20
313.3655914837
 30
0.0
 10
149.0282115006
 20
313.3855076701
 30
0.0
 10
149.4372330117
 20
313.3825687924
 30
0.0
 10
149.8801579844
 20
313.3568828258
 30
0.0
 10
150.4869972711
 20
313.2952739443
 30
0.0
 10
151.0780678917
 20
313.2000238018
 30
0.0
 10
151.6269959556
 20
313.0698393372
 30
0.0
 10
151.973831492
 20
312.9653752963
 30
0.0
 10
152.2578155876
 20
312.853341625
 30
0.0
 10
152.4484947307
 20
312.7511465911
 30
0.0
 10
152.5589928922
 20
312.6640898424
 30
0.0
 10
152.6280021179
 20
312.5908235888
 30
0.0
 10
152.659310993
 20
312.5229709089
 30
0.0
 10
152.6593109168
 20
312.4810670376
 30
0.0
  0
SPLINE
  5
436
100
AcDbEntity
  8
0
100
AcDbSpline
 62
9
  6
CONTINUOUS
 70
0
 71
3
 72
11
 73
7
 74
0
 42
0.0000001
 43
0.0000001
 44
0.0000000001
 40
0.0
 40
0.0
 40
0.0
 40
0.0
 40
0.2461944893
 40
0.4931267928
 40
0.7436536116
 40
1.0
 40
1.0
 40
1.0
 40
1.0
 10
143.2652364514
 20
308.8363584195
 30
0.0
 10
143.1879787305
 20
308.838061749
 30
0.0
 10
143.0298162865
 20
308.8062381808
 30
0.0
 10
142.8406378392
 20
308.6562372487
 30
0.0
 10
142.7294252136
 20
308.4409982611
 30
0.0
 10
142.7078173827
 20
308.2801582452
 30
0.0
 10
142.7094822553
 20
308.1997124575
 30
0.0
  0
SPLINE
  5
437
100
AcDbEntity
  8
0
100
AcDbSpline
 62
9
  6
CONTINUOUS
 70
0
 71
3
 72
11
 73
7
 74
0
 42
0.0000001
 43
0.0000001
 44
0.0000000001
 40
0.0
 40
0.0
 40
0.0
 40
0.0
 40
0.2494966626
 40
0.4995852706
 40
0.749812572
 40
1.0
 40
1.0
 40
1.0
 40
1.0
 10
146.9091506829
 20
308.1997125801
 30
0.0
 10
146.9107786852
 20
308.2780140081
 30
0.0
 10
146.8906858931
 20
308.4365497624
 30
0.0
 10
146.7818034445
 20
308.6515121014
 30
0.0
 10
146.5925503607
 20
308.80513865
 30
0.0
 10
146.4319026824
 20
308.8380853087
 30
0.0
 10
146.3533861323
 20
308.8363745411
 30
0.0
  0
SPLINE
  5
438
100
AcDbEntity
  8
0
100
AcDbSpline
 62
9
  6
CONTINUOUS
 70
0
 71
3
 72
11
 73
7
 74
0
 42
0.0000001
 43
0.0000001
 44
0.0000000001
 40
0.0
 40
0.0
 40
0.0
 40
0.0
 40
0.2461944878
 40
0.4931267916
 40
0.7436536127
 40
1.0
 40
1.0
 40
1.0
 40
1.0
 10
146.3533862958
 20
295.1462398085
 30
0.0
 10
146.4306440129
 20
295.1445364763
 30
0.0
 10
146.588806449
 20
295.1763600563
 30
0.0
 10
146.7779848839
 20
295.3263609821
 30
0.0
 10
146.8891975123
 20
295.5415999584
 30
0.0
 10
146.9108053397
 20
295.7024399682
 30
0.0
 10
146.9091404692
 20
295.7828857522
 30
0.0
  0
SPLINE
  5
439
100
AcDbEntity
  8
0
100
AcDbSpline
 62
9
  6
CONTINUOUS
 70
0
 71
3
 72
11
 73
7
 74
0
 42
0.0000001
 43
0.0000001
 44
0.0000000001
 40
0.0
 40
0.0
 40
0.0
 40
0.0
 40
0.2494966589
 40
0.4995852584
 40
0.7498125572
 40
1.0
 40
1.0
 40
1.0
 40
1.0
 10
142.7094720473
 20
295.782885634
 30
0.0
 10
142.7078440448
 20
295.7045841927
 30
0.0
 10
142.7279368446
 20
295.5460484131
 30
0.0
 10
142.8368193301
 20
295.3310860438
 30
0.0
 10
143.0260724854
 20
295.1774595083
 30
0.0
 10
143.1867202002
 20
295.1445128672
 30
0.0
 10
143.2652367691
 20
295.1462236465
 30
0.0
  0
SPLINE
  5
43A
100
AcDbEntity
  8
0
100
AcDbSpline
 62
7
  6
CONTINUOUS
 70
0
 71
3
 72
11
 73
7
 74
0
 42
0.0000001
 43
0.0000001
 44
0.0000000001
 40
0.0
 40
0.0
 40
0.0
 40
0.0
 40
0.2486051026
 40
0.498437408
 40
0.7490155497
 40
1.0
 40
1.0
 40
1.0
 40
1.0
 10
153.9296907212
 20
330.5713330974
 30
0.0
 10
154.0042368442
 20
330.5577085876
 30
0.0
 10
154.1471225002
 20
330.4842911862
 30
0.0
 10
154.2836934855
 20
330.2942843199
 30
0.0
 10
154.3502657504
 20
330.0720725747
 30
0.0
 10
154.3595823585
 20
329.9185877099
 30
0.0
 10
154.3593113651
 20
329.8420819605
 30
0.0
  0
SPLINE
  5
43B
100
AcDbEntity
  8
0
100
AcDbSpline
 62
7
  6
CONTINUOUS
 70
0
 71
3
 72
9
 73
5
 74
0
 42
0.0000001
 43
0.0000001
 44
0.0000000001
 40
0.0
 40
0.0
 40
0.0
 40
0.0
 40
0.5001760464
 40
1.0
 40
1.0
 40
1.0
 40
1.0
 10
118.7593113651
 20
312.7080517145
 30
0.0
 10
118.7593113645
 20
312.82550751
 30
0.0
 10
118.8460273504
 20
313.068497948
 30
0.0
 10
119.0737081269
 20
313.1917206927
 30
0.0
 10
119.1899185614
 20
313.2082004622
 30
0.0
  0
SPLINE
  5
43C
100
AcDbEntity
  8
0
100
AcDbSpline
 62
7
  6
CONTINUOUS
 70
0
 71
3
 72
10
 73
6
 74
0
 42
0.0000001
 43
0.0000001
 44
0.0000000001
 40
0.0
 40
0.0
 40
0.0
 40
0.0
 40
0.25023255
 40
0.5007928553
 40
1.0
 40
1.0
 40
1.0
 40
1.0
 10
119.1881815715
 20
330.5712244707
 30
0.0
 10
119.1403276985
 20
330.5623943793
 30
0.0
 10
119.0471568152
 20
330.5263382201
 30
0.0
 10
118.8967662427
 20
330.3992679732
 30
0.0
 10
118.826267991
 20
330.2649198776
 30
0.0
 10
118.7961699432
 20
330.1726246682
 30
0.0
  0
SPLINE
  5
43D
100
AcDbEntity
  8
0
100
AcDbSpline
 62
7
  6
CONTINUOUS
 70
0
 71
3
 72
8
 73
4
 74
0
 42
0.0000001
 43
0.0000001
 44
0.0000000001
 40
0.0
 40
0.0
 40
0.0
 40
0.0
 40
1.0
 40
1.0
 40
1.0
 40
1.0
 10
118.7961699432
 20
330.1726246682
 30
0.0
 10
118.7722008729
 20
330.0991238755
 30
0.0
 10
118.7580139842
 20
330.0209247479
 30
0.0
 10
118.7594009088
 20
329.943626887
 30
0.0
  0
SPLINE
  5
43E
100
AcDbEntity
  8
0
100
AcDbSpline
 62
7
  6
CONTINUOUS
 70
0
 71
3
 72
15
 73
11
 74
0
 42
0.0000001
 43
0.0000001
 44
0.0000000001
 40
0.0
 40
0.0
 40
0.0
 40
0.0
 40
0.1249960409
 40
0.249994633
 40
0.3749967889
 40
0.5000000318
 40
0.6250032824
 40
0.7500054278
 40
0.8750039811
 40
1.0
 40
1.0
 40
1.0
 40
1.0
 10
153.9296907212
 20
330.5713330974
 30
0.0
 10
152.4988802175
 20
330.8324848459
 30
0.0
 10
149.6204001094
 20
331.26368411
 30
0.0
 10
145.2794280567
 20
331.7168811447
 30
0.0
 10
140.9227995326
 20
331.9847600678
 30
0.0
 10
136.558930835
 20
332.073890651
 30
0.0
 10
132.1950632744
 20
331.9847269536
 30
0.0
 10
127.8384360358
 20
331.7168255143
 30
0.0
 10
123.4974718522
 20
331.2635693444
 30
0.0
 10
120.6189889869
 20
330.8323917119
 30
0.0
 10
119.1881815715
 20
330.5712244707
 30
0.0
  0
SPLINE
  5
43F
100
AcDbEntity
  8
0
100
AcDbSpline
 62
7
  6
CONTINUOUS
 70
0
 71
3
 72
9
 73
5
 74
0
 42
0.0000001
 43
0.0000001
 44
0.0000000001
 40
0.0
 40
0.0
 40
0.0
 40
0.0
 40
0.4998201279
 40
1.0
 40
1.0
 40
1.0
 40
1.0
 10
153.9287742299
 20
313.2081918187
 30
0.0
 10
154.0449711949
 20
313.1917052218
 30
0.0
 10
154.2726139095
 20
313.0684674483
 30
0.0
 10
154.3593113617
 20
312.8255039799
 30
0.0
 10
154.3593113651
 20
312.7080587729
 30
0.0
  0
SPLINE
  5
440
100
AcDbEntity
  8
0
100
AcDbSpline
 62
7
  6
CONTINUOUS
 70
0
 71
3
 72
11
 73
7
 74
0
 42
0.0000001
 43
0.0000001
 44
0.0000000001
 40
0.0
 40
0.0
 40
0.0
 40
0.0
 40
0.2500717486
 40
0.5000236861
 40
0.7499562477
 40
1.0
 40
1.0
 40
1.0
 40
1.0
 10
139.1305926572
 20
327.0988258303
 30
0.0
 10
139.1305899254
 20
327.175753353
 30
0.0
 10
139.159875762
 20
327.3314182488
 30
0.0
 10
139.291991195
 20
327.5284330225
 30
0.0
 10
139.4924342388
 20
327.6552741771
 30
0.0
 10
139.6488035244
 20
327.6804142413
 30
0.0
 10
139.7256956249
 20
327.6783835605
 30
0.0
  0
SPLINE
  5
441
100
AcDbEntity
  8
0
100
AcDbSpline
 62
7
  6
CONTINUOUS
 70
0
 71
3
 72
11
 73
7
 74
0
 42
0.0000001
 43
0.0000001
 44
0.0000000001
 40
0.0
 40
0.0
 40
0.0
 40
0.0
 40
0.2500383153
 40
0.4999778544
 40
0.7499218304
 40
1.0
 40
1.0
 40
1.0
 40
1.0
 10
139.6937944143
 20
315.8121614611
 30
0.0
 10
139.6195351694
 20
315.8140643004
 30
0.0
 10
139.4700554268
 20
315.8455272732
 30
0.0
 10
139.2815287504
 20
315.9749779272
 30
0.0
 10
139.1583935732
 20
316.1674547058
 30
0.0
 10
139.1305366905
 20
316.3175839516
 30
0.0
 10
139.1305926572
 20
316.3918793912
 30
0.0
  0
SPLINE
  5
442
100
AcDbEntity
  8
0
100
AcDbSpline
 62
7
  6
CONTINUOUS
 70
0
 71
3
 72
11
 73
7
 74
0
 42
0.0000001
 43
0.0000001
 44
0.0000000001
 40
0.0
 40
0.0
 40
0.0
 40
0.0
 40
0.2501082719
 40
0.5000702956
 40
0.7499941861
 40
1.0
 40
1.0
 40
1.0
 40
1.0
 10
142.188030073
 20
316.3328696139
 30
0.0
 10
142.1880869923
 20
316.2553402605
 30
0.0
 10
142.158931027
 20
316.0984285936
 30
0.0
 10
142.0260422136
 20
315.8996359917
 30
0.0
 10
141.8237146265
 20
315.7721182975
 30
0.0
 10
141.6657767296
 20
315.7480231109
 30
0.0
 10
141.5883376134
 20
315.7510336677
 30
0.0
  0
SPLINE
  5
443
100
AcDbEntity
  8
0
100
AcDbSpline
 62
7
  6
CONTINUOUS
 70
0
 71
3
 72
11
 73
7
 74
0
 42
0.0000001
 43
0.0000001
 44
0.0000000001
 40
0.0
 40
0.0
 40
0.0
 40
0.0
 40
0.2500784096
 40
0.5000178092
 40
0.7499469229
 40
1.0
 40
1.0
 40
1.0
 40
1.0
 10
141.6277795585
 20
327.6132991366
 30
0.0
 10
141.7020610726
 20
327.6101738392
 30
0.0
 10
141.8513846747
 20
327.578371883
 30
0.0
 10
142.0393710298
 20
327.4477894632
 30
0.0
 10
142.1621641531
 20
327.2546891712
 30
0.0
 10
142.1880325697
 20
327.1042028613
 30
0.0
 10
142.188030073
 20
327.0298631613
 30
0.0
  0
SPLINE
  5
444
100
AcDbEntity
  8
0
100
AcDbSpline
 62
7
  6
CONTINUOUS
 70
0
 71
3
 72
9
 73
5
 74
0
 42
0.0000001
 43
0.0000001
 44
0.0000000001
 40
0.0
 40
0.0
 40
0.0
 40
0.0
 40
0.5000176112
 40
1.0
 40
1.0
 40
1.0
 40
1.0
 10
135.0305926572
 20
327.1423669909
 30
0.0
 10
135.030587763
 20
327.2883289919
 30
0.0
 10
135.1509951091
 20
327.5931723853
 30
0.0
 10
135.4549680498
 20
327.7150753259
 30
0.0
 10
135.6009153073
 20
327.7162165491
 30
0.0
  0
SPLINE
  5
445
100
AcDbEntity
  8
0
100
AcDbSpline
 62
7
  6
CONTINUOUS
 70
0
 71
3
 72
11
 73
7
 74
0
 42
0.0000001
 43
0.0000001
 44
0.0000000001
 40
0.0
 40
0.0
 40
0.0
 40
0.0
 40
0.2500446971
 40
0.499978644
 40
0.7499128328
 40
1.0
 40
1.0
 40
1.0
 40
1.0
 10
135.6116988239
 20
315.8474340648
 30
0.0
 10
135.535743668
 20
315.8469318258
 30
0.0
 10
135.3818794367
 20
315.8750346302
 30
0.0
 10
135.1864851033
 20
316.003930772
 30
0.0
 10
135.0586299113
 20
316.1999419158
 30
0.0
 10
135.0305364935
 20
316.3536168367
 30
0.0
 10
135.0305926572
 20
316.4295865336
 30
0.0
  0
SPLINE
  5
446
100
AcDbEntity
  8
0
100
AcDbSpline
 62
7
  6
CONTINUOUS
 70
0
 71
3
 72
11
 73
7
 74
0
 42
0.0000001
 43
0.0000001
 44
0.0000000001
 40
0.0
 40
0.0
 40
0.0
 40
0.0
 40
0.2501136639
 40
0.5000661804
 40
0.7499827199
 40
1.0
 40
1.0
 40
1.0
 40
1.0
 10
138.088030073
 20
316.4295623086
 30
0.0
 10
138.08808619
 20
316.3535890001
 30
0.0
 10
138.0599797563
 20
316.1999097522
 30
0.0
 10
137.9321136814
 20
316.0039134314
 30
0.0
 10
137.7367375564
 20
315.8750330478
 30
0.0
 10
137.5828965928
 20
315.8469322868
 30
0.0
 10
137.5069541974
 20
315.8474339209
 30
0.0
  0
SPLINE
  5
447
100
AcDbEntity
  8
0
100
AcDbSpline
 62
9
  6
CONTINUOUS
 70
0
 71
3
 72
11
 73
7
 74
0
 42
0.0000001
 43
0.0000001
 44
0.0000000001
 40
0.0
 40
0.0
 40
0.0
 40
0.0
 40
0.2494966588
 40
0.4995852584
 40
0.7498125572
 40
1.0
 40
1.0
 40
1.0
 40
1.0
 10
148.2094720473
 20
295.7828856342
 30
0.0
 10
148.2078440448
 20
295.7045841928
 30
0.0
 10
148.2279368446
 20
295.5460484133
 30
0.0
 10
148.33681933
 20
295.3310860439
 30
0.0
 10
148.5260724854
 20
295.1774595083
 30
0.0
 10
148.6867202001
 20
295.1445128672
 30
0.0
 10
148.7652367691
 20
295.1462236465
 30
0.0
  0
SPLINE
  5
448
100
AcDbEntity
  8
0
100
AcDbSpline
 62
7
  6
CONTINUOUS
 70
0
 71
3
 72
9
 73
5
 74
0
 42
0.0000001
 43
0.0000001
 44
0.0000000001
 40
0.0
 40
0.0
 40
0.0
 40
0.0
 40
0.5000240188
 40
1.0
 40
1.0
 40
1.0
 40
1.0
 10
137.5177218121
 20
327.7162164682
 30
0.0
 10
137.6636792263
 20
327.7150751771
 30
0.0
 10
137.9676483354
 20
327.59315171
 30
0.0
 10
138.0880352608
 20
327.2883150427
 30
0.0
 10
138.088030073
 20
327.1423671892
 30
0.0
  0
SPLINE
  5
449
100
AcDbEntity
  8
0
100
AcDbSpline
 62
9
  6
CONTINUOUS
 70
0
 71
3
 72
11
 73
7
 74
0
 42
0.0000001
 43
0.0000001
 44
0.0000000001
 40
0.0
 40
0.0
 40
0.0
 40
0.0
 40
0.2461944879
 40
0.4931267917
 40
0.7436536127
 40
1.0
 40
1.0
 40
1.0
 40
1.0
 10
151.8533862829
 20
295.1462398088
 30
0.0
 10
151.930644001
 20
295.1445364747
 30
0.0
 10
152.0888064402
 20
295.1763600516
 30
0.0
 10
152.2779848803
 20
295.3263609769
 30
0.0
 10
152.3891975119
 20
295.5415999555
 30
0.0
 10
152.4108053398
 20
295.7024399676
 30
0.0
 10
152.4091404692
 20
295.7828857528
 30
0.0
  0
SPLINE
  5
44A
100
AcDbEntity
  8
0
100
AcDbSpline
 62
9
  6
CONTINUOUS
 70
0
 71
3
 72
11
 73
7
 74
0
 42
0.0000001
 43
0.0000001
 44
0.0000000001
 40
0.0
 40
0.0
 40
0.0
 40
0.0
 40
0.2494966626
 40
0.4995852706
 40
0.749812572
 40
1.0
 40
1.0
 40
1.0
 40
1.0
 10
152.4091506829
 20
308.1997125801
 30
0.0
 10
152.4107786852
 20
308.2780140081
 30
0.0
 10
152.3906858931
 20
308.4365497624
 30
0.0
 10
152.2818034445
 20
308.6515121014
 30
0.0
 10
152.0925503607
 20
308.80513865
 30
0.0
 10
151.9319026824
 20
308.8380853087
 30
0.0
 10
151.8533861323
 20
308.8363745411
 30
0.0
  0
SPLINE
  5
44B
100
AcDbEntity
  8
0
100
AcDbSpline
 62
9
  6
CONTINUOUS
 70
0
 71
3
 72
11
 73
7
 74
0
 42
0.0000001
 43
0.0000001
 44
0.0000000001
 40
0.0
 40
0.0
 40
0.0
 40
0.0
 40
0.2461944893
 40
0.4931267928
 40
0.7436536116
 40
1.0
 40
1.0
 40
1.0
 40
1.0
 10
148.7652364514
 20
308.8363584195
 30
0.0
 10
148.6879787305
 20
308.838061749
 30
0.0
 10
148.5298162866
 20
308.8062381809
 30
0.0
 10
148.3406378394
 20
308.6562372489
 30
0.0
 10
148.2294252137
 20
308.4409982615
 30
0.0
 10
148.2078173828
 20
308.2801582457
 30
0.0
 10
148.2094822553
 20
308.199712458
 30
0.0
  0
SPLINE
  5
44C
100
AcDbEntity
  8
0
100
AcDbSpline
 62
7
  6
CONTINUOUS
 70
0
 71
3
 72
11
 73
7
 74
0
 42
0.0000001
 43
0.0000001
 44
0.0000000001
 40
0.0
 40
0.0
 40
0.0
 40
0.0
 40
0.2500774868
 40
0.5000179879
 40
0.749946148
 40
1.0
 40
1.0
 40
1.0
 40
1.0
 10
130.9305926572
 20
327.0298625948
 30
0.0
 10
130.930590301
 20
327.1042105626
 30
0.0
 10
130.9564715044
 20
327.2547088368
 30
0.0
 10
131.0792763039
 20
327.4478124859
 30
0.0
 10
131.2672644363
 20
327.5783877708
 30
0.0
 10
131.4165812875
 20
327.6101746424
 30
0.0
 10
131.4908565172
 20
327.6132996686
 30
0.0
  0
SPLINE
  5
44D
100
AcDbEntity
  8
0
100
AcDbSpline
 62
7
  6
CONTINUOUS
 70
0
 71
3
 72
11
 73
7
 74
0
 42
0.0000001
 43
0.0000001
 44
0.0000000001
 40
0.0
 40
0.0
 40
0.0
 40
0.0
 40
0.2500363579
 40
0.499979638
 40
0.7499212594
 40
1.0
 40
1.0
 40
1.0
 40
1.0
 10
131.5303205587
 20
315.7510349992
 30
0.0
 10
131.452866875
 20
315.7480236702
 30
0.0
 10
131.2949018894
 20
315.7721176418
 30
0.0
 10
131.0925536423
 20
315.8996557178
 30
0.0
 10
130.959679461
 20
316.0984662931
 30
0.0
 10
130.9305358281
 20
316.2553726292
 30
0.0
 10
130.9305926572
 20
316.3328979476
 30
0.0
  0
SPLINE
  5
44E
100
AcDbEntity
  8
0
100
AcDbSpline
 62
7
  6
CONTINUOUS
 70
0
 71
3
 72
11
 73
7
 74
0
 42
0.0000001
 43
0.0000001
 44
0.0000000001
 40
0.0
 40
0.0
 40
0.0
 40
0.0
 40
0.2501013233
 40
0.500062561
 40
0.7499862052
 40
1.0
 40
1.0
 40
1.0
 40
1.0
 10
133.988030073
 20
316.3918583245
 30
0.0
 10
133.9880859944
 20
316.317559623
 30
0.0
 10
133.9602211332
 20
316.1674248769
 30
0.0
 10
133.8370710829
 20
315.9749632587
 30
0.0
 10
133.6485615281
 20
315.8455231854
 30
0.0
 10
133.4991006736
 20
315.8140653179
 30
0.0
 10
133.4248523425
 20
315.8121620913
 30
0.0
  0
SPLINE
  5
44F
100
AcDbEntity
  8
0
100
AcDbSpline
 62
9
  6
CONTINUOUS
 70
0
 71
3
 72
24
 73
20
 74
0
 42
0.0000001
 43
0.0000001
 44
0.0000000001
 40
0.0
 40
0.0
 40
0.0
 40
0.0
 40
0.0239575787
 40
0.039114911
 40
0.0572899291
 40
0.1037231674
 40
0.1636421804
 40
0.2358855192
 40
0.3180810038
 40
0.4073442536
 40
0.5001972853
 40
0.5930068139
 40
0.6821726627
 40
0.7642781953
 40
0.8365518849
 40
0.8967218819
 40
0.9218926621
 40
0.9436888756
 40
1.0
 40
1.0
 40
1.0
 40
1.0
 10
136.9593132873
 20
313.5565285622
 30
0.0
 10
136.9593183542
 20
313.5964987634
 30
0.0
 10
136.9897760614
 20
313.6613598768
 30
0.0
 10
137.060311682
 20
313.7256704576
 30
0.0
 10
137.1729311111
 20
313.7979511098
 30
0.0
 10
137.3679739175
 20
313.8734555113
 30
0.0
 10
137.6574847414
 20
313.9451347296
 30
0.0
 10
138.0113575359
 20
313.9996478524
 30
0.0
 10
138.4164413851
 20
314.0364909996
 30
0.0
 10
138.8572335302
 20
314.0540428891
 30
0.0
 10
139.3160423672
 20
314.0524621218
 30
0.0
 10
139.7742193959
 20
314.0317343346
 30
0.0
 10
140.2132624477
 20
313.9928120447
 30
0.0
 10
140.6158150697
 20
313.9366563411
 30
0.0
 10
140.9670748761
 20
313.8649547386
 30
0.0
 10
141.2192005851
 20
313.7909705413
 30
0.0
 10
141.3857127745
 20
313.7217339302
 30
0.0
 10
141.5344389644
 20
313.6451406684
 30
0.0
 10
141.6593119915
 20
313.5388973062
 30
0.0
 10
141.6593112107
 20
313.44494929
 30
0.0
  0
SPLINE
  5
450
100
AcDbEntity
  8
0
100
AcDbSpline
 62
9
  6
CONTINUOUS
 70
0
 71
3
 72
18
 73
14
 74
0
 42
0.0000001
 43
0.0000001
 44
0.0000000001
 40
0.0
 40
0.0
 40
0.0
 40
0.0
 40
0.155193519
 40
0.3225116551
 40
0.4899103252
 40
0.6461213173
 40
0.7800236804
 40
0.8363390693
 40
0.8847134914
 40
0.9244294926
 40
0.9557700048
 40
0.9800419538
 40
1.0
 40
1.0
 40
1.0
 40
1.0
 10
140.5949573426
 20
314.0967415176
 30
0.0
 10
140.3936123519
 20
314.1261279674
 30
0.0
 10
139.9727116289
 20
314.1704302443
 30
0.0
 10
139.3309183571
 20
314.2020671482
 30
0.0
 10
138.6869189339
 20
314.2009373894
 30
0.0
 10
138.0877738457
 20
314.1662788289
 30
0.0
 10
137.6365870051
 20
314.1077706455
 30
0.0
 10
137.3308510202
 20
314.0406232207
 30
0.0
 10
137.1490702233
 20
313.9869369453
 30
0.0
 10
137.0040196245
 20
313.9266702041
 30
0.0
 10
136.8973904497
 20
313.8601172
 30
0.0
 10
136.8278408978
 20
313.786921949
 30
0.0
 10
136.8096623086
 20
313.7286291361
 30
0.0
 10
136.8096072424
 20
313.7024616911
 30
0.0
  0
SPLINE
  5
451
100
AcDbEntity
  8
0
100
AcDbSpline
 62
9
  6
CONTINUOUS
 70
0
 71
3
 72
9
 73
5
 74
0
 42
0.0000001
 43
0.0000001
 44
0.0000000001
 40
0.0
 40
0.0
 40
0.0
 40
0.0
 40
0.5070973125
 40
1.0
 40
1.0
 40
1.0
 40
1.0
 10
136.8096072424
 20
313.7024616911
 30
0.0
 10
136.8478486263
 20
313.7023888196
 30
0.0
 10
136.9265932261
 20
313.6719708025
 30
0.0
 10
136.9593132294
 20
313.5936995781
 30
0.0
 10
136.9593132873
 20
313.5565285763
 30
0.0
  0
SPLINE
  5
452
100
AcDbEntity
  8
0
100
AcDbSpline
 62
9
  6
CONTINUOUS
 70
0
 71
3
 72
9
 73
5
 74
0
 42
0.0000001
 43
0.0000001
 44
0.0000000001
 40
0.0
 40
0.0
 40
0.0
 40
0.0
 40
0.4950510745
 40
1.0
 40
1.0
 40
1.0
 40
1.0
 10
141.6593112107
 20
313.4449492828
 30
0.0
 10
141.6593112793
 20
313.483275115
 30
0.0
 10
141.6942006402
 20
313.5637900729
 30
0.0
 10
141.7764666957
 20
313.5923334533
 30
0.0
 10
141.8155270144
 20
313.5907573668
 30
0.0
  0
SPLINE
  5
453
100
AcDbEntity
  8
0
100
AcDbSpline
 62
7
  6
CONTINUOUS
 70
0
 71
3
 72
11
 73
7
 74
0
 42
0.0000001
 43
0.0000001
 44
0.0000000001
 40
0.0
 40
0.0
 40
0.0
 40
0.0
 40
0.2500723681
 40
0.5000241083
 40
0.7499568591
 40
1.0
 40
1.0
 40
1.0
 40
1.0
 10
133.3929442309
 20
327.6783840507
 30
0.0
 10
133.4698443031
 20
327.6804149636
 30
0.0
 10
133.6262274134
 20
327.6552654275
 30
0.0
 10
133.8266652187
 20
327.5284022883
 30
0.0
 10
133.9587572527
 20
327.3313870978
 30
0.0
 10
133.9880329684
 20
327.1757389378
 30
0.0
 10
133.988030073
 20
327.0988210432
 30
0.0
  0
SPLINE
  5
454
100
AcDbEntity
  8
0
100
AcDbSpline
 62
7
  6
CONTINUOUS
 70
0
 71
3
 72
11
 73
7
 74
0
 42
0.0000001
 43
0.0000001
 44
0.0000000001
 40
0.0
 40
0.0
 40
0.0
 40
0.0
 40
0.2500760603
 40
0.4999722582
 40
0.7498383849
 40
1.0
 40
1.0
 40
1.0
 40
1.0
 10
127.4482103435
 20
315.5226312079
 30
0.0
 10
127.3693303774
 20
315.517009559
 30
0.0
 10
127.2073591567
 20
315.5371544337
 30
0.0
 10
126.9982789447
 20
315.6634002289
 30
0.0
 10
126.8604757101
 20
315.8650502997
 30
0.0
 10
126.8305352484
 20
316.0252230701
 30
0.0
 10
126.8305926572
 20
316.1043301391
 30
0.0
  0
SPLINE
  5
455
100
AcDbEntity
  8
0
100
AcDbSpline
 62
7
  6
CONTINUOUS
 70
0
 71
3
 72
11
 73
7
 74
0
 42
0.0000001
 43
0.0000001
 44
0.0000000001
 40
0.0
 40
0.0
 40
0.0
 40
0.0
 40
0.2500965333
 40
0.5000580842
 40
0.749989065
 40
1.0
 40
1.0
 40
1.0
 40
1.0
 10
129.888030073
 20
316.226103003
 30
0.0
 10
129.8880850369
 20
316.1532446924
 30
0.0
 10
129.8620786659
 20
316.0060006042
 30
0.0
 10
129.7440144609
 20
315.8157475777
 30
0.0
 10
129.5623448587
 20
315.6848077826
 30
0.0
 10
129.4169327187
 20
315.6493833158
 30
0.0
 10
129.3442213613
 20
315.6451688294
 30
0.0
  0
SPLINE
  5
456
100
AcDbEntity
  8
0
100
AcDbSpline
 62
7
  6
CONTINUOUS
 70
0
 71
3
 72
11
 73
7
 74
0
 42
0.0000001
 43
0.0000001
 44
0.0000000001
 40
0.0
 40
0.0
 40
0.0
 40
0.0
 40
0.2501318496
 40
0.5000156712
 40
0.7498918079
 40
1.0
 40
1.0
 40
1.0
 40
1.0
 10
129.2730179296
 20
327.4993935475
 30
0.0
 10
129.3514866331
 20
327.5041591116
 30
0.0
 10
129.5121767226
 20
327.4834728922
 30
0.0
 10
129.7200134567
 20
327.358225671
 30
0.0
 10
129.8576224746
 20
327.1583745849
 30
0.0
 10
129.8880332079
 20
326.9992468106
 30
0.0
 10
129.888030073
 20
326.9206409644
 30
0.0
  0
SPLINE
  5
457
100
AcDbEntity
  8
0
100
AcDbSpline
 62
7
  6
CONTINUOUS
 70
0
 71
3
 72
11
 73
7
 74
0
 42
0.0000001
 43
0.0000001
 44
0.0000000001
 40
0.0
 40
0.0
 40
0.0
 40
0.0
 40
0.2500628528
 40
0.5000165825
 40
0.7499567964
 40
1.0
 40
1.0
 40
1.0
 40
1.0
 10
126.8305926572
 20
326.7905477072
 30
0.0
 10
126.8305905009
 20
326.862515035
 30
0.0
 10
126.8564900709
 20
327.0079186663
 30
0.0
 10
126.9728559477
 20
327.1958931123
 30
0.0
 10
127.1514167206
 20
327.3262379462
 30
0.0
 10
127.2944148276
 20
327.3631293711
 30
0.0
 10
127.3661669754
 20
327.3686167792
 30
0.0
  0
SPLINE
  5
458
100
AcDbEntity
  8
0
100
AcDbSpline
 62
7
  6
CONTINUOUS
 70
0
 71
3
 72
11
 73
7
 74
0
 42
0.0000001
 43
0.0000001
 44
0.0000000001
 40
0.0
 40
0.0
 40
0.0
 40
0.0
 40
0.25013102
 40
0.5000149928
 40
0.7498908971
 40
1.0
 40
1.0
 40
1.0
 40
1.0
 10
143.2305926572
 20
326.9206476273
 30
0.0
 10
143.2305896992
 20
326.9992617732
 30
0.0
 10
143.2610097539
 20
327.15840176
 30
0.0
 10
143.3986396179
 20
327.3582522302
 30
0.0
 10
143.6064832349
 20
327.4834804106
 30
0.0
 10
143.7671649999
 20
327.5041572509
 30
0.0
 10
143.8456276929
 20
327.4993920909
 30
0.0
  0
SPLINE
  5
459
100
AcDbEntity
  8
0
100
AcDbSpline
 62
7
  6
CONTINUOUS
 70
0
 71
3
 72
11
 73
7
 74
0
 42
0.0000001
 43
0.0000001
 44
0.0000000001
 40
0.0
 40
0.0
 40
0.0
 40
0.0
 40
0.250032915
 40
0.4999777199
 40
0.7499246693
 40
1.0
 40
1.0
 40
1.0
 40
1.0
 10
143.7744354772
 20
315.645166827
 30
0.0
 10
143.7017132492
 20
315.6493811578
 30
0.0
 10
143.5562807246
 20
315.684805331
 30
0.0
 10
143.3745933632
 20
315.81575768
 30
0.0
 10
143.2565345715
 20
316.0060237221
 30
0.0
 10
143.2305376531
 20
316.1532666904
 30
0.0
 10
143.2305926572
 20
316.226123265
 30
0.0
  0
SPLINE
  5
45A
100
AcDbEntity
  8
0
100
AcDbSpline
 62
7
  6
CONTINUOUS
 70
0
 71
3
 72
11
 73
7
 74
0
 42
0.0000001
 43
0.0000001
 44
0.0000000001
 40
0.0
 40
0.0
 40
0.0
 40
0.0
 40
0.2501845574
 40
0.5000596911
 40
0.7499486818
 40
1.0
 40
1.0
 40
1.0
 40
1.0
 10
146.288030073
 20
316.1042896743
 30
0.0
 10
146.2880875707
 20
316.025182268
 30
0.0
 10
146.2581313363
 20
315.8650147299
 30
0.0
 10
146.1203247697
 20
315.6633849528
 30
0.0
 10
145.9112678547
 20
315.5371621097
 30
0.0
 10
145.7493230536
 20
315.5170074378
 30
0.0
 10
145.6704577884
 20
315.5226280445
 30
0.0
  0
SPLINE
  5
45B
100
AcDbEntity
  8
0
100
AcDbSpline
 62
7
  6
CONTINUOUS
 70
0
 71
3
 72
11
 73
7
 74
0
 42
0.0000001
 43
0.0000001
 44
0.0000000001
 40
0.0
 40
0.0
 40
0.0
 40
0.0
 40
0.250063296
 40
0.5000168982
 40
0.7499572431
 40
1.0
 40
1.0
 40
1.0
 40
1.0
 10
145.7524700275
 20
327.3686157222
 30
0.0
 10
145.8242272158
 20
327.3631279135
 30
0.0
 10
145.9672328567
 20
327.3262278961
 30
0.0
 10
146.1457891299
 20
327.1958706383
 30
0.0
 10
146.2621410052
 20
327.0078973325
 30
0.0
 10
146.2880323575
 20
326.8625046764
 30
0.0
 10
146.288030073
 20
326.7905438583
 30
0.0
  0
SPLINE
  5
45C
100
AcDbEntity
  8
0
100
AcDbSpline
 62
9
  6
CONTINUOUS
 70
0
 71
3
 72
11
 73
7
 74
0
 42
0.0000001
 43
0.0000001
 44
0.0000000001
 40
0.0
 40
0.0
 40
0.0
 40
0.0
 40
0.2043902643
 40
0.3663849321
 40
0.6319719683
 40
1.0
 40
1.0
 40
1.0
 40
1.0
 10
119.2007981207
 20
309.9204075992
 30
0.0
 10
119.1962080358
 20
310.1443571392
 30
0.0
 10
119.1953705368
 20
310.5459194224
 30
0.0
 10
119.1925770879
 20
311.2384965827
 30
0.0
 10
119.1915668166
 20
312.110431306
 30
0.0
 10
119.1905089618
 20
312.804823705
 30
0.0
 10
119.1897805337
 20
313.2081544812
 30
0.0
  0
SPLINE
  5
45D
100
AcDbEntity
  8
0
100
AcDbSpline
 62
9
  6
CONTINUOUS
 70
0
 71
3
 72
10
 73
6
 74
0
 42
0.0000001
 43
0.0000001
 44
0.0000000001
 40
0.0
 40
0.0
 40
0.0
 40
0.0
 40
0.3664368957
 40
0.632010092
 40
1.0
 40
1.0
 40
1.0
 40
1.0
 10
153.91781022
 20
309.9191809419
 30
0.0
 10
153.9240352453
 20
310.3208730376
 30
0.0
 10
153.9252682073
 20
311.013804899
 30
0.0
 10
153.9272372282
 20
312.1101344132
 30
0.0
 10
153.9281342819
 20
312.8047389179
 30
0.0
 10
153.9288814188
 20
313.2081811868
 30
0.0
  0
SPLINE
  5
45E
100
AcDbEntity
  8
0
100
AcDbSpline
 62
9
  6
CONTINUOUS
 70
0
 71
3
 72
10
 73
6
 74
0
 42
0.0000001
 43
0.0000001
 44
0.0000000001
 40
0.0
 40
0.0
 40
0.0
 40
0.0
 40
0.3762411146
 40
0.654232205
 40
1.0
 40
1.0
 40
1.0
 40
1.0
 10
130.8025032673
 20
313.5684002627
 30
0.0
 10
130.8031957078
 20
313.505348362
 30
0.0
 10
130.7285838292
 20
313.4043791589
 30
0.0
 10
130.5965322971
 20
313.3067661107
 30
0.0
 10
130.5042700567
 20
313.255114426
 30
0.0
 10
130.4524114042
 20
313.2292548837
 30
0.0
  0
SPLINE
  5
45F
100
AcDbEntity
  8
0
100
AcDbSpline
 62
9
  6
CONTINUOUS
 70
0
 71
3
 72
14
 73
10
 74
0
 42
0.0000001
 43
0.0000001
 44
0.0000000001
 40
0.0
 40
0.0
 40
0.0
 40
0.0
 40
0.0959738689
 40
0.215982668
 40
0.5016693497
 40
0.6496248371
 40
0.7876571964
 40
0.9065869595
 40
1.0
 40
1.0
 40
1.0
 40
1.0
 10
130.4524114042
 20
313.2292548837
 30
0.0
 10
130.3266584179
 20
313.166547611
 30
0.0
 10
130.0297442238
 20
313.0538462441
 30
0.0
 10
129.3189488239
 20
312.8666106133
 30
0.0
 10
128.5114970675
 20
312.75916133
 30
0.0
 10
127.6746616592
 20
312.7314145128
 30
0.0
 10
127.0814614273
 20
312.7554044111
 30
0.0
 10
126.5722525772
 20
312.82115517
 30
0.0
 10
126.2686911202
 20
312.8954024954
 30
0.0
 10
126.1403493428
 20
312.9426752538
 30
0.0
  0
SPLINE
  5
460
100
AcDbEntity
  8
0
100
AcDbSpline
 62
9
  6
CONTINUOUS
 70
0
 71
3
 72
11
 73
7
 74
0
 42
0.0000001
 43
0.0000001
 44
0.0000000001
 40
0.0
 40
0.0
 40
0.0
 40
0.0
 40
0.3453382044
 40
0.6186359003
 40
0.8286484009
 40
1.0
 40
1.0
 40
1.0
 40
1.0
 10
126.1403493428
 20
312.9426752538
 30
0.0
 10
126.0893528119
 20
312.9614590569
 30
0.0
 10
125.9994220391
 20
312.9995619737
 30
0.0
 10
125.8882048745
 20
313.0690636888
 30
0.0
 10
125.8163414208
 20
313.1456214469
 30
0.0
 10
125.7972533714
 20
313.2055669481
 30
0.0
 10
125.7965817883
 20
313.232524201
 30
0.0
  0
SPLINE
  5
461
100
AcDbEntity
  8
0
100
AcDbSpline
 62
9
  6
CONTINUOUS
 70
0
 71
3
 72
11
 73
7
 74
0
 42
0.0000001
 43
0.0000001
 44
0.0000000001
 40
0.0
 40
0.0
 40
0.0
 40
0.0
 40
0.2494966626
 40
0.4995852706
 40
0.749812572
 40
1.0
 40
1.0
 40
1.0
 40
1.0
 10
141.4091506829
 20
308.1997125801
 30
0.0
 10
141.4107786852
 20
308.2780140081
 30
0.0
 10
141.3906858931
 20
308.4365497624
 30
0.0
 10
141.2818034445
 20
308.6515121014
 30
0.0
 10
141.0925503607
 20
308.80513865
 30
0.0
 10
140.9319026824
 20
308.8380853087
 30
0.0
 10
140.8533861323
 20
308.8363745411
 30
0.0
  0
SPLINE
  5
462
100
AcDbEntity
  8
0
100
AcDbSpline
 62
9
  6
CONTINUOUS
 70
0
 71
3
 72
26
 73
22
 74
0
 42
0.0000001
 43
0.0000001
 44
0.0000000001
 40
0.0
 40
0.0
 40
0.0
 40
0.0
 40
0.0234926948
 40
0.0388849205
 40
0.0573822662
 40
0.1044726978
 40
0.165050939
 40
0.23754686
 40
0.3198286788
 40
0.4091494432
 40
0.5021627865
 40
0.5952878967
 40
0.6848812138
 40
0.7673658758
 40
0.8396218085
 40
0.8993630401
 40
0.9451233651
 40
0.9627336145
 40
0.9771392159
 40
0.9891499419
 40
1.0
 40
1.0
 40
1.0
 40
1.0
 10
125.7965817883
 20
313.232524201
 30
0.0
 10
125.7962807468
 20
313.2741917988
 30
0.0
 10
125.8303995816
 20
313.3418816724
 30
0.0
 10
125.903807836
 20
313.4115516087
 30
0.0
 10
126.0222536795
 20
313.4942129813
 30
0.0
 10
126.2267070776
 20
313.587882046
 30
0.0
 10
126.5310754351
 20
313.6862579528
 30
0.0
 10
126.9030336057
 20
313.7746178203
 30
0.0
 10
127.3295474769
 20
313.8500197303
 30
0.0
 10
127.7951845768
 20
313.9100727584
 30
0.0
 10
128.2819940059
 20
313.9530561406
 30
0.0
 10
128.7706003859
 20
313.9768960076
 30
0.0
 10
129.2411288714
 20
313.9806722481
 30
0.0
 10
129.6743314608
 20
313.9636425041
 30
0.0
 10
130.0532730954
 20
313.9256715484
 30
0.0
 10
130.3634808806
 20
313.8681385292
 30
0.0
 10
130.5730282807
 20
313.8014427424
 30
0.0
 10
130.6942227625
 20
313.7344520999
 30
0.0
 10
130.7546328956
 20
313.683873801
 30
0.0
 10
130.7923270083
 20
313.6282102578
 30
0.0
 10
130.8017455642
 20
313.5876299468
 30
0.0
 10
130.8025032673
 20
313.5684002627
 30
0.0
  0
SPLINE
  5
463
100
AcDbEntity
  8
0
100
AcDbSpline
 62
9
  6
CONTINUOUS
 70
0
 71
3
 72
11
 73
7
 74
0
 42
0.0000001
 43
0.0000001
 44
0.0000000001
 40
0.0
 40
0.0
 40
0.0
 40
0.0
 40
0.2461944878
 40
0.4931267916
 40
0.7436536127
 40
1.0
 40
1.0
 40
1.0
 40
1.0
 10
140.8533862958
 20
295.1462398085
 30
0.0
 10
140.9306440129
 20
295.1445364763
 30
0.0
 10
141.088806449
 20
295.1763600563
 30
0.0
 10
141.2779848839
 20
295.3263609821
 30
0.0
 10
141.3891975123
 20
295.5415999584
 30
0.0
 10
141.4108053397
 20
295.7024399682
 30
0.0
 10
141.4091404692
 20
295.7828857522
 30
0.0
  0
SPLINE
  5
464
100
AcDbEntity
  8
0
100
AcDbSpline
 62
9
  6
CONTINUOUS
 70
0
 71
3
 72
10
 73
6
 74
0
 42
0.0000001
 43
0.0000001
 44
0.0000000001
 40
0.0
 40
0.0
 40
0.0
 40
0.0
 40
0.3764056104
 40
0.6534168709
 40
1.0
 40
1.0
 40
1.0
 40
1.0
 10
136.3090154864
 20
313.7024619872
 30
0.0
 10
136.3078658399
 20
313.6407177756
 30
0.0
 10
136.2359194236
 20
313.5421528927
 30
0.0
 10
136.1032050118
 20
313.4502635091
 30
0.0
 10
136.0113783913
 20
313.4028394174
 30
0.0
 10
135.9596122432
 20
313.3793114842
 30
0.0
  0
SPLINE
  5
465
100
AcDbEntity
  8
0
100
AcDbSpline
 62
9
  6
CONTINUOUS
 70
0
 71
3
 72
14
 73
10
 74
0
 42
0.0000001
 43
0.0000001
 44
0.0000000001
 40
0.0
 40
0.0
 40
0.0
 40
0.0
 40
0.0951154195
 40
0.2147537034
 40
0.5004255802
 40
0.6483499306
 40
0.7863798507
 40
0.9056580188
 40
1.0
 40
1.0
 40
1.0
 40
1.0
 10
135.9596122432
 20
313.3793114842
 30
0.0
 10
135.8331588624
 20
313.3218378881
 30
0.0
 10
135.5343877467
 20
313.2218761634
 30
0.0
 10
134.8198483952
 20
313.0660611179
 30
0.0
 10
134.0109849036
 20
312.9953733664
 30
0.0
 10
133.1760098089
 20
313.0056692675
 30
0.0
 10
132.5855977742
 20
313.0563578527
 30
0.0
 10
132.0792528007
 20
313.1445440452
 30
0.0
 10
131.7781051258
 20
313.2315363258
 30
0.0
 10
131.6506541885
 20
313.2838567826
 30
0.0
  0
SPLINE
  5
466
100
AcDbEntity
  8
0
100
AcDbSpline
 62
9
  6
CONTINUOUS
 70
0
 71
3
 72
11
 73
7
 74
0
 42
0.0000001
 43
0.0000001
 44
0.0000000001
 40
0.0
 40
0.0
 40
0.0
 40
0.0
 40
0.3447524328
 40
0.618858715
 40
0.8298678633
 40
1.0
 40
1.0
 40
1.0
 40
1.0
 10
131.6506541885
 20
313.2838567826
 30
0.0
 10
131.5991003065
 20
313.3050203983
 30
0.0
 10
131.5081438935
 20
313.3473900476
 30
0.0
 10
131.3959500924
 20
313.4222106062
 30
0.0
 10
131.3234406221
 20
313.5018380893
 30
0.0
 10
131.3036963638
 20
313.563262316
 30
0.0
 10
131.3030957138
 20
313.5907574131
 30
0.0
  0
SPLINE
  5
467
100
AcDbEntity
  8
0
100
AcDbSpline
 62
9
  6
CONTINUOUS
 70
0
 71
3
 72
11
 73
7
 74
0
 42
0.0000001
 43
0.0000001
 44
0.0000000001
 40
0.0
 40
0.0
 40
0.0
 40
0.0
 40
0.2494966588
 40
0.4995852584
 40
0.7498125572
 40
1.0
 40
1.0
 40
1.0
 40
1.0
 10
137.2094720473
 20
295.7828856342
 30
0.0
 10
137.2078440448
 20
295.7045841928
 30
0.0
 10
137.2279368446
 20
295.5460484133
 30
0.0
 10
137.33681933
 20
295.3310860439
 30
0.0
 10
137.5260724854
 20
295.1774595083
 30
0.0
 10
137.6867202001
 20
295.1445128672
 30
0.0
 10
137.7652367691
 20
295.1462236465
 30
0.0
  0
SPLINE
  5
468
100
AcDbEntity
  8
0
100
AcDbSpline
 62
9
  6
CONTINUOUS
 70
0
 71
3
 72
24
 73
20
 74
0
 42
0.0000001
 43
0.0000001
 44
0.0000000001
 40
0.0
 40
0.0
 40
0.0
 40
0.0
 40
0.054728939
 40
0.0764124116
 40
0.1015220152
 40
0.1617401266
 40
0.2343290369
 40
0.3169166612
 40
0.4065350307
 40
0.4998762366
 40
0.5932616052
 40
0.6830091981
 40
0.7656607422
 40
0.8381462764
 40
0.8980724619
 40
0.9444597858
 40
0.9624218231
 40
0.9770528299
 40
1.0
 40
1.0
 40
1.0
 40
1.0
 10
131.3030957138
 20
313.5907574131
 30
0.0
 10
131.3037053912
 20
313.6874394583
 30
0.0
 10
131.4393026282
 20
313.7929110527
 30
0.0
 10
131.5954486264
 20
313.8686787102
 30
0.0
 10
131.7731684781
 20
313.9382859617
 30
0.0
 10
132.0417045139
 20
314.0124966888
 30
0.0
 10
132.4160092305
 20
314.0842661666
 30
0.0
 10
132.8449043694
 20
314.1403375768
 30
0.0
 10
133.3125594931
 20
314.1794634588
 30
0.0
 10
133.8004314203
 20
314.2002136116
 30
0.0
 10
134.2889754413
 20
314.201606375
 30
0.0
 10
134.7583293393
 20
314.183821015
 30
0.0
 10
135.1895362716
 20
314.1470726347
 30
0.0
 10
135.5659191969
 20
314.0923522897
 30
0.0
 10
135.8737370359
 20
314.0203652539
 30
0.0
 10
136.0813105017
 20
313.9448614323
 30
0.0
 10
136.2016294573
 20
313.8729380412
 30
0.0
 10
136.2755297956
 20
313.8078166828
 30
0.0
 10
136.305840947
 20
313.7428758948
 30
0.0
 10
136.3090154864
 20
313.7024619872
 30
0.0
  0
SPLINE
  5
469
100
AcDbEntity
  8
0
100
AcDbSpline
 62
9
  6
CONTINUOUS
 70
0
 71
3
 72
11
 73
7
 74
0
 42
0.0000001
 43
0.0000001
 44
0.0000000001
 40
0.0
 40
0.0
 40
0.0
 40
0.0
 40
0.1696650771
 40
0.3807950414
 40
0.6551681784
 40
1.0
 40
1.0
 40
1.0
 40
1.0
 10
141.8155270155
 20
313.5907574006
 30
0.0
 10
141.8152260796
 20
313.5631960299
 30
0.0
 10
141.7953833041
 20
313.50136817
 30
0.0
 10
141.7221137305
 20
313.4217475867
 30
0.0
 10
141.6091634634
 20
313.3467561652
 30
0.0
 10
141.5176388607
 20
313.3042823908
 30
0.0
 10
141.4657938491
 20
313.2830618094
 30
0.0
  0
SPLINE
  5
46A
100
AcDbEntity
  8
0
100
AcDbSpline
 62
9
  6
CONTINUOUS
 70
0
 71
3
 72
13
 73
9
 74
0
 42
0.0000001
 43
0.0000001
 44
0.0000000001
 40
0.0
 40
0.0
 40
0.0
 40
0.0
 40
0.094462448
 40
0.2138967325
 40
0.4997171078
 40
0.7852995306
 40
0.9048649285
 40
1.0
 40
1.0
 40
1.0
 40
1.0
 10
141.4657938491
 20
313.2830618094
 30
0.0
 10
141.3382037403
 20
313.2308381488
 30
0.0
 10
141.0368482612
 20
313.1438115647
 30
0.0
 10
140.3174980616
 20
313.019669981
 30
0.0
 10
139.3059916543
 20
312.9787386379
 30
0.0
 10
138.2973269633
 20
313.0660783113
 30
0.0
 10
137.583417567
 20
313.2222347898
 30
0.0
 10
137.284872748
 20
313.3219713003
 30
0.0
 10
137.1584734889
 20
313.3794292089
 30
0.0
  0
SPLINE
  5
46B
100
AcDbEntity
  8
0
100
AcDbSpline
 62
9
  6
CONTINUOUS
 70
0
 71
3
 72
10
 73
6
 74
0
 42
0.0000001
 43
0.0000001
 44
0.0000000001
 40
0.0
 40
0.0
 40
0.0
 40
0.0
 40
0.3465265207
 40
0.6237143804
 40
1.0
 40
1.0
 40
1.0
 40
1.0
 10
137.1584734889
 20
313.3794292089
 30
0.0
 10
137.1067615287
 20
313.402936159
 30
0.0
 10
137.0149344554
 20
313.4504113498
 30
0.0
 10
136.8827272049
 20
313.5421322234
 30
0.0
 10
136.8095865661
 20
313.6407796883
 30
0.0
 10
136.8096072429
 20
313.7024620013
 30
0.0
  0
SPLINE
  5
46C
100
AcDbEntity
  8
0
100
AcDbSpline
 62
9
  6
CONTINUOUS
 70
0
 71
3
 72
11
 73
7
 74
0
 42
0.0000001
 43
0.0000001
 44
0.0000000001
 40
0.0
 40
0.0
 40
0.0
 40
0.0
 40
0.2461944893
 40
0.4931267928
 40
0.7436536116
 40
1.0
 40
1.0
 40
1.0
 40
1.0
 10
137.7652364533
 20
308.8363584195
 30
0.0
 10
137.6879787323
 20
308.8380617492
 30
0.0
 10
137.5298162879
 20
308.8062381816
 30
0.0
 10
137.34063784
 20
308.6562372497
 30
0.0
 10
137.2294252138
 20
308.440998262
 30
0.0
 10
137.2078173828
 20
308.2801582459
 30
0.0
 10
137.2094822553
 20
308.199712458
 30
0.0
  0
SPLINE
  5
46D
100
AcDbEntity
  8
0
100
AcDbSpline
 62
9
  6
CONTINUOUS
 70
0
 71
3
 72
14
 73
10
 74
0
 42
0.0000001
 43
0.0000001
 44
0.0000000001
 40
0.0
 40
0.0
 40
0.0
 40
0.0
 40
0.3768181899
 40
0.5353124185
 40
0.6705480503
 40
0.7835544912
 40
0.873766902
 40
0.9430155014
 40
1.0
 40
1.0
 40
1.0
 40
1.0
 10
140.594957409
 20
314.0967435492
 30
0.0
 10
140.7662275049
 20
314.0703858387
 30
0.0
 10
141.0092376991
 20
314.0286171849
 30
0.0
 10
141.3074302936
 20
313.9491126401
 30
0.0
 10
141.483951492
 20
313.8865437597
 30
0.0
 10
141.6252048583
 20
313.8204289839
 30
0.0
 10
141.7304409097
 20
313.7511231085
 30
0.0
 10
141.7976604388
 20
313.6750287224
 30
0.0
 10
141.8147358988
 20
313.6169507685
 30
0.0
 10
141.8155270155
 20
313.5907574006
 30
0.0
  0
SPLINE
  5
46E
100
AcDbEntity
  8
0
100
AcDbSpline
 62
9
  6
CONTINUOUS
 70
0
 71
3
 72
11
 73
7
 74
0
 42
0.0000001
 43
0.0000001
 44
0.0000000001
 40
0.0
 40
0.0
 40
0.0
 40
0.0
 40
0.1707237735
 40
0.3801297209
 40
0.6537268758
 40
1.0
 40
1.0
 40
1.0
 40
1.0
 10
147.3220409411
 20
313.232524188
 30
0.0
 10
147.3211316602
 20
313.2053127586
 30
0.0
 10
147.3017633494
 20
313.1448695014
 30
0.0
 10
147.2288788866
 20
313.0674731658
 30
0.0
 10
147.115643877
 20
312.9976688251
 30
0.0
 10
147.0241655142
 20
312.9594018675
 30
0.0
 10
146.9722699623
 20
312.9405230438
 30
0.0
  0
SPLINE
  5
46F
100
AcDbEntity
  8
0
100
AcDbSpline
 62
9
  6
CONTINUOUS
 70
0
 71
3
 72
13
 73
9
 74
0
 42
0.0000001
 43
0.0000001
 44
0.0000000001
 40
0.0
 40
0.0
 40
0.0
 40
0.0
 40
0.0938215771
 40
0.2130763293
 40
0.4989339434
 40
0.7842897265
 40
0.9041076527
 40
1.0
 40
1.0
 40
1.0
 40
1.0
 10
146.9722699623
 20
312.9405230438
 30
0.0
 10
146.8433647542
 20
312.8936292617
 30
0.0
 10
146.5391158984
 20
312.8197285137
 30
0.0
 10
145.8147707743
 20
312.7280378098
 30
0.0
 10
144.8011350132
 20
312.7338689324
 30
0.0
 10
143.7957893062
 20
312.8672412853
 30
0.0
 10
143.0869294479
 20
313.0546200054
 30
0.0
 10
142.7908214535
 20
313.166968172
 30
0.0
 10
142.6653726274
 20
313.2295613699
 30
0.0
  0
SPLINE
  5
470
100
AcDbEntity
  8
0
100
AcDbSpline
 62
9
  6
CONTINUOUS
 70
0
 71
3
 72
10
 73
6
 74
0
 42
0.0000001
 43
0.0000001
 44
0.0000000001
 40
0.0
 40
0.0
 40
0.0
 40
0.0
 40
0.3457274418
 40
0.623468174
 40
1.0
 40
1.0
 40
1.0
 40
1.0
 10
142.6653726274
 20
313.2295613699
 30
0.0
 10
142.6136168857
 20
313.2553851061
 30
0.0
 10
142.5216193855
 20
313.3069470355
 30
0.0
 10
142.3897660217
 20
313.4046699956
 30
0.0
 10
142.3159986372
 20
313.5054062717
 30
0.0
 10
142.3161194625
 20
313.5684002438
 30
0.0
  0
SPLINE
  5
471
100
AcDbEntity
  8
0
100
AcDbSpline
 62
9
  6
CONTINUOUS
 70
0
 71
3
 72
11
 73
7
 74
0
 42
0.0000001
 43
0.0000001
 44
0.0000000001
 40
0.0
 40
0.0
 40
0.0
 40
0.0
 40
0.3703158776
 40
0.5234968938
 40
0.6571893288
 40
1.0
 40
1.0
 40
1.0
 40
1.0
 10
146.6392602588
 20
313.666548476
 30
0.0
 10
146.7385846432
 20
313.6388247294
 30
0.0
 10
146.8768717212
 20
313.5928484195
 30
0.0
 10
147.0446254293
 20
313.5161363956
 30
0.0
 10
147.1944825026
 20
313.4344395527
 30
0.0
 10
147.3183301223
 20
313.3279137205
 30
0.0
 10
147.3220409411
 20
313.232524188
 30
0.0
  0
SPLINE
  5
472
100
AcDbEntity
  8
0
100
AcDbSpline
 62
9
  6
CONTINUOUS
 70
0
 71
3
 72
9
 73
5
 74
0
 42
0.0000001
 43
0.0000001
 44
0.0000000001
 40
0.0
 40
0.0
 40
0.0
 40
0.0
 40
0.2661276615
 40
1.0
 40
1.0
 40
1.0
 40
1.0
 10
146.1153990097
 20
313.7906018006
 30
0.0
 10
146.1622676884
 20
313.7813977142
 30
0.0
 10
146.338033281
 20
313.7451152383
 30
0.0
 10
146.5126256306
 20
313.7027714225
 30
0.0
 10
146.6392602588
 20
313.666548476
 30
0.0
  0
SPLINE
  5
473
100
AcDbEntity
  8
0
100
AcDbSpline
 62
9
  6
CONTINUOUS
 70
0
 71
3
 72
18
 73
14
 74
0
 42
0.0000001
 43
0.0000001
 44
0.0000000001
 40
0.0
 40
0.0
 40
0.0
 40
0.0
 40
0.0198191738
 40
0.0435764051
 40
0.0745506913
 40
0.1139856758
 40
0.1620322846
 40
0.2183453502
 40
0.3529556128
 40
0.5096145134
 40
0.6775649605
 40
0.8448011246
 40
1.0
 40
1.0
 40
1.0
 40
1.0
 10
142.3161194625
 20
313.5684002438
 30
0.0
 10
142.3170420833
 20
313.5943967313
 30
0.0
 10
142.3350752891
 20
313.6516099876
 30
0.0
 10
142.4050389458
 20
313.7231720125
 30
0.0
 10
142.5131903892
 20
313.7846333613
 30
0.0
 10
142.6594312906
 20
313.838677908
 30
0.0
 10
142.8426984316
 20
313.8847746556
 30
0.0
 10
143.1520178441
 20
313.938002446
 30
0.0
 10
143.6074397532
 20
313.9754857033
 30
0.0
 10
144.2103990648
 20
313.9827545022
 30
0.0
 10
144.8556921879
 20
313.9542124429
 30
0.0
 10
145.4964889337
 20
313.8920531705
 30
0.0
 10
145.9155675654
 20
313.8301123597
 30
0.0
 10
146.1153990097
 20
313.7906018006
 30
0.0
  0
SPLINE
  5
474
100
AcDbEntity
  8
0
100
AcDbSpline
 62
9
  6
CONTINUOUS
 70
0
 71
3
 72
9
 73
5
 74
0
 42
0.0000001
 43
0.0000001
 44
0.0000000001
 40
0.0
 40
0.0
 40
0.0
 40
0.0
 40
0.4307127698
 40
1.0
 40
1.0
 40
1.0
 40
1.0
 10
152.8285530154
 20
312.6257949791
 30
0.0
 10
152.8274686484
 20
312.5919199899
 30
0.0
 10
152.795421537
 20
312.5139969942
 30
0.0
 10
152.7305419114
 20
312.4654887384
 30
0.0
 10
152.6923435724
 20
312.4420873679
 30
0.0
  0
SPLINE
  5
475
100
AcDbEntity
  8
0
100
AcDbSpline
 62
9
  6
CONTINUOUS
 70
0
 71
3
 72
9
 73
5
 74
0
 42
0.0000001
 43
0.0000001
 44
0.0000000001
 40
0.0
 40
0.0
 40
0.0
 40
0.0
 40
0.2180641883
 40
1.0
 40
1.0
 40
1.0
 40
1.0
 10
152.6923435724
 20
312.4420873679
 30
0.0
 10
152.6779763584
 20
312.4332856109
 30
0.0
 10
152.6102849066
 20
312.3958674286
 30
0.0
 10
152.5375008613
 20
312.3684480109
 30
0.0
 10
152.4799452686
 20
312.3500745691
 30
0.0
  0
SPLINE
  5
476
100
AcDbEntity
  8
0
100
AcDbSpline
 62
9
  6
CONTINUOUS
 70
0
 71
3
 72
14
 73
10
 74
0
 42
0.0000001
 43
0.0000001
 44
0.0000000001
 40
0.0
 40
0.0
 40
0.0
 40
0.0
 40
0.0932459341
 40
0.2124740203
 40
0.3508134838
 40
0.498831168
 40
0.7839327524
 40
0.903843249
 40
1.0
 40
1.0
 40
1.0
 40
1.0
 10
152.4799452686
 20
312.3500745691
 30
0.0
 10
152.3493754546
 20
312.3083928355
 30
0.0
 10
152.0412674492
 20
312.2479194462
 30
0.0
 10
151.5268522269
 20
312.2063762205
 30
0.0
 10
150.9298784541
 20
312.2105488178
 30
0.0
 10
150.092332724
 20
312.2782655919
 30
0.0
 10
149.2886868651
 20
312.4235052899
 30
0.0
 10
148.5846512546
 20
312.6421939559
 30
0.0
 10
148.2917278576
 20
312.7681784856
 30
0.0
 10
148.1677573785
 20
312.8360631559
 30
0.0
  0
SPLINE
  5
477
100
AcDbEntity
  8
0
100
AcDbSpline
 62
9
  6
CONTINUOUS
 70
0
 71
3
 72
10
 73
6
 74
0
 42
0.0000001
 43
0.0000001
 44
0.0000000001
 40
0.0
 40
0.0
 40
0.0
 40
0.0
 40
0.3447919777
 40
0.6235141223
 40
1.0
 40
1.0
 40
1.0
 40
1.0
 10
148.1677573785
 20
312.8360631559
 30
0.0
 10
148.1166468189
 20
312.8640506535
 30
0.0
 10
148.0255762306
 20
312.9193089853
 30
0.0
 10
147.8953282884
 20
313.0217080562
 30
0.0
 10
147.8219486277
 20
313.1240521136
 30
0.0
 10
147.8226328068
 20
313.187676559
 30
0.0
  0
SPLINE
  5
478
100
AcDbEntity
  8
0
100
AcDbSpline
 62
9
  6
CONTINUOUS
 70
0
 71
3
 72
10
 73
6
 74
0
 42
0.0000001
 43
0.0000001
 44
0.0000000001
 40
0.0
 40
0.0
 40
0.0
 40
0.0
 40
0.3765276323
 40
0.6548309218
 40
1.0
 40
1.0
 40
1.0
 40
1.0
 10
125.2959899223
 20
313.1876765434
 30
0.0
 10
125.295469288
 20
313.123187615
 30
0.0
 10
125.2215616292
 20
313.0201363768
 30
0.0
 10
125.0893303723
 20
312.9162468672
 30
0.0
 10
124.9969241826
 20
312.8605267415
 30
0.0
 10
124.944968167
 20
312.8323177799
 30
0.0
  0
SPLINE
  5
479
100
AcDbEntity
  8
0
100
AcDbSpline
 62
9
  6
CONTINUOUS
 70
0
 71
3
 72
14
 73
10
 74
0
 42
0.0000001
 43
0.0000001
 44
0.0000000001
 40
0.0
 40
0.0
 40
0.0
 40
0.0
 40
0.0968566074
 40
0.2172783606
 40
0.5029146441
 40
0.6508510622
 40
0.7888712938
 40
0.9074903417
 40
1.0
 40
1.0
 40
1.0
 40
1.0
 10
124.944968167
 20
312.8323177799
 30
0.0
 10
124.8197843268
 20
312.7643505561
 30
0.0
 10
124.5245210633
 20
312.6388793188
 30
0.0
 10
123.8173327803
 20
312.4205221195
 30
0.0
 10
123.011603876
 20
312.2761568629
 30
0.0
 10
122.1732960079
 20
312.2099811082
 30
0.0
 10
121.5774675931
 20
312.206784743
 30
0.0
 10
121.0653418407
 20
312.2495841661
 30
0.0
 10
120.7591793903
 20
312.3107798805
 30
0.0
 10
120.6298193911
 20
312.3529237887
 30
0.0
  0
SPLINE
  5
47A
100
AcDbEntity
  8
0
100
AcDbSpline
 62
9
  6
CONTINUOUS
 70
0
 71
3
 72
9
 73
5
 74
0
 42
0.0000001
 43
0.0000001
 44
0.0000000001
 40
0.0
 40
0.0
 40
0.0
 40
0.0
 40
0.5586946059
 40
1.0
 40
1.0
 40
1.0
 40
1.0
 10
120.6298193911
 20
312.3529237887
 30
0.0
 10
120.580029637
 20
312.3691446826
 30
0.0
 10
120.4922592999
 20
312.4025035453
 30
0.0
 10
120.4103038909
 20
312.4498814084
 30
0.0
 10
120.3780825845
 20
312.4758171739
 30
0.0
  0
SPLINE
  5
47B
100
AcDbEntity
  8
0
100
AcDbSpline
 62
9
  6
CONTINUOUS
 70
0
 71
3
 72
9
 73
5
 74
0
 42
0.0000001
 43
0.0000001
 44
0.0000000001
 40
0.0
 40
0.0
 40
0.0
 40
0.0
 40
0.5483271064
 40
1.0
 40
1.0
 40
1.0
 40
1.0
 10
120.3780825845
 20
312.4758171739
 30
0.0
 10
120.3527209786
 20
312.4962313884
 30
0.0
 10
120.3100552838
 20
312.5397689638
 30
0.0
 10
120.2910851128
 20
312.5989961676
 30
0.0
 10
120.2900697141
 20
312.6257949912
 30
0.0
  0
SPLINE
  5
47C
100
AcDbEntity
  8
0
100
AcDbSpline
 62
9
  6
CONTINUOUS
 70
0
 71
3
 72
25
 73
21
 74
0
 42
0.0000001
 43
0.0000001
 44
0.0000000001
 40
0.0
 40
0.0
 40
0.0
 40
0.0
 40
0.0238424984
 40
0.0394640199
 40
0.0582979408
 40
0.1060166982
 40
0.1668096121
 40
0.2394362535
 40
0.321651272
 40
0.5035769853
 40
0.5966688141
 40
0.6861759849
 40
0.7686654092
 40
0.8410617329
 40
0.9006008213
 40
0.9459261625
 40
0.9633030805
 40
0.9774919911
 40
0.9892846968
 40
1.0
 40
1.0
 40
1.0
 40
1.0
 10
120.2900697141
 20
312.6257949912
 30
0.0
 10
120.2910878795
 20
312.6682195014
 30
0.0
 10
120.3243654001
 20
312.7367100828
 30
0.0
 10
120.3973822453
 20
312.8099020687
 30
0.0
 10
120.5155919494
 20
312.8972568565
 30
0.0
 10
120.7188958552
 20
312.9997304115
 30
0.0
 10
121.0214652826
 20
313.1119796196
 30
0.0
 10
121.3911184474
 20
313.2164691489
 30
0.0
 10
121.9762980743
 20
313.347153604
 30
0.0
 10
122.6059332589
 20
313.4419361118
 30
0.0
 10
123.251842721
 20
313.5039830913
 30
0.0
 10
123.7231683118
 20
313.529505501
 30
0.0
 10
124.1582943487
 20
313.5319515351
 30
0.0
 10
124.5398501916
 20
313.5120823747
 30
0.0
 10
124.8525676558
 20
313.4685757174
 30
0.0
 10
125.0640698129
 20
313.4110782054
 30
0.0
 10
125.1867889105
 20
313.349292918
 30
0.0
 10
125.2482461218
 20
313.3014359868
 30
0.0
 10
125.286815837
 20
313.24714309
 30
0.0
 10
125.2957391229
 20
313.2067468213
 30
0.0
 10
125.2959899223
 20
313.1876765434
 30
0.0
  0
SPLINE
  5
47D
100
AcDbEntity
  8
0
100
AcDbSpline
 62
9
  6
CONTINUOUS
 70
0
 71
3
 72
10
 73
6
 74
0
 42
0.0000001
 43
0.0000001
 44
0.0000000001
 40
0.0
 40
0.0
 40
0.0
 40
0.0
 40
0.2232843838
 40
0.4742897406
 40
1.0
 40
1.0
 40
1.0
 40
1.0
 10
154.3593113651
 20
309.5084319802
 30
0.0
 10
154.359311806
 20
309.5570580407
 30
0.0
 10
154.3363134586
 20
309.6614992637
 30
0.0
 10
154.20370775
 20
309.8407223962
 30
0.0
 10
154.031607141
 20
309.9093083379
 30
0.0
 10
153.9176599196
 20
309.9204153181
 30
0.0
  0
SPLINE
  5
47E
100
AcDbEntity
  8
0
100
AcDbSpline
 62
9
  6
CONTINUOUS
 70
0
 71
3
 72
11
 73
7
 74
0
 42
0.0000001
 43
0.0000001
 44
0.0000000001
 40
0.0
 40
0.0
 40
0.0
 40
0.0
 40
0.2461944894
 40
0.4931267928
 40
0.743653612
 40
1.0
 40
1.0
 40
1.0
 40
1.0
 10
132.2652364533
 20
308.8363584193
 30
0.0
 10
132.187978734
 20
308.838061749
 30
0.0
 10
132.0298162934
 20
308.8062381829
 30
0.0
 10
131.8406378474
 20
308.6562372575
 30
0.0
 10
131.7294252195
 20
308.4409982773
 30
0.0
 10
131.7078173839
 20
308.2801582654
 30
0.0
 10
131.709482255
 20
308.1997124795
 30
0.0
  0
SPLINE
  5
47F
100
AcDbEntity
  8
0
100
AcDbSpline
 62
9
  6
CONTINUOUS
 70
0
 71
3
 72
11
 73
7
 74
0
 42
0.0000001
 43
0.0000001
 44
0.0000000001
 40
0.0
 40
0.0
 40
0.0
 40
0.0
 40
0.2494966626
 40
0.4995852706
 40
0.749812572
 40
1.0
 40
1.0
 40
1.0
 40
1.0
 10
135.9091506829
 20
308.1997125801
 30
0.0
 10
135.9107786852
 20
308.2780140081
 30
0.0
 10
135.8906858931
 20
308.4365497624
 30
0.0
 10
135.7818034445
 20
308.6515121014
 30
0.0
 10
135.5925503607
 20
308.80513865
 30
0.0
 10
135.4319026824
 20
308.8380853087
 30
0.0
 10
135.3533861323
 20
308.8363745411
 30
0.0
  0
SPLINE
  5
480
100
AcDbEntity
  8
0
100
AcDbSpline
 62
9
  6
CONTINUOUS
 70
0
 71
3
 72
11
 73
7
 74
0
 42
0.0000001
 43
0.0000001
 44
0.0000000001
 40
0.0
 40
0.0
 40
0.0
 40
0.0
 40
0.2461944888
 40
0.4931267925
 40
0.7436536116
 40
1.0
 40
1.0
 40
1.0
 40
1.0
 10
135.3533863301
 20
295.1462397938
 30
0.0
 10
135.4306440468
 20
295.1445364721
 30
0.0
 10
135.5888064786
 20
295.1763600524
 30
0.0
 10
135.7779849057
 20
295.3263609872
 30
0.0
 10
135.8891975186
 20
295.5415999657
 30
0.0
 10
135.9108053473
 20
295.7024399728
 30
0.0
 10
135.9091404748
 20
295.7828857561
 30
0.0
  0
SPLINE
  5
481
100
AcDbEntity
  8
0
100
AcDbSpline
 62
9
  6
CONTINUOUS
 70
0
 71
3
 72
11
 73
7
 74
0
 42
0.0000001
 43
0.0000001
 44
0.0000000001
 40
0.0
 40
0.0
 40
0.0
 40
0.0
 40
0.2494966588
 40
0.4995852584
 40
0.7498125572
 40
1.0
 40
1.0
 40
1.0
 40
1.0
 10
131.7094720473
 20
295.7828856342
 30
0.0
 10
131.7078440448
 20
295.7045841928
 30
0.0
 10
131.7279368446
 20
295.5460484133
 30
0.0
 10
131.8368193301
 20
295.3310860439
 30
0.0
 10
132.0260724854
 20
295.1774595083
 30
0.0
 10
132.1867202002
 20
295.1445128672
 30
0.0
 10
132.2652367691
 20
295.1462236465
 30
0.0
  0
SPLINE
  5
482
100
AcDbEntity
  8
0
100
AcDbSpline
 62
9
  6
CONTINUOUS
 70
0
 71
3
 72
24
 73
20
 74
0
 42
0.0000001
 43
0.0000001
 44
0.0000000001
 40
0.0
 40
0.0
 40
0.0
 40
0.0
 40
0.0563842736
 40
0.0782198917
 40
0.1034365089
 40
0.1637050793
 40
0.2360669638
 40
0.3182354493
 40
0.407430718
 40
0.50024611
 40
0.5930907775
 40
0.6823194063
 40
0.7644431722
 40
0.8365925933
 40
0.8964162791
 40
0.94277291
 40
0.9609216641
 40
0.9760604627
 40
1.0
 40
1.0
 40
1.0
 40
1.0
 10
131.4593140364
 20
313.4449490422
 30
0.0
 10
131.4593308399
 20
313.5390187926
 30
0.0
 10
131.5844724469
 20
313.6453459848
 30
0.0
 10
131.7334533756
 20
313.7219876068
 30
0.0
 10
131.9002839106
 20
313.7912680311
 30
0.0
 10
132.1528059702
 20
313.8652674967
 30
0.0
 10
132.5044955857
 20
313.9369447873
 30
0.0
 10
132.907359136
 20
313.9930390117
 30
0.0
 10
133.3465721959
 20
314.0318827607
 30
0.0
 10
133.804796973
 20
314.0525165708
 30
0.0
 10
134.2635426524
 20
314.0540012264
 30
0.0
 10
134.7041385494
 20
314.0363660626
 30
0.0
 10
135.108879613
 20
313.9994535375
 30
0.0
 10
135.4623041421
 20
313.9448999772
 30
0.0
 10
135.7513597658
 20
313.8732295279
 30
0.0
 10
135.9460587575
 20
313.7977598214
 30
0.0
 10
136.0584773242
 20
313.7255458876
 30
0.0
 10
136.1289133055
 20
313.6612793514
 30
0.0
 10
136.1593116043
 20
313.5964687656
 30
0.0
 10
136.1593112681
 20
313.5565287932
 30
0.0
  0
SPLINE
  5
483
100
AcDbEntity
  8
0
100
AcDbSpline
 62
9
  6
CONTINUOUS
 70
0
 71
3
 72
9
 73
5
 74
0
 42
0.0000001
 43
0.0000001
 44
0.0000000001
 40
0.0
 40
0.0
 40
0.0
 40
0.0
 40
0.5049488272
 40
1.0
 40
1.0
 40
1.0
 40
1.0
 10
131.303095731
 20
313.5907570036
 30
0.0
 10
131.3421564094
 20
313.5923337936
 30
0.0
 10
131.424423897
 20
313.5637911276
 30
0.0
 10
131.4593139899
 20
313.4832752628
 30
0.0
 10
131.4593140364
 20
313.4449490354
 30
0.0
  0
SPLINE
  5
484
100
AcDbEntity
  8
0
100
AcDbSpline
 62
9
  6
CONTINUOUS
 70
0
 71
3
 72
9
 73
5
 74
0
 42
0.0000001
 43
0.0000001
 44
0.0000000001
 40
0.0
 40
0.0
 40
0.0
 40
0.0
 40
0.4929010193
 40
1.0
 40
1.0
 40
1.0
 40
1.0
 10
136.1593112681
 20
313.5565287865
 30
0.0
 10
136.159311323
 20
313.5936993888
 30
0.0
 10
136.1920306566
 20
313.6719699733
 30
0.0
 10
136.2707742591
 20
313.7023886003
 30
0.0
 10
136.3090154863
 20
313.7024619617
 30
0.0
  0
SPLINE
  5
485
100
AcDbEntity
  8
0
100
AcDbSpline
 62
9
  6
CONTINUOUS
 70
0
 71
3
 72
11
 73
7
 74
0
 42
0.0000001
 43
0.0000001
 44
0.0000000001
 40
0.0
 40
0.0
 40
0.0
 40
0.0
 40
0.2494967442
 40
0.4995869179
 40
0.7498148505
 40
1.0
 40
1.0
 40
1.0
 40
1.0
 10
120.7094720474
 20
295.7828856342
 30
0.0
 10
120.7078440451
 20
295.7045842029
 30
0.0
 10
120.7279373745
 20
295.5460481076
 30
0.0
 10
120.8368199438
 20
295.3310848655
 30
0.0
 10
121.0260742108
 20
295.1774599864
 30
0.0
 10
121.1867209569
 20
295.144512884
 30
0.0
 10
121.2652367692
 20
295.1462236468
 30
0.0
  0
SPLINE
  5
486
100
AcDbEntity
  8
0
100
AcDbSpline
 62
9
  6
CONTINUOUS
 70
0
 71
3
 72
11
 73
7
 74
0
 42
0.0000001
 43
0.0000001
 44
0.0000000001
 40
0.0
 40
0.0
 40
0.0
 40
0.0
 40
0.2461944888
 40
0.4931267926
 40
0.7436536116
 40
1.0
 40
1.0
 40
1.0
 40
1.0
 10
124.3533863282
 20
295.1462397939
 30
0.0
 10
124.430644045
 20
295.1445364718
 30
0.0
 10
124.5888064773
 20
295.1763600517
 30
0.0
 10
124.7779849051
 20
295.3263609863
 30
0.0
 10
124.8891975186
 20
295.5415999652
 30
0.0
 10
124.9108053473
 20
295.7024399726
 30
0.0
 10
124.9091404748
 20
295.7828857561
 30
0.0
  0
SPLINE
  5
487
100
AcDbEntity
  8
0
100
AcDbSpline
 62
9
  6
CONTINUOUS
 70
0
 71
3
 72
11
 73
7
 74
0
 42
0.0000001
 43
0.0000001
 44
0.0000000001
 40
0.0
 40
0.0
 40
0.0
 40
0.0
 40
0.2494966626
 40
0.4995852706
 40
0.749812572
 40
1.0
 40
1.0
 40
1.0
 40
1.0
 10
124.9091506829
 20
308.1997125801
 30
0.0
 10
124.9107786852
 20
308.2780140081
 30
0.0
 10
124.8906858931
 20
308.4365497624
 30
0.0
 10
124.7818034445
 20
308.6515121014
 30
0.0
 10
124.5925503607
 20
308.80513865
 30
0.0
 10
124.4319026824
 20
308.8380853087
 30
0.0
 10
124.3533861323
 20
308.8363745411
 30
0.0
  0
SPLINE
  5
488
100
AcDbEntity
  8
0
100
AcDbSpline
 62
9
  6
CONTINUOUS
 70
0
 71
3
 72
11
 73
7
 74
0
 42
0.0000001
 43
0.0000001
 44
0.0000000001
 40
0.0
 40
0.0
 40
0.0
 40
0.0
 40
0.2461944894
 40
0.4931267928
 40
0.743653612
 40
1.0
 40
1.0
 40
1.0
 40
1.0
 10
121.2652364533
 20
308.8363584193
 30
0.0
 10
121.187978734
 20
308.838061749
 30
0.0
 10
121.0298162934
 20
308.8062381829
 30
0.0
 10
120.8406378474
 20
308.6562372575
 30
0.0
 10
120.7294252195
 20
308.4409982773
 30
0.0
 10
120.7078173839
 20
308.2801582654
 30
0.0
 10
120.709482255
 20
308.1997124795
 30
0.0
  0
SPLINE
  5
489
100
AcDbEntity
  8
0
100
AcDbSpline
 62
9
  6
CONTINUOUS
 70
0
 71
3
 72
23
 73
19
 74
0
 42
0.0000001
 43
0.0000001
 44
0.0000000001
 40
0.0
 40
0.0
 40
0.0
 40
0.0
 40
0.0574776975
 40
0.1050253579
 40
0.1656115043
 40
0.238036488
 40
0.3200861968
 40
0.4090805992
 40
0.5017071137
 40
0.6836141488
 40
0.7657626163
 40
0.8378645923
 40
0.897455076
 40
0.9433522661
 40
0.9612022939
 40
0.9760386775
 40
0.9885761396
 40
1.0
 40
1.0
 40
1.0
 40
1.0
 10
125.959315448
 20
313.0871169058
 30
0.0
 10
125.9593425831
 20
313.1832366164
 30
0.0
 10
126.1202607698
 20
313.324648646
 30
0.0
 10
126.3602944276
 20
313.4390730951
 30
0.0
 10
126.649439724
 20
313.5401419563
 30
0.0
 10
126.9973550147
 20
313.6272074408
 30
0.0
 10
127.3980268702
 20
313.7028628023
 30
0.0
 10
127.8349278151
 20
313.7627711859
 30
0.0
 10
128.4403354142
 20
313.8193977002
 30
0.0
 10
129.0374549653
 20
313.8398076261
 30
0.0
 10
129.5993162373
 20
313.8163394563
 30
0.0
 10
129.9554073078
 20
313.7788829529
 30
0.0
 10
130.2469780809
 20
313.7211971921
 30
0.0
 10
130.4438647733
 20
313.6545729763
 30
0.0
 10
130.5576132803
 20
313.5877163167
 30
0.0
 10
130.614900233
 20
313.5373856611
 30
0.0
 10
130.6510051723
 20
313.4821640964
 30
0.0
 10
130.659291405
 20
313.4417195079
 30
0.0
 10
130.659300917
 20
313.422615436
 30
0.0
  0
SPLINE
  5
48A
100
AcDbEntity
  8
0
100
AcDbSpline
 62
9
  6
CONTINUOUS
 70
0
 71
3
 72
9
 73
5
 74
0
 42
0.0000001
 43
0.0000001
 44
0.0000000001
 40
0.0
 40
0.0
 40
0.0
 40
0.0
 40
0.5050329774
 40
1.0
 40
1.0
 40
1.0
 40
1.0
 10
125.7965818344
 20
313.2325236698
 30
0.0
 10
125.8365549366
 20
313.2358370777
 30
0.0
 10
125.9223907256
 20
313.2091686199
 30
0.0
 10
125.9593154409
 20
313.1264276166
 30
0.0
 10
125.959315448
 20
313.0871168714
 30
0.0
  0
SPLINE
  5
48B
100
AcDbEntity
  8
0
100
AcDbSpline
 62
9
  6
CONTINUOUS
 70
0
 71
3
 72
9
 73
5
 74
0
 42
0.0000001
 43
0.0000001
 44
0.0000000001
 40
0.0
 40
0.0
 40
0.0
 40
0.0
 40
0.4887228927
 40
1.0
 40
1.0
 40
1.0
 40
1.0
 10
130.659300917
 20
313.4226154566
 30
0.0
 10
130.6593008925
 20
313.4584875681
 30
0.0
 10
130.6897722166
 20
313.5344957967
 30
0.0
 10
130.7650122433
 20
313.5667442555
 30
0.0
 10
130.8025033408
 20
313.5683986942
 30
0.0
  0
SPLINE
  5
48C
100
AcDbEntity
  8
0
100
AcDbSpline
 62
9
  6
CONTINUOUS
 70
0
 71
3
 72
9
 73
5
 74
0
 42
0.0000001
 43
0.0000001
 44
0.0000000001
 40
0.0
 40
0.0
 40
0.0
 40
0.0
 40
0.4848070311
 40
1.0
 40
1.0
 40
1.0
 40
1.0
 10
125.1593113423
 20
313.0423191267
 30
0.0
 10
125.1593112774
 20
313.076918793
 30
0.0
 10
125.1876591569
 20
313.1506567429
 30
0.0
 10
125.2593592336
 20
313.1844990076
 30
0.0
 10
125.2959899226
 20
313.1876765277
 30
0.0
  0
SPLINE
  5
48D
100
AcDbEntity
  8
0
100
AcDbSpline
 62
9
  6
CONTINUOUS
 70
0
 71
3
 72
9
 73
5
 74
0
 42
0.0000001
 43
0.0000001
 44
0.0000000001
 40
0.0
 40
0.0
 40
0.0
 40
0.0
 40
0.5051046977
 40
1.0
 40
1.0
 40
1.0
 40
1.0
 10
120.2900698037
 20
312.6257943201
 30
0.0
 10
120.3308737582
 20
312.6309308813
 30
0.0
 10
120.4202855625
 20
312.6063330543
 30
0.0
 10
120.4593176233
 20
312.5213614693
 30
0.0
 10
120.4593175401
 20
312.4810667367
 30
0.0
  0
SPLINE
  5
48E
100
AcDbEntity
  8
0
100
AcDbSpline
 62
9
  6
CONTINUOUS
 70
0
 71
3
 72
25
 73
21
 74
0
 42
0.0000001
 43
0.0000001
 44
0.0000000001
 40
0.0
 40
0.0
 40
0.0
 40
0.0
 40
0.0249504102
 40
0.0410431984
 40
0.0602012081
 40
0.1083234362
 40
0.1692680504
 40
0.2417823629
 40
0.3237037936
 40
0.5047315857
 40
0.5972400748
 40
0.6862708259
 40
0.7682572135
 40
0.8401152831
 40
0.8992850427
 40
0.9445553641
 40
0.9620304198
 40
0.9764929876
 40
0.9887253238
 40
1.0
 40
1.0
 40
1.0
 40
1.0
 10
120.4593175402
 20
312.4810668066
 30
0.0
 10
120.4593368549
 20
312.5230301042
 30
0.0
 10
120.4907549427
 20
312.5909667889
 30
0.0
 10
120.5599100715
 20
312.6643285786
 30
0.0
 10
120.6706545351
 20
312.7515029732
 30
0.0
 10
120.8617121099
 20
312.8537714204
 30
0.0
 10
121.1461448564
 20
312.9658406022
 30
0.0
 10
121.493364863
 20
313.0703021951
 30
0.0
 10
122.0425666148
 20
313.2004068011
 30
0.0
 10
122.633738929
 20
313.2955623536
 30
0.0
 10
123.2405078095
 20
313.357039729
 30
0.0
 10
123.6831753824
 20
313.3826254278
 30
0.0
 10
124.0918056029
 20
313.3854762886
 30
0.0
 10
124.4499721151
 20
313.3654933439
 30
0.0
 10
124.7434878375
 20
313.3219053811
 30
0.0
 10
124.9421490799
 20
313.264705537
 30
0.0
 10
125.0570353055
 20
313.2029854336
 30
0.0
 10
125.1147953609
 20
313.1551882903
 30
0.0
 10
125.1511807218
 20
313.1012532626
 30
0.0
 10
125.1593114542
 20
313.0612816438
 30
0.0
 10
125.1593113423
 20
313.0423191242
 30
0.0
  0
SPLINE
  5
48F
100
AcDbEntity
  8
0
100
AcDbSpline
 62
9
  6
CONTINUOUS
 70
0
 71
3
 72
9
 73
5
 74
0
 42
0.0000001
 43
0.0000001
 44
0.0000000001
 40
0.0
 40
0.0
 40
0.0
 40
0.0
 40
0.3636536762
 40
1.0
 40
1.0
 40
1.0
 40
1.0
 10
118.7593113651
 20
355.8777633681
 30
0.0
 10
118.7593111124
 20
355.8947732016
 30
0.0
 10
118.796774631
 20
355.9346778489
 30
0.0
 10
118.8398332286
 20
355.9491539306
 30
0.0
 10
118.8681385302
 20
355.9583606691
 30
0.0
  0
SPLINE
  5
490
100
AcDbEntity
  8
0
100
AcDbSpline
 62
9
  6
CONTINUOUS
 70
0
 71
3
 72
11
 73
7
 74
0
 42
0.0000001
 43
0.0000001
 44
0.0000000001
 40
0.0
 40
0.0
 40
0.0
 40
0.0
 40
0.2497123345
 40
0.4994993748
 40
0.7496067841
 40
1.0
 40
1.0
 40
1.0
 40
1.0
 10
146.3533861436
 20
309.0176361328
 30
0.0
 10
146.4557721259
 20
309.0176293851
 30
0.0
 10
146.6635057471
 20
308.9735703059
 30
0.0
 10
146.9161447507
 20
308.7828988808
 30
0.0
 10
147.0725978648
 20
308.5094766476
 30
0.0
 10
147.1061187454
 20
308.3023777907
 30
0.0
 10
147.1061122335
 20
308.1997126364
 30
0.0
  0
SPLINE
  5
491
100
AcDbEntity
  8
0
100
AcDbSpline
 62
9
  6
CONTINUOUS
 70
0
 71
3
 72
11
 73
7
 74
0
 42
0.0000001
 43
0.0000001
 44
0.0000000001
 40
0.0
 40
0.0
 40
0.0
 40
0.0
 40
0.2504124324
 40
0.5005300421
 40
0.7502704479
 40
1.0
 40
1.0
 40
1.0
 40
1.0
 10
142.5125104968
 20
308.1997125114
 30
0.0
 10
142.5164444969
 20
308.3023519424
 30
0.0
 10
142.5438718627
 20
308.5098854822
 30
0.0
 10
142.7034282068
 20
308.782480638
 30
0.0
 10
142.9542911556
 20
308.9757767032
 30
0.0
 10
143.1628063303
 20
309.0166805689
 30
0.0
 10
143.2652365629
 20
309.0176361329
 30
0.0
  0
SPLINE
  5
492
100
AcDbEntity
  8
0
100
AcDbSpline
 62
9
  6
CONTINUOUS
 70
0
 71
3
 72
11
 73
7
 74
0
 42
0.0000001
 43
0.0000001
 44
0.0000000001
 40
0.0
 40
0.0
 40
0.0
 40
0.0
 40
0.2497123345
 40
0.4994993748
 40
0.7496067841
 40
1.0
 40
1.0
 40
1.0
 40
1.0
 10
143.2652365866
 20
294.9649620815
 30
0.0
 10
143.1628506044
 20
294.9649688292
 30
0.0
 10
142.9551169831
 20
295.0090279084
 30
0.0
 10
142.7024779796
 20
295.1996993335
 30
0.0
 10
142.5460248655
 20
295.4731215666
 30
0.0
 10
142.5125039849
 20
295.6802204234
 30
0.0
 10
142.5125104968
 20
295.7828855778
 30
0.0
  0
SPLINE
  5
493
100
AcDbEntity
  8
0
100
AcDbSpline
 62
9
  6
CONTINUOUS
 70
0
 71
3
 72
11
 73
7
 74
0
 42
0.0000001
 43
0.0000001
 44
0.0000000001
 40
0.0
 40
0.0
 40
0.0
 40
0.0
 40
0.2504124321
 40
0.5005300408
 40
0.7502704529
 40
1.0
 40
1.0
 40
1.0
 40
1.0
 10
147.1061122335
 20
295.7828857029
 30
0.0
 10
147.1021782443
 20
295.6802463537
 30
0.0
 10
147.0747509185
 20
295.4727129835
 30
0.0
 10
146.915194824
 20
295.2001179883
 30
0.0
 10
146.6643322959
 20
295.0068218622
 30
0.0
 10
146.4558173325
 20
294.9659176844
 30
0.0
 10
146.3533871841
 20
294.9649620813
 30
0.0
  0
SPLINE
  5
494
100
AcDbEntity
  8
0
100
AcDbSpline
 62
9
  6
CONTINUOUS
 70
0
 71
3
 72
11
 73
7
 74
0
 42
0.0000001
 43
0.0000001
 44
0.0000000001
 40
0.0
 40
0.0
 40
0.0
 40
0.0
 40
0.2461944894
 40
0.4931267928
 40
0.743653612
 40
1.0
 40
1.0
 40
1.0
 40
1.0
 10
126.7652364533
 20
308.8363584193
 30
0.0
 10
126.687978734
 20
308.838061749
 30
0.0
 10
126.5298162934
 20
308.8062381829
 30
0.0
 10
126.3406378474
 20
308.6562372575
 30
0.0
 10
126.2294252195
 20
308.4409982773
 30
0.0
 10
126.2078173839
 20
308.2801582654
 30
0.0
 10
126.209482255
 20
308.1997124795
 30
0.0
  0
SPLINE
  5
495
100
AcDbEntity
  8
0
100
AcDbSpline
 62
9
  6
CONTINUOUS
 70
0
 71
3
 72
11
 73
7
 74
0
 42
0.0000001
 43
0.0000001
 44
0.0000000001
 40
0.0
 40
0.0
 40
0.0
 40
0.0
 40
0.2494966626
 40
0.4995852706
 40
0.749812572
 40
1.0
 40
1.0
 40
1.0
 40
1.0
 10
130.409150683
 20
308.1997125802
 30
0.0
 10
130.4107786852
 20
308.2780140083
 30
0.0
 10
130.3906858931
 20
308.4365497625
 30
0.0
 10
130.2818034445
 20
308.6515121014
 30
0.0
 10
130.0925503607
 20
308.80513865
 30
0.0
 10
129.9319026824
 20
308.8380853087
 30
0.0
 10
129.8533861323
 20
308.8363745411
 30
0.0
  0
SPLINE
  5
496
100
AcDbEntity
  8
0
100
AcDbSpline
 62
9
  6
CONTINUOUS
 70
0
 71
3
 72
11
 73
7
 74
0
 42
0.0000001
 43
0.0000001
 44
0.0000000001
 40
0.0
 40
0.0
 40
0.0
 40
0.0
 40
0.2461944888
 40
0.4931267926
 40
0.7436536116
 40
1.0
 40
1.0
 40
1.0
 40
1.0
 10
129.8533863282
 20
295.1462397939
 30
0.0
 10
129.930644045
 20
295.1445364718
 30
0.0
 10
130.0888064773
 20
295.1763600517
 30
0.0
 10
130.2779849051
 20
295.3263609863
 30
0.0
 10
130.3891975186
 20
295.5415999652
 30
0.0
 10
130.4108053473
 20
295.7024399726
 30
0.0
 10
130.4091404748
 20
295.7828857561
 30
0.0
  0
SPLINE
  5
497
100
AcDbEntity
  8
0
100
AcDbSpline
 62
9
  6
CONTINUOUS
 70
0
 71
3
 72
11
 73
7
 74
0
 42
0.0000001
 43
0.0000001
 44
0.0000000001
 40
0.0
 40
0.0
 40
0.0
 40
0.0
 40
0.2497123345
 40
0.4994993748
 40
0.7496067841
 40
1.0
 40
1.0
 40
1.0
 40
1.0
 10
140.8533861436
 20
309.0176361328
 30
0.0
 10
140.9557721259
 20
309.0176293851
 30
0.0
 10
141.1635057471
 20
308.9735703059
 30
0.0
 10
141.4161447507
 20
308.7828988808
 30
0.0
 10
141.5725978648
 20
308.5094766476
 30
0.0
 10
141.6061187454
 20
308.3023777907
 30
0.0
 10
141.6061122335
 20
308.1997126364
 30
0.0
  0
SPLINE
  5
498
100
AcDbEntity
  8
0
100
AcDbSpline
 62
9
  6
CONTINUOUS
 70
0
 71
3
 72
11
 73
7
 74
0
 42
0.0000001
 43
0.0000001
 44
0.0000000001
 40
0.0
 40
0.0
 40
0.0
 40
0.0
 40
0.2504124324
 40
0.5005300422
 40
0.7502704479
 40
1.0
 40
1.0
 40
1.0
 40
1.0
 10
137.0125104968
 20
308.1997125114
 30
0.0
 10
137.016444497
 20
308.3023519437
 30
0.0
 10
137.0438718634
 20
308.509885486
 30
0.0
 10
137.2034282115
 20
308.7824806442
 30
0.0
 10
137.4542911661
 20
308.9757767088
 30
0.0
 10
137.6628063442
 20
309.0166805707
 30
0.0
 10
137.765236578
 20
309.0176361329
 30
0.0
  0
SPLINE
  5
499
100
AcDbEntity
  8
0
100
AcDbSpline
 62
9
  6
CONTINUOUS
 70
0
 71
3
 72
11
 73
7
 74
0
 42
0.0000001
 43
0.0000001
 44
0.0000000001
 40
0.0
 40
0.0
 40
0.0
 40
0.0
 40
0.2494966588
 40
0.4995852584
 40
0.7498125572
 40
1.0
 40
1.0
 40
1.0
 40
1.0
 10
126.2094720473
 20
295.7828856342
 30
0.0
 10
126.2078440448
 20
295.7045841928
 30
0.0
 10
126.2279368446
 20
295.5460484133
 30
0.0
 10
126.33681933
 20
295.3310860439
 30
0.0
 10
126.5260724854
 20
295.1774595083
 30
0.0
 10
126.6867202001
 20
295.1445128672
 30
0.0
 10
126.7652367691
 20
295.1462236465
 30
0.0
  0
SPLINE
  5
49A
100
AcDbEntity
  8
0
100
AcDbSpline
 62
9
  6
CONTINUOUS
 70
0
 71
3
 72
11
 73
7
 74
0
 42
0.0000001
 43
0.0000001
 44
0.0000000001
 40
0.0
 40
0.0
 40
0.0
 40
0.0
 40
0.2497123345
 40
0.4994993748
 40
0.7496067841
 40
1.0
 40
1.0
 40
1.0
 40
1.0
 10
137.7652365866
 20
294.9649620815
 30
0.0
 10
137.6628506044
 20
294.9649688292
 30
0.0
 10
137.4551169831
 20
295.0090279084
 30
0.0
 10
137.2024779796
 20
295.1996993335
 30
0.0
 10
137.0460248655
 20
295.4731215666
 30
0.0
 10
137.0125039849
 20
295.6802204234
 30
0.0
 10
137.0125104968
 20
295.7828855778
 30
0.0
  0
SPLINE
  5
49B
100
AcDbEntity
  8
0
100
AcDbSpline
 62
9
  6
CONTINUOUS
 70
0
 71
3
 72
11
 73
7
 74
0
 42
0.0000001
 43
0.0000001
 44
0.0000000001
 40
0.0
 40
0.0
 40
0.0
 40
0.0
 40
0.2504124321
 40
0.5005300408
 40
0.7502704529
 40
1.0
 40
1.0
 40
1.0
 40
1.0
 10
141.6061122335
 20
295.7828857029
 30
0.0
 10
141.6021782443
 20
295.6802463536
 30
0.0
 10
141.5747509185
 20
295.4727129835
 30
0.0
 10
141.415194824
 20
295.2001179883
 30
0.0
 10
141.1643322959
 20
295.0068218622
 30
0.0
 10
140.9558173325
 20
294.9659176844
 30
0.0
 10
140.8533871841
 20
294.9649620813
 30
0.0
  0
SPLINE
  5
49C
100
AcDbEntity
  8
0
100
AcDbSpline
 62
9
  6
CONTINUOUS
 70
0
 71
3
 72
11
 73
7
 74
0
 42
0.0000001
 43
0.0000001
 44
0.0000000001
 40
0.0
 40
0.0
 40
0.0
 40
0.0
 40
0.2497123345
 40
0.4994993748
 40
0.7496067841
 40
1.0
 40
1.0
 40
1.0
 40
1.0
 10
132.2652365866
 20
294.9649620815
 30
0.0
 10
132.1628506044
 20
294.9649688292
 30
0.0
 10
131.9551169831
 20
295.0090279084
 30
0.0
 10
131.7024779796
 20
295.1996993335
 30
0.0
 10
131.5460248655
 20
295.4731215666
 30
0.0
 10
131.5125039849
 20
295.6802204234
 30
0.0
 10
131.5125104968
 20
295.7828855778
 30
0.0
  0
SPLINE
  5
49D
100
AcDbEntity
  8
0
100
AcDbSpline
 62
9
  6
CONTINUOUS
 70
0
 71
3
 72
11
 73
7
 74
0
 42
0.0000001
 43
0.0000001
 44
0.0000000001
 40
0.0
 40
0.0
 40
0.0
 40
0.0
 40
0.2504124324
 40
0.5005300421
 40
0.7502704479
 40
1.0
 40
1.0
 40
1.0
 40
1.0
 10
136.1061122335
 20
295.7828857029
 30
0.0
 10
136.1021782334
 20
295.6802462719
 30
0.0
 10
136.0747508676
 20
295.4727127322
 30
0.0
 10
135.9151945236
 20
295.2001175763
 30
0.0
 10
135.6643315747
 20
295.0068215112
 30
0.0
 10
135.4558164001
 20
294.9659176453
 30
0.0
 10
135.3533861675
 20
294.9649620814
 30
0.0
  0
SPLINE
  5
49E
100
AcDbEntity
  8
0
100
AcDbSpline
 62
9
  6
CONTINUOUS
 70
0
 71
3
 72
11
 73
7
 74
0
 42
0.0000001
 43
0.0000001
 44
0.0000000001
 40
0.0
 40
0.0
 40
0.0
 40
0.0
 40
0.2497123345
 40
0.4994993748
 40
0.7496067841
 40
1.0
 40
1.0
 40
1.0
 40
1.0
 10
135.3533861436
 20
309.0176361328
 30
0.0
 10
135.4557721259
 20
309.0176293851
 30
0.0
 10
135.6635057471
 20
308.9735703059
 30
0.0
 10
135.9161447507
 20
308.7828988808
 30
0.0
 10
136.0725978648
 20
308.5094766476
 30
0.0
 10
136.1061187454
 20
308.3023777907
 30
0.0
 10
136.1061122335
 20
308.1997126364
 30
0.0
  0
ELLIPSE
  5
49F
100
AcDbEntity
  8
0
100
AcDbEllipse
 62
7
  6
CONTINUOUS
 10
143.8185673323
 20
297.1533258585
 30
0.0
 11
0.2371249641
 21
0.6270917034
 31
0.0
 40
0.8949521319
 41
-4.3126214947
 42
-3.1415926536
  0
ELLIPSE
  5
4A0
100
AcDbEntity
  8
0
100
AcDbEllipse
 62
7
  6
CONTINUOUS
 10
145.800055398
 20
297.1533258585
 30
0.0
 11
-0.2371249641
 21
0.6270917034
 31
0.0
 40
0.8949521319
 41
3.1415926536
 42
4.3126214949
  0
ELLIPSE
  5
4A1
100
AcDbEntity
  8
0
100
AcDbEllipse
 62
7
  6
CONTINUOUS
 10
151.300055398
 20
297.1533258585
 30
0.0
 11
-0.2371249641
 21
0.6270917034
 31
0.0
 40
0.8949521319
 41
3.1415926536
 42
4.3126214949
  0
ELLIPSE
  5
4A2
100
AcDbEntity
  8
0
100
AcDbEllipse
 62
7
  6
CONTINUOUS
 10
149.3185673323
 20
297.1533258585
 30
0.0
 11
0.2371249641
 21
0.6270917034
 31
0.0
 40
0.8949521319
 41
-4.3126214948
 42
-3.1415926536
  0
ELLIPSE
  5
4A3
100
AcDbEntity
  8
0
100
AcDbEllipse
 62
7
  6
CONTINUOUS
 10
138.3185673323
 20
297.1533258585
 30
0.0
 11
0.2371249641
 21
0.6270917034
 31
0.0
 40
0.8949521319
 41
-4.3126214948
 42
-3.1415926536
  0
ELLIPSE
  5
4A4
100
AcDbEntity
  8
0
100
AcDbEllipse
 62
7
  6
CONTINUOUS
 10
140.300055398
 20
297.1533258585
 30
0.0
 11
-0.2371249641
 21
0.6270917034
 31
0.0
 40
0.8949521319
 41
3.1415926536
 42
4.3126214949
  0
ELLIPSE
  5
4A5
100
AcDbEntity
  8
0
100
AcDbEllipse
 62
7
  6
CONTINUOUS
 10
132.8185673323
 20
297.1533258585
 30
0.0
 11
0.2371249641
 21
0.6270917034
 31
0.0
 40
0.8949521319
 41
-4.3126214947
 42
-3.1415926536
  0
ELLIPSE
  5
4A6
100
AcDbEntity
  8
0
100
AcDbEllipse
 62
7
  6
CONTINUOUS
 10
134.800055398
 20
297.1533258585
 30
0.0
 11
-0.2371249641
 21
0.6270917034
 31
0.0
 40
0.8949521319
 41
9.0984633994
 42
10.5958068021
  0
ELLIPSE
  5
4A7
100
AcDbEntity
  8
0
100
AcDbEllipse
 62
7
  6
CONTINUOUS
 10
121.8185673323
 20
297.1533258585
 30
0.0
 11
0.2371249641
 21
0.6270917034
 31
0.0
 40
0.8949521319
 41
-4.3126214947
 42
-3.1415926536
  0
ELLIPSE
  5
4A8
100
AcDbEntity
  8
0
100
AcDbEllipse
 62
7
  6
CONTINUOUS
 10
123.800055398
 20
297.1533258585
 30
0.0
 11
-0.2371249641
 21
0.6270917034
 31
0.0
 40
0.8949521319
 41
-3.4679072149
 42
-1.9705638123
  0
ELLIPSE
  5
4A9
100
AcDbEntity
  8
0
100
AcDbEllipse
 62
7
  6
CONTINUOUS
 10
127.3185673323
 20
297.1533258585
 30
0.0
 11
0.2371249641
 21
0.6270917034
 31
0.0
 40
0.8949521319
 41
-4.3126214947
 42
-3.1415926536
  0
ELLIPSE
  5
4AA
100
AcDbEntity
  8
0
100
AcDbEllipse
 62
7
  6
CONTINUOUS
 10
129.300055398
 20
297.1533258585
 30
0.0
 11
-0.2371249641
 21
0.6270917034
 31
0.0
 40
0.8949521319
 41
9.0984633992
 42
10.5958068021
  0
ELLIPSE
  5
4AB
100
AcDbEntity
  8
0
100
AcDbEllipse
 62
7
  6
CONTINUOUS
 10
145.800055398
 20
306.8292723558
 30
0.0
 11
-0.2371249641
 21
-0.6270917034
 31
0.0
 40
0.8949521319
 41
1.9705638123
 42
3.4679072154
  0
ELLIPSE
  5
4AC
100
AcDbEntity
  8
0
100
AcDbEllipse
 62
7
  6
CONTINUOUS
 10
143.8185673323
 20
306.8292723558
 30
0.0
 11
0.2371249641
 21
-0.6270917034
 31
0.0
 40
0.8949521319
 41
2.8152780918
 42
4.312621495
  0
ELLIPSE
  5
4AD
100
AcDbEntity
  8
0
100
AcDbEllipse
 62
7
  6
CONTINUOUS
 10
149.3185673323
 20
306.8292723558
 30
0.0
 11
0.2371249641
 21
-0.6270917034
 31
0.0
 40
0.8949521319
 41
2.8152780918
 42
4.312621495
  0
ELLIPSE
  5
4AE
100
AcDbEntity
  8
0
100
AcDbEllipse
 62
7
  6
CONTINUOUS
 10
151.300055398
 20
306.8292723558
 30
0.0
 11
-0.2371249641
 21
-0.6270917034
 31
0.0
 40
0.8949521319
 41
1.9705638123
 42
3.4679072154
  0
ELLIPSE
  5
4AF
100
AcDbEntity
  8
0
100
AcDbEllipse
 62
7
  6
CONTINUOUS
 10
138.3185673323
 20
306.8292723558
 30
0.0
 11
0.2371249641
 21
-0.6270917034
 31
0.0
 40
0.8949521319
 41
2.8152780918
 42
4.312621495
  0
ELLIPSE
  5
4B0
100
AcDbEntity
  8
0
100
AcDbEllipse
 62
7
  6
CONTINUOUS
 10
140.300055398
 20
306.8292723558
 30
0.0
 11
-0.2371249641
 21
-0.6270917034
 31
0.0
 40
0.8949521319
 41
1.9705638123
 42
3.4679072154
  0
ELLIPSE
  5
4B1
100
AcDbEntity
  8
0
100
AcDbEllipse
 62
7
  6
CONTINUOUS
 10
134.800055398
 20
306.8292723558
 30
0.0
 11
-0.2371249641
 21
-0.6270917034
 31
0.0
 40
0.8949521319
 41
1.9705638124
 42
3.4679072154
  0
ELLIPSE
  5
4B2
100
AcDbEntity
  8
0
100
AcDbEllipse
 62
7
  6
CONTINUOUS
 10
132.8185673323
 20
306.8292723558
 30
0.0
 11
0.2371249641
 21
-0.6270917034
 31
0.0
 40
0.8949521319
 41
2.8152780918
 42
4.312621495
  0
ELLIPSE
  5
4B3
100
AcDbEntity
  8
0
100
AcDbEllipse
 62
7
  6
CONTINUOUS
 10
121.8185673323
 20
306.8292723558
 30
0.0
 11
0.2371249641
 21
-0.6270917034
 31
0.0
 40
0.8949521319
 41
2.8152780918
 42
4.3126214949
  0
ELLIPSE
  5
4B4
100
AcDbEntity
  8
0
100
AcDbEllipse
 62
7
  6
CONTINUOUS
 10
123.800055398
 20
306.8292723558
 30
0.0
 11
-0.2371249641
 21
-0.6270917034
 31
0.0
 40
0.8949521319
 41
1.9705638123
 42
3.4679072154
  0
ELLIPSE
  5
4B5
100
AcDbEntity
  8
0
100
AcDbEllipse
 62
7
  6
CONTINUOUS
 10
129.300055398
 20
306.8292723558
 30
0.0
 11
-0.2371249641
 21
-0.6270917034
 31
0.0
 40
0.8949521319
 41
1.9705638124
 42
3.4679072154
  0
ELLIPSE
  5
4B6
100
AcDbEntity
  8
0
100
AcDbEllipse
 62
7
  6
CONTINUOUS
 10
127.3185673323
 20
306.8292723558
 30
0.0
 11
0.2371249641
 21
-0.6270917034
 31
0.0
 40
0.8949521319
 41
2.8152780918
 42
4.312621495
  0
ENDSEC
  0
SECTION
  2
OBJECTS
  0
DICTIONARY
  5
C
100
AcDbDictionary
280
0
281
1
  3
ACAD_GROUP
350
D
  3
ACAD_MLINESTYLE
350
17
  3
ACAD_LAYOUT
350
1A
  3
ACAD_PLOTSETTINGS
350
19
  3
ACAD_PLOTSTYLENAME
350
E
  0
DICTIONARY
  5
D
102
{ACAD_REACTORS
330
C
102
}
100
AcDbDictionary
280
0
281
1
  0
ACDBDICTIONARYWDFLT
  5
E
102
{ACAD_REACTORS
330
C
102
}
100
AcDbDictionary
281
1
  3
Normal
350
F
100
AcDbDictionaryWithDefault
340
F
  0
DICTIONARY
  5
17
102
{ACAD_REACTORS
330
C
102
}
100
AcDbDictionary
280
0
281
1
  3
Standard
350
18
  0
DICTIONARY
  5
19
102
{ACAD_REACTORS
330
C
102
}
100
AcDbDictionary
281
1
  0
DICTIONARY
  5
1A
102
{ACAD_REACTORS
330
C
102
}
100
AcDbDictionary
281
1
  3
Model
350
4B7
  3
Layout1
350
4B8
  0
ACDBPLACEHOLDER
  5
F
102
{ACAD_REACTORS
330
E
102
}
  0
MLINESTYLE
  5
18
102
{ACAD_REACTORS
330
17
102
}
100
AcDbMlineStyle
  2
STANDARD
 70
0
  3

 62
256
 51
90.0
 52
90.0
 71
2
 49
0.5
 62
256
  6
BYLAYER
 49
-0.5
 62
256
  6
BYLAYER
  0
LAYOUT
  5
4B7
102
{ACAD_REACTORS
330
1A
102
}
100
AcDbPlotSettings
  1

  2
none_device
  4
ANSI_C_(22.00_x_17.00_Inches)
  6

 40
0.0
 41
0.0
 42
0.0
 43
0.0
 44
558.8
 45
431.8
 46
0.0
 47
0.0
 48
0.0
 49
0.0
140
0.0
141
0.0
142
1.0
143
1.0
 70
1024
 72
1
 73
0
 74
0
  7

 75
0
147
1.0
148
0.0
149
0.0
100
AcDbLayout
  1
Model
 70
0
 71
0
 10
0.0
 20
0.0
 11
558.8
 21
431.8
 12
0.0
 22
0.0
 32
0.0
 14
0.0
 24
0.0
 34
0.0
 15
0.0
 25
0.0
 35
0.0
146
0.0
 13
0.0
 23
0.0
 33
0.0
 16
1.0
 26
0.0
 36
0.0
 17
0.0
 27
1.0
 37
0.0
 76
0
330
217
345
0
346
0
  0
LAYOUT
  5
4B8
102
{ACAD_REACTORS
330
1A
102
}
100
AcDbPlotSettings
  1

  2
none_device
  4
ANSI_C_(22.00_x_17.00_Inches)
  6

 40
0.0
 41
0.0
 42
0.0
 43
0.0
 44
558.8
 45
431.8
 46
0.0
 47
0.0
 48
0.0
 49
0.0
140
0.0
141
0.0
142
1.0
143
1.0
 70
0
 72
1
 73
0
 74
0
  7

 75
0
147
1.0
148
0.0
149
0.0
100
AcDbLayout
  1
Layout1
 70
0
 71
1
 10
0.0
 20
0.0
 11
558.8
 21
431.8
 12
0.0
 22
0.0
 32
0.0
 14
0.0
 24
0.0
 34
0.0
 15
0.0
 25
0.0
 35
0.0
146
0.0
 13
0.0
 23
0.0
 33
0.0
 16
1.0
 26
0.0
 36
0.0
 17
0.0
 27
1.0
 37
0.0
 76
0
330
218
345
0
346
0
  0
ENDSEC
  0
EOF
