999
DXF file: C:\Users\sesa63760\Dev\_Creo\CAD\MCADID0002815_3D-CAD\drw0001_2.dxf
999
Pro/ENGINEER 2019471 by Parametric Technology Corporation
  0
SECTION
  2
HEADER
  9
$ACADVER
  1
AC1024
  9
$DWGCODEPAGE
  3
ANSI_1252
  9
$EXTMAX
 10
43.4201491837
 20
61.4084967027
 30
0.0
  9
$EXTMIN
 10
0.0
 20
0.0
 30
0.0
  9
$LIMMIN
 10
0.0
 20
0.0
  9
$LIMMAX
 10
43.4201491837
 20
61.4084967027
  9
$VIEWCTR
 10
21.7100745919
 20
30.7042483514
  9
$VIEWSIZE
 40
61.4084967027
  9
$CLAYER
  8
0
  9
$LTSCALE
 40
4.0029242295
  9
$CELTYPE
  6
BYLAYER
  9
$DIMSCALE
 40
1.0
  9
$DIMASZ
 40
0.5169065379
  9
$DIMEXO
 40
1.0
  9
$DIMDLI
 40
2.7656567404
  9
$DIMEXE
 40
1.0
  9
$DIMCEN
 40
0.6550239648
  9
$DIMLFAC
 40
1.0
  9
$DIMBLK
  1
_FILLED
  9
$DIMALT
 70
0
  9
$DIMALTF
 40
0.0393700787
  9
$DIMTXT
 40
0.7236691531
  9
$DIMTOL
 70
1
  9
$DIMLIM
 70
0
  9
$DIMTFAC
 40
1.0
  9
$DIMTP
 40
0.01
  9
$DIMTM
 40
0.01
  9
$DIMGAP
 40
0.625
  9
$DIMDSEP
 70
46
  9
$AUNITS
 70
0
  9
$PDMODE
 70
3
  9
$PDSIZE
 40
0.3125
  9
$HANDSEED
  5
25B
  9
$TILEMODE
 70
1
  9
$MEASUREMENT
 70
1
  9
$INSUNITS
 70
4
  0
ENDSEC
  0
SECTION
  2
CLASSES
  0
CLASS
  1
ACDBDICTIONARYWDFLT
  2
AcDbDictionaryWithDefault
  3
AutoCAD 2000
 90
0
 91
1
280
0
281
0
  0
CLASS
  1
ACDBPLACEHOLDER
  2
AcDbPlaceHolder
  3
AutoCAD 2000
 90
0
 91
1
280
0
281
0
  0
CLASS
  1
LAYOUT
  2
AcDbLayout
  3
AutoCAD 2000
 90
0
 91
0
280
0
281
0
  0
ENDSEC
  0
SECTION
  2
TABLES
  0
TABLE
  2
VPORT
  5
8
100
AcDbSymbolTable
 70
2
  0
VPORT
  5
1F4
100
AcDbSymbolTableRecord
100
AcDbViewportTableRecord
  2
*ACTIVE
 70
0
 10
0.0
 20
0.0
 11
1.0
 21
1.0
 12
21.7100745919
 22
30.7042483514
 13
0.0
 23
0.0
 14
1.0
 24
1.0
 15
0.0
 25
0.0
 16
0.0
 26
0.0
 36
1.0
 17
0.0
 27
0.0
 37
0.0
 40
61.4084967027
 41
0.7070707071
 42
50.0
 43
0.0
 44
0.0
 50
0.0
 51
0.0
 71
0
 72
100
 73
1
 74
1
 75
0
 76
0
 77
0
 78
0
  0
ENDTAB
  0
TABLE
  2
LTYPE
  5
5
100
AcDbSymbolTable
 70
6
  0
LTYPE
  5
14
100
AcDbSymbolTableRecord
100
AcDbLinetypeTableRecord
  2
BYBLOCK
 70
0
  3

 72
65
 73
0
 40
0.0
  0
LTYPE
  5
15
100
AcDbSymbolTableRecord
100
AcDbLinetypeTableRecord
  2
BYLAYER
 70
0
  3

 72
65
 73
0
 40
0.0
  0
LTYPE
  5
16
100
AcDbSymbolTableRecord
100
AcDbLinetypeTableRecord
  2
CONTINUOUS
 70
64
  3
Solid line
 72
65
 73
0
 40
0.0
  0
LTYPE
  5
1F5
100
AcDbSymbolTableRecord
100
AcDbLinetypeTableRecord
  2
CENTER
 70
64
  3
____ _ ____ _ ____ _ ____ _ ____ _ ____ _ ____
 72
65
 73
4
 40
0.6
 49
0.375
 74
0
 49
-0.075
 74
0
 49
0.075
 74
0
 49
-0.075
 74
0
  0
LTYPE
  5
1F6
100
AcDbSymbolTableRecord
100
AcDbLinetypeTableRecord
  2
HIDDEN
 70
64
  3
- - - - - - - - - - - - - - - - - - - -
 72
65
 73
2
 40
0.2
 49
0.1
 74
0
 49
-0.1
 74
0
  0
LTYPE
  5
1F7
100
AcDbSymbolTableRecord
100
AcDbLinetypeTableRecord
  2
PHANTOM
 70
64
  3
_____ _ _ _____ _ _ _____ _ _ _____
 72
65
 73
6
 40
0.8
 49
0.45
 74
0
 49
-0.05
 74
0
 49
0.1
 74
0
 49
-0.05
 74
0
 49
0.1
 74
0
 49
-0.05
 74
0
  0
LTYPE
  5
1F8
100
AcDbSymbolTableRecord
100
AcDbLinetypeTableRecord
  2
DOT
 70
64
  3
. . . . . . . . . . . . . . . . . . . .
 72
65
 73
2
 40
0.2
 49
0.1
 74
0
 49
-0.1
 74
0
  0
LTYPE
  5
1F9
100
AcDbSymbolTableRecord
100
AcDbLinetypeTableRecord
  2
DASHED
 70
64
  3
- - - - - - - - - - - - - - - - - - - -
 72
65
 73
2
 40
0.2
 49
0.1
 74
0
 49
-0.1
 74
0
  0
ENDTAB
  0
TABLE
  2
LAYER
  5
2
100
AcDbSymbolTable
 70
36
  0
LAYER
  5
10
100
AcDbSymbolTableRecord
100
AcDbLayerTableRecord
  2
0
 70
0
 62
7
  6
CONTINUOUS
370
-3
390
F
  0
LAYER
  5
1FA
100
AcDbSymbolTableRecord
100
AcDbLayerTableRecord
  2
DEFAULT_1
 70
0
 62
7
  6
CENTER
370
-3
390
F
  0
LAYER
  5
1FB
100
AcDbSymbolTableRecord
100
AcDbLayerTableRecord
  2
DEFAULT_2
 70
0
 62
7
  6
HIDDEN
370
-3
390
F
  0
LAYER
  5
1FC
100
AcDbSymbolTableRecord
100
AcDbLayerTableRecord
  2
DEFAULT_3
 70
0
 62
7
  6
PHANTOM
370
-3
390
F
  0
LAYER
  5
1FD
100
AcDbSymbolTableRecord
100
AcDbLayerTableRecord
  2
00_COMPONENTS
 70
0
 62
7
  6
CONTINUOUS
370
-3
390
F
  0
LAYER
  5
1FE
100
AcDbSymbolTableRecord
100
AcDbLayerTableRecord
  2
01_1_DEFAULT_DATUMS
 70
0
 62
7
  6
CONTINUOUS
370
-3
390
F
  0
LAYER
  5
1FF
100
AcDbSymbolTableRecord
100
AcDbLayerTableRecord
  2
01_PLANES
 70
0
 62
7
  6
CONTINUOUS
370
-3
390
F
  0
LAYER
  5
200
100
AcDbSymbolTableRecord
100
AcDbLayerTableRecord
  2
02_COORD_SYS
 70
0
 62
7
  6
CONTINUOUS
370
-3
390
F
  0
LAYER
  5
201
100
AcDbSymbolTableRecord
100
AcDbLayerTableRecord
  2
03_AXES
 70
0
 62
7
  6
CONTINUOUS
370
-3
390
F
  0
LAYER
  5
202
100
AcDbSymbolTableRecord
100
AcDbLayerTableRecord
  2
04_POINTS
 70
0
 62
7
  6
CONTINUOUS
370
-3
390
F
  0
LAYER
  5
203
100
AcDbSymbolTableRecord
100
AcDbLayerTableRecord
  2
05_CURVES
 70
0
 62
7
  6
CONTINUOUS
370
-3
390
F
  0
LAYER
  5
204
100
AcDbSymbolTableRecord
100
AcDbLayerTableRecord
  2
06_SURFS
 70
0
 62
7
  6
CONTINUOUS
370
-3
390
F
  0
LAYER
  5
205
100
AcDbSymbolTableRecord
100
AcDbLayerTableRecord
  2
07_COSMETICS
 70
0
 62
7
  6
CONTINUOUS
370
-3
390
F
  0
LAYER
  5
206
100
AcDbSymbolTableRecord
100
AcDbLayerTableRecord
  2
10_NOTES
 70
0
 62
7
  6
CONTINUOUS
370
-3
390
F
  0
LAYER
  5
207
100
AcDbSymbolTableRecord
100
AcDbLayerTableRecord
  2
11_NOTES_PUB
 70
0
 62
7
  6
CONTINUOUS
370
-3
390
F
  0
LAYER
  5
208
100
AcDbSymbolTableRecord
100
AcDbLayerTableRecord
  2
13_REF_GTOL
 70
0
 62
7
  6
CONTINUOUS
370
-3
390
F
  0
LAYER
  5
209
100
AcDbSymbolTableRecord
100
AcDbLayerTableRecord
  2
16_MISC
 70
0
 62
7
  6
CONTINUOUS
370
-3
390
F
  0
LAYER
  5
20A
100
AcDbSymbolTableRecord
100
AcDbLayerTableRecord
  2
17_NO_PRINT
 70
0
 62
7
  6
CONTINUOUS
370
-3
390
F
  0
LAYER
  5
20B
100
AcDbSymbolTableRecord
100
AcDbLayerTableRecord
  2
18_DATUM_CAMS_JOINTS
 70
0
 62
7
  6
CONTINUOUS
370
-3
390
F
  0
LAYER
  5
20C
100
AcDbSymbolTableRecord
100
AcDbLayerTableRecord
  2
19_DATUM_FUNCTIONAL
 70
0
 62
7
  6
CONTINUOUS
370
-3
390
F
  0
LAYER
  5
20D
100
AcDbSymbolTableRecord
100
AcDbLayerTableRecord
  2
20_DATUM_KINEMATIC_SCHEME
 70
0
 62
7
  6
CONTINUOUS
370
-3
390
F
  0
ENDTAB
  0
TABLE
  2
STYLE
  5
3
100
AcDbSymbolTable
 70
1
  0
STYLE
  5
11
100
AcDbSymbolTableRecord
100
AcDbTextStyleTableRecord
  2
STANDARD
 70
0
 40
0.0
 41
1.0
 50
0.0
 71
0
 42
0.2
  3
ARIAL.TTF
  4

  0
STYLE
  5
20E
100
AcDbSymbolTableRecord
100
AcDbTextStyleTableRecord
  2
TEXTSTYLE_1
 70
0
 40
0.0
 41
0.8
 50
0.0
 71
0
 42
0.2
  3
gdt
  4

  0
ENDTAB
  0
TABLE
  2
VIEW
  5
6
100
AcDbSymbolTable
 70
0
  0
ENDTAB
  0
TABLE
  2
UCS
  5
7
100
AcDbSymbolTable
 70
0
  0
ENDTAB
  0
TABLE
  2
APPID
  5
9
100
AcDbSymbolTable
 70
1
  0
APPID
  5
20F
100
AcDbSymbolTableRecord
100
AcDbRegAppTableRecord
  2
ACAD
 70
0
  0
ENDTAB
  0
TABLE
  2
BLOCK_RECORD
  5
1
100
AcDbSymbolTable
 70
0
  0
BLOCK_RECORD
  5
210
100
AcDbSymbolTableRecord
100
AcDbBlockTableRecord
  2
*Model_Space
  0
BLOCK_RECORD
  5
211
100
AcDbSymbolTableRecord
100
AcDbBlockTableRecord
  2
*Paper_Space
  0
BLOCK_RECORD
  5
212
100
AcDbSymbolTableRecord
100
AcDbBlockTableRecord
  2
_FILLED
  0
ENDTAB
  0
TABLE
  2
DIMSTYLE
  5
A
100
AcDbSymbolTable
 70
1
100
AcDbDimStyleTable
 71
0
  0
DIMSTYLE
105
213
100
AcDbSymbolTableRecord
100
AcDbDimStyleTableRecord
  2
STANDARD
 70
0
  3

  4

 40
1.0
 41
0.5169065379
 42
1.0
 43
0.38
 44
1.0
 45
0.0
 46
0.0
 47
0.01
 48
0.01
140
0.7236691531
141
0.09
142
0.0
143
25.4
144
1.0
145
0.0
146
1.0
147
0.625
 71
1
 72
0
 73
0
 74
0
 75
0
 76
0
 77
1
 78
8
 79
2
170
0
171
1
172
0
173
0
174
0
175
0
176
0
177
0
178
0
270
2
179
2
271
2
272
2
273
2
274
2
275
0
280
0
281
0
282
0
283
1
284
8
285
0
286
0
287
3
288
0
340
11
278
46
341
212
342
212
343
212
344
212
  0
ENDTAB
  0
ENDSEC
  0
SECTION
  2
BLOCKS
  0
BLOCK
  5
20
100
AcDbEntity
  8
0
100
AcDbBlockBegin
  2
*Model_Space
 70
0
 10
0.0
 20
0.0
 30
0.0
  3
*Model_Space
  1

  0
ENDBLK
  5
21
100
AcDbEntity
  8
0
100
AcDbBlockEnd
  0
BLOCK
  5
1C
100
AcDbEntity
  8
0
100
AcDbBlockBegin
  2
*Paper_Space
 70
0
 10
0.0
 20
0.0
 30
0.0
  3
*Paper_Space
  1

  0
ENDBLK
  5
1D
100
AcDbEntity
  8
0
100
AcDbBlockEnd
  0
BLOCK
  5
214
100
AcDbEntity
  8
0
100
AcDbBlockBegin
  2
_FILLED
 70
64
 10
0.0
 20
0.0
  3
_FILLED
  1

  0
SOLID
  5
215
100
AcDbEntity
  8
0
  6
BYBLOCK
 62
0
100
AcDbTrace
 10
0.0
 20
0.0
 11
-1.0
 21
0.25
 12
-1.0
 22
-0.25
 13
-1.0
 23
-0.25
  0
ENDBLK
  5
216
100
AcDbEntity
  8
0
  6
BYBLOCK
 62
0
100
AcDbBlockEnd
  0
ENDSEC
  0
SECTION
  2
ENTITIES
  0
LINE
  5
217
100
AcDbEntity
  8
0
100
AcDbLine
 62
7
  6
BYLAYER
 10
4.7607281865
 20
27.0473819713
 11
4.7607281865
 21
15.9413127307
  0
LWPOLYLINE
  5
218
100
AcDbEntity
  8
0
100
AcDbPolyline
 62
7
  6
BYLAYER
 90
4
 70
0
 10
7.8860452864
 20
42.7447710502
 10
7.4347428502
 20
42.4648716584
 10
7.2806774795
 20
42.2456127568
 10
7.1688816233
 20
41.8116788356
  0
LINE
  5
219
100
AcDbEntity
  8
0
100
AcDbLine
 62
7
  6
BYLAYER
 10
7.1688816102
 20
41.811678836
 11
6.864949188
 21
30.2049679047
  0
LINE
  5
21A
100
AcDbEntity
  8
0
100
AcDbLine
 62
7
  6
BYLAYER
 10
8.010728122
 20
43.301926888
 11
7.9923606636
 21
42.775951723
  0
LINE
  5
21B
100
AcDbEntity
  8
0
100
AcDbLine
 62
7
  6
BYLAYER
 10
39.2607186067
 20
15.9413127307
 11
4.7607377663
 21
15.9413127307
  0
LINE
  5
21C
100
AcDbEntity
  8
0
100
AcDbLine
 62
7
  6
BYLAYER
 10
9.2605615023
 20
43.1283214234
 11
9.2606448443
 21
43.6452820481
  0
LINE
  5
21D
100
AcDbEntity
  8
0
100
AcDbLine
 62
7
  6
BYLAYER
 10
4.7607281865
 20
27.0473819856
 11
39.2607281865
 21
27.0473819856
  0
LINE
  5
21E
100
AcDbEntity
  8
0
100
AcDbLine
 62
7
  6
BYLAYER
 10
20.0281781302
 20
44.7419922225
 11
20.0107281865
 21
45.2416932287
  0
LINE
  5
21F
100
AcDbEntity
  8
0
100
AcDbLine
 62
7
  6
BYLAYER
 10
38.3586256515
 20
28.4230703885
 11
37.9854828783
 21
28.4230703885
  0
LINE
  5
220
100
AcDbEntity
  8
0
100
AcDbLine
 62
7
  6
BYLAYER
 10
6.0359734978
 20
28.4230703885
 11
5.6628307215
 21
28.4230703885
  0
LINE
  5
221
100
AcDbEntity
  8
0
100
AcDbLine
 62
7
  6
BYLAYER
 10
6.7734558492
 20
28.4864026211
 11
37.2480005236
 21
28.486402621
  0
LINE
  5
222
100
AcDbEntity
  8
0
100
AcDbLine
 62
7
  6
BYLAYER
 10
33.9761039234
 20
29.0430776598
 11
10.0453524496
 21
29.0430776598
  0
LINE
  5
223
100
AcDbEntity
  8
0
100
AcDbLine
 62
7
  6
BYLAYER
 10
13.1733936429
 20
29.2975466686
 11
30.8477943002
 21
29.2975466689
  0
LINE
  5
224
100
AcDbEntity
  8
0
100
AcDbLine
 62
7
  6
BYLAYER
 10
37.1565071853
 20
30.2049678919
 11
36.8108015743
 21
30.2049678919
  0
LINE
  5
225
100
AcDbEntity
  8
0
100
AcDbLine
 62
7
  6
BYLAYER
 10
7.2106547986
 20
30.2049678919
 11
6.8649491877
 21
30.2049678919
  0
LINE
  5
226
100
AcDbEntity
  8
0
100
AcDbLine
 62
7
  6
BYLAYER
 10
36.8525747628
 20
41.811678836
 11
37.156507185
 21
30.2049679047
  0
LINE
  5
227
100
AcDbEntity
  8
0
100
AcDbLine
 62
7
  6
BYLAYER
 10
7.440007229
 20
41.885452475
 11
7.1688725251
 21
41.8116783797
  0
LINE
  5
228
100
AcDbEntity
  8
0
100
AcDbLine
 62
7
  6
BYLAYER
 10
36.8525718512
 20
41.8117900277
 11
36.5814491611
 21
41.8854516137
  0
LINE
  5
229
100
AcDbEntity
  8
0
100
AcDbLine
 62
7
  6
BYLAYER
 10
39.2607281865
 20
27.0473819713
 11
39.2607281865
 21
15.9413127307
  0
LWPOLYLINE
  5
22A
100
AcDbEntity
  8
0
100
AcDbPolyline
 62
7
  6
BYLAYER
 90
4
 70
0
 10
36.8525747497
 20
41.8116788356
 10
36.7407788756
 20
42.2456127913
 10
36.5867134794
 20
42.4648717053
 10
36.1354110866
 20
42.7447710502
  0
ARC
  5
22B
100
AcDbEntity
  8
0
100
AcDbCircle
 62
7
  6
BYLAYER
 10
22.0137774853
 20
198.0040598427
 40
166.9731830114
100
AcDbArc
 50
269.9989536526
 51
272.6971030427
  0
ARC
  5
22C
100
AcDbEntity
  8
0
100
AcDbCircle
 62
7
  6
BYLAYER
 10
21.9977236886
 20
197.5807247877
 40
166.5498484363
100
AcDbArc
 50
267.2994766856
 51
270.0044737528
  0
ARC
  5
22D
100
AcDbEntity
  8
0
100
AcDbCircle
 62
7
  6
BYLAYER
 10
22.0107281865
 20
-5.2186872693
 40
50.5
100
AcDbArc
 50
92.2697333828
 51
106.0948144258
  0
ARC
  5
22E
100
AcDbEntity
  8
0
100
AcDbCircle
 62
7
  6
BYLAYER
 10
22.0107281865
 20
-5.2186872693
 40
50.0
100
AcDbArc
 50
73.5910863446
 51
106.4089136314
  0
ARC
  5
22F
100
AcDbEntity
  8
0
100
AcDbCircle
 62
7
  6
BYLAYER
 10
22.0125286177
 20
-3.990527474
 40
47.7980296044
100
AcDbArc
 50
90.0021581875
 51
104.2089719858
  0
ARC
  5
230
100
AcDbEntity
  8
0
100
AcDbCircle
 62
7
  6
BYLAYER
 10
22.0089316578
 20
-3.9904774255
 40
47.7979789858
100
AcDbArc
 50
75.791017909
 51
89.9978464882
  0
ARC
  5
231
100
AcDbEntity
  8
0
100
AcDbCircle
 62
7
  6
BYLAYER
 10
29.2293125485
 20
-0.8079405561
 40
30.2260695817
100
AcDbArc
 50
80.9646994996
 51
82.064230754
  0
ARC
  5
232
100
AcDbEntity
  8
0
100
AcDbCircle
 62
7
  6
BYLAYER
 10
14.6012562024
 20
0.4713348262
 40
28.9326934029
100
AcDbArc
 50
97.9111358796
 51
99.0598207261
  0
ARC
  5
233
100
AcDbEntity
  8
0
100
AcDbCircle
 62
7
  6
BYLAYER
 10
13.2178163105
 20
19.5781280296
 40
11.9034550891
100
AcDbArc
 50
105.4072240589
 51
107.1817687147
  0
ARC
  5
234
100
AcDbEntity
  8
0
100
AcDbCircle
 62
7
  6
BYLAYER
 10
30.9504777456
 20
20.0804531396
 40
11.3801688816
100
AcDbArc
 50
72.777428994
 51
74.6335774264
  0
ARC
  5
235
100
AcDbEntity
  8
0
100
AcDbCircle
 62
7
  6
BYLAYER
 10
4.8656345381
 20
30.2573218013
 40
2.0
100
AcDbArc
 50
293.4905734767
 51
358.4999996332
  0
ARC
  5
236
100
AcDbEntity
  8
0
100
AcDbCircle
 62
7
  6
BYLAYER
 10
39.1558218349
 20
30.2573218013
 40
2.0
100
AcDbArc
 50
181.5000003668
 51
246.5094265233
  0
ARC
  5
237
100
AcDbEntity
  8
0
100
AcDbCircle
 62
7
  6
BYLAYER
 10
6.2607281865
 20
27.0473819713
 40
1.5
100
AcDbArc
 50
113.4905734767
 51
180.0
  0
ARC
  5
238
100
AcDbEntity
  8
0
100
AcDbCircle
 62
7
  6
BYLAYER
 10
37.7607281865
 20
27.0473819713
 40
1.5
100
AcDbArc
 50
0.0
 51
66.5094265233
  0
SPLINE
  5
239
100
AcDbEntity
  8
0
100
AcDbSpline
 62
7
  6
BYLAYER
 70
0
 71
3
 72
15
 73
11
 74
0
 42
0.0000001
 43
0.0000001
 44
0.0000000001
 40
0.0
 40
0.0
 40
0.0
 40
0.0
 40
0.1306896867
 40
0.2645886002
 40
0.3990999149
 40
0.531251868
 40
0.658591065
 40
0.7795127813
 40
0.8931694489
 40
1.0
 40
1.0
 40
1.0
 40
1.0
 10
7.7587074644
 20
30.3355976058
 30
0.0
 10
7.762897783
 20
30.2384127662
 30
0.0
 10
7.7603107706
 20
30.0410059984
 30
0.0
 10
7.7218305872
 20
29.7457066108
 30
0.0
 10
7.644891836
 20
29.4567324796
 30
0.0
 10
7.5306076983
 20
29.1854531497
 30
0.0
 10
7.3797954537
 20
28.9443141807
 30
0.0
 10
7.1996602317
 20
28.7420211805
 30
0.0
 10
6.9965166808
 20
28.5868187251
 30
0.0
 10
6.8480880142
 20
28.5138503437
 30
0.0
 10
6.773452159
 20
28.4864217801
 30
0.0
  0
SPLINE
  5
23A
100
AcDbEntity
  8
0
100
AcDbSpline
 62
7
  6
BYLAYER
 70
0
 71
3
 72
11
 73
7
 74
0
 42
0.0000001
 43
0.0000001
 44
0.0000000001
 40
0.0
 40
0.0
 40
0.0
 40
0.0
 40
0.1753139138
 40
0.4008464021
 40
0.6760419325
 40
1.0
 40
1.0
 40
1.0
 40
1.0
 10
37.9854828783
 20
28.4230703885
 30
0.0
 10
37.9422138762
 20
28.4230769153
 30
0.0
 10
37.8433040518
 20
28.427495693
 30
0.0
 10
37.6770403513
 20
28.4415508652
 30
0.0
 10
37.4745819015
 20
28.4625838506
 30
0.0
 10
37.3275440235
 20
28.4782944986
 30
0.0
 10
37.2480005232
 20
28.4864026211
 30
0.0
  0
SPLINE
  5
23B
100
AcDbEntity
  8
0
100
AcDbSpline
 62
7
  6
BYLAYER
 70
0
 71
3
 72
12
 73
8
 74
0
 42
0.0000001
 43
0.0000001
 44
0.0000000001
 40
0.0
 40
0.0
 40
0.0
 40
0.0
 40
0.2500002037
 40
0.4374999674
 40
0.6250000574
 40
0.8124995692
 40
1.0
 40
1.0
 40
1.0
 40
1.0
 10
33.9657450997
 20
31.0538646358
 30
0.0
 10
33.9475032939
 20
31.9948126048
 30
0.0
 10
33.9145480025
 20
33.6414499057
 30
0.0
 10
33.8676720988
 20
35.9937930932
 30
0.0
 10
33.8259274689
 20
38.1109082516
 30
0.0
 10
33.7835141867
 20
40.2280125735
 30
0.0
 10
33.7554998677
 20
41.6394204654
 30
0.0
 10
33.741811127
 20
42.345132346
 30
0.0
  0
SPLINE
  5
23C
100
AcDbEntity
  8
0
100
AcDbSpline
 62
7
  6
BYLAYER
 70
0
 71
3
 72
11
 73
7
 74
0
 42
0.0000001
 43
0.0000001
 44
0.0000000001
 40
0.0
 40
0.0
 40
0.0
 40
0.0
 40
0.3238956769
 40
0.5991441643
 40
0.8247338893
 40
1.0
 40
1.0
 40
1.0
 40
1.0
 10
6.7734558499
 20
28.4864026211
 30
0.0
 10
6.6939276058
 20
28.4782962157
 30
0.0
 10
6.546889595
 20
28.4626069617
 30
0.0
 10
6.344421582
 20
28.4415560668
 30
0.0
 10
6.1781437532
 20
28.4274707415
 30
0.0
 10
6.0792307255
 20
28.4230834656
 30
0.0
 10
6.0359734978
 20
28.4230703885
 30
0.0
  0
SPLINE
  5
23D
100
AcDbEntity
  8
0
100
AcDbSpline
 62
7
  6
BYLAYER
 70
0
 71
3
 72
12
 73
8
 74
0
 42
0.0000001
 43
0.0000001
 44
0.0000000001
 40
0.0
 40
0.0
 40
0.0
 40
0.0
 40
0.2500002383
 40
0.4374999347
 40
0.6250000389
 40
0.8124996283
 40
1.0
 40
1.0
 40
1.0
 40
1.0
 10
10.2796450823
 20
42.3451323174
 30
0.0
 10
10.2613935819
 20
41.4041842158
 30
0.0
 10
10.2284413669
 20
39.7575466494
 30
0.0
 10
10.1815737611
 20
37.4052028889
 30
0.0
 10
10.139827794
 20
35.288087236
 30
0.0
 10
10.0974052652
 20
33.1709825488
 30
0.0
 10
10.0693931478
 20
31.7595742541
 30
0.0
 10
10.0557118744
 20
31.0538623087
 30
0.0
  0
SPLINE
  5
23E
100
AcDbEntity
  8
0
100
AcDbSpline
 62
7
  6
BYLAYER
 70
0
 71
3
 72
18
 73
14
 74
0
 42
0.0000001
 43
0.0000001
 44
0.0000000001
 40
0.0
 40
0.0
 40
0.0
 40
0.0
 40
0.1658564372
 40
0.334991722
 40
0.4998812797
 40
0.6518611088
 40
0.7825731515
 40
0.8379043033
 40
0.8857705299
 40
0.9258619047
 40
0.958052822
 40
0.9825419778
 40
1.0
 40
1.0
 40
1.0
 40
1.0
 10
14.1501483799
 20
31.2158489714
 30
0.0
 10
14.1452988233
 20
31.1089062984
 30
0.0
 10
14.1372776012
 20
30.8928224555
 30
0.0
 10
14.1306730098
 20
30.570224161
 30
0.0
 10
14.1304113908
 20
30.2565043921
 30
0.0
 10
14.1370460616
 20
29.9676606854
 30
0.0
 10
14.1487205765
 20
29.7497315685
 30
0.0
 10
14.1621975398
 20
29.5993417182
 30
0.0
 10
14.1731892425
 20
29.5074896585
 30
0.0
 10
14.1854078291
 20
29.4308923334
 30
0.0
 10
14.1986135408
 20
29.3697682291
 30
0.0
 10
14.2126257293
 20
29.323997147
 30
0.0
 10
14.2240473086
 20
29.2991735055
 30
0.0
 10
14.2303316479
 20
29.2898202978
 30
0.0
  0
SPLINE
  5
23F
100
AcDbEntity
  8
0
100
AcDbSpline
 62
7
  6
BYLAYER
 70
0
 71
3
 72
10
 73
6
 74
0
 42
0.0000001
 43
0.0000001
 44
0.0000000001
 40
0.0
 40
0.0
 40
0.0
 40
0.0
 40
0.2518454381
 40
0.5024102685
 40
1.0
 40
1.0
 40
1.0
 40
1.0
 10
13.1733629999
 20
29.2974841105
 30
0.0
 10
12.9583211698
 20
29.2974929939
 30
0.0
 10
12.5292838832
 20
29.2911476515
 30
0.0
 10
11.6762995139
 20
29.2505518988
 30
0.0
 10
11.0398879192
 20
29.1870587193
 30
0.0
 10
10.6190454631
 20
29.1286666207
 30
0.0
  0
SPLINE
  5
240
100
AcDbEntity
  8
0
100
AcDbSpline
 62
7
  6
BYLAYER
 70
0
 71
3
 72
18
 73
14
 74
0
 42
0.0000001
 43
0.0000001
 44
0.0000000001
 40
0.0
 40
0.0
 40
0.0
 40
0.0
 40
0.1658564339
 40
0.334991721
 40
0.4998812827
 40
0.651861118
 40
0.7825731639
 40
0.8379043149
 40
0.8857705409
 40
0.9258619138
 40
0.9580528323
 40
0.9825419844
 40
1.0
 40
1.0
 40
1.0
 40
1.0
 10
29.8713079757
 20
31.2158489786
 30
0.0
 10
29.8761575419
 20
31.1089062787
 30
0.0
 10
29.8841787823
 20
30.8928223778
 30
0.0
 10
29.8907833989
 20
30.5702239934
 30
0.0
 10
29.89104504
 20
30.2565041302
 30
0.0
 10
29.8844103858
 20
29.9676603351
 30
0.0
 10
29.872735882
 20
29.7497311521
 30
0.0
 10
29.859258923
 20
29.5993412587
 30
0.0
 10
29.8482672238
 20
29.5074891751
 30
0.0
 10
29.836048637
 20
29.4308918295
 30
0.0
 10
29.8228429277
 20
29.36976771
 30
0.0
 10
29.8088307397
 20
29.3239966201
 30
0.0
 10
29.7974091586
 20
29.2991729783
 30
0.0
 10
29.7911248186
 20
29.2898197724
 30
0.0
  0
SPLINE
  5
241
100
AcDbEntity
  8
0
100
AcDbSpline
 62
7
  6
BYLAYER
 70
0
 71
3
 72
10
 73
6
 74
0
 42
0.0000001
 43
0.0000001
 44
0.0000000001
 40
0.0
 40
0.0
 40
0.0
 40
0.0
 40
0.2493068297
 40
0.4991257824
 40
1.0
 40
1.0
 40
1.0
 40
1.0
 10
33.9661203384
 20
31.0537969549
 30
0.0
 10
33.6283140257
 20
31.1004515368
 30
0.0
 10
32.9493997079
 20
31.176014337
 30
0.0
 10
31.583627886
 20
31.2584487718
 30
0.0
 10
30.5552148677
 20
31.2481306361
 30
0.0
 10
29.8708584576
 20
31.2158404639
 30
0.0
  0
SPLINE
  5
242
100
AcDbEntity
  8
0
100
AcDbSpline
 62
7
  6
BYLAYER
 70
0
 71
3
 72
20
 73
16
 74
0
 42
0.0000001
 43
0.0000001
 44
0.0000000001
 40
0.0
 40
0.0
 40
0.0
 40
0.0
 40
0.170996948
 40
0.3451890869
 40
0.5137441042
 40
0.5928388726
 40
0.6667934945
 40
0.7344792902
 40
0.7952503572
 40
0.8485929879
 40
0.8940239525
 40
0.9312732729
 40
0.9607720716
 40
0.9832839771
 40
1.0
 40
1.0
 40
1.0
 40
1.0
 10
33.9661207505
 20
31.0537993431
 30
0.0
 10
33.9497784629
 20
30.9390916051
 30
0.0
 10
33.9136210299
 20
30.707971692
 30
0.0
 10
33.8501848177
 20
30.3656426043
 30
0.0
 10
33.7887246641
 20
30.0864170535
 30
0.0
 10
33.7354810942
 20
29.8750904823
 30
0.0
 10
33.6955783922
 20
29.7309255969
 30
0.0
 10
33.6552414
 20
29.5998170186
 30
0.0
 10
33.6151452955
 20
29.4833107681
 30
0.0
 10
33.5758973885
 20
29.3825447536
 30
0.0
 10
33.5380590685
 20
29.2984366401
 30
0.0
 10
33.5019219887
 20
29.2314759804
 30
0.0
 10
33.4677982247
 20
29.181320098
 30
0.0
 10
33.4360395836
 20
29.1470364312
 30
0.0
 10
33.413131245
 20
29.1323154419
 30
0.0
 10
33.4024082428
 20
29.1286671869
 30
0.0
  0
SPLINE
  5
243
100
AcDbEntity
  8
0
100
AcDbSpline
 62
7
  6
BYLAYER
 70
0
 71
3
 72
19
 73
15
 74
0
 42
0.0000001
 43
0.0000001
 44
0.0000000001
 40
0.0
 40
0.0
 40
0.0
 40
0.0
 40
0.1751205764
 40
0.3524738572
 40
0.5232003122
 40
0.6775471628
 40
0.7455759762
 40
0.8064583491
 40
0.8596366046
 40
0.9045535163
 40
0.9408008131
 40
0.9685639113
 40
0.9881800604
 40
1.0
 40
1.0
 40
1.0
 40
1.0
 10
34.3199660247
 20
30.950357898
 30
0.0
 10
34.3017196932
 20
30.8386866619
 30
0.0
 10
34.2646469629
 20
30.6139770718
 30
0.0
 10
34.2085562584
 20
30.2806024154
 30
0.0
 10
34.1534619507
 20
29.9606738832
 30
0.0
 10
34.1092555464
 20
29.7105505735
 30
0.0
 10
34.0765020066
 20
29.530481057
 30
0.0
 10
34.0550013372
 20
29.4148068107
 30
0.0
 10
34.0357544629
 20
29.3139047238
 30
0.0
 10
34.0189776645
 20
29.2287351986
 30
0.0
 10
34.0047534814
 20
29.1598085436
 30
0.0
 10
33.9932007602
 20
29.1070109477
 30
0.0
 10
33.9841582961
 20
29.0698617036
 30
0.0
 10
33.978748622
 20
29.0502441425
 30
0.0
 10
33.9761045419
 20
29.0430791302
 30
0.0
  0
SPLINE
  5
244
100
AcDbEntity
  8
0
100
AcDbSpline
 62
7
  6
BYLAYER
 70
0
 71
3
 72
11
 73
7
 74
0
 42
0.0000001
 43
0.0000001
 44
0.0000000001
 40
0.0
 40
0.0
 40
0.0
 40
0.0
 40
0.2499991985
 40
0.4999999737
 40
0.7500002525
 40
1.0
 40
1.0
 40
1.0
 40
1.0
 10
36.5837881819
 20
41.8855039378
 30
0.0
 10
36.6027538548
 20
40.9121283537
 30
0.0
 10
36.6400403926
 20
38.9653585364
 30
0.0
 10
36.6959986715
 20
36.0452033144
 30
0.0
 10
36.7521824419
 20
33.1250502573
 30
0.0
 10
36.7894881081
 20
31.1782806515
 30
0.0
 10
36.8081099139
 20
30.2048962896
 30
0.0
  0
SPLINE
  5
245
100
AcDbEntity
  8
0
100
AcDbSpline
 62
7
  6
BYLAYER
 70
0
 71
3
 72
14
 73
10
 74
0
 42
0.0000001
 43
0.0000001
 44
0.0000000001
 40
0.0
 40
0.0
 40
0.0
 40
0.0
 40
0.34709232
 40
0.4980007858
 40
0.6326739862
 40
0.75039727
 40
0.8508333927
 40
0.933911839
 40
1.0
 40
1.0
 40
1.0
 40
1.0
 10
36.2627596411
 20
30.3356184533
 30
0.0
 10
36.3257011801
 20
30.3178977232
 30
0.0
 10
36.4156738044
 20
30.2912983783
 30
0.0
 10
36.5300554244
 20
30.2577922531
 30
0.0
 10
36.6032566055
 20
30.2374127646
 30
0.0
 10
36.6678017004
 20
30.2214858
 30
0.0
 10
36.7234896473
 20
30.2103663975
 30
0.0
 10
36.7701553309
 20
30.2043554442
 30
0.0
 10
36.7983942986
 20
30.203853056
 30
0.0
 10
36.8107914658
 20
30.2050022206
 30
0.0
  0
SPLINE
  5
246
100
AcDbEntity
  8
0
100
AcDbSpline
 62
7
  6
BYLAYER
 70
0
 71
3
 72
17
 73
13
 74
0
 42
0.0000001
 43
0.0000001
 44
0.0000000001
 40
0.0
 40
0.0
 40
0.0
 40
0.0
 40
0.0204271805
 40
0.0486867426
 40
0.0844958094
 40
0.1274785171
 40
0.2331983946
 40
0.3617103056
 40
0.5081595616
 40
0.6671576137
 40
0.8330791178
 40
1.0
 40
1.0
 40
1.0
 40
1.0
 10
36.5837881819
 20
41.8855039378
 30
0.0
 10
36.5646802673
 20
41.8898903181
 30
0.0
 10
36.5189316797
 20
41.8994318074
 30
0.0
 10
36.43933921
 20
41.9149625579
 30
0.0
 10
36.3383582896
 20
41.9339120167
 30
0.0
 10
36.164145135
 20
41.96567332
 30
0.0
 10
35.9020589699
 20
42.0114809958
 30
0.0
 10
35.5417411319
 20
42.071966912
 30
0.0
 10
35.1305669027
 20
42.138319281
 30
0.0
 10
34.6835490403
 20
42.2078740235
 30
0.0
 10
34.2166781824
 20
42.2775846337
 30
0.0
 10
33.9003992369
 20
42.3224517536
 30
0.0
 10
33.741811127
 20
42.345132346
 30
0.0
  0
SPLINE
  5
247
100
AcDbEntity
  8
0
100
AcDbSpline
 62
7
  6
BYLAYER
 70
0
 71
3
 72
13
 73
9
 74
0
 42
0.0000001
 43
0.0000001
 44
0.0000000001
 40
0.0
 40
0.0
 40
0.0
 40
0.0
 40
0.2426936051
 40
0.3693742227
 40
0.4976977041
 40
0.6263212696
 40
0.753861888
 40
1.0
 40
1.0
 40
1.0
 40
1.0
 10
7.2106612043
 20
30.2049677109
 30
0.0
 10
7.2060105565
 20
30.0232775501
 30
0.0
 10
7.1616002416
 20
29.7458122437
 30
0.0
 10
7.0283805387
 20
29.3968007949
 30
0.0
 10
6.8891761728
 20
29.144293349
 30
0.0
 10
6.7140949638
 20
28.9143441729
 30
0.0
 10
6.4454610231
 20
28.6497479719
 30
0.0
 10
6.2043859754
 20
28.4980046319
 30
0.0
 10
6.0359628081
 20
28.4230987235
 30
0.0
  0
SPLINE
  5
248
100
AcDbEntity
  8
0
100
AcDbSpline
 62
7
  6
BYLAYER
 70
0
 71
3
 72
12
 73
8
 74
0
 42
0.0000001
 43
0.0000001
 44
0.0000000001
 40
0.0
 40
0.0
 40
0.0
 40
0.0
 40
0.2811151872
 40
0.5501174615
 40
0.793795465
 40
0.9023201797
 40
1.0
 40
1.0
 40
1.0
 40
1.0
 10
34.319968006
 20
30.9503572861
 30
0.0
 10
34.5024167336
 20
30.8940075456
 30
0.0
 10
34.8584658032
 20
30.7805454116
 30
0.0
 10
35.3710004462
 20
30.6130981286
 30
0.0
 10
35.7725186133
 20
30.4833062153
 30
0.0
 10
36.0644902049
 20
30.3930788284
 30
0.0
 10
36.1988818292
 20
30.3535752624
 30
0.0
 10
36.2627504971
 20
30.3355971288
 30
0.0
  0
SPLINE
  5
249
100
AcDbEntity
  8
0
100
AcDbSpline
 62
7
  6
BYLAYER
 70
0
 71
3
 72
12
 73
8
 74
0
 42
0.0000001
 43
0.0000001
 44
0.0000000001
 40
0.0
 40
0.0
 40
0.0
 40
0.0
 40
0.0976805066
 40
0.2062056667
 40
0.4498838373
 40
0.7188854731
 40
1.0
 40
1.0
 40
1.0
 40
1.0
 10
7.7587059924
 20
30.3355971914
 30
0.0
 10
7.8225750956
 20
30.3535754835
 30
0.0
 10
7.9569674394
 20
30.3930792945
 30
0.0
 10
8.2489398547
 20
30.4833069369
 30
0.0
 10
8.6504579938
 20
30.6130987902
 30
0.0
 10
9.1629918692
 20
30.7805458351
 30
0.0
 10
9.519040077
 20
30.8940076884
 30
0.0
 10
9.7014883671
 20
30.9503572837
 30
0.0
  0
SPLINE
  5
24A
100
AcDbEntity
  8
0
100
AcDbSpline
 62
7
  6
BYLAYER
 70
0
 71
3
 72
14
 73
10
 74
0
 42
0.0000001
 43
0.0000001
 44
0.0000000001
 40
0.0
 40
0.0
 40
0.0
 40
0.0
 40
0.0660894709
 40
0.1491705319
 40
0.2496084505
 40
0.3673319194
 40
0.50200367
 40
0.6529099628
 40
1.0
 40
1.0
 40
1.0
 40
1.0
 10
7.2106627792
 20
30.2049838685
 30
0.0
 10
7.2230605746
 20
30.2038383779
 30
0.0
 10
7.2512999452
 20
30.204345297
 30
0.0
 10
7.2979666106
 20
30.2103579434
 30
0.0
 10
7.353655759
 20
30.2214764352
 30
0.0
 10
7.4182016866
 20
30.2374013862
 30
0.0
 10
7.4914028923
 20
30.2577793043
 30
0.0
 10
7.6057841985
 20
30.2912839182
 30
0.0
 10
7.6957563424
 20
30.3178829789
 30
0.0
 10
7.7586976329
 20
30.3356037827
 30
0.0
  0
SPLINE
  5
24B
100
AcDbEntity
  8
0
100
AcDbSpline
 62
7
  6
BYLAYER
 70
0
 71
3
 72
11
 73
7
 74
0
 42
0.0000001
 43
0.0000001
 44
0.0000000001
 40
0.0
 40
0.0
 40
0.0
 40
0.0
 40
0.249999221
 40
0.4999999709
 40
0.7500002656
 40
1.0
 40
1.0
 40
1.0
 40
1.0
 10
7.4376672332
 20
41.8855039622
 30
0.0
 10
7.4187016427
 20
40.9121282879
 30
0.0
 10
7.3814201422
 20
38.9653583829
 30
0.0
 10
7.3254562211
 20
36.0452032155
 30
0.0
 10
7.2692736422
 20
33.1250502208
 30
0.0
 10
7.2319688038
 20
31.1782805866
 30
0.0
 10
7.2133470839
 20
30.2048962733
 30
0.0
  0
SPLINE
  5
24C
100
AcDbEntity
  8
0
100
AcDbSpline
 62
7
  6
BYLAYER
 70
0
 71
3
 72
17
 73
13
 74
0
 42
0.0000001
 43
0.0000001
 44
0.0000000001
 40
0.0
 40
0.0
 40
0.0
 40
0.0
 40
0.1669156631
 40
0.332834081
 40
0.4918348227
 40
0.6382867868
 40
0.7668018319
 40
0.8725231158
 40
0.9155054709
 40
0.9513149329
 40
0.9795749918
 40
1.0
 40
1.0
 40
1.0
 40
1.0
 10
10.2796450823
 20
42.3451323174
 30
0.0
 10
10.1210613601
 20
42.3224561981
 30
0.0
 10
9.8047891686
 20
42.2775975452
 30
0.0
 10
9.3379256202
 20
42.2078737797
 30
0.0
 10
8.8909045477
 20
42.1383248458
 30
0.0
 10
8.4797216069
 20
42.0719744753
 30
0.0
 10
8.11939737
 20
42.0114839696
 30
0.0
 10
7.8573078598
 20
41.9656722363
 30
0.0
 10
7.6830914112
 20
41.9339208062
 30
0.0
 10
7.5821116017
 20
41.9149627326
 30
0.0
 10
7.5025247656
 20
41.8994080366
 30
0.0
 10
7.456778273
 20
41.8898673674
 30
0.0
 10
7.4376672332
 20
41.8855039622
 30
0.0
  0
SPLINE
  5
24D
100
AcDbEntity
  8
0
100
AcDbSpline
 62
7
  6
BYLAYER
 70
0
 71
3
 72
20
 73
16
 74
0
 42
0.0000001
 43
0.0000001
 44
0.0000000001
 40
0.0
 40
0.0
 40
0.0
 40
0.0
 40
0.174056783
 40
0.3506667664
 40
0.5210963482
 40
0.6755804322
 40
0.7438218898
 40
0.8049831614
 40
0.8584760168
 40
0.9037126814
 40
0.9402561895
 40
0.9682706499
 40
0.9880738803
 40
0.9949993355
 40
1.0
 40
1.0
 40
1.0
 40
1.0
 10
9.7014891312
 20
30.9503617361
 30
0.0
 10
9.719624794
 20
30.8393682772
 30
0.0
 10
9.7565054221
 20
30.6158091788
 30
0.0
 10
9.8123625082
 20
30.2837719565
 30
0.0
 10
9.8673429779
 20
29.9644140498
 30
0.0
 10
9.9115391635
 20
29.7142528413
 30
0.0
 10
9.9443486947
 20
29.5337794652
 30
0.0
 10
9.9659324686
 20
29.4175904739
 30
0.0
 10
9.9852737204
 20
29.3161043392
 30
0.0
 10
10.0021601771
 20
29.2303452726
 30
0.0
 10
10.0164642798
 20
29.160856807
 30
0.0
 10
10.0281560377
 20
29.1076171011
 30
0.0
 10
10.03640445
 20
29.073210716
 30
0.0
 10
10.0418986143
 20
29.0534586597
 30
0.0
 10
10.0442337001
 20
29.0461090384
 30
0.0
 10
10.0453523107
 20
29.0430777087
 30
0.0
  0
SPLINE
  5
24E
100
AcDbEntity
  8
0
100
AcDbSpline
 62
7
  6
BYLAYER
 70
0
 71
3
 72
20
 73
16
 74
0
 42
0.0000001
 43
0.0000001
 44
0.0000000001
 40
0.0
 40
0.0
 40
0.0
 40
0.0
 40
0.17370596
 40
0.3497970447
 40
0.5191045344
 40
0.598151994
 40
0.6717985122
 40
0.7389420549
 40
0.7990058234
 40
0.8515553209
 40
0.896185431
 40
0.9326970875
 40
0.9615692973
 40
0.9836021354
 40
1.0
 40
1.0
 40
1.0
 40
1.0
 10
10.0553364437
 20
31.0537970174
 30
0.0
 10
10.0719377033
 20
30.9372714646
 30
0.0
 10
10.1086356721
 20
30.7030731164
 30
0.0
 10
10.1729389375
 20
30.3572071953
 30
0.0
 10
10.2350804355
 20
30.0763210399
 30
0.0
 10
10.2887041011
 20
29.864811581
 30
0.0
 10
10.3286939437
 20
29.721301114
 30
0.0
 10
10.3689897405
 20
29.59128336
 30
0.0
 10
10.4089234095
 20
29.4761844045
 30
0.0
 10
10.4479032574
 20
29.3769868852
 30
0.0
 10
10.4853860866
 20
29.2944518079
 30
0.0
 10
10.5210937564
 20
29.228926202
 30
0.0
 10
10.5547443178
 20
29.1799645831
 30
0.0
 10
10.586032163
 20
29.1465553097
 30
0.0
 10
10.6085264893
 20
29.132245965
 30
0.0
 10
10.6190452671
 20
29.1286665935
 30
0.0
  0
SPLINE
  5
24F
100
AcDbEntity
  8
0
100
AcDbSpline
 62
7
  6
BYLAYER
 70
0
 71
3
 72
10
 73
6
 74
0
 42
0.0000001
 43
0.0000001
 44
0.0000000001
 40
0.0
 40
0.0
 40
0.0
 40
0.0
 40
0.2507057891
 40
0.5009979012
 40
1.0
 40
1.0
 40
1.0
 40
1.0
 10
14.1506319588
 20
31.2158391732
 30
0.0
 10
13.8080994625
 20
31.2320035483
 30
0.0
 10
13.1228801716
 20
31.2518068174
 30
0.0
 10
11.7549858448
 20
31.2332203772
 30
0.0
 10
10.7314504607
 20
31.1471715505
 30
0.0
 10
10.0553360345
 20
31.0537969549
 30
0.0
  0
SPLINE
  5
250
100
AcDbEntity
  8
0
100
AcDbSpline
 62
7
  6
BYLAYER
 70
0
 71
3
 72
13
 73
9
 74
0
 42
0.0000001
 43
0.0000001
 44
0.0000000001
 40
0.0
 40
0.0
 40
0.0
 40
0.0
 40
0.2461381989
 40
0.3736788327
 40
0.5023023936
 40
0.6306258551
 40
0.7573064444
 40
1.0
 40
1.0
 40
1.0
 40
1.0
 10
37.9854967245
 20
28.4231071872
 30
0.0
 10
37.8170735157
 20
28.4980122726
 30
0.0
 10
37.5759982047
 20
28.6497542731
 30
0.0
 10
37.3073635503
 20
28.9143488037
 30
0.0
 10
37.1322816848
 20
29.1442967618
 30
0.0
 10
36.9930765757
 20
29.3968031123
 30
0.0
 10
36.8598558535
 20
29.745813314
 30
0.0
 10
36.8154447818
 20
30.0232779127
 30
0.0
 10
36.8107936807
 20
30.2049676682
 30
0.0
  0
SPLINE
  5
251
100
AcDbEntity
  8
0
100
AcDbSpline
 62
7
  6
BYLAYER
 70
0
 71
3
 72
10
 73
6
 74
0
 42
0.0000001
 43
0.0000001
 44
0.0000000001
 40
0.0
 40
0.0
 40
0.0
 40
0.0
 40
0.497576913
 40
0.7481400794
 40
1.0
 40
1.0
 40
1.0
 40
1.0
 10
33.402410063
 20
29.1286660552
 30
0.0
 10
32.9816032336
 20
29.1870553792
 30
0.0
 10
32.3452411895
 20
29.2505467332
 30
0.0
 10
31.492306381
 20
29.2911385128
 30
0.0
 10
31.0632831799
 20
29.2974852929
 30
0.0
 10
30.8482414986
 20
29.2974780014
 30
0.0
  0
SPLINE
  5
252
100
AcDbEntity
  8
0
100
AcDbSpline
 62
7
  6
BYLAYER
 70
0
 71
3
 72
20
 73
16
 74
0
 42
0.0000001
 43
0.0000001
 44
0.0000000001
 40
0.0
 40
0.0
 40
0.0
 40
0.0
 40
0.1758309572
 40
0.3559470086
 40
0.5301111863
 40
0.6865880056
 40
0.7546124677
 40
0.8146875664
 40
0.8662979641
 40
0.908977446
 40
0.9425560191
 40
0.9678075274
 40
0.9777414339
 40
0.9861887964
 40
1.0
 40
1.0
 40
1.0
 40
1.0
 10
10.280062469
 20
42.3452055754
 30
0.0
 10
10.2653383533
 20
42.4045455558
 30
0.0
 10
10.2338372664
 20
42.5242568752
 30
0.0
 10
10.1818168798
 20
42.701127233
 30
0.0
 10
10.1257289209
 20
42.8696720955
 30
0.0
 10
10.076684892
 20
42.9994048162
 30
0.0
 10
10.0372845802
 20
43.0901944895
 30
0.0
 10
10.0102575399
 20
43.1465572206
 30
0.0
 10
9.9848021773
 20
43.1938356378
 30
0.0
 10
9.9613035583
 20
43.2316421963
 30
0.0
 10
9.9398923498
 20
43.2597645022
 30
0.0
 10
9.9227649937
 20
43.2766945856
 30
0.0
 10
9.9100226488
 20
43.2850595918
 30
0.0
 10
9.8997875345
 20
43.2896104609
 30
0.0
 10
9.8916011116
 20
43.2903495664
 30
0.0
 10
9.8869419431
 20
43.2891854646
 30
0.0
  0
SPLINE
  5
253
100
AcDbEntity
  8
0
100
AcDbSpline
 62
7
  6
BYLAYER
 70
0
 71
3
 72
20
 73
16
 74
0
 42
0.0000001
 43
0.0000001
 44
0.0000000001
 40
0.0
 40
0.0
 40
0.0
 40
0.0
 40
0.1758335627
 40
0.3559516791
 40
0.5301170483
 40
0.6865940098
 40
0.7546181194
 40
0.8146926146
 40
0.8663022032
 40
0.9089807212
 40
0.9425582408
 40
0.9678087059
 40
0.9777421495
 40
0.9861891312
 40
1.0
 40
1.0
 40
1.0
 40
1.0
 10
33.7413930341
 20
42.3452123307
 30
0.0
 10
33.7561173308
 20
42.404552672
 30
0.0
 10
33.7876187502
 20
42.5242645115
 30
0.0
 10
33.8396395895
 20
42.7011352525
 30
0.0
 10
33.8957278415
 20
42.8696796959
 30
0.0
 10
33.9447719806
 20
42.9994115021
 30
0.0
 10
33.984172268
 20
43.090199975
 30
0.0
 10
34.0111991582
 20
43.1465615188
 30
0.0
 10
34.0366543026
 20
43.1938386052
 30
0.0
 10
34.0601526455
 20
43.2316437471
 30
0.0
 10
34.0815635297
 20
43.2597645919
 30
0.0
 10
34.0986906286
 20
43.2766934274
 30
0.0
 10
34.1114327417
 20
43.2850573678
 30
0.0
 10
34.121667717
 20
43.2896073577
 30
0.0
 10
34.1298539334
 20
43.2903455707
 30
0.0
 10
34.1345128268
 20
43.2891810143
 30
0.0
  0
SPLINE
  5
254
100
AcDbEntity
  8
0
100
AcDbSpline
 62
7
  6
BYLAYER
 70
0
 71
3
 72
13
 73
9
 74
0
 42
0.0000001
 43
0.0000001
 44
0.0000000001
 40
0.0
 40
0.0
 40
0.0
 40
0.0
 40
0.2550772067
 40
0.385754533
 40
0.515915027
 40
0.6437967329
 40
0.7680384851
 40
1.0
 40
1.0
 40
1.0
 40
1.0
 10
36.5814257639
 20
41.8854426121
 30
0.0
 10
36.5798060941
 20
41.9917327656
 30
0.0
 10
36.5516288086
 20
42.1536601031
 30
0.0
 10
36.4643020916
 20
42.3508704326
 30
0.0
 10
36.3754390578
 20
42.4872566909
 30
0.0
 10
36.2667667331
 20
42.6047928576
 30
0.0
 10
36.1076455339
 20
42.7297938896
 30
0.0
 10
35.9701329343
 20
42.7932305781
 30
0.0
 10
35.8772561337
 20
42.8200413475
 30
0.0
  0
SPLINE
  5
255
100
AcDbEntity
  8
0
100
AcDbSpline
 62
7
  6
BYLAYER
 70
0
 71
3
 72
13
 73
9
 74
0
 42
0.0000001
 43
0.0000001
 44
0.0000000001
 40
0.0
 40
0.0
 40
0.0
 40
0.0
 40
0.2452480322
 40
0.373351152
 40
0.5026995205
 40
0.6316383482
 40
0.7585887369
 40
1.0
 40
1.0
 40
1.0
 40
1.0
 10
7.4400191122
 20
41.8854521384
 30
0.0
 10
7.441577634
 20
41.9876448818
 30
0.0
 10
7.4678510727
 20
42.1442551212
 30
0.0
 10
7.5501812783
 20
42.3375862052
 30
0.0
 10
7.6362797689
 20
42.4745667769
 30
0.0
 10
7.7438631416
 20
42.5947783748
 30
0.0
 10
7.9054770112
 20
42.7255390166
 30
0.0
 10
8.0475150039
 20
42.7921313122
 30
0.0
 10
8.1441732395
 20
42.8200363448
 30
0.0
  0
SPLINE
  5
256
100
AcDbEntity
  8
0
100
AcDbSpline
 62
7
  6
BYLAYER
 70
0
 71
3
 72
15
 73
11
 74
0
 42
0.0000001
 43
0.0000001
 44
0.0000000001
 40
0.0
 40
0.0
 40
0.0
 40
0.0
 40
0.1341922038
 40
0.2706602494
 40
0.4065874638
 40
0.5390007325
 40
0.6654896135
 40
0.7847096976
 40
0.8960063274
 40
1.0
 40
1.0
 40
1.0
 40
1.0
 10
36.262757209
 20
30.3355935385
 30
0.0
 10
36.2584550773
 20
30.235802744
 30
0.0
 10
36.2614389044
 20
30.0338409383
 30
0.0
 10
36.3019066147
 20
29.7331319366
 30
0.0
 10
36.3816925278
 20
29.4416060839
 30
0.0
 10
36.4985358583
 20
29.1707223711
 30
0.0
 10
36.6507112934
 20
28.9324544331
 30
0.0
 10
36.8302325943
 20
28.7345809929
 30
0.0
 10
37.03025607
 20
28.5838820441
 30
0.0
 10
37.175346255
 20
28.5130997424
 30
0.0
 10
37.248000555
 20
28.486397576
 30
0.0
  0
SPLINE
  5
257
100
AcDbEntity
  8
0
100
AcDbSpline
 62
7
  6
BYLAYER
 70
0
 71
3
 72
11
 73
7
 74
0
 42
0.0000001
 43
0.0000001
 44
0.0000000001
 40
0.0
 40
0.0
 40
0.0
 40
0.0
 40
0.2823426264
 40
0.5510715145
 40
0.7940065821
 40
1.0
 40
1.0
 40
1.0
 40
1.0
 10
10.0453524496
 20
29.0430776598
 30
0.0
 10
9.7369329287
 20
28.9936255705
 30
0.0
 10
9.1356320089
 20
28.8929534982
 30
0.0
 10
8.2702412989
 20
28.7422237919
 30
0.0
 10
7.4882294007
 20
28.6050629317
 30
0.0
 10
6.998501632
 20
28.5223133466
 30
0.0
 10
6.7734558492
 20
28.4864026211
 30
0.0
  0
SPLINE
  5
258
100
AcDbEntity
  8
0
100
AcDbSpline
 62
7
  6
BYLAYER
 70
0
 71
3
 72
11
 73
7
 74
0
 42
0.0000001
 43
0.0000001
 44
0.0000000001
 40
0.0
 40
0.0
 40
0.0
 40
0.0
 40
0.2059953034
 40
0.4489294296
 40
0.717658108
 40
1.0
 40
1.0
 40
1.0
 40
1.0
 10
37.2480005236
 20
28.486402621
 30
0.0
 10
37.0229511364
 20
28.5223039906
 30
0.0
 10
36.5332250509
 20
28.605070644
 30
0.0
 10
35.7512108014
 20
28.7422221201
 30
0.0
 10
34.8858225337
 20
28.8929538192
 30
0.0
 10
34.2845228471
 20
28.9936269822
 30
0.0
 10
33.9761039234
 20
29.0430776598
 30
0.0
  0
ENDSEC
  0
SECTION
  2
OBJECTS
  0
DICTIONARY
  5
C
100
AcDbDictionary
280
0
281
1
  3
ACAD_GROUP
350
D
  3
ACAD_MLINESTYLE
350
17
  3
ACAD_LAYOUT
350
1A
  3
ACAD_PLOTSETTINGS
350
19
  3
ACAD_PLOTSTYLENAME
350
E
  0
DICTIONARY
  5
D
102
{ACAD_REACTORS
330
C
102
}
100
AcDbDictionary
280
0
281
1
  0
ACDBDICTIONARYWDFLT
  5
E
102
{ACAD_REACTORS
330
C
102
}
100
AcDbDictionary
281
1
  3
Normal
350
F
100
AcDbDictionaryWithDefault
340
F
  0
DICTIONARY
  5
17
102
{ACAD_REACTORS
330
C
102
}
100
AcDbDictionary
280
0
281
1
  3
Standard
350
18
  0
DICTIONARY
  5
19
102
{ACAD_REACTORS
330
C
102
}
100
AcDbDictionary
281
1
  0
DICTIONARY
  5
1A
102
{ACAD_REACTORS
330
C
102
}
100
AcDbDictionary
281
1
  3
Model
350
259
  3
Layout1
350
25A
  0
ACDBPLACEHOLDER
  5
F
102
{ACAD_REACTORS
330
E
102
}
  0
MLINESTYLE
  5
18
102
{ACAD_REACTORS
330
17
102
}
100
AcDbMlineStyle
  2
STANDARD
 70
0
  3

 62
256
 51
90.0
 52
90.0
 71
2
 49
0.5
 62
256
  6
BYLAYER
 49
-0.5
 62
256
  6
BYLAYER
  0
LAYOUT
  5
259
102
{ACAD_REACTORS
330
1A
102
}
100
AcDbPlotSettings
  1

  2
none_device
  4

  6

 40
0.0
 41
0.0
 42
0.0
 43
0.0
 44
210.0
 45
297.0
 46
0.0
 47
0.0
 48
0.0
 49
0.0
140
0.0
141
0.0
142
1.0
143
1.0
 70
1024
 72
1
 73
0
 74
0
  7

 75
0
147
1.0
148
0.0
149
0.0
100
AcDbLayout
  1
Model
 70
0
 71
0
 10
0.0
 20
0.0
 11
210.0
 21
297.0
 12
0.0
 22
0.0
 32
0.0
 14
0.0
 24
0.0
 34
0.0
 15
0.0
 25
0.0
 35
0.0
146
0.0
 13
0.0
 23
0.0
 33
0.0
 16
1.0
 26
0.0
 36
0.0
 17
0.0
 27
1.0
 37
0.0
 76
0
330
210
345
0
346
0
  0
LAYOUT
  5
25A
102
{ACAD_REACTORS
330
1A
102
}
100
AcDbPlotSettings
  1

  2
none_device
  4

  6

 40
0.0
 41
0.0
 42
0.0
 43
0.0
 44
210.0
 45
297.0
 46
0.0
 47
0.0
 48
0.0
 49
0.0
140
0.0
141
0.0
142
1.0
143
1.0
 70
0
 72
1
 73
0
 74
0
  7

 75
0
147
1.0
148
0.0
149
0.0
100
AcDbLayout
  1
Layout1
 70
0
 71
1
 10
0.0
 20
0.0
 11
210.0
 21
297.0
 12
0.0
 22
0.0
 32
0.0
 14
0.0
 24
0.0
 34
0.0
 15
0.0
 25
0.0
 35
0.0
146
0.0
 13
0.0
 23
0.0
 33
0.0
 16
1.0
 26
0.0
 36
0.0
 17
0.0
 27
1.0
 37
0.0
 76
0
330
211
345
0
346
0
  0
ENDSEC
  0
EOF
