999
DXF file: C:\Users\sesa63760\Dev\_Creo\CAD\MCADPD0004097_3D-CAD\drw0001_1.dxf
999
Pro/ENGINEER 2019471 by Parametric Technology Corporation
  0
SECTION
  2
HEADER
  9
$ACADVER
  1
AC1024
  9
$DWGCODEPAGE
  3
ANSI_1252
  9
$EXTMAX
 10
142.0250424826
 20
200.863988654
 30
0.0
  9
$EXTMIN
 10
0.0
 20
0.0
 30
0.0
  9
$LIMMIN
 10
0.0
 20
0.0
  9
$LIMMAX
 10
142.0250424826
 20
200.863988654
  9
$VIEWCTR
 10
71.0125212413
 20
100.431994327
  9
$VIEWSIZE
 40
200.863988654
  9
$CLAYER
  8
0
  9
$LTSCALE
 40
13.0933562974
  9
$CELTYPE
  6
BYLAYER
  9
$DIMSCALE
 40
1.0
  9
$DIMASZ
 40
1.6907743153
  9
$DIMEXO
 40
1.0
  9
$DIMDLI
 40
9.0463188964
  9
$DIMEXE
 40
1.0
  9
$DIMCEN
 40
2.1425492123
  9
$DIMLFAC
 40
1.0
  9
$DIMBLK
  1
_FILLED
  9
$DIMALT
 70
0
  9
$DIMALTF
 40
0.0393700787
  9
$DIMTXT
 40
2.3670840414
  9
$DIMTOL
 70
1
  9
$DIMLIM
 70
0
  9
$DIMTFAC
 40
1.0
  9
$DIMTP
 40
0.01
  9
$DIMTM
 40
0.01
  9
$DIMGAP
 40
0.625
  9
$DIMDSEP
 70
46
  9
$AUNITS
 70
0
  9
$PDMODE
 70
3
  9
$PDSIZE
 40
0.3125
  9
$HANDSEED
  5
2F8
  9
$TILEMODE
 70
1
  9
$MEASUREMENT
 70
1
  9
$INSUNITS
 70
4
  0
ENDSEC
  0
SECTION
  2
CLASSES
  0
CLASS
  1
ACDBDICTIONARYWDFLT
  2
AcDbDictionaryWithDefault
  3
AutoCAD 2000
 90
0
 91
1
280
0
281
0
  0
CLASS
  1
ACDBPLACEHOLDER
  2
AcDbPlaceHolder
  3
AutoCAD 2000
 90
0
 91
1
280
0
281
0
  0
CLASS
  1
LAYOUT
  2
AcDbLayout
  3
AutoCAD 2000
 90
0
 91
0
280
0
281
0
  0
ENDSEC
  0
SECTION
  2
TABLES
  0
TABLE
  2
VPORT
  5
8
100
AcDbSymbolTable
 70
2
  0
VPORT
  5
1F4
100
AcDbSymbolTableRecord
100
AcDbViewportTableRecord
  2
*ACTIVE
 70
0
 10
0.0
 20
0.0
 11
1.0
 21
1.0
 12
71.0125212413
 22
100.431994327
 13
0.0
 23
0.0
 14
1.0
 24
1.0
 15
0.0
 25
0.0
 16
0.0
 26
0.0
 36
1.0
 17
0.0
 27
0.0
 37
0.0
 40
200.863988654
 41
0.7070707071
 42
50.0
 43
0.0
 44
0.0
 50
0.0
 51
0.0
 71
0
 72
100
 73
1
 74
1
 75
0
 76
0
 77
0
 78
0
  0
ENDTAB
  0
TABLE
  2
LTYPE
  5
5
100
AcDbSymbolTable
 70
6
  0
LTYPE
  5
14
100
AcDbSymbolTableRecord
100
AcDbLinetypeTableRecord
  2
BYBLOCK
 70
0
  3

 72
65
 73
0
 40
0.0
  0
LTYPE
  5
15
100
AcDbSymbolTableRecord
100
AcDbLinetypeTableRecord
  2
BYLAYER
 70
0
  3

 72
65
 73
0
 40
0.0
  0
LTYPE
  5
16
100
AcDbSymbolTableRecord
100
AcDbLinetypeTableRecord
  2
CONTINUOUS
 70
64
  3
Solid line
 72
65
 73
0
 40
0.0
  0
LTYPE
  5
1F5
100
AcDbSymbolTableRecord
100
AcDbLinetypeTableRecord
  2
CENTER
 70
64
  3
____ _ ____ _ ____ _ ____ _ ____ _ ____ _ ____
 72
65
 73
4
 40
0.6
 49
0.375
 74
0
 49
-0.075
 74
0
 49
0.075
 74
0
 49
-0.075
 74
0
  0
LTYPE
  5
1F6
100
AcDbSymbolTableRecord
100
AcDbLinetypeTableRecord
  2
HIDDEN
 70
64
  3
- - - - - - - - - - - - - - - - - - - -
 72
65
 73
2
 40
0.2
 49
0.1
 74
0
 49
-0.1
 74
0
  0
LTYPE
  5
1F7
100
AcDbSymbolTableRecord
100
AcDbLinetypeTableRecord
  2
PHANTOM
 70
64
  3
_____ _ _ _____ _ _ _____ _ _ _____
 72
65
 73
6
 40
0.8
 49
0.45
 74
0
 49
-0.05
 74
0
 49
0.1
 74
0
 49
-0.05
 74
0
 49
0.1
 74
0
 49
-0.05
 74
0
  0
LTYPE
  5
1F8
100
AcDbSymbolTableRecord
100
AcDbLinetypeTableRecord
  2
DOT
 70
64
  3
. . . . . . . . . . . . . . . . . . . .
 72
65
 73
2
 40
0.2
 49
0.1
 74
0
 49
-0.1
 74
0
  0
LTYPE
  5
1F9
100
AcDbSymbolTableRecord
100
AcDbLinetypeTableRecord
  2
DASHED
 70
64
  3
- - - - - - - - - - - - - - - - - - - -
 72
65
 73
2
 40
0.2
 49
0.1
 74
0
 49
-0.1
 74
0
  0
ENDTAB
  0
TABLE
  2
LAYER
  5
2
100
AcDbSymbolTable
 70
36
  0
LAYER
  5
10
100
AcDbSymbolTableRecord
100
AcDbLayerTableRecord
  2
0
 70
0
 62
7
  6
CONTINUOUS
370
-3
390
F
  0
LAYER
  5
1FA
100
AcDbSymbolTableRecord
100
AcDbLayerTableRecord
  2
DEFAULT_1
 70
0
 62
7
  6
CENTER
370
-3
390
F
  0
LAYER
  5
1FB
100
AcDbSymbolTableRecord
100
AcDbLayerTableRecord
  2
DEFAULT_2
 70
0
 62
7
  6
HIDDEN
370
-3
390
F
  0
LAYER
  5
1FC
100
AcDbSymbolTableRecord
100
AcDbLayerTableRecord
  2
DEFAULT_3
 70
0
 62
7
  6
PHANTOM
370
-3
390
F
  0
LAYER
  5
1FD
100
AcDbSymbolTableRecord
100
AcDbLayerTableRecord
  2
00_COMPONENTS
 70
0
 62
7
  6
CONTINUOUS
370
-3
390
F
  0
LAYER
  5
1FE
100
AcDbSymbolTableRecord
100
AcDbLayerTableRecord
  2
01_1_DEFAULT_DATUMS
 70
0
 62
7
  6
CONTINUOUS
370
-3
390
F
  0
LAYER
  5
1FF
100
AcDbSymbolTableRecord
100
AcDbLayerTableRecord
  2
01_PLANES
 70
0
 62
7
  6
CONTINUOUS
370
-3
390
F
  0
LAYER
  5
200
100
AcDbSymbolTableRecord
100
AcDbLayerTableRecord
  2
02_COORD_SYS
 70
0
 62
7
  6
CONTINUOUS
370
-3
390
F
  0
LAYER
  5
201
100
AcDbSymbolTableRecord
100
AcDbLayerTableRecord
  2
03_AXES
 70
0
 62
7
  6
CONTINUOUS
370
-3
390
F
  0
LAYER
  5
202
100
AcDbSymbolTableRecord
100
AcDbLayerTableRecord
  2
04_POINTS
 70
0
 62
7
  6
CONTINUOUS
370
-3
390
F
  0
LAYER
  5
203
100
AcDbSymbolTableRecord
100
AcDbLayerTableRecord
  2
05_CURVES
 70
0
 62
7
  6
CONTINUOUS
370
-3
390
F
  0
LAYER
  5
204
100
AcDbSymbolTableRecord
100
AcDbLayerTableRecord
  2
06_SURFS
 70
0
 62
7
  6
CONTINUOUS
370
-3
390
F
  0
LAYER
  5
205
100
AcDbSymbolTableRecord
100
AcDbLayerTableRecord
  2
07_COSMETICS
 70
0
 62
7
  6
CONTINUOUS
370
-3
390
F
  0
LAYER
  5
206
100
AcDbSymbolTableRecord
100
AcDbLayerTableRecord
  2
10_NOTES
 70
0
 62
7
  6
CONTINUOUS
370
-3
390
F
  0
LAYER
  5
207
100
AcDbSymbolTableRecord
100
AcDbLayerTableRecord
  2
11_NOTES_PUB
 70
0
 62
7
  6
CONTINUOUS
370
-3
390
F
  0
LAYER
  5
208
100
AcDbSymbolTableRecord
100
AcDbLayerTableRecord
  2
13_REF_GTOL
 70
0
 62
7
  6
CONTINUOUS
370
-3
390
F
  0
LAYER
  5
209
100
AcDbSymbolTableRecord
100
AcDbLayerTableRecord
  2
16_MISC
 70
0
 62
7
  6
CONTINUOUS
370
-3
390
F
  0
LAYER
  5
20A
100
AcDbSymbolTableRecord
100
AcDbLayerTableRecord
  2
17_NO_PRINT
 70
0
 62
7
  6
CONTINUOUS
370
-3
390
F
  0
LAYER
  5
20B
100
AcDbSymbolTableRecord
100
AcDbLayerTableRecord
  2
18_DATUM_CAMS_JOINTS
 70
0
 62
7
  6
CONTINUOUS
370
-3
390
F
  0
LAYER
  5
20C
100
AcDbSymbolTableRecord
100
AcDbLayerTableRecord
  2
19_DATUM_FUNCTIONAL
 70
0
 62
7
  6
CONTINUOUS
370
-3
390
F
  0
LAYER
  5
20D
100
AcDbSymbolTableRecord
100
AcDbLayerTableRecord
  2
20_DATUM_KINEMATIC_SCHEME
 70
0
 62
7
  6
CONTINUOUS
370
-3
390
F
  0
ENDTAB
  0
TABLE
  2
STYLE
  5
3
100
AcDbSymbolTable
 70
1
  0
STYLE
  5
11
100
AcDbSymbolTableRecord
100
AcDbTextStyleTableRecord
  2
STANDARD
 70
0
 40
0.0
 41
1.0
 50
0.0
 71
0
 42
0.2
  3
ARIAL.TTF
  4

  0
STYLE
  5
20E
100
AcDbSymbolTableRecord
100
AcDbTextStyleTableRecord
  2
TEXTSTYLE_1
 70
0
 40
0.0
 41
0.8
 50
0.0
 71
0
 42
0.2
  3
gdt
  4

  0
ENDTAB
  0
TABLE
  2
VIEW
  5
6
100
AcDbSymbolTable
 70
0
  0
ENDTAB
  0
TABLE
  2
UCS
  5
7
100
AcDbSymbolTable
 70
0
  0
ENDTAB
  0
TABLE
  2
APPID
  5
9
100
AcDbSymbolTable
 70
1
  0
APPID
  5
20F
100
AcDbSymbolTableRecord
100
AcDbRegAppTableRecord
  2
ACAD
 70
0
  0
ENDTAB
  0
TABLE
  2
BLOCK_RECORD
  5
1
100
AcDbSymbolTable
 70
0
  0
BLOCK_RECORD
  5
210
100
AcDbSymbolTableRecord
100
AcDbBlockTableRecord
  2
*Model_Space
  0
BLOCK_RECORD
  5
211
100
AcDbSymbolTableRecord
100
AcDbBlockTableRecord
  2
*Paper_Space
  0
BLOCK_RECORD
  5
212
100
AcDbSymbolTableRecord
100
AcDbBlockTableRecord
  2
_FILLED
  0
ENDTAB
  0
TABLE
  2
DIMSTYLE
  5
A
100
AcDbSymbolTable
 70
1
100
AcDbDimStyleTable
 71
0
  0
DIMSTYLE
105
213
100
AcDbSymbolTableRecord
100
AcDbDimStyleTableRecord
  2
STANDARD
 70
0
  3

  4

 40
1.0
 41
1.6907743153
 42
1.0
 43
0.38
 44
1.0
 45
0.0
 46
0.0
 47
0.01
 48
0.01
140
2.3670840414
141
0.09
142
0.0
143
25.4
144
1.0
145
0.0
146
1.0
147
0.625
 71
1
 72
0
 73
0
 74
0
 75
0
 76
0
 77
1
 78
8
 79
2
170
0
171
1
172
0
173
0
174
0
175
0
176
0
177
0
178
0
270
2
179
2
271
2
272
2
273
2
274
2
275
0
280
0
281
0
282
0
283
1
284
8
285
0
286
0
287
3
288
0
340
11
278
46
341
212
342
212
343
212
344
212
  0
ENDTAB
  0
ENDSEC
  0
SECTION
  2
BLOCKS
  0
BLOCK
  5
20
100
AcDbEntity
  8
0
100
AcDbBlockBegin
  2
*Model_Space
 70
0
 10
0.0
 20
0.0
 30
0.0
  3
*Model_Space
  1

  0
ENDBLK
  5
21
100
AcDbEntity
  8
0
100
AcDbBlockEnd
  0
BLOCK
  5
1C
100
AcDbEntity
  8
0
100
AcDbBlockBegin
  2
*Paper_Space
 70
0
 10
0.0
 20
0.0
 30
0.0
  3
*Paper_Space
  1

  0
ENDBLK
  5
1D
100
AcDbEntity
  8
0
100
AcDbBlockEnd
  0
BLOCK
  5
214
100
AcDbEntity
  8
0
100
AcDbBlockBegin
  2
_FILLED
 70
64
 10
0.0
 20
0.0
  3
_FILLED
  1

  0
SOLID
  5
215
100
AcDbEntity
  8
0
  6
BYBLOCK
 62
0
100
AcDbTrace
 10
0.0
 20
0.0
 11
-1.0
 21
0.25
 12
-1.0
 22
-0.25
 13
-1.0
 23
-0.25
  0
ENDBLK
  5
216
100
AcDbEntity
  8
0
  6
BYBLOCK
 62
0
100
AcDbBlockEnd
  0
ENDSEC
  0
SECTION
  2
ENTITIES
  0
LINE
  5
217
100
AcDbEntity
  8
0
100
AcDbLine
 62
7
  6
BYLAYER
 10
27.7551132498
 20
77.0032351959
 11
18.4937224735
 21
91.3236504557
  0
LINE
  5
218
100
AcDbEntity
  8
0
100
AcDbLine
 62
7
  6
BYLAYER
 10
25.7660643937
 20
97.1326911062
 11
35.02745517
 21
82.8122758465
  0
LINE
  5
219
100
AcDbEntity
  8
0
100
AcDbLine
 62
7
  6
BYLAYER
 10
26.8267201495
 20
97.745057337
 11
36.0881109259
 21
83.4246420773
  0
LINE
  5
21A
100
AcDbEntity
  8
0
100
AcDbLine
 62
7
  6
BYLAYER
 10
19.190567097
 20
101.7687505809
 11
18.1299113411
 21
101.1563843501
  0
LINE
  5
21B
100
AcDbEntity
  8
0
100
AcDbLine
 62
7
  6
BYLAYER
 10
26.8267201495
 20
97.745057337
 11
25.7660643937
 21
97.1326911062
  0
LINE
  5
21C
100
AcDbEntity
  8
0
100
AcDbLine
 62
7
  6
BYLAYER
 10
27.7551132498
 20
77.0032351959
 11
35.02745517
 21
82.8122758465
  0
LINE
  5
21D
100
AcDbEntity
  8
0
100
AcDbLine
 62
7
  6
BYLAYER
 10
40.6469710778
 20
80.8803176458
 11
33.3746291576
 21
75.0712769952
  0
LINE
  5
21E
100
AcDbEntity
  8
0
100
AcDbLine
 62
7
  6
BYLAYER
 10
107.2907461979
 20
121.7089684478
 11
106.2300904421
 21
121.096602217
  0
LINE
  5
21F
100
AcDbEntity
  8
0
100
AcDbLine
 62
7
  6
BYLAYER
 10
39.8344548644
 20
82.1366699435
 11
116.5552212021
 21
126.4311606386
  0
LINE
  5
220
100
AcDbEntity
  8
0
100
AcDbLine
 62
7
  6
BYLAYER
 10
118.2695229459
 20
119.3812905826
 11
118.2025864626
 21
119.3564496579
  0
LINE
  5
221
100
AcDbEntity
  8
0
100
AcDbLine
 62
7
  6
BYLAYER
 10
107.5252201493
 20
115.2827061748
 11
107.4582836659
 21
115.2578652501
  0
LINE
  5
222
100
AcDbEntity
  8
0
100
AcDbLine
 62
7
  6
BYLAYER
 10
40.6469710778
 20
80.8803176458
 11
117.3677374155
 21
125.1748083409
  0
LINE
  5
223
100
AcDbEntity
  8
0
100
AcDbLine
 62
7
  6
BYLAYER
 10
110.0953954953
 20
119.3657676903
 11
33.3746291576
 21
75.0712769952
  0
LINE
  5
224
100
AcDbEntity
  8
0
100
AcDbLine
 62
7
  6
BYLAYER
 10
108.086566471
 20
118.2030634735
 11
107.1980400325
 21
117.6900755572
  0
LINE
  5
225
100
AcDbEntity
  8
0
100
AcDbLine
 62
7
  6
BYLAYER
 10
120.3015651406
 20
125.1431885048
 11
119.2409093848
 21
124.530822274
  0
LINE
  5
226
100
AcDbEntity
  8
0
100
AcDbLine
 62
7
  6
BYLAYER
 10
118.8308692676
 20
122.3016478812
 11
117.9423428291
 21
121.7886599649
  0
LINE
  5
227
100
AcDbEntity
  8
0
100
AcDbLine
 62
7
  6
BYLAYER
 10
108.1058915713
 20
115.6551351231
 11
107.6249553916
 21
115.3774685959
  0
LINE
  5
228
100
AcDbEntity
  8
0
100
AcDbLine
 62
7
  6
BYLAYER
 10
108.0959002569
 20
115.6121631026
 11
107.5252314975
 21
115.2826871125
  0
LINE
  5
229
100
AcDbEntity
  8
0
100
AcDbLine
 62
7
  6
BYLAYER
 10
108.0209426842
 20
115.1488444894
 11
107.4371730335
 21
114.811806674
  0
LINE
  5
22A
100
AcDbEntity
  8
0
100
AcDbLine
 62
7
  6
BYLAYER
 10
107.3452732468
 20
114.5419124179
 11
108.4563590344
 21
115.1834164375
  0
LINE
  5
22B
100
AcDbEntity
  8
0
100
AcDbLine
 62
7
  6
BYLAYER
 10
107.6249547462
 20
114.4865630305
 11
108.2087233466
 21
114.8235977704
  0
LINE
  5
22C
100
AcDbEntity
  8
0
100
AcDbLine
 62
7
  6
BYLAYER
 10
108.6477430898
 20
114.6570350435
 11
108.0767793776
 21
114.3273887634
  0
LINE
  5
22D
100
AcDbEntity
  8
0
100
AcDbLine
 62
7
  6
BYLAYER
 10
108.2087219958
 20
114.3663632508
 11
108.689497888
 21
114.6439391211
  0
LINE
  5
22E
100
AcDbEntity
  8
0
100
AcDbLine
 62
7
  6
BYLAYER
 10
126.6197723251
 20
124.6508065189
 11
123.8871164422
 21
123.0731163269
  0
LINE
  5
22F
100
AcDbEntity
  8
0
100
AcDbLine
 62
7
  6
BYLAYER
 10
118.8501943679
 20
119.7537195309
 11
118.3692581883
 21
119.4760530036
  0
LINE
  5
230
100
AcDbEntity
  8
0
100
AcDbLine
 62
7
  6
BYLAYER
 10
124.2613796014
 20
122.8570402795
 11
123.2007238456
 21
122.2446740487
  0
LINE
  5
231
100
AcDbEntity
  8
0
100
AcDbLine
 62
7
  6
BYLAYER
 10
118.8402030536
 20
119.7107475104
 11
118.2695342941
 21
119.3812715203
  0
LINE
  5
232
100
AcDbEntity
  8
0
100
AcDbLine
 62
7
  6
BYLAYER
 10
118.7652454809
 20
119.2474288972
 11
118.1814758302
 21
118.9103910818
  0
LINE
  5
233
100
AcDbEntity
  8
0
100
AcDbLine
 62
7
  6
BYLAYER
 10
118.0895760434
 20
118.6404968257
 11
119.200661831
 21
119.2820008452
  0
LINE
  5
234
100
AcDbEntity
  8
0
100
AcDbLine
 62
7
  6
BYLAYER
 10
118.3692575428
 20
118.5851474383
 11
118.9530261432
 21
118.9221821782
  0
LINE
  5
235
100
AcDbEntity
  8
0
100
AcDbLine
 62
7
  6
BYLAYER
 10
119.3920458864
 20
118.7556194512
 11
118.8210821743
 21
118.4259731711
  0
LINE
  5
236
100
AcDbEntity
  8
0
100
AcDbLine
 62
7
  6
BYLAYER
 10
118.9530247925
 20
118.4649476585
 11
119.4338006846
 21
118.7425235288
  0
LINE
  5
237
100
AcDbEntity
  8
0
100
AcDbLine
 62
7
  6
BYLAYER
 10
127.5597681168
 20
123.0226763302
 11
124.2613796014
 21
121.1183622001
  0
LINE
  5
238
100
AcDbEntity
  8
0
100
AcDbLine
 62
7
  6
BYLAYER
 10
110.8865539357
 20
113.353313975
 11
109.9980274972
 21
112.8403260587
  0
LINE
  5
239
100
AcDbEntity
  8
0
100
AcDbLine
 62
7
  6
BYLAYER
 10
108.0267892428
 20
115.1182751299
 11
108.0218071049
 21
115.1171789564
  0
LINE
  5
23A
100
AcDbEntity
  8
0
100
AcDbLine
 62
7
  6
BYLAYER
 10
118.7710920395
 20
119.2168595377
 11
118.7661099016
 21
119.2157633641
  0
LINE
  5
23B
100
AcDbEntity
  8
0
100
AcDbLine
 62
7
  6
BYLAYER
 10
108.0269540497
 20
115.1181888763
 11
108.0218071049
 21
115.1171789564
  0
LINE
  5
23C
100
AcDbEntity
  8
0
100
AcDbLine
 62
7
  6
BYLAYER
 10
107.4334537998
 20
115.2721040578
 11
107.4016645356
 21
115.2662112423
  0
LINE
  5
23D
100
AcDbEntity
  8
0
100
AcDbLine
 62
7
  6
BYLAYER
 10
107.6418192606
 20
115.3104286855
 11
107.5411901468
 21
115.291900788
  0
LINE
  5
23E
100
AcDbEntity
  8
0
100
AcDbLine
 62
7
  6
BYLAYER
 10
110.0953954953
 20
119.3657676903
 11
117.3677374155
 21
125.1748083409
  0
LINE
  5
23F
100
AcDbEntity
  8
0
100
AcDbLine
 62
7
  6
BYLAYER
 10
111.2867854095
 20
118.1771840624
 11
119.2409093848
 21
124.530822274
  0
LINE
  5
240
100
AcDbEntity
  8
0
100
AcDbLine
 62
7
  6
BYLAYER
 10
121.6308567323
 20
117.4518983828
 11
120.7423302939
 21
116.9389104665
  0
LINE
  5
241
100
AcDbEntity
  8
0
100
AcDbLine
 62
7
  6
BYLAYER
 10
119.3653244533
 20
113.1879468755
 11
118.3046686975
 21
112.5755806447
  0
LINE
  5
242
100
AcDbEntity
  8
0
100
AcDbLine
 62
7
  6
BYLAYER
 10
118.7712568463
 20
119.216773284
 11
118.7661099016
 21
119.2157633641
  0
LINE
  5
243
100
AcDbEntity
  8
0
100
AcDbLine
 62
7
  6
BYLAYER
 10
118.1777565965
 20
119.3706884656
 11
118.1459673323
 21
119.36479565
  0
LINE
  5
244
100
AcDbEntity
  8
0
100
AcDbLine
 62
7
  6
BYLAYER
 10
118.3861220573
 20
119.4090130932
 11
118.2854929434
 21
119.3904851958
  0
LINE
  5
245
100
AcDbEntity
  8
0
100
AcDbLine
 62
7
  6
BYLAYER
 10
118.3860621353
 20
119.4091218446
 11
118.2854311564
 21
119.3905968238
  0
LINE
  5
246
100
AcDbEntity
  8
0
100
AcDbLine
 62
7
  6
BYLAYER
 10
113.056459681
 20
114.5928265388
 11
112.9727244833
 21
114.5293758103
  0
LINE
  5
247
100
AcDbEntity
  8
0
100
AcDbLine
 62
7
  6
BYLAYER
 10
114.3064285398
 20
112.4278040008
 11
114.3901637375
 21
112.4912547293
  0
LINE
  5
248
100
AcDbEntity
  8
0
100
AcDbLine
 62
7
  6
BYLAYER
 10
124.2613796014
 20
115.1527049354
 11
123.2007238456
 21
114.5403387045
  0
LINE
  5
249
100
AcDbEntity
  8
0
100
AcDbLine
 62
7
  6
BYLAYER
 10
118.5299907636
 20
110.9699380976
 11
119.5906465195
 21
111.5823043284
  0
LINE
  5
24A
100
AcDbEntity
  8
0
100
AcDbLine
 62
7
  6
BYLAYER
 10
118.8051690075
 20
109.1592155572
 11
117.7445132517
 21
108.5468493264
  0
LINE
  5
24B
100
AcDbEntity
  8
0
100
AcDbLine
 62
7
  6
BYLAYER
 10
108.0928345498
 20
114.3365097998
 11
108.1591724528
 21
114.414372297
  0
LINE
  5
24C
100
AcDbEntity
  8
0
100
AcDbLine
 62
7
  6
BYLAYER
 10
118.8371373464
 20
118.4350942075
 11
118.9034752494
 21
118.5129567047
  0
LINE
  5
24D
100
AcDbEntity
  8
0
100
AcDbLine
 62
7
  6
BYLAYER
 10
115.7445222054
 20
108.7449464425
 11
106.2300904421
 21
114.2379819131
  0
LINE
  5
24E
100
AcDbEntity
  8
0
100
AcDbLine
 62
7
  6
BYLAYER
 10
108.1867884703
 20
114.3908787072
 11
108.181724067
 21
114.3741501825
  0
LINE
  5
24F
100
AcDbEntity
  8
0
100
AcDbLine
 62
7
  6
BYLAYER
 10
106.6185393362
 20
116.3613538667
 11
106.6181265345
 21
116.4082749206
  0
LINE
  5
250
100
AcDbEntity
  8
0
100
AcDbLine
 62
7
  6
BYLAYER
 10
106.2300904421
 20
114.2379819131
 11
106.2300904421
 21
117.1341460983
  0
LINE
  5
251
100
AcDbEntity
  8
0
100
AcDbLine
 62
7
  6
BYLAYER
 10
106.2300904421
 20
120.4699791983
 11
106.2300904421
 21
121.096602217
  0
LINE
  5
252
100
AcDbEntity
  8
0
100
AcDbLine
 62
7
  6
BYLAYER
 10
106.2300904421
 20
121.096602217
 11
106.7727696529
 21
120.7832933165
  0
LINE
  5
253
100
AcDbEntity
  8
0
100
AcDbLine
 62
7
  6
BYLAYER
 10
109.6617271604
 20
119.1153906549
 11
111.2867854095
 21
118.1771840624
  0
LINE
  5
254
100
AcDbEntity
  8
0
100
AcDbLine
 62
7
  6
BYLAYER
 10
107.8334254087
 20
121.3956595474
 11
107.2907461979
 21
121.7089684478
  0
LINE
  5
255
100
AcDbEntity
  8
0
100
AcDbLine
 62
7
  6
BYLAYER
 10
118.9310912669
 20
118.489463115
 11
118.9260268636
 21
118.4727345902
  0
LINE
  5
256
100
AcDbEntity
  8
0
100
AcDbLine
 62
7
  6
BYLAYER
 10
123.2007238456
 20
114.5403387045
 11
121.7865043953
 21
115.3568202136
  0
LINE
  5
257
100
AcDbEntity
  8
0
100
AcDbLine
 62
7
  6
BYLAYER
 10
117.3628421329
 20
120.4599382745
 11
117.3624293311
 21
120.5068593283
  0
LINE
  5
258
100
AcDbEntity
  8
0
100
AcDbLine
 62
7
  6
BYLAYER
 10
119.2409093848
 20
124.530822274
 11
123.2007238456
 21
122.2446740487
  0
LINE
  5
259
100
AcDbEntity
  8
0
100
AcDbLine
 62
7
  6
BYLAYER
 10
124.2613796014
 20
122.8570402795
 11
120.3015651406
 21
125.1431885048
  0
LINE
  5
25A
100
AcDbEntity
  8
0
100
AcDbLine
 62
7
  6
BYLAYER
 10
118.3046686975
 20
112.5755806447
 11
118.5299907636
 21
110.9699380976
  0
LINE
  5
25B
100
AcDbEntity
  8
0
100
AcDbLine
 62
7
  6
BYLAYER
 10
119.5906465195
 20
111.5823043284
 11
119.3653244533
 21
113.1879468756
  0
LINE
  5
25C
100
AcDbEntity
  8
0
100
AcDbLine
 62
7
  6
BYLAYER
 10
123.2007238456
 20
122.2446740487
 11
123.2007238456
 21
114.5403387045
  0
LINE
  5
25D
100
AcDbEntity
  8
0
100
AcDbLine
 62
7
  6
BYLAYER
 10
124.2613796014
 20
115.1527049353
 11
124.2613796014
 21
122.8570402795
  0
LINE
  5
25E
100
AcDbEntity
  8
0
100
AcDbLine
 62
7
  6
BYLAYER
 10
127.1853151849
 20
124.5411212211
 11
127.0897702209
 21
124.6042536967
  0
LINE
  5
25F
100
AcDbEntity
  8
0
100
AcDbLine
 62
7
  6
BYLAYER
 10
127.3628875193
 20
124.4088187961
 11
127.1853151849
 21
124.5411212211
  0
LINE
  5
260
100
AcDbEntity
  8
0
100
AcDbLine
 62
7
  6
BYLAYER
 10
127.7544533626
 20
123.4529951153
 11
127.7475521077
 21
123.5672924919
  0
LINE
  5
261
100
AcDbEntity
  8
0
100
AcDbLine
 62
7
  6
BYLAYER
 10
127.7217621509
 20
123.7872259903
 11
127.7475521077
 21
123.5672924919
  0
ARC
  5
262
100
AcDbEntity
  8
0
100
AcDbCircle
 62
7
  6
BYLAYER
 10
-44.3653688582
 20
244.4058859903
 40
200.4034772968
100
AcDbArc
 50
319.3818124994
 51
319.4996026918
  0
ARC
  5
263
100
AcDbEntity
  8
0
100
AcDbCircle
 62
7
  6
BYLAYER
 10
-33.6210660446
 20
248.5044703836
 40
200.4034772746
100
AcDbArc
 50
319.3818124994
 51
319.4996026918
  0
ARC
  5
264
100
AcDbEntity
  8
0
100
AcDbCircle
 62
7
  6
BYLAYER
 10
49.1596148483
 20
177.8977284578
 40
91.6010763028
100
AcDbArc
 50
319.586617795
 51
319.8491555289
  0
ARC
  5
265
100
AcDbEntity
  8
0
100
AcDbCircle
 62
7
  6
BYLAYER
 10
38.415312063
 20
173.7991440404
 40
91.6010762878
100
AcDbArc
 50
319.5866177949
 51
319.8491555289
  0
ARC
  5
266
100
AcDbEntity
  8
0
100
AcDbCircle
 62
7
  6
BYLAYER
 10
133.181948375
 20
39.0242518465
 40
81.7352162427
100
AcDbArc
 50
100.1358869337
 51
100.4293039917
  0
ARC
  5
267
100
AcDbEntity
  8
0
100
AcDbCircle
 62
7
  6
BYLAYER
 10
122.4376455777
 20
34.9256674427
 40
81.7352162386
100
AcDbArc
 50
100.1358869337
 51
100.4293039917
  0
ARC
  5
268
100
AcDbEntity
  8
0
100
AcDbCircle
 62
7
  6
BYLAYER
 10
132.0520794085
 20
127.6504926574
 40
15.9584638074
100
AcDbArc
 50
210.5746673077
 51
210.8533503266
  0
ARC
  5
269
100
AcDbEntity
  8
0
100
AcDbCircle
 62
7
  6
BYLAYER
 10
121.3077766089
 20
123.5519082479
 40
15.958463804
100
AcDbArc
 50
210.5746673077
 51
210.8533503266
  0
ARC
  5
26A
100
AcDbEntity
  8
0
100
AcDbCircle
 62
7
  6
BYLAYER
 10
132.8021281662
 20
126.1874574593
 40
15.8764958937
100
AcDbArc
 50
209.1462222655
 51
209.428952751
  0
ARC
  5
26B
100
AcDbEntity
  8
0
100
AcDbCircle
 62
7
  6
BYLAYER
 10
122.0578253657
 20
122.0888730493
 40
15.8764958892
100
AcDbArc
 50
209.1462222655
 51
209.428952751
  0
ARC
  5
26C
100
AcDbEntity
  8
0
100
AcDbCircle
 62
7
  6
BYLAYER
 10
120.2423268134
 20
122.9257084139
 40
14.722623641
100
AcDbArc
 50
208.8361684012
 51
210.5856229591
  0
ARC
  5
26D
100
AcDbEntity
  8
0
100
AcDbCircle
 62
7
  6
BYLAYER
 10
130.9866296102
 20
127.0242928218
 40
14.7226236412
100
AcDbArc
 50
208.8361684012
 51
210.5856229591
  0
ARC
  5
26E
100
AcDbEntity
  8
0
100
AcDbCircle
 62
7
  6
BYLAYER
 10
120.681412237
 20
121.3014050318
 40
14.2907729212
100
AcDbArc
 50
209.3906025671
 51
211.1904264634
  0
ARC
  5
26F
100
AcDbEntity
  8
0
100
AcDbCircle
 62
7
  6
BYLAYER
 10
131.4257150334
 20
125.3999894394
 40
14.290772921
100
AcDbArc
 50
209.3906025671
 51
211.1904264634
  0
ARC
  5
270
100
AcDbEntity
  8
0
100
AcDbCircle
 62
7
  6
BYLAYER
 10
110.6179263429
 20
116.4313793704
 40
4.0
100
AcDbArc
 50
181.0030926963
 51
238.9913067442
  0
ARC
  5
271
100
AcDbEntity
  8
0
100
AcDbCircle
 62
7
  6
BYLAYER
 10
121.3622291395
 20
120.5299637782
 40
4.0
100
AcDbArc
 50
181.0030926963
 51
238.9913067442
  0
ARC
  5
272
100
AcDbEntity
  8
0
100
AcDbCircle
 62
7
  6
BYLAYER
 10
110.2138698149
 20
116.3397201144
 40
3.0066749264
100
AcDbArc
 50
223.1918923986
 51
223.5014688049
  0
ARC
  5
273
100
AcDbEntity
  8
0
100
AcDbCircle
 62
7
  6
BYLAYER
 10
120.9581726106
 20
120.4383045213
 40
3.0066749252
100
AcDbArc
 50
223.1918923985
 51
223.5014688049
  0
ARC
  5
274
100
AcDbEntity
  8
0
100
AcDbCircle
 62
7
  6
BYLAYER
 10
121.0771803359
 20
120.2248009453
 40
3.0028859277
100
AcDbArc
 50
196.4982051111
 51
196.8084064752
  0
ARC
  5
275
100
AcDbEntity
  8
0
100
AcDbCircle
 62
7
  6
BYLAYER
 10
110.3328775286
 20
116.1262165343
 40
3.0028859166
100
AcDbArc
 50
196.4982051106
 51
196.8084064758
  0
ARC
  5
276
100
AcDbEntity
  8
0
100
AcDbCircle
 62
7
  6
BYLAYER
 10
110.323912973
 20
116.1237793069
 40
2.9935983145
100
AcDbArc
 50
185.7301656951
 51
196.5022036952
  0
ARC
  5
277
100
AcDbEntity
  8
0
100
AcDbCircle
 62
7
  6
BYLAYER
 10
121.0682157696
 20
120.2223637146
 40
2.9935983145
100
AcDbArc
 50
185.7301656951
 51
196.5022036952
  0
ARC
  5
278
100
AcDbEntity
  8
0
100
AcDbCircle
 62
7
  6
BYLAYER
 10
110.2040169694
 20
116.3300129954
 40
2.9928459895
100
AcDbArc
 50
223.4965163883
 51
234.2714945782
  0
ARC
  5
279
100
AcDbEntity
  8
0
100
AcDbCircle
 62
7
  6
BYLAYER
 10
120.948319766
 20
120.4285974031
 40
2.9928459895
100
AcDbArc
 50
223.4965163883
 51
234.2714945782
  0
ARC
  5
27A
100
AcDbEntity
  8
0
100
AcDbCircle
 62
7
  6
BYLAYER
 10
108.983458551
 20
115.6478770717
 40
0.9122967532
100
AcDbArc
 50
183.0307232275
 51
187.5666499036
  0
ARC
  5
27B
100
AcDbEntity
  8
0
100
AcDbCircle
 62
7
  6
BYLAYER
 10
119.7277613478
 20
119.7464614795
 40
0.9122967533
100
AcDbArc
 50
183.0307232276
 51
187.5666499034
  0
ARC
  5
27C
100
AcDbEntity
  8
0
100
AcDbCircle
 62
7
  6
BYLAYER
 10
109.1172623198
 20
115.4001876751
 40
0.9033739821
100
AcDbArc
 50
234.1519047878
 51
237.2291344233
  0
ARC
  5
27D
100
AcDbEntity
  8
0
100
AcDbCircle
 62
7
  6
BYLAYER
 10
119.8615651164
 20
119.4987720828
 40
0.903373982
100
AcDbArc
 50
234.1519047877
 51
237.2291344235
  0
ARC
  5
27E
100
AcDbEntity
  8
0
100
AcDbCircle
 62
7
  6
BYLAYER
 10
107.4946491488
 20
115.4089183849
 40
0.1157570163
100
AcDbArc
 50
337.0205927479
 51
342.4151141651
  0
ARC
  5
27F
100
AcDbEntity
  8
0
100
AcDbCircle
 62
7
  6
BYLAYER
 10
118.2389519454
 20
119.5075027926
 40
0.1157570163
100
AcDbArc
 50
337.0205927474
 51
342.4151141657
  0
SPLINE
  5
280
100
AcDbEntity
  8
0
100
AcDbSpline
 62
7
  6
BYLAYER
 70
0
 71
3
 72
10
 73
6
 74
0
 42
0.0000001
 43
0.0000001
 44
0.0000000001
 40
0.0
 40
0.0
 40
0.0
 40
0.0
 40
0.3850843535
 40
0.65807039
 40
1.0
 40
1.0
 40
1.0
 40
1.0
 10
107.6352334679
 20
115.3461982379
 30
0.0
 10
107.6332243699
 20
115.3450388101
 30
0.0
 10
107.6287858292
 20
115.3451828857
 30
0.0
 10
107.6232276359
 20
115.3473118984
 30
0.0
 10
107.619952508
 20
115.3491123214
 30
0.0
 10
107.6182007819
 20
115.3501957345
 30
0.0
  0
SPLINE
  5
281
100
AcDbEntity
  8
0
100
AcDbSpline
 62
7
  6
BYLAYER
 70
0
 71
3
 72
24
 73
20
 74
0
 42
0.0000001
 43
0.0000001
 44
0.0000000001
 40
0.0
 40
0.0
 40
0.0
 40
0.0
 40
0.0623869303
 40
0.1287322985
 40
0.1983293035
 40
0.2703108151
 40
0.3436937598
 40
0.4174318658
 40
0.490462232
 40
0.5617543997
 40
0.6303568353
 40
0.6954492078
 40
0.7564012727
 40
0.8128427822
 40
0.8647473259
 40
0.9125259475
 40
0.9571040528
 40
0.978666144
 40
1.0
 40
1.0
 40
1.0
 40
1.0
 10
111.4664674337
 20
114.6351146116
 30
0.0
 10
111.4664674337
 20
114.7512740061
 30
0.0
 10
111.4507291027
 20
114.99112293
 30
0.0
 10
111.3859760531
 20
115.3552997065
 30
0.0
 10
111.2806914682
 20
115.7284633053
 30
0.0
 10
111.1371403233
 20
116.1026330576
 30
0.0
 10
110.9583665
 20
116.4698796986
 30
0.0
 10
110.7481896142
 20
116.8223680415
 30
0.0
 10
110.5110901711
 20
117.1525769513
 30
0.0
 10
110.2521219751
 20
117.4534686032
 30
0.0
 10
109.9767782702
 20
117.7186463004
 30
0.0
 10
109.6908553227
 20
117.942490353
 30
0.0
 10
109.4002851961
 20
118.1202552104
 30
0.0
 10
109.1109849477
 20
118.2481218779
 30
0.0
 10
108.8286625917
 20
118.3231061433
 30
0.0
 10
108.5590283091
 20
118.3430222532
 30
0.0
 10
108.3470476562
 20
118.3118239649
 30
0.0
 10
108.1927904031
 20
118.2584537723
 30
0.0
 10
108.1209673069
 20
118.2229232904
 30
0.0
 10
108.0865670857
 20
118.2030624088
 30
0.0
  0
SPLINE
  5
282
100
AcDbEntity
  8
0
100
AcDbSpline
 62
7
  6
BYLAYER
 70
0
 71
3
 72
9
 73
5
 74
0
 42
0.0000001
 43
0.0000001
 44
0.0000000001
 40
0.0
 40
0.0
 40
0.0
 40
0.0
 40
0.7491682452
 40
1.0
 40
1.0
 40
1.0
 40
1.0
 10
108.0767792133
 20
114.327389026
 30
0.0
 10
108.0612944062
 20
114.318448236
 30
0.0
 10
108.0419776566
 20
114.3038436363
 30
0.0
 10
108.0256853581
 20
114.286380129
 30
0.0
 10
108.0218068969
 20
114.2818196609
 30
0.0
  0
LINE
  5
283
100
AcDbEntity
  8
0
100
AcDbLine
 62
7
  6
BYLAYER
 10
108.1916177833
 20
114.3563825706
 11
108.181724067
 21
114.3741501825
  0
SPLINE
  5
284
100
AcDbEntity
  8
0
100
AcDbSpline
 62
7
  6
BYLAYER
 70
0
 71
3
 72
9
 73
5
 74
0
 42
0.0000001
 43
0.0000001
 44
0.0000000001
 40
0.0
 40
0.0
 40
0.0
 40
0.0
 40
0.2393511515
 40
1.0
 40
1.0
 40
1.0
 40
1.0
 10
108.8752193202
 20
114.1303845444
 30
0.0
 10
108.8787567565
 20
114.1473925275
 30
0.0
 10
108.8914597682
 20
114.2188790702
 30
0.0
 10
108.8962070357
 20
114.2916808091
 30
0.0
 10
108.8962070357
 20
114.3468882321
 30
0.0
  0
SPLINE
  5
285
100
AcDbEntity
  8
0
100
AcDbSpline
 62
7
  6
BYLAYER
 70
0
 71
3
 72
14
 73
10
 74
0
 42
0.0000001
 43
0.0000001
 44
0.0000000001
 40
0.0
 40
0.0
 40
0.0
 40
0.0
 40
0.2892790727
 40
0.4225381918
 40
0.5484929045
 40
0.6678927357
 40
0.7818659568
 40
0.8919501776
 40
1.0
 40
1.0
 40
1.0
 40
1.0
 10
106.6181265345
 20
116.4082749206
 30
0.0
 10
106.6181265345
 20
116.5501989593
 30
0.0
 10
106.634696841
 20
116.758520293
 30
0.0
 10
106.6987373284
 20
117.020360321
 30
0.0
 10
106.7639026732
 20
117.1948349536
 30
0.0
 10
106.8469380343
 20
117.3509770277
 30
0.0
 10
106.9472434848
 20
117.4872017494
 30
0.0
 10
107.063871085
 20
117.6019739756
 30
0.0
 10
107.1521314721
 20
117.6635702473
 30
0.0
 10
107.1980400315
 20
117.6900755588
 30
0.0
  0
SPLINE
  5
286
100
AcDbEntity
  8
0
100
AcDbSpline
 62
7
  6
BYLAYER
 70
0
 71
3
 72
9
 73
5
 74
0
 42
0.0000001
 43
0.0000001
 44
0.0000000001
 40
0.0
 40
0.0
 40
0.0
 40
0.0
 40
0.2412193435
 40
1.0
 40
1.0
 40
1.0
 40
1.0
 10
108.8962070357
 20
114.3468882321
 30
0.0
 10
108.8962070357
 20
114.366331321
 30
0.0
 10
108.8943391176
 20
114.4469306572
 30
0.0
 10
108.8853352357
 20
114.5273080179
 30
0.0
 10
108.8752193202
 20
114.587625898
 30
0.0
  0
SPLINE
  5
287
100
AcDbEntity
  8
0
100
AcDbSpline
 62
7
  6
BYLAYER
 70
0
 71
3
 72
9
 73
5
 74
0
 42
0.0000001
 43
0.0000001
 44
0.0000000001
 40
0.0
 40
0.0
 40
0.0
 40
0.0
 40
0.2565950473
 40
1.0
 40
1.0
 40
1.0
 40
1.0
 10
108.8752193202
 20
114.587625898
 30
0.0
 10
108.8169632636
 20
114.6039550498
 30
0.0
 10
108.5909853286
 20
114.6712612836
 30
0.0
 10
108.3693183486
 20
114.7533767642
 30
0.0
 10
108.2087185662
 20
114.8236060504
 30
0.0
  0
SPLINE
  5
288
100
AcDbEntity
  8
0
100
AcDbSpline
 62
7
  6
BYLAYER
 70
0
 71
3
 72
9
 73
5
 74
0
 42
0.0000001
 43
0.0000001
 44
0.0000000001
 40
0.0
 40
0.0
 40
0.0
 40
0.0
 40
0.5262769707
 40
1.0
 40
1.0
 40
1.0
 40
1.0
 10
108.1498164932
 20
115.8440534755
 30
0.0
 10
108.0876805142
 20
115.8953109782
 30
0.0
 10
107.9624126749
 20
115.9844604305
 30
0.0
 10
107.8226937399
 20
116.0499621624
 30
0.0
 10
107.7538350472
 20
116.072668298
 30
0.0
  0
LINE
  5
289
100
AcDbEntity
  8
0
100
AcDbLine
 62
7
  6
BYLAYER
 10
107.6182007819
 20
115.3501957345
 11
107.6077108503
 21
115.3677305131
  0
SPLINE
  5
28A
100
AcDbEntity
  8
0
100
AcDbSpline
 62
7
  6
BYLAYER
 70
0
 71
3
 72
9
 73
5
 74
0
 42
0.0000001
 43
0.0000001
 44
0.0000000001
 40
0.0
 40
0.0
 40
0.0
 40
0.0
 40
0.2320623364
 40
1.0
 40
1.0
 40
1.0
 40
1.0
 10
108.0218070942
 20
114.2818195528
 30
0.0
 10
108.0213707602
 20
114.2800175842
 30
0.0
 10
108.0199339497
 20
114.2721447647
 30
0.0
 10
108.0201554472
 20
114.2640304657
 30
0.0
 10
108.020936738
 20
114.257945037
 30
0.0
  0
SPLINE
  5
28B
100
AcDbEntity
  8
0
100
AcDbSpline
 62
7
  6
BYLAYER
 70
0
 71
3
 72
9
 73
5
 74
0
 42
0.0000001
 43
0.0000001
 44
0.0000000001
 40
0.0
 40
0.0
 40
0.0
 40
0.0
 40
0.2608313393
 40
1.0
 40
1.0
 40
1.0
 40
1.0
 10
108.020936656
 20
114.2579453538
 30
0.0
 10
108.0271588591
 20
114.2094809708
 30
0.0
 10
108.0555015304
 20
114.0243148612
 30
0.0
 10
108.1025963806
 20
113.8417312487
 30
0.0
 10
108.1498164932
 20
113.7115610526
 30
0.0
  0
SPLINE
  5
28C
100
AcDbEntity
  8
0
100
AcDbSpline
 62
7
  6
BYLAYER
 70
0
 71
3
 72
14
 73
10
 74
0
 42
0.0000001
 43
0.0000001
 44
0.0000000001
 40
0.0
 40
0.0
 40
0.0
 40
0.0
 40
0.1074468662
 40
0.2170236669
 40
0.3306597027
 40
0.4499344367
 40
0.57600143
 40
0.7095917955
 40
1.0
 40
1.0
 40
1.0
 40
1.0
 10
109.9980274937
 20
112.8403260648
 30
0.0
 10
109.9509108752
 20
112.8131238387
 30
0.0
 10
109.8506871011
 20
112.7664748888
 30
0.0
 10
109.6883028714
 20
112.7227194652
 30
0.0
 10
109.5150596741
 20
112.7051716272
 30
0.0
 10
109.3329060813
 20
112.7138630473
 30
0.0
 10
109.14365282
 20
112.7484844766
 30
0.0
 10
108.8770852618
 20
112.8308718676
 30
0.0
 10
108.6832815073
 20
112.9272613675
 30
0.0
 10
108.5572538622
 20
113.0030233039
 30
0.0
  0
SPLINE
  5
28D
100
AcDbEntity
  8
0
100
AcDbSpline
 62
7
  6
BYLAYER
 70
0
 71
3
 72
14
 73
10
 74
0
 42
0.0000001
 43
0.0000001
 44
0.0000000001
 40
0.0
 40
0.0
 40
0.0
 40
0.0
 40
0.1080484388
 40
0.2181314306
 40
0.3321037149
 40
0.4515029974
 40
0.5774571708
 40
0.7107168732
 40
1.0
 40
1.0
 40
1.0
 40
1.0
 10
110.8865533209
 20
113.3533150397
 30
0.0
 10
110.9324613265
 20
113.379819912
 30
0.0
 10
111.0207209428
 20
113.4414149725
 30
0.0
 10
111.1373473824
 20
113.5561857832
 30
0.0
 10
111.237652941
 20
113.6924086566
 30
0.0
 10
111.3206884008
 20
113.8485494944
 30
0.0
 10
111.3858546298
 20
114.0230234352
 30
0.0
 10
111.4498968344
 20
114.2848650368
 30
0.0
 10
111.4664674337
 20
114.4931886388
 30
0.0
 10
111.4664674337
 20
114.6351146116
 30
0.0
  0
SPLINE
  5
28E
100
AcDbEntity
  8
0
100
AcDbSpline
 62
7
  6
BYLAYER
 70
0
 71
3
 72
9
 73
5
 74
0
 42
0.0000001
 43
0.0000001
 44
0.0000000001
 40
0.0
 40
0.0
 40
0.0
 40
0.0
 40
0.2396923351
 40
1.0
 40
1.0
 40
1.0
 40
1.0
 10
107.0284322202
 20
115.6538448062
 30
0.0
 10
107.0573332553
 20
115.6194773033
 30
0.0
 10
107.1823736469
 20
115.4798648096
 30
0.0
 10
107.3238901623
 20
115.3553953991
 30
0.0
 10
107.4371715155
 20
115.2690492669
 30
0.0
  0
SPLINE
  5
28F
100
AcDbEntity
  8
0
100
AcDbSpline
 62
7
  6
BYLAYER
 70
0
 71
3
 72
9
 73
5
 74
0
 42
0.0000001
 43
0.0000001
 44
0.0000000001
 40
0.0
 40
0.0
 40
0.0
 40
0.0
 40
0.2694293329
 40
1.0
 40
1.0
 40
1.0
 40
1.0
 10
107.4371720743
 20
115.2690487389
 30
0.0
 10
107.4388835064
 20
115.2677442152
 30
0.0
 10
107.4454011075
 20
115.2631371704
 30
0.0
 10
107.4526855848
 20
115.2595114258
 30
0.0
 10
107.4582835918
 20
115.2578651831
 30
0.0
  0
SPLINE
  5
290
100
AcDbEntity
  8
0
100
AcDbSpline
 62
7
  6
BYLAYER
 70
0
 71
3
 72
9
 73
5
 74
0
 42
0.0000001
 43
0.0000001
 44
0.0000000001
 40
0.0
 40
0.0
 40
0.0
 40
0.0
 40
0.2565978777
 40
1.0
 40
1.0
 40
1.0
 40
1.0
 10
108.1498164932
 20
115.8440534755
 30
0.0
 10
108.134830226
 20
115.7854367573
 30
0.0
 10
108.0801138872
 20
115.5560842161
 30
0.0
 10
108.0404145765
 20
115.3230525583
 30
0.0
 10
108.0209369309
 20
115.1488544545
 30
0.0
  0
SPLINE
  5
291
100
AcDbEntity
  8
0
100
AcDbSpline
 62
7
  6
BYLAYER
 70
0
 71
3
 72
9
 73
5
 74
0
 42
0.0000001
 43
0.0000001
 44
0.0000000001
 40
0.0
 40
0.0
 40
0.0
 40
0.0
 40
0.2417254811
 40
1.0
 40
1.0
 40
1.0
 40
1.0
 10
108.0209368607
 20
115.1488529274
 30
0.0
 10
108.0206526796
 20
115.1463113571
 30
0.0
 10
108.0198631329
 20
115.1357553586
 30
0.0
 10
108.0205682852
 20
115.1251051821
 30
0.0
 10
108.0218070073
 20
115.1171789963
 30
0.0
  0
SPLINE
  5
292
100
AcDbEntity
  8
0
100
AcDbSpline
 62
7
  6
BYLAYER
 70
0
 71
3
 72
15
 73
11
 74
0
 42
0.0000001
 43
0.0000001
 44
0.0000000001
 40
0.0
 40
0.0
 40
0.0
 40
0.0
 40
0.0407888883
 40
0.0914228179
 40
0.2145984012
 40
0.3525458919
 40
0.493645126
 40
0.7640948163
 40
0.887694578
 40
1.0
 40
1.0
 40
1.0
 40
1.0
 10
108.2580783252
 20
115.0689352151
 30
0.0
 10
108.2551723693
 20
115.0672574049
 30
0.0
 10
108.2480424399
 20
115.0645924075
 30
0.0
 10
108.2306298862
 20
115.0614579086
 30
0.0
 10
108.20482054
 20
115.0614273213
 30
0.0
 10
108.1719231797
 20
115.0652122405
 30
0.0
 10
108.1275778372
 20
115.0741910016
 30
0.0
 10
108.0853556126
 20
115.087192504
 30
0.0
 10
108.0469758365
 20
115.1034449634
 30
0.0
 10
108.0297366344
 20
115.1124376412
 30
0.0
 10
108.0218071049
 20
115.1171789564
 30
0.0
  0
SPLINE
  5
293
100
AcDbEntity
  8
0
100
AcDbSpline
 62
7
  6
BYLAYER
 70
0
 71
3
 72
11
 73
7
 74
0
 42
0.0000001
 43
0.0000001
 44
0.0000000001
 40
0.0
 40
0.0
 40
0.0
 40
0.0
 40
0.2194399712
 40
0.4656253992
 40
0.7295122325
 40
1.0
 40
1.0
 40
1.0
 40
1.0
 10
108.181723922
 20
114.8401960312
 30
0.0
 10
108.1815307972
 20
114.8528207329
 30
0.0
 10
108.183209916
 20
114.879639315
 30
0.0
 10
108.189890007
 20
114.9211263442
 30
0.0
 10
108.2008703136
 20
114.9647264427
 30
0.0
 10
108.2110250672
 20
114.9938244662
 30
0.0
 10
108.2170984218
 20
115.0081539133
 30
0.0
  0
SPLINE
  5
294
100
AcDbEntity
  8
0
100
AcDbSpline
 62
7
  6
BYLAYER
 70
0
 71
3
 72
11
 73
7
 74
0
 42
0.0000001
 43
0.0000001
 44
0.0000000001
 40
0.0
 40
0.0
 40
0.0
 40
0.0
 40
0.2983415218
 40
0.5757471031
 40
0.8149004329
 40
1.0
 40
1.0
 40
1.0
 40
1.0
 10
108.2170984218
 20
115.0081539133
 30
0.0
 10
108.219977542
 20
115.0149468973
 30
0.0
 10
108.2259960853
 20
115.0278618552
 30
0.0
 10
108.2359279765
 20
115.045446832
 30
0.0
 10
108.2462376852
 20
115.0594301961
 30
0.0
 10
108.2541141421
 20
115.0666464168
 30
0.0
 10
108.2580783252
 20
115.0689352151
 30
0.0
  0
SPLINE
  5
295
100
AcDbEntity
  8
0
100
AcDbSpline
 62
7
  6
BYLAYER
 70
0
 71
3
 72
9
 73
5
 74
0
 42
0.0000001
 43
0.0000001
 44
0.0000000001
 40
0.0
 40
0.0
 40
0.0
 40
0.0
 40
0.2583837773
 40
1.0
 40
1.0
 40
1.0
 40
1.0
 10
108.181723969
 20
114.8401962375
 30
0.0
 10
108.1838517744
 20
114.8384804082
 30
0.0
 10
108.1922855088
 20
114.8320937069
 30
0.0
 10
108.2015306746
 20
114.8267493391
 30
0.0
 10
108.2087189357
 20
114.8236059282
 30
0.0
  0
SPLINE
  5
296
100
AcDbEntity
  8
0
100
AcDbSpline
 62
7
  6
BYLAYER
 70
0
 71
3
 72
9
 73
5
 74
0
 42
0.0000001
 43
0.0000001
 44
0.0000000001
 40
0.0
 40
0.0
 40
0.0
 40
0.0
 40
0.4991663698
 40
1.0
 40
1.0
 40
1.0
 40
1.0
 10
108.1963376094
 20
114.3506368076
 30
0.0
 10
108.1762262627
 20
114.3550924131
 30
0.0
 10
108.1335016268
 20
114.3533993022
 30
0.0
 10
108.0946777364
 20
114.3377234741
 30
0.0
 10
108.0767792133
 20
114.327389026
 30
0.0
  0
SPLINE
  5
297
100
AcDbEntity
  8
0
100
AcDbSpline
 62
7
  6
BYLAYER
 70
0
 71
3
 72
9
 73
5
 74
0
 42
0.0000001
 43
0.0000001
 44
0.0000000001
 40
0.0
 40
0.0
 40
0.0
 40
0.0
 40
0.2396926417
 40
1.0
 40
1.0
 40
1.0
 40
1.0
 10
107.7538350472
 20
113.9401758751
 30
0.0
 10
107.7385217678
 20
113.9823895095
 30
0.0
 10
107.6801313632
 20
114.1604873156
 30
0.0
 10
107.6430937193
 20
114.3452826063
 30
0.0
 10
107.6249547462
 20
114.4865630305
 30
0.0
  0
SPLINE
  5
298
100
AcDbEntity
  8
0
100
AcDbSpline
 62
7
  6
BYLAYER
 70
0
 71
3
 72
9
 73
5
 74
0
 42
0.0000001
 43
0.0000001
 44
0.0000000001
 40
0.0
 40
0.0
 40
0.0
 40
0.0
 40
0.2333019854
 40
1.0
 40
1.0
 40
1.0
 40
1.0
 10
107.6249550361
 20
114.4865614549
 30
0.0
 10
107.6246668425
 20
114.488805862
 30
0.0
 10
107.6231404379
 20
114.4983883319
 30
0.0
 10
107.6205714477
 20
114.5077881062
 30
0.0
 10
107.6182006388
 20
114.5148363873
 30
0.0
  0
SPLINE
  5
299
100
AcDbEntity
  8
0
100
AcDbSpline
 62
7
  6
BYLAYER
 70
0
 71
3
 72
18
 73
14
 74
0
 42
0.0000001
 43
0.0000001
 44
0.0000000001
 40
0.0
 40
0.0
 40
0.0
 40
0.0
 40
0.0492698431
 40
0.0905325115
 40
0.1289756999
 40
0.169960952
 40
0.2162502369
 40
0.2684212161
 40
0.3885128416
 40
0.5256489912
 40
0.6754428296
 40
0.8345262946
 40
1.0
 40
1.0
 40
1.0
 40
1.0
 10
107.5965322817
 20
114.6869805084
 30
0.0
 10
107.5994698232
 20
114.6886765411
 30
0.0
 10
107.6052554863
 20
114.6912577359
 30
0.0
 10
107.6143933433
 20
114.6917643962
 30
0.0
 10
107.6222592735
 20
114.6883011719
 30
0.0
 10
107.628273639
 20
114.6818544591
 30
0.0
 10
107.6327739698
 20
114.6732956523
 30
0.0
 10
107.6373028645
 20
114.6588901744
 30
0.0
 10
107.6397496863
 20
114.6375766009
 30
0.0
 10
107.639048132
 20
114.609521321
 30
0.0
 10
107.6351367442
 20
114.5790159941
 30
0.0
 10
107.6282721065
 20
114.547057445
 30
0.0
 10
107.6218852541
 20
114.525616253
 30
0.0
 10
107.6182006262
 20
114.514836479
 30
0.0
  0
SPLINE
  5
29A
100
AcDbEntity
  8
0
100
AcDbSpline
 62
7
  6
BYLAYER
 70
0
 71
3
 72
9
 73
5
 74
0
 42
0.0000001
 43
0.0000001
 44
0.0000000001
 40
0.0
 40
0.0
 40
0.0
 40
0.0
 40
0.4884192257
 40
1.0
 40
1.0
 40
1.0
 40
1.0
 10
107.3452732468
 20
114.5419124179
 30
0.0
 10
107.3549822547
 20
114.5857239421
 30
0.0
 10
107.3846646058
 20
114.6734800224
 30
0.0
 10
107.4312327447
 20
114.7533814571
 30
0.0
 10
107.4582837416
 20
114.7918193682
 30
0.0
  0
SPLINE
  5
29B
100
AcDbEntity
  8
0
100
AcDbSpline
 62
7
  6
BYLAYER
 70
0
 71
3
 72
12
 73
8
 74
0
 42
0.0000001
 43
0.0000001
 44
0.0000000001
 40
0.0
 40
0.0
 40
0.0
 40
0.0
 40
0.2863908482
 40
0.5555618964
 40
0.7974841879
 40
0.9048873036
 40
1.0
 40
1.0
 40
1.0
 40
1.0
 10
107.4582837416
 20
114.7918193682
 30
0.0
 10
107.4731981112
 20
114.7888854667
 30
0.0
 10
107.5018553519
 20
114.7816564795
 30
0.0
 10
107.5416506051
 20
114.7670544998
 30
0.0
 10
107.5709701361
 20
114.7519309729
 30
0.0
 10
107.5901523465
 20
114.7381441958
 30
0.0
 10
107.5979955708
 20
114.7306905545
 30
0.0
 10
107.6012202933
 20
114.7268066679
 30
0.0
  0
SPLINE
  5
29C
100
AcDbEntity
  8
0
100
AcDbSpline
 62
7
  6
BYLAYER
 70
0
 71
3
 72
12
 73
8
 74
0
 42
0.0000001
 43
0.0000001
 44
0.0000000001
 40
0.0
 40
0.0
 40
0.0
 40
0.0
 40
0.2682427256
 40
0.4985202163
 40
0.6093352486
 40
0.7257779007
 40
1.0
 40
1.0
 40
1.0
 40
1.0
 10
107.6012202933
 20
114.7268066679
 30
0.0
 10
107.6039192812
 20
114.7235559812
 30
0.0
 10
107.6083226309
 20
114.7169506747
 30
0.0
 10
107.6106885091
 20
114.7072462533
 30
0.0
 10
107.6091944849
 20
114.7000784199
 30
0.0
 10
107.6053508687
 20
114.6930647391
 30
0.0
 10
107.6002728688
 20
114.6891401912
 30
0.0
 10
107.5965322817
 20
114.6869805084
 30
0.0
  0
SPLINE
  5
29D
100
AcDbEntity
  8
0
100
AcDbSpline
 62
7
  6
BYLAYER
 70
0
 71
3
 72
9
 73
5
 74
0
 42
0.0000001
 43
0.0000001
 44
0.0000000001
 40
0.0
 40
0.0
 40
0.0
 40
0.0
 40
0.2660599965
 40
1.0
 40
1.0
 40
1.0
 40
1.0
 10
107.4582837487
 20
114.7918192214
 30
0.0
 10
107.4565769358
 20
114.7937546035
 30
0.0
 10
107.4500130743
 20
114.8008929056
 30
0.0
 10
107.4428342278
 20
114.8074915776
 30
0.0
 10
107.4371729196
 20
114.8118068154
 30
0.0
  0
SPLINE
  5
29E
100
AcDbEntity
  8
0
100
AcDbSpline
 62
7
  6
BYLAYER
 70
0
 71
3
 72
9
 73
5
 74
0
 42
0.0000001
 43
0.0000001
 44
0.0000000001
 40
0.0
 40
0.0
 40
0.0
 40
0.0
 40
0.2608316428
 40
1.0
 40
1.0
 40
1.0
 40
1.0
 10
107.4371730335
 20
114.811806674
 30
0.0
 10
107.3983130721
 20
114.8414269212
 30
0.0
 10
107.2521264475
 20
114.9585522648
 30
0.0
 10
107.1175524564
 20
115.0906266263
 30
0.0
 10
107.0284322202
 20
115.1966034526
 30
0.0
  0
LINE
  5
29F
100
AcDbEntity
  8
0
100
AcDbLine
 62
7
  6
BYLAYER
 10
107.4016645356
 20
115.2662112423
 11
107.0284322202
 21
115.1966034526
  0
SPLINE
  5
2A0
100
AcDbEntity
  8
0
100
AcDbSpline
 62
7
  6
BYLAYER
 70
0
 71
3
 72
9
 73
5
 74
0
 42
0.0000001
 43
0.0000001
 44
0.0000000001
 40
0.0
 40
0.0
 40
0.0
 40
0.0
 40
0.4814890293
 40
1.0
 40
1.0
 40
1.0
 40
1.0
 10
108.181723922
 20
114.8401960312
 30
0.0
 10
108.2293717816
 20
114.8922694315
 30
0.0
 10
108.3243360911
 20
115.0041077459
 30
0.0
 10
108.4123318976
 20
115.1214555348
 30
0.0
 10
108.4563590344
 20
115.1834164375
 30
0.0
  0
SPLINE
  5
2A1
100
AcDbEntity
  8
0
100
AcDbSpline
 62
7
  6
BYLAYER
 70
0
 71
3
 72
9
 73
5
 74
0
 42
0.0000001
 43
0.0000001
 44
0.0000000001
 40
0.0
 40
0.0
 40
0.0
 40
0.0
 40
0.5182483251
 40
1.0
 40
1.0
 40
1.0
 40
1.0
 10
108.4563590344
 20
115.1834164375
 30
0.0
 10
108.3816013876
 20
115.1763536967
 30
0.0
 10
108.2376625521
 20
115.1590714102
 30
0.0
 10
108.0949745125
 20
115.1332132528
 30
0.0
 10
108.0267892428
 20
115.1182751299
 30
0.0
  0
SPLINE
  5
2A2
100
AcDbEntity
  8
0
100
AcDbSpline
 62
7
  6
BYLAYER
 70
0
 71
3
 72
9
 73
5
 74
0
 42
0.0000001
 43
0.0000001
 44
0.0000000001
 40
0.0
 40
0.0
 40
0.0
 40
0.0
 40
0.2512389684
 40
1.0
 40
1.0
 40
1.0
 40
1.0
 10
107.6012202933
 20
115.3637268152
 30
0.0
 10
107.5975523393
 20
115.3550725034
 30
0.0
 10
107.5790536622
 20
115.3223041832
 30
0.0
 10
107.549497012
 20
115.296684242
 30
0.0
 10
107.5252338461
 20
115.2826829765
 30
0.0
  0
SPLINE
  5
2A3
100
AcDbEntity
  8
0
100
AcDbSpline
 62
7
  6
BYLAYER
 70
0
 71
3
 72
9
 73
5
 74
0
 42
0.0000001
 43
0.0000001
 44
0.0000000001
 40
0.0
 40
0.0
 40
0.0
 40
0.0
 40
0.23935112
 40
1.0
 40
1.0
 40
1.0
 40
1.0
 10
107.0284322202
 20
115.6538448062
 30
0.0
 10
107.0248947844
 20
115.6368368254
 30
0.0
 10
107.0121917715
 20
115.5653502829
 30
0.0
 10
107.0074445047
 20
115.4925485438
 30
0.0
 10
107.0074445047
 20
115.4373411185
 30
0.0
  0
SPLINE
  5
2A4
100
AcDbEntity
  8
0
100
AcDbSpline
 62
7
  6
BYLAYER
 70
0
 71
3
 72
9
 73
5
 74
0
 42
0.0000001
 43
0.0000001
 44
0.0000000001
 40
0.0
 40
0.0
 40
0.0
 40
0.0
 40
0.2356369945
 40
1.0
 40
1.0
 40
1.0
 40
1.0
 10
107.6182006357
 20
115.3501958657
 30
0.0
 10
107.6190555577
 20
115.3522351021
 30
0.0
 10
107.6223114644
 20
115.3610448109
 30
0.0
 10
107.6241583269
 20
115.3703398532
 30
0.0
 10
107.6249553436
 20
115.3774681386
 30
0.0
  0
SPLINE
  5
2A5
100
AcDbEntity
  8
0
100
AcDbSpline
 62
7
  6
BYLAYER
 70
0
 71
3
 72
9
 73
5
 74
0
 42
0.0000001
 43
0.0000001
 44
0.0000000001
 40
0.0
 40
0.0
 40
0.0
 40
0.0
 40
0.2432421153
 40
1.0
 40
1.0
 40
1.0
 40
1.0
 10
107.6249553916
 20
115.3774685959
 30
0.0
 10
107.6313286733
 20
115.4344674009
 30
0.0
 10
107.6619595878
 20
115.6682911658
 30
0.0
 10
107.7096368276
 20
115.8997930563
 30
0.0
 10
107.7538350472
 20
116.072668298
 30
0.0
  0
SPLINE
  5
2A6
100
AcDbEntity
  8
0
100
AcDbSpline
 62
7
  6
BYLAYER
 70
0
 71
3
 72
14
 73
10
 74
0
 42
0.0000001
 43
0.0000001
 44
0.0000000001
 40
0.0
 40
0.0
 40
0.0
 40
0.0
 40
0.2892717721
 40
0.4225296864
 40
0.5484855212
 40
0.6678862883
 40
0.781861335
 40
0.8919477492
 40
1.0
 40
1.0
 40
1.0
 40
1.0
 10
110.5779409953
 20
114.1221266953
 30
0.0
 10
110.5779409953
 20
113.9802062419
 30
0.0
 10
110.5613711499
 20
113.7718891904
 30
0.0
 10
110.4973334107
 20
113.5100523116
 30
0.0
 10
110.4321698006
 20
113.3355765118
 30
0.0
 10
110.3491338501
 20
113.1794326749
 30
0.0
 10
110.248829049
 20
113.0432043599
 30
0.0
 10
110.1321987286
 20
112.9284304147
 30
0.0
 10
110.0439373194
 20
112.8668315633
 30
0.0
 10
109.9980274937
 20
112.8403260648
 30
0.0
  0
SPLINE
  5
2A7
100
AcDbEntity
  8
0
100
AcDbSpline
 62
7
  6
BYLAYER
 70
0
 71
3
 72
9
 73
5
 74
0
 42
0.0000001
 43
0.0000001
 44
0.0000000001
 40
0.0
 40
0.0
 40
0.0
 40
0.0
 40
0.2412193753
 40
1.0
 40
1.0
 40
1.0
 40
1.0
 10
107.0074445047
 20
115.4373411185
 30
0.0
 10
107.0074445047
 20
115.417898027
 30
0.0
 10
107.0093124239
 20
115.3372986909
 30
0.0
 10
107.0183163051
 20
115.2569213302
 30
0.0
 10
107.0284322202
 20
115.1966034526
 30
0.0
  0
SPLINE
  5
2A8
100
AcDbEntity
  8
0
100
AcDbSpline
 62
7
  6
BYLAYER
 70
0
 71
3
 72
9
 73
5
 74
0
 42
0.0000001
 43
0.0000001
 44
0.0000000001
 40
0.0
 40
0.0
 40
0.0
 40
0.0
 40
0.2646617092
 40
1.0
 40
1.0
 40
1.0
 40
1.0
 10
108.2087205705
 20
114.3663638054
 30
0.0
 10
108.2064453823
 20
114.3673587667
 30
0.0
 10
108.1977423106
 20
114.3708578414
 30
0.0
 10
108.188568258
 20
114.3732790121
 30
0.0
 10
108.1817240554
 20
114.3741501983
 30
0.0
  0
SPLINE
  5
2A9
100
AcDbEntity
  8
0
100
AcDbSpline
 62
7
  6
BYLAYER
 70
0
 71
3
 72
24
 73
20
 74
0
 42
0.0000001
 43
0.0000001
 44
0.0000000001
 40
0.0
 40
0.0
 40
0.0
 40
0.0
 40
0.0213341341
 40
0.0428965044
 40
0.0874751988
 40
0.1352544024
 40
0.1871594253
 40
0.243601279
 40
0.3045535734
 40
0.3696461087
 40
0.4382487059
 40
0.5095410517
 40
0.5825715674
 40
0.6563097592
 40
0.7296927476
 40
0.8016739129
 40
0.8712704304
 40
0.9376143475
 40
1.0
 40
1.0
 40
1.0
 40
1.0
 10
107.1980400315
 20
117.6900755588
 30
0.0
 10
107.2324406767
 20
117.7099367749
 30
0.0
 10
107.3042648059
 20
117.7454676076
 30
0.0
 10
107.4585241531
 20
117.7988385025
 30
0.0
 10
107.6705078195
 20
117.8300362032
 30
0.0
 10
107.9401451805
 20
117.8101183064
 30
0.0
 10
108.2224697362
 20
117.7351315831
 30
0.0
 10
108.5117711585
 20
117.6072624067
 30
0.0
 10
108.8023416555
 20
117.4294952618
 30
0.0
 10
109.0882644959
 20
117.2056491587
 30
0.0
 10
109.363607842
 20
116.9404695118
 30
0.0
 10
109.6225754954
 20
116.6395759696
 30
0.0
 10
109.8596740986
 20
116.3093653012
 30
0.0
 10
110.0698498751
 20
115.9568754789
 30
0.0
 10
110.2486217748
 20
115.5896281762
 30
0.0
 10
110.3921712022
 20
115.2154591414
 30
0.0
 10
110.4974523304
 20
114.8422988424
 30
0.0
 10
110.562203793
 20
114.4781277398
 30
0.0
 10
110.5779409953
 20
114.2382837593
 30
0.0
 10
110.5779409953
 20
114.1221266953
 30
0.0
  0
SPLINE
  5
2AA
100
AcDbEntity
  8
0
100
AcDbSpline
 62
7
  6
BYLAYER
 70
0
 71
3
 72
9
 73
5
 74
0
 42
0.0000001
 43
0.0000001
 44
0.0000000001
 40
0.0
 40
0.0
 40
0.0
 40
0.0
 40
0.4884253034
 40
1.0
 40
1.0
 40
1.0
 40
1.0
 10
107.3452732468
 20
114.5419124179
 30
0.0
 10
107.3880698886
 20
114.5284159253
 30
0.0
 10
107.4789085858
 20
114.5102415235
 30
0.0
 10
107.5713882508
 20
114.5106274152
 30
0.0
 10
107.6182006262
 20
114.514836479
 30
0.0
  0
SPLINE
  5
2AB
100
AcDbEntity
  8
0
100
AcDbSpline
 62
7
  6
BYLAYER
 70
0
 71
3
 72
9
 73
5
 74
0
 42
0.0000001
 43
0.0000001
 44
0.0000000001
 40
0.0
 40
0.0
 40
0.0
 40
0.0
 40
0.5262824943
 40
1.0
 40
1.0
 40
1.0
 40
1.0
 10
107.7538350472
 20
113.9401758751
 30
0.0
 10
107.8159716786
 20
113.8889178341
 30
0.0
 10
107.941239606
 20
113.7997684547
 30
0.0
 10
108.0809586031
 20
113.7342669235
 30
0.0
 10
108.1498164932
 20
113.7115610526
 30
0.0
  0
SPLINE
  5
2AC
100
AcDbEntity
  8
0
100
AcDbSpline
 62
7
  6
BYLAYER
 70
0
 71
3
 72
9
 73
5
 74
0
 42
0.0000001
 43
0.0000001
 44
0.0000000001
 40
0.0
 40
0.0
 40
0.0
 40
0.0
 40
0.2432505843
 40
1.0
 40
1.0
 40
1.0
 40
1.0
 10
108.2087219958
 20
114.3663632508
 30
0.0
 10
108.2612726579
 20
114.3433831157
 30
0.0
 10
108.4790854988
 20
114.2530034809
 30
0.0
 10
108.7034087498
 20
114.1785429858
 30
0.0
 10
108.8752193202
 20
114.1303845444
 30
0.0
  0
SPLINE
  5
2AD
100
AcDbEntity
  8
0
100
AcDbSpline
 62
7
  6
BYLAYER
 70
0
 71
3
 72
10
 73
6
 74
0
 42
0.0000001
 43
0.0000001
 44
0.0000000001
 40
0.0
 40
0.0
 40
0.0
 40
0.0
 40
0.3850843535
 40
0.65807039
 40
1.0
 40
1.0
 40
1.0
 40
1.0
 10
118.3795362646
 20
119.4447826456
 30
0.0
 10
118.3775271666
 20
119.4436232179
 30
0.0
 10
118.3730886259
 20
119.4437672934
 30
0.0
 10
118.3675304326
 20
119.4458963061
 30
0.0
 10
118.3642553047
 20
119.4476967292
 30
0.0
 10
118.3625035785
 20
119.4487801423
 30
0.0
  0
SPLINE
  5
2AE
100
AcDbEntity
  8
0
100
AcDbSpline
 62
7
  6
BYLAYER
 70
0
 71
3
 72
12
 73
8
 74
0
 42
0.0000001
 43
0.0000001
 44
0.0000000001
 40
0.0
 40
0.0
 40
0.0
 40
0.0
 40
0.2895787381
 40
0.5486317274
 40
0.7816351383
 40
0.891837369
 40
1.0
 40
1.0
 40
1.0
 40
1.0
 10
127.0897702209
 20
124.6042536967
 30
0.0
 10
127.0485097769
 20
124.6280748862
 30
0.0
 10
126.9664489747
 20
124.667116736
 30
0.0
 10
126.840410011
 20
124.6975887249
 30
0.0
 10
126.7397634678
 20
124.6949216758
 30
0.0
 10
126.667911438
 20
124.6750190067
 30
0.0
 10
126.6351837456
 20
124.6597042527
 30
0.0
 10
126.6197723251
 20
124.6508065189
 30
0.0
  0
SPLINE
  5
2AF
100
AcDbEntity
  8
0
100
AcDbSpline
 62
7
  6
BYLAYER
 70
0
 71
3
 72
24
 73
20
 74
0
 42
0.0000001
 43
0.0000001
 44
0.0000000001
 40
0.0
 40
0.0
 40
0.0
 40
0.0
 40
0.0623869303
 40
0.1287322985
 40
0.1983293035
 40
0.2703108151
 40
0.3436937598
 40
0.4174318658
 40
0.490462232
 40
0.5617543997
 40
0.6303568353
 40
0.6954492078
 40
0.7564012727
 40
0.8128427822
 40
0.8647473259
 40
0.9125259475
 40
0.9571040528
 40
0.978666144
 40
1.0
 40
1.0
 40
1.0
 40
1.0
 10
122.2107702304
 20
118.7336990193
 30
0.0
 10
122.2107702304
 20
118.8498584139
 30
0.0
 10
122.1950318994
 20
119.0897073377
 30
0.0
 10
122.1302788497
 20
119.4538841142
 30
0.0
 10
122.0249942648
 20
119.827047713
 30
0.0
 10
121.88144312
 20
120.2012174653
 30
0.0
 10
121.7026692966
 20
120.5684641064
 30
0.0
 10
121.4924924108
 20
120.9209524492
 30
0.0
 10
121.2553929677
 20
121.2511613591
 30
0.0
 10
120.9964247717
 20
121.552053011
 30
0.0
 10
120.7210810668
 20
121.8172307081
 30
0.0
 10
120.4351581194
 20
122.0410747608
 30
0.0
 10
120.1445879928
 20
122.2188396182
 30
0.0
 10
119.8552877444
 20
122.3467062856
 30
0.0
 10
119.5729653884
 20
122.421690551
 30
0.0
 10
119.3033311058
 20
122.4416066609
 30
0.0
 10
119.0913504528
 20
122.4104083726
 30
0.0
 10
118.9370931998
 20
122.35703818
 30
0.0
 10
118.8652701035
 20
122.3215076982
 30
0.0
 10
118.8308698824
 20
122.3016468165
 30
0.0
  0
SPLINE
  5
2B0
100
AcDbEntity
  8
0
100
AcDbSpline
 62
7
  6
BYLAYER
 70
0
 71
3
 72
9
 73
5
 74
0
 42
0.0000001
 43
0.0000001
 44
0.0000000001
 40
0.0
 40
0.0
 40
0.0
 40
0.0
 40
0.7491682452
 40
1.0
 40
1.0
 40
1.0
 40
1.0
 10
118.8210820099
 20
118.4259734337
 30
0.0
 10
118.8055972029
 20
118.4170326437
 30
0.0
 10
118.7862804533
 20
118.4024280441
 30
0.0
 10
118.7699881548
 20
118.3849645367
 30
0.0
 10
118.7661096935
 20
118.3804040686
 30
0.0
  0
LINE
  5
2B1
100
AcDbEntity
  8
0
100
AcDbLine
 62
7
  6
BYLAYER
 10
118.93592058
 20
118.4549669784
 11
118.9260268636
 21
118.4727345902
  0
SPLINE
  5
2B2
100
AcDbEntity
  8
0
100
AcDbSpline
 62
7
  6
BYLAYER
 70
0
 71
3
 72
9
 73
5
 74
0
 42
0.0000001
 43
0.0000001
 44
0.0000000001
 40
0.0
 40
0.0
 40
0.0
 40
0.0
 40
0.2393511515
 40
1.0
 40
1.0
 40
1.0
 40
1.0
 10
119.6195221168
 20
118.2289689521
 30
0.0
 10
119.6230595531
 20
118.2459769352
 30
0.0
 10
119.6357625649
 20
118.3174634779
 30
0.0
 10
119.6405098323
 20
118.3902652169
 30
0.0
 10
119.6405098323
 20
118.4454726399
 30
0.0
  0
SPLINE
  5
2B3
100
AcDbEntity
  8
0
100
AcDbSpline
 62
7
  6
BYLAYER
 70
0
 71
3
 72
14
 73
10
 74
0
 42
0.0000001
 43
0.0000001
 44
0.0000000001
 40
0.0
 40
0.0
 40
0.0
 40
0.0
 40
0.2892790727
 40
0.4225381918
 40
0.5484929045
 40
0.6678927357
 40
0.7818659568
 40
0.8919501776
 40
1.0
 40
1.0
 40
1.0
 40
1.0
 10
117.3624293311
 20
120.5068593283
 30
0.0
 10
117.3624293311
 20
120.6487833671
 30
0.0
 10
117.3789996377
 20
120.8571047008
 30
0.0
 10
117.443040125
 20
121.1189447288
 30
0.0
 10
117.5082054698
 20
121.2934193613
 30
0.0
 10
117.591240831
 20
121.4495614354
 30
0.0
 10
117.6915462815
 20
121.5857861572
 30
0.0
 10
117.8081738816
 20
121.7005583833
 30
0.0
 10
117.8964342688
 20
121.7621546551
 30
0.0
 10
117.9423428282
 20
121.7886599666
 30
0.0
  0
SPLINE
  5
2B4
100
AcDbEntity
  8
0
100
AcDbSpline
 62
7
  6
BYLAYER
 70
0
 71
3
 72
9
 73
5
 74
0
 42
0.0000001
 43
0.0000001
 44
0.0000000001
 40
0.0
 40
0.0
 40
0.0
 40
0.0
 40
0.2412193435
 40
1.0
 40
1.0
 40
1.0
 40
1.0
 10
119.6405098323
 20
118.4454726399
 30
0.0
 10
119.6405098323
 20
118.4649157288
 30
0.0
 10
119.6386419142
 20
118.545515065
 30
0.0
 10
119.6296380323
 20
118.6258924256
 30
0.0
 10
119.6195221168
 20
118.6862103057
 30
0.0
  0
SPLINE
  5
2B5
100
AcDbEntity
  8
0
100
AcDbSpline
 62
7
  6
BYLAYER
 70
0
 71
3
 72
9
 73
5
 74
0
 42
0.0000001
 43
0.0000001
 44
0.0000000001
 40
0.0
 40
0.0
 40
0.0
 40
0.0
 40
0.2565950473
 40
1.0
 40
1.0
 40
1.0
 40
1.0
 10
119.6195221168
 20
118.6862103057
 30
0.0
 10
119.5612660603
 20
118.7025394575
 30
0.0
 10
119.3352881252
 20
118.7698456914
 30
0.0
 10
119.1136211453
 20
118.8519611719
 30
0.0
 10
118.9530213629
 20
118.9221904581
 30
0.0
  0
SPLINE
  5
2B6
100
AcDbEntity
  8
0
100
AcDbSpline
 62
7
  6
BYLAYER
 70
0
 71
3
 72
9
 73
5
 74
0
 42
0.0000001
 43
0.0000001
 44
0.0000000001
 40
0.0
 40
0.0
 40
0.0
 40
0.0
 40
0.5262769707
 40
1.0
 40
1.0
 40
1.0
 40
1.0
 10
118.8941192899
 20
119.9426378832
 30
0.0
 10
118.8319833109
 20
119.993895386
 30
0.0
 10
118.7067154716
 20
120.0830448382
 30
0.0
 10
118.5669965365
 20
120.1485465702
 30
0.0
 10
118.4981378438
 20
120.1712527058
 30
0.0
  0
LINE
  5
2B7
100
AcDbEntity
  8
0
100
AcDbLine
 62
7
  6
BYLAYER
 10
118.3625035785
 20
119.4487801423
 11
118.352013647
 21
119.4663149209
  0
SPLINE
  5
2B8
100
AcDbEntity
  8
0
100
AcDbSpline
 62
7
  6
BYLAYER
 70
0
 71
3
 72
9
 73
5
 74
0
 42
0.0000001
 43
0.0000001
 44
0.0000000001
 40
0.0
 40
0.0
 40
0.0
 40
0.0
 40
0.2320623364
 40
1.0
 40
1.0
 40
1.0
 40
1.0
 10
118.7661098909
 20
118.3804039606
 30
0.0
 10
118.7656735568
 20
118.3786019919
 30
0.0
 10
118.7642367463
 20
118.3707291724
 30
0.0
 10
118.7644582439
 20
118.3626148735
 30
0.0
 10
118.7652395346
 20
118.3565294447
 30
0.0
  0
SPLINE
  5
2B9
100
AcDbEntity
  8
0
100
AcDbSpline
 62
7
  6
BYLAYER
 70
0
 71
3
 72
9
 73
5
 74
0
 42
0.0000001
 43
0.0000001
 44
0.0000000001
 40
0.0
 40
0.0
 40
0.0
 40
0.0
 40
0.2608313393
 40
1.0
 40
1.0
 40
1.0
 40
1.0
 10
118.7652394527
 20
118.3565297615
 30
0.0
 10
118.7714616558
 20
118.3080653785
 30
0.0
 10
118.7998043271
 20
118.122899269
 30
0.0
 10
118.8468991772
 20
117.9403156564
 30
0.0
 10
118.8941192899
 20
117.8101454603
 30
0.0
  0
SPLINE
  5
2BA
100
AcDbEntity
  8
0
100
AcDbSpline
 62
7
  6
BYLAYER
 70
0
 71
3
 72
14
 73
10
 74
0
 42
0.0000001
 43
0.0000001
 44
0.0000000001
 40
0.0
 40
0.0
 40
0.0
 40
0.0
 40
0.1074468662
 40
0.2170236669
 40
0.3306597027
 40
0.4499344367
 40
0.57600143
 40
0.7095917955
 40
1.0
 40
1.0
 40
1.0
 40
1.0
 10
120.7423302904
 20
116.9389104725
 30
0.0
 10
120.6952136719
 20
116.9117082464
 30
0.0
 10
120.5949898978
 20
116.8650592965
 30
0.0
 10
120.4326056681
 20
116.821303873
 30
0.0
 10
120.2593624708
 20
116.8037560349
 30
0.0
 10
120.0772088779
 20
116.8124474551
 30
0.0
 10
119.8879556166
 20
116.8470688843
 30
0.0
 10
119.6213880584
 20
116.9294562753
 30
0.0
 10
119.4275843039
 20
117.0258457753
 30
0.0
 10
119.3015566588
 20
117.1016077117
 30
0.0
  0
SPLINE
  5
2BB
100
AcDbEntity
  8
0
100
AcDbSpline
 62
7
  6
BYLAYER
 70
0
 71
3
 72
14
 73
10
 74
0
 42
0.0000001
 43
0.0000001
 44
0.0000000001
 40
0.0
 40
0.0
 40
0.0
 40
0.0
 40
0.1080484388
 40
0.2181314306
 40
0.3321037149
 40
0.4515029974
 40
0.5774571708
 40
0.7107168732
 40
1.0
 40
1.0
 40
1.0
 40
1.0
 10
121.6308561176
 20
117.4518994475
 30
0.0
 10
121.6767641231
 20
117.4784043197
 30
0.0
 10
121.7650237394
 20
117.5399993802
 30
0.0
 10
121.881650179
 20
117.6547701909
 30
0.0
 10
121.9819557376
 20
117.7909930643
 30
0.0
 10
122.0649911975
 20
117.9471339022
 30
0.0
 10
122.1301574265
 20
118.121607843
 30
0.0
 10
122.1941996311
 20
118.3834494446
 30
0.0
 10
122.2107702304
 20
118.5917730466
 30
0.0
 10
122.2107702304
 20
118.7336990193
 30
0.0
  0
SPLINE
  5
2BC
100
AcDbEntity
  8
0
100
AcDbSpline
 62
7
  6
BYLAYER
 70
0
 71
3
 72
9
 73
5
 74
0
 42
0.0000001
 43
0.0000001
 44
0.0000000001
 40
0.0
 40
0.0
 40
0.0
 40
0.0
 40
0.2396923351
 40
1.0
 40
1.0
 40
1.0
 40
1.0
 10
117.7727350169
 20
119.752429214
 30
0.0
 10
117.801636052
 20
119.718061711
 30
0.0
 10
117.9266764435
 20
119.5784492173
 30
0.0
 10
118.0681929589
 20
119.4539798068
 30
0.0
 10
118.1814743121
 20
119.3676336747
 30
0.0
  0
SPLINE
  5
2BD
100
AcDbEntity
  8
0
100
AcDbSpline
 62
7
  6
BYLAYER
 70
0
 71
3
 72
9
 73
5
 74
0
 42
0.0000001
 43
0.0000001
 44
0.0000000001
 40
0.0
 40
0.0
 40
0.0
 40
0.0
 40
0.2694293329
 40
1.0
 40
1.0
 40
1.0
 40
1.0
 10
118.181474871
 20
119.3676331466
 30
0.0
 10
118.1831863031
 20
119.366328623
 30
0.0
 10
118.1897039042
 20
119.3617215782
 30
0.0
 10
118.1969883815
 20
119.3580958336
 30
0.0
 10
118.2025863884
 20
119.3564495909
 30
0.0
  0
SPLINE
  5
2BE
100
AcDbEntity
  8
0
100
AcDbSpline
 62
7
  6
BYLAYER
 70
0
 71
3
 72
12
 73
8
 74
0
 42
0.0000001
 43
0.0000001
 44
0.0000000001
 40
0.0
 40
0.0
 40
0.0
 40
0.0
 40
0.1081621254
 40
0.2183639287
 40
0.451366934
 40
0.7104202784
 40
1.0
 40
1.0
 40
1.0
 40
1.0
 10
127.5597681168
 20
123.0226763302
 30
0.0
 10
127.5751798778
 20
123.0315742605
 30
0.0
 10
127.6048074297
 20
123.0522602724
 30
0.0
 10
127.6579709186
 20
123.1045358915
 30
0.0
 10
127.7106048759
 20
123.1903673731
 30
0.0
 10
127.7472348447
 20
123.3147601066
 30
0.0
 10
127.7544533626
 20
123.405350491
 30
0.0
 10
127.7544533626
 20
123.4529951153
 30
0.0
  0
SPLINE
  5
2BF
100
AcDbEntity
  8
0
100
AcDbSpline
 62
7
  6
BYLAYER
 70
0
 71
3
 72
9
 73
5
 74
0
 42
0.0000001
 43
0.0000001
 44
0.0000000001
 40
0.0
 40
0.0
 40
0.0
 40
0.0
 40
0.2565978777
 40
1.0
 40
1.0
 40
1.0
 40
1.0
 10
118.8941192899
 20
119.9426378832
 30
0.0
 10
118.8791330226
 20
119.884021165
 30
0.0
 10
118.8244166839
 20
119.6546686239
 30
0.0
 10
118.7847173732
 20
119.421636966
 30
0.0
 10
118.7652397275
 20
119.2474388623
 30
0.0
  0
SPLINE
  5
2C0
100
AcDbEntity
  8
0
100
AcDbSpline
 62
7
  6
BYLAYER
 70
0
 71
3
 72
9
 73
5
 74
0
 42
0.0000001
 43
0.0000001
 44
0.0000000001
 40
0.0
 40
0.0
 40
0.0
 40
0.0
 40
0.2417254811
 40
1.0
 40
1.0
 40
1.0
 40
1.0
 10
118.7652396573
 20
119.2474373352
 30
0.0
 10
118.7649554762
 20
119.2448957648
 30
0.0
 10
118.7641659295
 20
119.2343397664
 30
0.0
 10
118.7648710818
 20
119.2236895899
 30
0.0
 10
118.766109804
 20
119.215763404
 30
0.0
  0
SPLINE
  5
2C1
100
AcDbEntity
  8
0
100
AcDbSpline
 62
7
  6
BYLAYER
 70
0
 71
3
 72
15
 73
11
 74
0
 42
0.0000001
 43
0.0000001
 44
0.0000000001
 40
0.0
 40
0.0
 40
0.0
 40
0.0
 40
0.0407888883
 40
0.0914228179
 40
0.2145984012
 40
0.3525458919
 40
0.493645126
 40
0.7640948163
 40
0.887694578
 40
1.0
 40
1.0
 40
1.0
 40
1.0
 10
119.0023811219
 20
119.1675196228
 30
0.0
 10
118.9994751659
 20
119.1658418126
 30
0.0
 10
118.9923452365
 20
119.1631768153
 30
0.0
 10
118.9749326829
 20
119.1600423164
 30
0.0
 10
118.9491233367
 20
119.1600117291
 30
0.0
 10
118.9162259764
 20
119.1637966482
 30
0.0
 10
118.8718806338
 20
119.1727754094
 30
0.0
 10
118.8296584093
 20
119.1857769117
 30
0.0
 10
118.7912786331
 20
119.2020293712
 30
0.0
 10
118.7740394311
 20
119.211022049
 30
0.0
 10
118.7661099016
 20
119.2157633641
 30
0.0
  0
SPLINE
  5
2C2
100
AcDbEntity
  8
0
100
AcDbSpline
 62
7
  6
BYLAYER
 70
0
 71
3
 72
11
 73
7
 74
0
 42
0.0000001
 43
0.0000001
 44
0.0000000001
 40
0.0
 40
0.0
 40
0.0
 40
0.0
 40
0.2194399712
 40
0.4656253992
 40
0.7295122325
 40
1.0
 40
1.0
 40
1.0
 40
1.0
 10
118.9260267187
 20
118.938780439
 30
0.0
 10
118.9258335938
 20
118.9514051406
 30
0.0
 10
118.9275127127
 20
118.9782237228
 30
0.0
 10
118.9341928036
 20
119.019710752
 30
0.0
 10
118.9451731102
 20
119.0633108505
 30
0.0
 10
118.9553278638
 20
119.092408874
 30
0.0
 10
118.9614012184
 20
119.106738321
 30
0.0
  0
SPLINE
  5
2C3
100
AcDbEntity
  8
0
100
AcDbSpline
 62
7
  6
BYLAYER
 70
0
 71
3
 72
11
 73
7
 74
0
 42
0.0000001
 43
0.0000001
 44
0.0000000001
 40
0.0
 40
0.0
 40
0.0
 40
0.0
 40
0.2983415218
 40
0.5757471031
 40
0.8149004329
 40
1.0
 40
1.0
 40
1.0
 40
1.0
 10
118.9614012184
 20
119.106738321
 30
0.0
 10
118.9642803386
 20
119.1135313051
 30
0.0
 10
118.970298882
 20
119.126446263
 30
0.0
 10
118.9802307731
 20
119.1440312397
 30
0.0
 10
118.9905404818
 20
119.1580146038
 30
0.0
 10
118.9984169387
 20
119.1652308246
 30
0.0
 10
119.0023811219
 20
119.1675196228
 30
0.0
  0
SPLINE
  5
2C4
100
AcDbEntity
  8
0
100
AcDbSpline
 62
7
  6
BYLAYER
 70
0
 71
3
 72
9
 73
5
 74
0
 42
0.0000001
 43
0.0000001
 44
0.0000000001
 40
0.0
 40
0.0
 40
0.0
 40
0.0
 40
0.2583837773
 40
1.0
 40
1.0
 40
1.0
 40
1.0
 10
118.9260267656
 20
118.9387806452
 30
0.0
 10
118.928154571
 20
118.9370648159
 30
0.0
 10
118.9365883054
 20
118.9306781147
 30
0.0
 10
118.9458334712
 20
118.9253337468
 30
0.0
 10
118.9530217324
 20
118.922190336
 30
0.0
  0
SPLINE
  5
2C5
100
AcDbEntity
  8
0
100
AcDbSpline
 62
7
  6
BYLAYER
 70
0
 71
3
 72
11
 73
7
 74
0
 42
0.0000001
 43
0.0000001
 44
0.0000000001
 40
0.0
 40
0.0
 40
0.0
 40
0.0
 40
0.2414413637
 40
0.499969511
 40
0.758508772
 40
1.0
 40
1.0
 40
1.0
 40
1.0
 10
127.7217584925
 20
123.7872275009
 30
0.0
 10
127.7148772613
 20
123.8459354111
 30
0.0
 10
127.6853141522
 20
123.9658833118
 30
0.0
 10
127.606851459
 20
124.1352528232
 30
0.0
 10
127.4994053599
 20
124.2879039413
 30
0.0
 10
127.4102990466
 20
124.373492679
 30
0.0
 10
127.3628866516
 20
124.4088123367
 30
0.0
  0
SPLINE
  5
2C6
100
AcDbEntity
  8
0
100
AcDbSpline
 62
7
  6
BYLAYER
 70
0
 71
3
 72
9
 73
5
 74
0
 42
0.0000001
 43
0.0000001
 44
0.0000000001
 40
0.0
 40
0.0
 40
0.0
 40
0.0
 40
0.4991663698
 40
1.0
 40
1.0
 40
1.0
 40
1.0
 10
118.9406404061
 20
118.4492212154
 30
0.0
 10
118.9205290593
 20
118.4536768208
 30
0.0
 10
118.8778044235
 20
118.45198371
 30
0.0
 10
118.838980533
 20
118.4363078819
 30
0.0
 10
118.8210820099
 20
118.4259734337
 30
0.0
  0
SPLINE
  5
2C7
100
AcDbEntity
  8
0
100
AcDbSpline
 62
7
  6
BYLAYER
 70
0
 71
3
 72
9
 73
5
 74
0
 42
0.0000001
 43
0.0000001
 44
0.0000000001
 40
0.0
 40
0.0
 40
0.0
 40
0.0
 40
0.2396926417
 40
1.0
 40
1.0
 40
1.0
 40
1.0
 10
118.4981378438
 20
118.0387602828
 30
0.0
 10
118.4828245645
 20
118.0809739173
 30
0.0
 10
118.4244341599
 20
118.2590717233
 30
0.0
 10
118.387396516
 20
118.4438670141
 30
0.0
 10
118.3692575428
 20
118.5851474383
 30
0.0
  0
SPLINE
  5
2C8
100
AcDbEntity
  8
0
100
AcDbSpline
 62
7
  6
BYLAYER
 70
0
 71
3
 72
9
 73
5
 74
0
 42
0.0000001
 43
0.0000001
 44
0.0000000001
 40
0.0
 40
0.0
 40
0.0
 40
0.0
 40
0.2333019854
 40
1.0
 40
1.0
 40
1.0
 40
1.0
 10
118.3692578327
 20
118.5851458626
 30
0.0
 10
118.3689696392
 20
118.5873902697
 30
0.0
 10
118.3674432345
 20
118.5969727397
 30
0.0
 10
118.3648742443
 20
118.606372514
 30
0.0
 10
118.3625034354
 20
118.6134207951
 30
0.0
  0
SPLINE
  5
2C9
100
AcDbEntity
  8
0
100
AcDbSpline
 62
7
  6
BYLAYER
 70
0
 71
3
 72
18
 73
14
 74
0
 42
0.0000001
 43
0.0000001
 44
0.0000000001
 40
0.0
 40
0.0
 40
0.0
 40
0.0
 40
0.0492698431
 40
0.0905325115
 40
0.1289756999
 40
0.169960952
 40
0.2162502369
 40
0.2684212161
 40
0.3885128416
 40
0.5256489912
 40
0.6754428296
 40
0.8345262946
 40
1.0
 40
1.0
 40
1.0
 40
1.0
 10
118.3408350783
 20
118.7855649161
 30
0.0
 10
118.3437726198
 20
118.7872609488
 30
0.0
 10
118.3495582829
 20
118.7898421436
 30
0.0
 10
118.35869614
 20
118.790348804
 30
0.0
 10
118.3665620701
 20
118.7868855796
 30
0.0
 10
118.3725764357
 20
118.7804388668
 30
0.0
 10
118.3770767664
 20
118.77188006
 30
0.0
 10
118.3816056612
 20
118.7574745821
 30
0.0
 10
118.384052483
 20
118.7361610087
 30
0.0
 10
118.3833509286
 20
118.7081057288
 30
0.0
 10
118.3794395409
 20
118.6776004018
 30
0.0
 10
118.3725749031
 20
118.6456418527
 30
0.0
 10
118.3661880508
 20
118.6242006608
 30
0.0
 10
118.3625034228
 20
118.6134208867
 30
0.0
  0
SPLINE
  5
2CA
100
AcDbEntity
  8
0
100
AcDbSpline
 62
7
  6
BYLAYER
 70
0
 71
3
 72
9
 73
5
 74
0
 42
0.0000001
 43
0.0000001
 44
0.0000000001
 40
0.0
 40
0.0
 40
0.0
 40
0.0
 40
0.4884192257
 40
1.0
 40
1.0
 40
1.0
 40
1.0
 10
118.0895760434
 20
118.6404968257
 30
0.0
 10
118.0992850513
 20
118.6843083498
 30
0.0
 10
118.1289674025
 20
118.7720644301
 30
0.0
 10
118.1755355413
 20
118.8519658648
 30
0.0
 10
118.2025865382
 20
118.8904037759
 30
0.0
  0
SPLINE
  5
2CB
100
AcDbEntity
  8
0
100
AcDbSpline
 62
7
  6
BYLAYER
 70
0
 71
3
 72
12
 73
8
 74
0
 42
0.0000001
 43
0.0000001
 44
0.0000000001
 40
0.0
 40
0.0
 40
0.0
 40
0.0
 40
0.2863908482
 40
0.5555618964
 40
0.7974841879
 40
0.9048873036
 40
1.0
 40
1.0
 40
1.0
 40
1.0
 10
118.2025865382
 20
118.8904037759
 30
0.0
 10
118.2175009078
 20
118.8874698745
 30
0.0
 10
118.2461581485
 20
118.8802408872
 30
0.0
 10
118.2859534017
 20
118.8656389075
 30
0.0
 10
118.3152729328
 20
118.8505153807
 30
0.0
 10
118.3344551431
 20
118.8367286035
 30
0.0
 10
118.3422983675
 20
118.8292749622
 30
0.0
 10
118.34552309
 20
118.8253910757
 30
0.0
  0
SPLINE
  5
2CC
100
AcDbEntity
  8
0
100
AcDbSpline
 62
7
  6
BYLAYER
 70
0
 71
3
 72
12
 73
8
 74
0
 42
0.0000001
 43
0.0000001
 44
0.0000000001
 40
0.0
 40
0.0
 40
0.0
 40
0.0
 40
0.2682427256
 40
0.4985202163
 40
0.6093352486
 40
0.7257779007
 40
1.0
 40
1.0
 40
1.0
 40
1.0
 10
118.34552309
 20
118.8253910757
 30
0.0
 10
118.3482220778
 20
118.822140389
 30
0.0
 10
118.3526254276
 20
118.8155350825
 30
0.0
 10
118.3549913057
 20
118.805830661
 30
0.0
 10
118.3534972815
 20
118.7986628276
 30
0.0
 10
118.3496536654
 20
118.7916491469
 30
0.0
 10
118.3445756654
 20
118.787724599
 30
0.0
 10
118.3408350783
 20
118.7855649161
 30
0.0
  0
SPLINE
  5
2CD
100
AcDbEntity
  8
0
100
AcDbSpline
 62
7
  6
BYLAYER
 70
0
 71
3
 72
9
 73
5
 74
0
 42
0.0000001
 43
0.0000001
 44
0.0000000001
 40
0.0
 40
0.0
 40
0.0
 40
0.0
 40
0.2660599965
 40
1.0
 40
1.0
 40
1.0
 40
1.0
 10
118.2025865454
 20
118.8904036292
 30
0.0
 10
118.2008797324
 20
118.8923390113
 30
0.0
 10
118.194315871
 20
118.8994773134
 30
0.0
 10
118.1871370245
 20
118.9060759853
 30
0.0
 10
118.1814757162
 20
118.9103912231
 30
0.0
  0
SPLINE
  5
2CE
100
AcDbEntity
  8
0
100
AcDbSpline
 62
7
  6
BYLAYER
 70
0
 71
3
 72
9
 73
5
 74
0
 42
0.0000001
 43
0.0000001
 44
0.0000000001
 40
0.0
 40
0.0
 40
0.0
 40
0.0
 40
0.2608316428
 40
1.0
 40
1.0
 40
1.0
 40
1.0
 10
118.1814758302
 20
118.9103910818
 30
0.0
 10
118.1426158687
 20
118.9400113289
 30
0.0
 10
117.9964292442
 20
119.0571366726
 30
0.0
 10
117.861855253
 20
119.1892110341
 30
0.0
 10
117.7727350169
 20
119.2951878604
 30
0.0
  0
LINE
  5
2CF
100
AcDbEntity
  8
0
100
AcDbLine
 62
7
  6
BYLAYER
 10
118.1459673323
 20
119.36479565
 11
117.7727350169
 21
119.2951878604
  0
SPLINE
  5
2D0
100
AcDbEntity
  8
0
100
AcDbSpline
 62
7
  6
BYLAYER
 70
0
 71
3
 72
9
 73
5
 74
0
 42
0.0000001
 43
0.0000001
 44
0.0000000001
 40
0.0
 40
0.0
 40
0.0
 40
0.0
 40
0.4814890293
 40
1.0
 40
1.0
 40
1.0
 40
1.0
 10
118.9260267187
 20
118.938780439
 30
0.0
 10
118.9736745783
 20
118.9908538393
 30
0.0
 10
119.0686388877
 20
119.1026921536
 30
0.0
 10
119.1566346942
 20
119.2200399425
 30
0.0
 10
119.200661831
 20
119.2820008452
 30
0.0
  0
SPLINE
  5
2D1
100
AcDbEntity
  8
0
100
AcDbSpline
 62
7
  6
BYLAYER
 70
0
 71
3
 72
9
 73
5
 74
0
 42
0.0000001
 43
0.0000001
 44
0.0000000001
 40
0.0
 40
0.0
 40
0.0
 40
0.0
 40
0.5182483251
 40
1.0
 40
1.0
 40
1.0
 40
1.0
 10
119.200661831
 20
119.2820008452
 30
0.0
 10
119.1259041842
 20
119.2749381045
 30
0.0
 10
118.9819653487
 20
119.2576558179
 30
0.0
 10
118.8392773091
 20
119.2317976606
 30
0.0
 10
118.7710920395
 20
119.2168595377
 30
0.0
  0
SPLINE
  5
2D2
100
AcDbEntity
  8
0
100
AcDbSpline
 62
7
  6
BYLAYER
 70
0
 71
3
 72
9
 73
5
 74
0
 42
0.0000001
 43
0.0000001
 44
0.0000000001
 40
0.0
 40
0.0
 40
0.0
 40
0.0
 40
0.2512389684
 40
1.0
 40
1.0
 40
1.0
 40
1.0
 10
118.34552309
 20
119.462311223
 30
0.0
 10
118.3418551359
 20
119.4536569111
 30
0.0
 10
118.3233564588
 20
119.4208885909
 30
0.0
 10
118.2937998087
 20
119.3952686497
 30
0.0
 10
118.2695366427
 20
119.3812673842
 30
0.0
  0
SPLINE
  5
2D3
100
AcDbEntity
  8
0
100
AcDbSpline
 62
7
  6
BYLAYER
 70
0
 71
3
 72
9
 73
5
 74
0
 42
0.0000001
 43
0.0000001
 44
0.0000000001
 40
0.0
 40
0.0
 40
0.0
 40
0.0
 40
0.23935112
 40
1.0
 40
1.0
 40
1.0
 40
1.0
 10
117.7727350169
 20
119.752429214
 30
0.0
 10
117.769197581
 20
119.7354212331
 30
0.0
 10
117.7564945681
 20
119.6639346906
 30
0.0
 10
117.7517473014
 20
119.5911329515
 30
0.0
 10
117.7517473014
 20
119.5359255262
 30
0.0
  0
SPLINE
  5
2D4
100
AcDbEntity
  8
0
100
AcDbSpline
 62
7
  6
BYLAYER
 70
0
 71
3
 72
9
 73
5
 74
0
 42
0.0000001
 43
0.0000001
 44
0.0000000001
 40
0.0
 40
0.0
 40
0.0
 40
0.0
 40
0.2356369945
 40
1.0
 40
1.0
 40
1.0
 40
1.0
 10
118.3625034323
 20
119.4487802735
 30
0.0
 10
118.3633583544
 20
119.4508195098
 30
0.0
 10
118.3666142611
 20
119.4596292187
 30
0.0
 10
118.3684611236
 20
119.4689242609
 30
0.0
 10
118.3692581403
 20
119.4760525463
 30
0.0
  0
SPLINE
  5
2D5
100
AcDbEntity
  8
0
100
AcDbSpline
 62
7
  6
BYLAYER
 70
0
 71
3
 72
9
 73
5
 74
0
 42
0.0000001
 43
0.0000001
 44
0.0000000001
 40
0.0
 40
0.0
 40
0.0
 40
0.0
 40
0.2432421153
 40
1.0
 40
1.0
 40
1.0
 40
1.0
 10
118.3692581883
 20
119.4760530036
 30
0.0
 10
118.3756314699
 20
119.5330518086
 30
0.0
 10
118.4062623844
 20
119.7668755735
 30
0.0
 10
118.4539396243
 20
119.998377464
 30
0.0
 10
118.4981378438
 20
120.1712527058
 30
0.0
  0
SPLINE
  5
2D6
100
AcDbEntity
  8
0
100
AcDbSpline
 62
7
  6
BYLAYER
 70
0
 71
3
 72
14
 73
10
 74
0
 42
0.0000001
 43
0.0000001
 44
0.0000000001
 40
0.0
 40
0.0
 40
0.0
 40
0.0
 40
0.2892717721
 40
0.4225296864
 40
0.5484855212
 40
0.6678862883
 40
0.781861335
 40
0.8919477492
 40
1.0
 40
1.0
 40
1.0
 40
1.0
 10
121.3222437919
 20
118.220711103
 30
0.0
 10
121.3222437919
 20
118.0787906496
 30
0.0
 10
121.3056739465
 20
117.8704735982
 30
0.0
 10
121.2416362074
 20
117.6086367193
 30
0.0
 10
121.1764725973
 20
117.4341609196
 30
0.0
 10
121.0934366467
 20
117.2780170826
 30
0.0
 10
120.9931318457
 20
117.1417887677
 30
0.0
 10
120.8765015252
 20
117.0270148224
 30
0.0
 10
120.7882401161
 20
116.965415971
 30
0.0
 10
120.7423302904
 20
116.9389104725
 30
0.0
  0
SPLINE
  5
2D7
100
AcDbEntity
  8
0
100
AcDbSpline
 62
7
  6
BYLAYER
 70
0
 71
3
 72
9
 73
5
 74
0
 42
0.0000001
 43
0.0000001
 44
0.0000000001
 40
0.0
 40
0.0
 40
0.0
 40
0.0
 40
0.2412193753
 40
1.0
 40
1.0
 40
1.0
 40
1.0
 10
117.7517473014
 20
119.5359255262
 30
0.0
 10
117.7517473014
 20
119.5164824348
 30
0.0
 10
117.7536152205
 20
119.4358830986
 30
0.0
 10
117.7626191018
 20
119.3555057379
 30
0.0
 10
117.7727350169
 20
119.2951878604
 30
0.0
  0
SPLINE
  5
2D8
100
AcDbEntity
  8
0
100
AcDbSpline
 62
7
  6
BYLAYER
 70
0
 71
3
 72
13
 73
9
 74
0
 42
0.0000001
 43
0.0000001
 44
0.0000000001
 40
0.0
 40
0.0
 40
0.0
 40
0.0
 40
0.1177569286
 40
0.2416459785
 40
0.5000000039
 40
0.7583540285
 40
0.8822430795
 40
1.0
 40
1.0
 40
1.0
 40
1.0
 10
127.7475478772
 20
123.5672942254
 30
0.0
 10
127.7422877484
 20
123.6121851372
 30
0.0
 10
127.7257409537
 20
123.7036975068
 30
0.0
 10
127.6715055349
 20
123.8880743293
 30
0.0
 10
127.5675324028
 20
124.1125759075
 30
0.0
 10
127.425095943
 20
124.3148708064
 30
0.0
 10
127.2925393603
 20
124.4540291495
 30
0.0
 10
127.2215610353
 20
124.5141156463
 30
0.0
 10
127.1853145711
 20
124.5411166919
 30
0.0
  0
SPLINE
  5
2D9
100
AcDbEntity
  8
0
100
AcDbSpline
 62
7
  6
BYLAYER
 70
0
 71
3
 72
9
 73
5
 74
0
 42
0.0000001
 43
0.0000001
 44
0.0000000001
 40
0.0
 40
0.0
 40
0.0
 40
0.0
 40
0.2646617092
 40
1.0
 40
1.0
 40
1.0
 40
1.0
 10
118.9530233671
 20
118.4649482132
 30
0.0
 10
118.950748179
 20
118.4659431745
 30
0.0
 10
118.9420451073
 20
118.4694422491
 30
0.0
 10
118.9328710547
 20
118.4718634199
 30
0.0
 10
118.926026852
 20
118.472734606
 30
0.0
  0
SPLINE
  5
2DA
100
AcDbEntity
  8
0
100
AcDbSpline
 62
7
  6
BYLAYER
 70
0
 71
3
 72
24
 73
20
 74
0
 42
0.0000001
 43
0.0000001
 44
0.0000000001
 40
0.0
 40
0.0
 40
0.0
 40
0.0
 40
0.0213341341
 40
0.0428965044
 40
0.0874751988
 40
0.1352544024
 40
0.1871594253
 40
0.243601279
 40
0.3045535734
 40
0.3696461087
 40
0.4382487059
 40
0.5095410517
 40
0.5825715674
 40
0.6563097592
 40
0.7296927476
 40
0.8016739129
 40
0.8712704304
 40
0.9376143475
 40
1.0
 40
1.0
 40
1.0
 40
1.0
 10
117.9423428282
 20
121.7886599666
 30
0.0
 10
117.9767434734
 20
121.8085211826
 30
0.0
 10
118.0485676026
 20
121.8440520154
 30
0.0
 10
118.2028269497
 20
121.8974229103
 30
0.0
 10
118.4148106162
 20
121.9286206109
 30
0.0
 10
118.6844479771
 20
121.9087027142
 30
0.0
 10
118.9667725329
 20
121.8337159909
 30
0.0
 10
119.2560739552
 20
121.7058468145
 30
0.0
 10
119.5466444522
 20
121.5280796696
 30
0.0
 10
119.8325672926
 20
121.3042335664
 30
0.0
 10
120.1079106386
 20
121.0390539195
 30
0.0
 10
120.366878292
 20
120.7381603774
 30
0.0
 10
120.6039768952
 20
120.407949709
 30
0.0
 10
120.8141526718
 20
120.0554598866
 30
0.0
 10
120.9929245714
 20
119.688212584
 30
0.0
 10
121.1364739989
 20
119.3140435492
 30
0.0
 10
121.2417551271
 20
118.9408832502
 30
0.0
 10
121.3065065896
 20
118.5767121475
 30
0.0
 10
121.3222437919
 20
118.336868167
 30
0.0
 10
121.3222437919
 20
118.220711103
 30
0.0
  0
SPLINE
  5
2DB
100
AcDbEntity
  8
0
100
AcDbSpline
 62
7
  6
BYLAYER
 70
0
 71
3
 72
9
 73
5
 74
0
 42
0.0000001
 43
0.0000001
 44
0.0000000001
 40
0.0
 40
0.0
 40
0.0
 40
0.0
 40
0.4884253034
 40
1.0
 40
1.0
 40
1.0
 40
1.0
 10
118.0895760434
 20
118.6404968257
 30
0.0
 10
118.1323726853
 20
118.6270003331
 30
0.0
 10
118.2232113824
 20
118.6088259313
 30
0.0
 10
118.3156910474
 20
118.609211823
 30
0.0
 10
118.3625034228
 20
118.6134208867
 30
0.0
  0
SPLINE
  5
2DC
100
AcDbEntity
  8
0
100
AcDbSpline
 62
7
  6
BYLAYER
 70
0
 71
3
 72
9
 73
5
 74
0
 42
0.0000001
 43
0.0000001
 44
0.0000000001
 40
0.0
 40
0.0
 40
0.0
 40
0.0
 40
0.5262824943
 40
1.0
 40
1.0
 40
1.0
 40
1.0
 10
118.4981378438
 20
118.0387602828
 30
0.0
 10
118.5602744753
 20
117.9875022419
 30
0.0
 10
118.6855424027
 20
117.8983528625
 30
0.0
 10
118.8252613997
 20
117.8328513313
 30
0.0
 10
118.8941192899
 20
117.8101454603
 30
0.0
  0
SPLINE
  5
2DD
100
AcDbEntity
  8
0
100
AcDbSpline
 62
7
  6
BYLAYER
 70
0
 71
3
 72
9
 73
5
 74
0
 42
0.0000001
 43
0.0000001
 44
0.0000000001
 40
0.0
 40
0.0
 40
0.0
 40
0.0
 40
0.2432505843
 40
1.0
 40
1.0
 40
1.0
 40
1.0
 10
118.9530247925
 20
118.4649476585
 30
0.0
 10
119.0055754546
 20
118.4419675235
 30
0.0
 10
119.2233882955
 20
118.3515878886
 30
0.0
 10
119.4477115464
 20
118.2771273935
 30
0.0
 10
119.6195221168
 20
118.2289689521
 30
0.0
  0
SPLINE
  5
2DE
100
AcDbEntity
  8
0
100
AcDbSpline
 62
7
  6
BYLAYER
 70
0
 71
3
 72
14
 73
10
 74
0
 42
0.0000001
 43
0.0000001
 44
0.0000000001
 40
0.0
 40
0.0
 40
0.0
 40
0.0
 40
0.2892810709
 40
0.4225469337
 40
0.5484941896
 40
0.6678929916
 40
0.7818686098
 40
0.8919531044
 40
1.0
 40
1.0
 40
1.0
 40
1.0
 10
121.7865043953
 20
115.3568202136
 30
0.0
 10
121.5670260648
 20
115.4835332201
 30
0.0
 10
121.2300695813
 20
115.6439073848
 30
0.0
 10
120.7679701878
 20
115.7786398419
 30
0.0
 10
120.4399773203
 20
115.8336420856
 30
0.0
 10
120.1243818969
 20
115.8446297562
 30
0.0
 10
119.8241660223
 20
115.8111320911
 30
0.0
 10
119.5425396615
 20
115.7332776054
 30
0.0
 10
119.3684997239
 20
115.6517540928
 30
0.0
 10
119.2865245771
 20
115.60442604
 30
0.0
  0
SPLINE
  5
2DF
100
AcDbEntity
  8
0
100
AcDbSpline
 62
7
  6
BYLAYER
 70
0
 71
3
 72
23
 73
19
 74
0
 42
0.0000001
 43
0.0000001
 44
0.0000000001
 40
0.0
 40
0.0
 40
0.0
 40
0.0
 40
0.0467474808
 40
0.0981225781
 40
0.1552910526
 40
0.2184747581
 40
0.2870819562
 40
0.3599848198
 40
0.4356871927
 40
0.5124824519
 40
0.5885867684
 40
0.662264087
 40
0.7319597189
 40
0.7964462126
 40
0.8549986716
 40
0.9076120931
 40
0.9552424912
 40
1.0
 40
1.0
 40
1.0
 40
1.0
 10
114.3901637375
 20
112.4912547293
 30
0.0
 10
114.4241697669
 20
112.5243107847
 30
0.0
 10
114.4843970734
 20
112.6056924481
 30
0.0
 10
114.5415762002
 20
112.7540040964
 30
0.0
 10
114.5683138227
 20
112.9272631127
 30
0.0
 10
114.5644299898
 20
113.1196999084
 30
0.0
 10
114.5303032754
 20
113.3251653884
 30
0.0
 10
114.4671772921
 20
113.5368283462
 30
0.0
 10
114.3772167834
 20
113.7475595652
 30
0.0
 10
114.2634864768
 20
113.9501824167
 30
0.0
 10
114.1298679312
 20
114.1377771417
 30
0.0
 10
113.9809063697
 20
114.3039410809
 30
0.0
 10
113.8216371824
 20
114.4430409362
 30
0.0
 10
113.6573277621
 20
114.5503896936
 30
0.0
 10
113.4932087468
 20
114.6223078236
 30
0.0
 10
113.334211183
 20
114.6559144932
 30
0.0
 10
113.1853936606
 20
114.6489711155
 30
0.0
 10
113.0957793908
 20
114.6155348177
 30
0.0
 10
113.0564595432
 20
114.5928267773
 30
0.0
  0
SPLINE
  5
2E0
100
AcDbEntity
  8
0
100
AcDbSpline
 62
7
  6
BYLAYER
 70
0
 71
3
 72
13
 73
9
 74
0
 42
0.0000001
 43
0.0000001
 44
0.0000000001
 40
0.0
 40
0.0
 40
0.0
 40
0.0
 40
0.1463324918
 40
0.28690757
 40
0.4858712776
 40
0.6703972948
 40
0.8411410236
 40
1.0
 40
1.0
 40
1.0
 40
1.0
 10
119.3653244533
 20
113.1879468756
 30
0.0
 10
119.3472273544
 20
113.3169066017
 30
0.0
 10
119.3200155167
 20
113.5710262721
 30
0.0
 10
119.3048358252
 20
114.0034704387
 30
0.0
 10
119.3335816821
 20
114.4702251976
 30
0.0
 10
119.4303094805
 20
114.9556732051
 30
0.0
 10
119.5898242553
 20
115.3867019436
 30
0.0
 10
119.7417374155
 20
115.6403133565
 30
0.0
 10
119.8271278206
 20
115.7529818475
 30
0.0
  0
SPLINE
  5
2E1
100
AcDbEntity
  8
0
100
AcDbSpline
 62
7
  6
BYLAYER
 70
0
 71
3
 72
14
 73
10
 74
0
 42
0.0000001
 43
0.0000001
 44
0.0000000001
 40
0.0
 40
0.0
 40
0.0
 40
0.0
 40
0.1080468956
 40
0.2181313902
 40
0.3321070084
 40
0.4515058104
 40
0.5774530663
 40
0.7107189291
 40
1.0
 40
1.0
 40
1.0
 40
1.0
 10
117.7445060599
 20
108.5468617813
 30
0.0
 10
117.6789259425
 20
108.5089993391
 30
0.0
 10
117.5396939924
 20
108.443780529
 30
0.0
 10
117.3143929038
 20
108.3814969404
 30
0.0
 10
117.0742202041
 20
108.3546988084
 30
0.0
 10
116.8217438654
 20
108.3634889448
 30
0.0
 10
116.5593495714
 20
108.4074907398
 30
0.0
 10
116.1896700566
 20
108.5152767055
 30
0.0
 10
115.9201048697
 20
108.6435760373
 30
0.0
 10
115.7445222054
 20
108.7449464425
 30
0.0
  0
SPLINE
  5
2E2
100
AcDbEntity
  8
0
100
AcDbSpline
 62
7
  6
BYLAYER
 70
0
 71
3
 72
15
 73
11
 74
0
 42
0.0000001
 43
0.0000001
 44
0.0000000001
 40
0.0
 40
0.0
 40
0.0
 40
0.0
 40
0.1030812643
 40
0.2090346414
 40
0.3203553984
 40
0.4389219359
 40
0.5659114139
 40
0.7018426118
 40
0.8467484014
 40
1.0
 40
1.0
 40
1.0
 40
1.0
 10
118.8051618158
 20
109.1592280121
 30
0.0
 10
118.8853960286
 20
109.205550943
 30
0.0
 10
119.0386475562
 20
109.316964649
 30
0.0
 10
119.2335144313
 20
109.5313233354
 30
0.0
 10
119.3921688548
 20
109.789992172
 30
0.0
 10
119.5126869033
 20
110.0886263661
 30
0.0
 10
119.5938957998
 20
110.4228132655
 30
0.0
 10
119.6350053745
 20
110.7879022343
 30
0.0
 10
119.6355978508
 20
111.1787221575
 30
0.0
 10
119.609787918
 20
111.4459029344
 30
0.0
 10
119.5906465195
 20
111.5823043284
 30
0.0
  0
SPLINE
  5
2E3
100
AcDbEntity
  8
0
100
AcDbSpline
 62
7
  6
BYLAYER
 70
0
 71
3
 72
16
 73
12
 74
0
 42
0.0000001
 43
0.0000001
 44
0.0000000001
 40
0.0
 40
0.0
 40
0.0
 40
0.0
 40
0.1046958442
 40
0.1634171766
 40
0.2259648036
 40
0.3600780639
 40
0.5012134959
 40
0.6421701971
 40
0.7757738799
 40
0.8961150078
 40
1.0
 40
1.0
 40
1.0
 40
1.0
 10
114.497257526
 20
112.6857676304
 30
0.0
 10
114.4128285749
 20
112.7012397651
 30
0.0
 10
114.2852638609
 20
112.7500100658
 30
0.0
 10
114.1268877233
 20
112.8462737843
 30
0.0
 10
113.960672112
 20
112.9743222057
 30
0.0
 10
113.7677909911
 20
113.1753293792
 30
0.0
 10
113.5746430654
 20
113.4583280762
 30
0.0
 10
113.4286624063
 20
113.7679130592
 30
0.0
 10
113.3407503169
 20
114.0813749091
 30
0.0
 10
113.3172081677
 20
114.375765085
 30
0.0
 10
113.3492690031
 20
114.5602163337
 30
0.0
 10
113.3792260405
 20
114.6399441854
 30
0.0
  0
SPLINE
  5
2E4
100
AcDbEntity
  8
0
100
AcDbSpline
 62
7
  6
BYLAYER
 70
0
 71
3
 72
15
 73
11
 74
0
 42
0.0000001
 43
0.0000001
 44
0.0000000001
 40
0.0
 40
0.0
 40
0.0
 40
0.0
 40
0.1030812643
 40
0.2090346414
 40
0.3203553984
 40
0.4389219359
 40
0.5659114139
 40
0.7018426118
 40
0.8467484014
 40
1.0
 40
1.0
 40
1.0
 40
1.0
 10
119.2865245771
 20
115.60442604
 30
0.0
 10
119.1862318111
 20
115.5465223764
 30
0.0
 10
118.9946674016
 20
115.4072552439
 30
0.0
 10
118.7510838077
 20
115.1393068859
 30
0.0
 10
118.5527657784
 20
114.8159708401
 30
0.0
 10
118.4021182178
 20
114.4426780975
 30
0.0
 10
118.300607097
 20
114.0249444733
 30
0.0
 10
118.2492201287
 20
113.5685832622
 30
0.0
 10
118.2484795333
 20
113.0800583583
 30
0.0
 10
118.2807419494
 20
112.7460823871
 30
0.0
 10
118.3046686975
 20
112.5755806447
 30
0.0
  0
SPLINE
  5
2E5
100
AcDbEntity
  8
0
100
AcDbSpline
 62
7
  6
BYLAYER
 70
0
 71
3
 72
15
 73
11
 74
0
 42
0.0000001
 43
0.0000001
 44
0.0000000001
 40
0.0
 40
0.0
 40
0.0
 40
0.0
 40
0.1532515986
 40
0.2981573882
 40
0.4340885861
 40
0.5610780641
 40
0.6796446016
 40
0.7909653586
 40
0.8969187357
 40
1.0
 40
1.0
 40
1.0
 40
1.0
 10
118.5299907636
 20
110.9699380976
 30
0.0
 10
118.5491321622
 20
110.8335367036
 30
0.0
 10
118.574942095
 20
110.5663559267
 30
0.0
 10
118.5743496187
 20
110.1755360035
 30
0.0
 10
118.533240044
 20
109.8104470347
 30
0.0
 10
118.4520311474
 20
109.4762601353
 30
0.0
 10
118.3315130989
 20
109.1776259412
 30
0.0
 10
118.1728586755
 20
108.9189571046
 30
0.0
 10
117.9779918004
 20
108.7045984182
 30
0.0
 10
117.8247402728
 20
108.5931847122
 30
0.0
 10
117.7445060599
 20
108.5468617813
 30
0.0
  0
SPLINE
  5
2E6
100
AcDbEntity
  8
0
100
AcDbSpline
 62
7
  6
BYLAYER
 70
0
 71
3
 72
23
 73
19
 74
0
 42
0.0000001
 43
0.0000001
 44
0.0000000001
 40
0.0
 40
0.0
 40
0.0
 40
0.0
 40
0.0467474808
 40
0.0981225781
 40
0.1552910526
 40
0.2184747581
 40
0.2870819562
 40
0.3599848198
 40
0.4356871927
 40
0.5124824519
 40
0.5885867684
 40
0.662264087
 40
0.7319597189
 40
0.7964462126
 40
0.8549986716
 40
0.9076120931
 40
0.9552424912
 40
1.0
 40
1.0
 40
1.0
 40
1.0
 10
112.9727244833
 20
114.5293758103
 30
0.0
 10
112.9387184539
 20
114.496319755
 30
0.0
 10
112.8784911474
 20
114.4149380916
 30
0.0
 10
112.8213120206
 20
114.2666264433
 30
0.0
 10
112.7945743981
 20
114.093367427
 30
0.0
 10
112.798458231
 20
113.9009306313
 30
0.0
 10
112.8325849454
 20
113.6954651513
 30
0.0
 10
112.8957109287
 20
113.4838021934
 30
0.0
 10
112.9856714374
 20
113.2730709744
 30
0.0
 10
113.099401744
 20
113.0704481229
 30
0.0
 10
113.2330202896
 20
112.882853398
 30
0.0
 10
113.3819818511
 20
112.7166894588
 30
0.0
 10
113.5412510384
 20
112.5775896035
 30
0.0
 10
113.7055604587
 20
112.470240846
 30
0.0
 10
113.869679474
 20
112.3983227161
 30
0.0
 10
114.0286770378
 20
112.3647160465
 30
0.0
 10
114.1774945602
 20
112.3716594242
 30
0.0
 10
114.26710883
 20
112.405095722
 30
0.0
 10
114.3064286775
 20
112.4278037623
 30
0.0
  0
SPLINE
  5
2E7
100
AcDbEntity
  8
0
100
AcDbSpline
 62
7
  6
BYLAYER
 70
0
 71
3
 72
13
 73
9
 74
0
 42
0.0000001
 43
0.0000001
 44
0.0000000001
 40
0.0
 40
0.0
 40
0.0
 40
0.0
 40
0.2696415122
 40
0.5300884673
 40
0.65428858
 40
0.7735331991
 40
0.8884043892
 40
1.0
 40
1.0
 40
1.0
 40
1.0
 10
36.0881109259
 20
83.4246420773
 30
0.0
 10
36.2998229044
 20
83.0972826643
 30
0.0
 10
36.8214711099
 20
82.5159736377
 30
0.0
 10
37.6610255681
 20
82.0386689124
 30
0.0
 10
38.3723161166
 20
81.8635037221
 30
0.0
 10
38.8936766306
 20
81.8405608365
 30
0.0
 10
39.390079097
 20
81.9264434762
 30
0.0
 10
39.6947235828
 20
82.0559965321
 30
0.0
 10
39.8344548644
 20
82.1366699435
 30
0.0
  0
SPLINE
  5
2E8
100
AcDbEntity
  8
0
100
AcDbSpline
 62
7
  6
BYLAYER
 70
0
 71
3
 72
16
 73
12
 74
0
 42
0.0000001
 43
0.0000001
 44
0.0000000001
 40
0.0
 40
0.0
 40
0.0
 40
0.0
 40
0.0445313634
 40
0.0899970647
 40
0.1866474795
 40
0.2949471633
 40
0.4165803951
 40
0.550825217
 40
0.6952542846
 40
0.8463754006
 40
1.0
 40
1.0
 40
1.0
 40
1.0
 10
24.6502325839
 20
89.8665749572
 30
0.0
 10
24.7367869186
 20
89.9165360245
 30
0.0
 10
24.9029288152
 20
90.0336523222
 30
0.0
 10
25.1987056101
 20
90.332896208
 30
0.0
 10
25.4849801397
 20
90.8277745666
 30
0.0
 10
25.6700148532
 20
91.5436966588
 30
0.0
 10
25.7056706825
 20
92.3650408052
 30
0.0
 10
25.5925086462
 20
93.2598156995
 30
0.0
 10
25.3362456585
 20
94.1927131052
 30
0.0
 10
24.9474700014
 20
95.1253738135
 30
0.0
 10
24.6101019615
 20
95.7224921192
 30
0.0
 10
24.4228733258
 20
96.0119941903
 30
0.0
  0
SPLINE
  5
2E9
100
AcDbEntity
  8
0
100
AcDbSpline
 62
7
  6
BYLAYER
 70
0
 71
3
 72
16
 73
12
 74
0
 42
0.0000001
 43
0.0000001
 44
0.0000000001
 40
0.0
 40
0.0
 40
0.0
 40
0.0
 40
0.1562165526
 40
0.3072873522
 40
0.45005266
 40
0.5821193397
 40
0.7020646553
 40
0.809946072
 40
0.9077577622
 40
0.9542644068
 40
1.0
 40
1.0
 40
1.0
 40
1.0
 10
26.8267201495
 20
97.745057337
 30
0.0
 10
26.5614599314
 20
98.1552156564
 30
0.0
 10
25.9963534207
 20
98.9350513463
 30
0.0
 10
25.0471409097
 20
99.9780165684
 30
0.0
 10
24.0349702054
 20
100.8491988873
 30
0.0
 10
22.9930675251
 20
101.5197433388
 30
0.0
 10
21.9534839566
 20
101.9668255632
 30
0.0
 10
20.9479583632
 20
102.1736511397
 30
0.0
 10
20.1488715624
 20
102.131560209
 30
0.0
 10
19.5764169664
 20
101.9643665833
 30
0.0
 10
19.314420215
 20
101.8402438149
 30
0.0
 10
19.1905787738
 20
101.7687303634
 30
0.0
  0
SPLINE
  5
2EA
100
AcDbEntity
  8
0
100
AcDbSpline
 62
7
  6
BYLAYER
 70
0
 71
3
 72
14
 73
10
 74
0
 42
0.0000001
 43
0.0000001
 44
0.0000000001
 40
0.0
 40
0.0
 40
0.0
 40
0.0
 40
0.2926587567
 40
0.4337064196
 40
0.5674109757
 40
0.6915785797
 40
0.804894084
 40
0.9072173852
 40
1.0
 40
1.0
 40
1.0
 40
1.0
 10
20.9383153815
 20
92.9937100145
 30
0.0
 10
20.6163434025
 20
93.4915588316
 30
0.0
 10
20.2122425211
 20
94.2813667873
 30
0.0
 10
19.8595475624
 20
95.377232936
 30
0.0
 10
19.7031588096
 20
96.1723665534
 30
0.0
 10
19.6570112404
 20
96.9254621569
 30
0.0
 10
19.7232749253
 20
97.6141912131
 30
0.0
 10
19.901261894
 20
98.2176332128
 30
0.0
 10
20.1019568442
 20
98.5644154026
 30
0.0
 10
20.219005655
 20
98.7114897501
 30
0.0
  0
SPLINE
  5
2EB
100
AcDbEntity
  8
0
100
AcDbSpline
 62
7
  6
BYLAYER
 70
0
 71
3
 72
14
 73
10
 74
0
 42
0.0000001
 43
0.0000001
 44
0.0000000001
 40
0.0
 40
0.0
 40
0.0
 40
0.0
 40
0.0942529154
 40
0.1967835895
 40
0.3091481245
 40
0.431675785
 40
0.5637069777
 40
0.7038170928
 40
1.0
 40
1.0
 40
1.0
 40
1.0
 10
25.1448524783
 20
90.2749294479
 30
0.0
 10
24.9821683491
 20
90.2461257679
 30
0.0
 10
24.6336266976
 20
90.2310200806
 30
0.0
 10
24.0969516784
 20
90.3274207069
 30
0.0
 10
23.5407495855
 20
90.5365985066
 30
0.0
 10
22.9781781266
 20
90.8525380189
 30
0.0
 10
22.4221965259
 20
91.2671542416
 30
0.0
 10
21.6947800099
 20
91.9499309013
 30
0.0
 10
21.2202551668
 20
92.5577609329
 30
0.0
 10
20.9383153815
 20
92.9937100145
 30
0.0
  0
SPLINE
  5
2EC
100
AcDbEntity
  8
0
100
AcDbSpline
 62
7
  6
BYLAYER
 70
0
 71
3
 72
17
 73
13
 74
0
 42
0.0000001
 43
0.0000001
 44
0.0000000001
 40
0.0
 40
0.0
 40
0.0
 40
0.0
 40
0.1535994145
 40
0.3046765403
 40
0.4490813947
 40
0.583298269
 40
0.7049128022
 40
0.7607679037
 40
0.8133897046
 40
0.9100221175
 40
0.9554770423
 40
1.0
 40
1.0
 40
1.0
 40
1.0
 10
18.4937224735
 20
91.3236504557
 30
0.0
 10
18.1941456968
 20
91.7868707158
 30
0.0
 10
17.6543450006
 20
92.7422305919
 30
0.0
 10
17.0323626065
 20
94.2344615441
 30
0.0
 10
16.6222484861
 20
95.7271495417
 30
0.0
 10
16.4413105258
 20
97.1584725936
 30
0.0
 10
16.4898293745
 20
98.2844089588
 30
0.0
 10
16.6596210984
 20
99.0951182397
 30
0.0
 10
16.8956950278
 20
99.7939481494
 30
0.0
 10
17.2523626544
 20
100.4103795535
 30
0.0
 10
17.72567555
 20
100.8889284819
 30
0.0
 10
17.9914481251
 20
101.0764018177
 30
0.0
 10
18.1299228248
 20
101.1563644799
 30
0.0
  0
SPLINE
  5
2ED
100
AcDbEntity
  8
0
100
AcDbSpline
 62
7
  6
BYLAYER
 70
0
 71
3
 72
15
 73
11
 74
0
 42
0.0000001
 43
0.0000001
 44
0.0000000001
 40
0.0
 40
0.0
 40
0.0
 40
0.0
 40
0.1562517314
 40
0.3073816902
 40
0.4501793823
 40
0.5822862658
 40
0.7022645275
 40
0.8101766709
 40
0.9080168405
 40
1.0
 40
1.0
 40
1.0
 40
1.0
 10
24.4228733258
 20
96.0119941903
 30
0.0
 10
24.2570959149
 20
96.2683273288
 30
0.0
 10
23.9038818787
 20
96.7557217329
 30
0.0
 10
23.310648026
 20
97.4075927188
 30
0.0
 10
22.6780162123
 20
97.9520753852
 30
0.0
 10
22.02681865
 20
98.3711544491
 30
0.0
 10
21.3771979304
 20
98.6506674073
 30
0.0
 10
20.7483748152
 20
98.779697922
 30
0.0
 10
20.1601521683
 20
98.749421907
 30
0.0
 10
19.8059399865
 20
98.6166016311
 30
0.0
 10
19.6503003676
 20
98.5267630169
 30
0.0
  0
SPLINE
  5
2EE
100
AcDbEntity
  8
0
100
AcDbSpline
 62
7
  6
BYLAYER
 70
0
 71
3
 72
13
 73
9
 74
0
 42
0.0000001
 43
0.0000001
 44
0.0000000001
 40
0.0
 40
0.0
 40
0.0
 40
0.0
 40
0.1115955768
 40
0.2264667068
 40
0.345711303
 40
0.4699114037
 40
0.730358379
 40
1.0
 40
1.0
 40
1.0
 40
1.0
 10
116.5552212021
 20
126.4311606386
 30
0.0
 10
116.6949524411
 20
126.5118340255
 30
0.0
 10
116.9995967708
 20
126.6413870976
 30
0.0
 10
117.4959990727
 20
126.7272697007
 30
0.0
 10
118.0173594464
 20
126.7043269253
 30
0.0
 10
118.728650013
 20
126.5291618833
 30
0.0
 10
119.5682046946
 20
126.0518571911
 30
0.0
 10
120.0898530766
 20
125.47054805
 30
0.0
 10
120.3015651406
 20
125.1431885048
 30
0.0
  0
SPLINE
  5
2EF
100
AcDbEntity
  8
0
100
AcDbSpline
 62
7
  6
BYLAYER
 70
0
 71
3
 72
13
 73
9
 74
0
 42
0.0000001
 43
0.0000001
 44
0.0000000001
 40
0.0
 40
0.0
 40
0.0
 40
0.0
 40
0.2696289466
 40
0.5300867822
 40
0.6542836655
 40
0.7735424761
 40
0.8883797101
 40
1.0
 40
1.0
 40
1.0
 40
1.0
 10
27.7551132498
 20
77.0032351959
 30
0.0
 10
28.0726674119
 20
76.5122174235
 30
0.0
 10
28.8551167782
 20
75.6402251532
 30
0.0
 10
30.11446227
 20
74.9243221484
 30
0.0
 10
31.1814349003
 20
74.6614901534
 30
0.0
 10
31.9634243924
 20
74.6271377848
 30
0.0
 10
32.7080687776
 20
74.7558203471
 30
0.0
 10
33.1649852278
 20
74.9502397384
 30
0.0
 10
33.3746291576
 20
75.0712769952
 30
0.0
  0
SPLINE
  5
2F0
100
AcDbEntity
  8
0
100
AcDbSpline
 62
7
  6
BYLAYER
 70
0
 71
3
 72
12
 73
8
 74
0
 42
0.0000001
 43
0.0000001
 44
0.0000000001
 40
0.0
 40
0.0
 40
0.0
 40
0.0
 40
0.111675978
 40
0.2267458874
 40
0.4692812275
 40
0.7300187964
 40
1.0
 40
1.0
 40
1.0
 40
1.0
 10
110.0953954953
 20
119.3657676903
 30
0.0
 10
110.1652270329
 20
119.4060847067
 30
0.0
 10
110.3176150049
 20
119.470753048
 30
0.0
 10
110.6538842055
 20
119.529298371
 30
0.0
 10
111.1079830572
 20
119.4575964047
 30
0.0
 10
111.6014037327
 20
119.1761935801
 30
0.0
 10
111.8627060928
 20
118.8854696526
 30
0.0
 10
111.9685674646
 20
118.7217816234
 30
0.0
  0
SPLINE
  5
2F1
100
AcDbEntity
  8
0
100
AcDbSpline
 62
7
  6
BYLAYER
 70
0
 71
3
 72
15
 73
11
 74
0
 42
0.0000001
 43
0.0000001
 44
0.0000000001
 40
0.0
 40
0.0
 40
0.0
 40
0.0
 40
0.1562517314
 40
0.3073816902
 40
0.4501793823
 40
0.5822862658
 40
0.7022645275
 40
0.8101766709
 40
0.9080168405
 40
1.0
 40
1.0
 40
1.0
 40
1.0
 10
19.8776596257
 20
92.3813437837
 30
0.0
 10
20.0434370366
 20
92.1250106452
 30
0.0
 10
20.3966510729
 20
91.6376162411
 30
0.0
 10
20.9898849256
 20
90.9857452553
 30
0.0
 10
21.6225167393
 20
90.4412625888
 30
0.0
 10
22.2737143015
 20
90.0221835249
 30
0.0
 10
22.9233350211
 20
89.7426705667
 30
0.0
 10
23.5521581364
 20
89.613640052
 30
0.0
 10
24.1403807833
 20
89.643916067
 30
0.0
 10
24.4945929651
 20
89.7767363429
 30
0.0
 10
24.6502325839
 20
89.8665749572
 30
0.0
  0
SPLINE
  5
2F2
100
AcDbEntity
  8
0
100
AcDbSpline
 62
7
  6
BYLAYER
 70
0
 71
3
 72
13
 73
9
 74
0
 42
0.0000001
 43
0.0000001
 44
0.0000000001
 40
0.0
 40
0.0
 40
0.0
 40
0.0
 40
0.1116202899
 40
0.2264575239
 40
0.3457163345
 40
0.4699132178
 40
0.7303710534
 40
1.0
 40
1.0
 40
1.0
 40
1.0
 10
40.6469710778
 20
80.8803176458
 30
0.0
 10
40.437327148
 20
80.759280389
 30
0.0
 10
39.9804106978
 20
80.5648609977
 30
0.0
 10
39.2357663126
 20
80.4361784354
 30
0.0
 10
38.4537768205
 20
80.470530804
 30
0.0
 10
37.3868041902
 20
80.733362799
 30
0.0
 10
36.1274586984
 20
81.4492658038
 30
0.0
 10
35.3450093321
 20
82.321258074
 30
0.0
 10
35.02745517
 20
82.8122758465
 30
0.0
  0
SPLINE
  5
2F3
100
AcDbEntity
  8
0
100
AcDbSpline
 62
7
  6
BYLAYER
 70
0
 71
3
 72
12
 73
8
 74
0
 42
0.0000001
 43
0.0000001
 44
0.0000000001
 40
0.0
 40
0.0
 40
0.0
 40
0.0
 40
0.2699814605
 40
0.5307190856
 40
0.7732543339
 40
0.8883240928
 40
1.0
 40
1.0
 40
1.0
 40
1.0
 10
119.2409093848
 20
124.530822274
 30
0.0
 10
119.1350479119
 20
124.6945104595
 30
0.0
 10
118.8737453453
 20
124.985234526
 30
0.0
 10
118.3803244073
 20
125.266637285
 30
0.0
 10
117.9262256813
 20
125.3383389384
 30
0.0
 10
117.5899566885
 20
125.2797937203
 30
0.0
 10
117.4375689091
 20
125.2151253318
 30
0.0
 10
117.3677374155
 20
125.1748083409
 30
0.0
  0
SPLINE
  5
2F4
100
AcDbEntity
  8
0
100
AcDbSpline
 62
7
  6
BYLAYER
 70
0
 71
3
 72
16
 73
12
 74
0
 42
0.0000001
 43
0.0000001
 44
0.0000000001
 40
0.0
 40
0.0
 40
0.0
 40
0.0
 40
0.0445313634
 40
0.0899970647
 40
0.1866474795
 40
0.2949471633
 40
0.4165803951
 40
0.550825217
 40
0.6952542846
 40
0.8463754006
 40
1.0
 40
1.0
 40
1.0
 40
1.0
 10
19.6503003676
 20
98.5267630169
 30
0.0
 10
19.563746033
 20
98.4768019495
 30
0.0
 10
19.3976041364
 20
98.3596856519
 30
0.0
 10
19.1018273414
 20
98.0604417661
 30
0.0
 10
18.8155528119
 20
97.5655634074
 30
0.0
 10
18.6305180984
 20
96.8496413152
 30
0.0
 10
18.5948622691
 20
96.0282971689
 30
0.0
 10
18.7080243053
 20
95.1335222745
 30
0.0
 10
18.964287293
 20
94.2006248689
 30
0.0
 10
19.3530629502
 20
93.2679641605
 30
0.0
 10
19.6904309901
 20
92.6708458548
 30
0.0
 10
19.8776596257
 20
92.3813437837
 30
0.0
  0
SPLINE
  5
2F5
100
AcDbEntity
  8
0
100
AcDbSpline
 62
7
  6
BYLAYER
 70
0
 71
3
 72
16
 73
12
 74
0
 42
0.0000001
 43
0.0000001
 44
0.0000000001
 40
0.0
 40
0.0
 40
0.0
 40
0.0
 40
0.0457351626
 40
0.0922411306
 40
0.1900509769
 40
0.2979304081
 40
0.4178745256
 40
0.5499416014
 40
0.6927078525
 40
0.8437818872
 40
1.0
 40
1.0
 40
1.0
 40
1.0
 10
18.1299228248
 20
101.1563644799
 30
0.0
 10
18.2537634447
 20
101.2278766454
 30
0.0
 10
18.5157570653
 20
101.3519974587
 30
0.0
 10
19.0882014726
 20
101.5191925902
 30
0.0
 10
19.8872738002
 20
101.5612866763
 30
0.0
 10
20.8927851777
 20
101.3544721742
 30
0.0
 10
21.9323640968
 20
100.907400991
 30
0.0
 10
22.9742705679
 20
100.2368618372
 30
0.0
 10
23.9864586876
 20
99.3656776949
 30
0.0
 10
24.9356841764
 20
98.3226997689
 30
0.0
 10
25.500801541
 20
97.5428534993
 30
0.0
 10
25.7660643937
 20
97.1326911062
 30
0.0
  0
ENDSEC
  0
SECTION
  2
OBJECTS
  0
DICTIONARY
  5
C
100
AcDbDictionary
280
0
281
1
  3
ACAD_GROUP
350
D
  3
ACAD_MLINESTYLE
350
17
  3
ACAD_LAYOUT
350
1A
  3
ACAD_PLOTSETTINGS
350
19
  3
ACAD_PLOTSTYLENAME
350
E
  0
DICTIONARY
  5
D
102
{ACAD_REACTORS
330
C
102
}
100
AcDbDictionary
280
0
281
1
  0
ACDBDICTIONARYWDFLT
  5
E
102
{ACAD_REACTORS
330
C
102
}
100
AcDbDictionary
281
1
  3
Normal
350
F
100
AcDbDictionaryWithDefault
340
F
  0
DICTIONARY
  5
17
102
{ACAD_REACTORS
330
C
102
}
100
AcDbDictionary
280
0
281
1
  3
Standard
350
18
  0
DICTIONARY
  5
19
102
{ACAD_REACTORS
330
C
102
}
100
AcDbDictionary
281
1
  0
DICTIONARY
  5
1A
102
{ACAD_REACTORS
330
C
102
}
100
AcDbDictionary
281
1
  3
Model
350
2F6
  3
Layout1
350
2F7
  0
ACDBPLACEHOLDER
  5
F
102
{ACAD_REACTORS
330
E
102
}
  0
MLINESTYLE
  5
18
102
{ACAD_REACTORS
330
17
102
}
100
AcDbMlineStyle
  2
STANDARD
 70
0
  3

 62
256
 51
90.0
 52
90.0
 71
2
 49
0.5
 62
256
  6
BYLAYER
 49
-0.5
 62
256
  6
BYLAYER
  0
LAYOUT
  5
2F6
102
{ACAD_REACTORS
330
1A
102
}
100
AcDbPlotSettings
  1

  2
none_device
  4

  6

 40
0.0
 41
0.0
 42
0.0
 43
0.0
 44
210.0
 45
297.0
 46
0.0
 47
0.0
 48
0.0
 49
0.0
140
0.0
141
0.0
142
1.0
143
1.0
 70
1024
 72
1
 73
0
 74
0
  7

 75
0
147
1.0
148
0.0
149
0.0
100
AcDbLayout
  1
Model
 70
0
 71
0
 10
0.0
 20
0.0
 11
210.0
 21
297.0
 12
0.0
 22
0.0
 32
0.0
 14
0.0
 24
0.0
 34
0.0
 15
0.0
 25
0.0
 35
0.0
146
0.0
 13
0.0
 23
0.0
 33
0.0
 16
1.0
 26
0.0
 36
0.0
 17
0.0
 27
1.0
 37
0.0
 76
0
330
210
345
0
346
0
  0
LAYOUT
  5
2F7
102
{ACAD_REACTORS
330
1A
102
}
100
AcDbPlotSettings
  1

  2
none_device
  4

  6

 40
0.0
 41
0.0
 42
0.0
 43
0.0
 44
210.0
 45
297.0
 46
0.0
 47
0.0
 48
0.0
 49
0.0
140
0.0
141
0.0
142
1.0
143
1.0
 70
0
 72
1
 73
0
 74
0
  7

 75
0
147
1.0
148
0.0
149
0.0
100
AcDbLayout
  1
Layout1
 70
0
 71
1
 10
0.0
 20
0.0
 11
210.0
 21
297.0
 12
0.0
 22
0.0
 32
0.0
 14
0.0
 24
0.0
 34
0.0
 15
0.0
 25
0.0
 35
0.0
146
0.0
 13
0.0
 23
0.0
 33
0.0
 16
1.0
 26
0.0
 36
0.0
 17
0.0
 27
1.0
 37
0.0
 76
0
330
211
345
0
346
0
  0
ENDSEC
  0
EOF
