999
DXF file: C:\Users\sesa63760\Dev\_Creo\CAD\MCADID0002130_3D-CAD\drw0001_7.dxf
999
Pro/ENGINEER 2019471 by Parametric Technology Corporation
  0
SECTION
  2
HEADER
  9
$ACADVER
  1
AC1024
  9
$DWGCODEPAGE
  3
ANSI_1252
  9
$EXTMAX
 10
58.0968966059
 20
82.165610914
 30
0.0
  9
$EXTMIN
 10
0.0
 20
0.0
 30
0.0
  9
$LIMMIN
 10
0.0
 20
0.0
  9
$LIMMAX
 10
58.0968966059
 20
82.165610914
  9
$VIEWCTR
 10
29.0484483029
 20
41.082805457
  9
$VIEWSIZE
 40
82.165610914
  9
$CLAYER
  8
0
  9
$LTSCALE
 40
5.3559805633
  9
$CELTYPE
  6
BYLAYER
  9
$DIMSCALE
 40
1.0
  9
$DIMASZ
 40
0.6916297215
  9
$DIMEXO
 40
1.0
  9
$DIMDLI
 40
3.7004956619
  9
$DIMEXE
 40
1.0
  9
$DIMCEN
 40
0.8764331831
  9
$DIMLFAC
 40
1.0
  9
$DIMBLK
  1
_FILLED
  9
$DIMALT
 70
0
  9
$DIMALTF
 40
0.0393700787
  9
$DIMTXT
 40
0.9682816101
  9
$DIMTOL
 70
1
  9
$DIMLIM
 70
0
  9
$DIMTFAC
 40
1.0
  9
$DIMTP
 40
0.01
  9
$DIMTM
 40
0.01
  9
$DIMGAP
 40
0.625
  9
$DIMDSEP
 70
46
  9
$AUNITS
 70
0
  9
$PDMODE
 70
3
  9
$PDSIZE
 40
0.3125
  9
$HANDSEED
  5
28F
  9
$TILEMODE
 70
1
  9
$MEASUREMENT
 70
1
  9
$INSUNITS
 70
4
  0
ENDSEC
  0
SECTION
  2
CLASSES
  0
CLASS
  1
ACDBDICTIONARYWDFLT
  2
AcDbDictionaryWithDefault
  3
AutoCAD 2000
 90
0
 91
1
280
0
281
0
  0
CLASS
  1
ACDBPLACEHOLDER
  2
AcDbPlaceHolder
  3
AutoCAD 2000
 90
0
 91
1
280
0
281
0
  0
CLASS
  1
LAYOUT
  2
AcDbLayout
  3
AutoCAD 2000
 90
0
 91
0
280
0
281
0
  0
ENDSEC
  0
SECTION
  2
TABLES
  0
TABLE
  2
VPORT
  5
8
100
AcDbSymbolTable
 70
2
  0
VPORT
  5
1F4
100
AcDbSymbolTableRecord
100
AcDbViewportTableRecord
  2
*ACTIVE
 70
0
 10
0.0
 20
0.0
 11
1.0
 21
1.0
 12
29.0484483029
 22
41.082805457
 13
0.0
 23
0.0
 14
1.0
 24
1.0
 15
0.0
 25
0.0
 16
0.0
 26
0.0
 36
1.0
 17
0.0
 27
0.0
 37
0.0
 40
82.165610914
 41
0.7070707071
 42
50.0
 43
0.0
 44
0.0
 50
0.0
 51
0.0
 71
0
 72
100
 73
1
 74
1
 75
0
 76
0
 77
0
 78
0
  0
ENDTAB
  0
TABLE
  2
LTYPE
  5
5
100
AcDbSymbolTable
 70
6
  0
LTYPE
  5
14
100
AcDbSymbolTableRecord
100
AcDbLinetypeTableRecord
  2
BYBLOCK
 70
0
  3

 72
65
 73
0
 40
0.0
  0
LTYPE
  5
15
100
AcDbSymbolTableRecord
100
AcDbLinetypeTableRecord
  2
BYLAYER
 70
0
  3

 72
65
 73
0
 40
0.0
  0
LTYPE
  5
16
100
AcDbSymbolTableRecord
100
AcDbLinetypeTableRecord
  2
CONTINUOUS
 70
64
  3
Solid line
 72
65
 73
0
 40
0.0
  0
LTYPE
  5
1F5
100
AcDbSymbolTableRecord
100
AcDbLinetypeTableRecord
  2
CENTER
 70
64
  3
____ _ ____ _ ____ _ ____ _ ____ _ ____ _ ____
 72
65
 73
4
 40
0.6
 49
0.375
 74
0
 49
-0.075
 74
0
 49
0.075
 74
0
 49
-0.075
 74
0
  0
LTYPE
  5
1F6
100
AcDbSymbolTableRecord
100
AcDbLinetypeTableRecord
  2
HIDDEN
 70
64
  3
- - - - - - - - - - - - - - - - - - - -
 72
65
 73
2
 40
0.2
 49
0.1
 74
0
 49
-0.1
 74
0
  0
LTYPE
  5
1F7
100
AcDbSymbolTableRecord
100
AcDbLinetypeTableRecord
  2
PHANTOM
 70
64
  3
_____ _ _ _____ _ _ _____ _ _ _____
 72
65
 73
6
 40
0.8
 49
0.45
 74
0
 49
-0.05
 74
0
 49
0.1
 74
0
 49
-0.05
 74
0
 49
0.1
 74
0
 49
-0.05
 74
0
  0
LTYPE
  5
1F8
100
AcDbSymbolTableRecord
100
AcDbLinetypeTableRecord
  2
DOT
 70
64
  3
. . . . . . . . . . . . . . . . . . . .
 72
65
 73
2
 40
0.2
 49
0.1
 74
0
 49
-0.1
 74
0
  0
LTYPE
  5
1F9
100
AcDbSymbolTableRecord
100
AcDbLinetypeTableRecord
  2
DASHED
 70
64
  3
- - - - - - - - - - - - - - - - - - - -
 72
65
 73
2
 40
0.2
 49
0.1
 74
0
 49
-0.1
 74
0
  0
ENDTAB
  0
TABLE
  2
LAYER
  5
2
100
AcDbSymbolTable
 70
36
  0
LAYER
  5
10
100
AcDbSymbolTableRecord
100
AcDbLayerTableRecord
  2
0
 70
0
 62
7
  6
CONTINUOUS
370
-3
390
F
  0
LAYER
  5
1FA
100
AcDbSymbolTableRecord
100
AcDbLayerTableRecord
  2
DEFAULT_1
 70
0
 62
7
  6
CENTER
370
-3
390
F
  0
LAYER
  5
1FB
100
AcDbSymbolTableRecord
100
AcDbLayerTableRecord
  2
DEFAULT_2
 70
0
 62
8
  6
HIDDEN
370
-3
390
F
  0
LAYER
  5
1FC
100
AcDbSymbolTableRecord
100
AcDbLayerTableRecord
  2
DEFAULT_3
 70
0
 62
7
  6
PHANTOM
370
-3
390
F
  0
LAYER
  5
1FD
100
AcDbSymbolTableRecord
100
AcDbLayerTableRecord
  2
00_COMPONENTS
 70
0
 62
7
  6
CONTINUOUS
370
-3
390
F
  0
LAYER
  5
1FE
100
AcDbSymbolTableRecord
100
AcDbLayerTableRecord
  2
01_1_DEFAULT_DATUMS
 70
0
 62
7
  6
CONTINUOUS
370
-3
390
F
  0
LAYER
  5
1FF
100
AcDbSymbolTableRecord
100
AcDbLayerTableRecord
  2
01_PLANES
 70
0
 62
7
  6
CONTINUOUS
370
-3
390
F
  0
LAYER
  5
200
100
AcDbSymbolTableRecord
100
AcDbLayerTableRecord
  2
02_COORD_SYS
 70
0
 62
7
  6
CONTINUOUS
370
-3
390
F
  0
LAYER
  5
201
100
AcDbSymbolTableRecord
100
AcDbLayerTableRecord
  2
03_AXES
 70
0
 62
7
  6
CONTINUOUS
370
-3
390
F
  0
LAYER
  5
202
100
AcDbSymbolTableRecord
100
AcDbLayerTableRecord
  2
04_POINTS
 70
0
 62
7
  6
CONTINUOUS
370
-3
390
F
  0
LAYER
  5
203
100
AcDbSymbolTableRecord
100
AcDbLayerTableRecord
  2
05_CURVES
 70
0
 62
7
  6
CONTINUOUS
370
-3
390
F
  0
LAYER
  5
204
100
AcDbSymbolTableRecord
100
AcDbLayerTableRecord
  2
06_SURFS
 70
0
 62
7
  6
CONTINUOUS
370
-3
390
F
  0
LAYER
  5
205
100
AcDbSymbolTableRecord
100
AcDbLayerTableRecord
  2
07_COSMETICS
 70
0
 62
7
  6
CONTINUOUS
370
-3
390
F
  0
LAYER
  5
206
100
AcDbSymbolTableRecord
100
AcDbLayerTableRecord
  2
10_NOTES
 70
0
 62
7
  6
CONTINUOUS
370
-3
390
F
  0
LAYER
  5
207
100
AcDbSymbolTableRecord
100
AcDbLayerTableRecord
  2
11_NOTES_PUB
 70
0
 62
7
  6
CONTINUOUS
370
-3
390
F
  0
LAYER
  5
208
100
AcDbSymbolTableRecord
100
AcDbLayerTableRecord
  2
13_REF_GTOL
 70
0
 62
7
  6
CONTINUOUS
370
-3
390
F
  0
LAYER
  5
209
100
AcDbSymbolTableRecord
100
AcDbLayerTableRecord
  2
16_MISC
 70
0
 62
7
  6
CONTINUOUS
370
-3
390
F
  0
LAYER
  5
20A
100
AcDbSymbolTableRecord
100
AcDbLayerTableRecord
  2
17_NO_PRINT
 70
0
 62
7
  6
CONTINUOUS
370
-3
390
F
  0
LAYER
  5
20B
100
AcDbSymbolTableRecord
100
AcDbLayerTableRecord
  2
18_DATUM_CAMS_JOINTS
 70
0
 62
7
  6
CONTINUOUS
370
-3
390
F
  0
LAYER
  5
20C
100
AcDbSymbolTableRecord
100
AcDbLayerTableRecord
  2
19_DATUM_FUNCTIONAL
 70
0
 62
7
  6
CONTINUOUS
370
-3
390
F
  0
LAYER
  5
20D
100
AcDbSymbolTableRecord
100
AcDbLayerTableRecord
  2
20_DATUM_KINEMATIC_SCHEME
 70
0
 62
7
  6
CONTINUOUS
370
-3
390
F
  0
ENDTAB
  0
TABLE
  2
STYLE
  5
3
100
AcDbSymbolTable
 70
1
  0
STYLE
  5
11
100
AcDbSymbolTableRecord
100
AcDbTextStyleTableRecord
  2
STANDARD
 70
0
 40
0.0
 41
0.8
 50
0.0
 71
0
 42
0.2
  3
txt
  4

  0
STYLE
  5
20E
100
AcDbSymbolTableRecord
100
AcDbTextStyleTableRecord
  2
TEXTSTYLE_1
 70
0
 40
0.0
 41
0.8
 50
0.0
 71
0
 42
0.2
  3
gdt
  4

  0
ENDTAB
  0
TABLE
  2
VIEW
  5
6
100
AcDbSymbolTable
 70
0
  0
ENDTAB
  0
TABLE
  2
UCS
  5
7
100
AcDbSymbolTable
 70
0
  0
ENDTAB
  0
TABLE
  2
APPID
  5
9
100
AcDbSymbolTable
 70
1
  0
APPID
  5
20F
100
AcDbSymbolTableRecord
100
AcDbRegAppTableRecord
  2
ACAD
 70
0
  0
ENDTAB
  0
TABLE
  2
BLOCK_RECORD
  5
1
100
AcDbSymbolTable
 70
0
  0
BLOCK_RECORD
  5
210
100
AcDbSymbolTableRecord
100
AcDbBlockTableRecord
  2
*Model_Space
  0
BLOCK_RECORD
  5
211
100
AcDbSymbolTableRecord
100
AcDbBlockTableRecord
  2
*Paper_Space
  0
BLOCK_RECORD
  5
212
100
AcDbSymbolTableRecord
100
AcDbBlockTableRecord
  2
_FILLED
  0
ENDTAB
  0
TABLE
  2
DIMSTYLE
  5
A
100
AcDbSymbolTable
 70
1
100
AcDbDimStyleTable
 71
0
  0
DIMSTYLE
105
213
100
AcDbSymbolTableRecord
100
AcDbDimStyleTableRecord
  2
STANDARD
 70
0
  3

  4

 40
1.0
 41
0.6916297215
 42
1.0
 43
0.38
 44
1.0
 45
0.0
 46
0.0
 47
0.01
 48
0.01
140
0.9682816101
141
0.09
142
0.0
143
25.4
144
1.0
145
0.0
146
1.0
147
0.625
 71
1
 72
0
 73
0
 74
0
 75
0
 76
0
 77
1
 78
8
 79
2
170
0
171
1
172
0
173
0
174
0
175
0
176
0
177
0
178
0
270
2
179
2
271
2
272
2
273
2
274
2
275
0
280
0
281
0
282
0
283
1
284
8
285
0
286
0
287
3
288
0
340
11
278
46
341
212
342
212
343
212
344
212
  0
ENDTAB
  0
ENDSEC
  0
SECTION
  2
BLOCKS
  0
BLOCK
  5
20
100
AcDbEntity
  8
0
100
AcDbBlockBegin
  2
*Model_Space
 70
0
 10
0.0
 20
0.0
 30
0.0
  3
*Model_Space
  1

  0
ENDBLK
  5
21
100
AcDbEntity
  8
0
100
AcDbBlockEnd
  0
BLOCK
  5
1C
100
AcDbEntity
  8
0
100
AcDbBlockBegin
  2
*Paper_Space
 70
0
 10
0.0
 20
0.0
 30
0.0
  3
*Paper_Space
  1

  0
ENDBLK
  5
1D
100
AcDbEntity
  8
0
100
AcDbBlockEnd
  0
BLOCK
  5
214
100
AcDbEntity
  8
0
100
AcDbBlockBegin
  2
_FILLED
 70
64
 10
0.0
 20
0.0
  3
_FILLED
  1

  0
SOLID
  5
215
100
AcDbEntity
  8
0
  6
BYBLOCK
 62
0
100
AcDbTrace
 10
0.0
 20
0.0
 11
-1.0
 21
0.25
 12
-1.0
 22
-0.25
 13
-1.0
 23
-0.25
  0
ENDBLK
  5
216
100
AcDbEntity
  8
0
  6
BYBLOCK
 62
0
100
AcDbBlockEnd
  0
ENDSEC
  0
SECTION
  2
ENTITIES
  0
LINE
  5
217
100
AcDbEntity
  8
0
100
AcDbLine
 62
7
  6
CONTINUOUS
 10
17.2638053607
 20
8.3934411216
 11
41.0342310516
 21
8.3934411216
  0
LINE
  5
218
100
AcDbEntity
  8
0
100
AcDbLine
 62
7
  6
CONTINUOUS
 10
44.1523761792
 20
13.0347723348
 11
14.145660233
 21
13.0347723348
  0
LINE
  5
219
100
AcDbEntity
  8
0
100
AcDbLine
 62
7
  6
CONTINUOUS
 10
14.1456685182
 20
18.2834113832
 11
44.152367894
 21
18.2834113832
  0
LINE
  5
21A
100
AcDbEntity
  8
0
100
AcDbLine
 62
7
  6
CONTINUOUS
 10
15.5740113657
 20
19.7334113832
 11
42.7240250465
 21
19.7334113832
  0
LINE
  5
21B
100
AcDbEntity
  8
0
100
AcDbLine
 62
7
  6
CONTINUOUS
 10
18.1990205242
 20
20.7334113832
 11
27.1490201456
 21
20.7334113832
  0
LINE
  5
21C
100
AcDbEntity
  8
0
100
AcDbLine
 62
7
  6
CONTINUOUS
 10
31.1490201456
 20
20.7334113832
 11
40.099015888
 21
20.7334113832
  0
LINE
  5
21D
100
AcDbEntity
  8
0
100
AcDbLine
 62
7
  6
CONTINUOUS
 10
14.145660233
 20
18.2834113832
 11
14.145660233
 21
13.0347723348
  0
LINE
  5
21E
100
AcDbEntity
  8
0
100
AcDbLine
 62
7
  6
CONTINUOUS
 10
17.0240201456
 20
25.4834100687
 11
27.1490201456
 21
25.4834100687
  0
LINE
  5
21F
100
AcDbEntity
  8
0
100
AcDbLine
 62
7
  6
CONTINUOUS
 10
31.1490201456
 20
25.4834100687
 11
41.2740201456
 21
25.4834100687
  0
LINE
  5
220
100
AcDbEntity
  8
0
100
AcDbLine
 62
7
  6
CONTINUOUS
 10
14.4840201456
 20
25.6834113832
 11
43.8140201456
 21
25.6834113832
  0
LINE
  5
221
100
AcDbEntity
  8
0
100
AcDbLine
 62
7
  6
CONTINUOUS
 10
14.1990201456
 20
31.6834113832
 11
14.1990201456
 21
41.4834113832
  0
LINE
  5
222
100
AcDbEntity
  8
0
100
AcDbLine
 62
7
  6
CONTINUOUS
 10
14.4840201456
 20
31.6834113832
 11
14.4840201456
 21
25.6834113832
  0
LINE
  5
223
100
AcDbEntity
  8
0
100
AcDbLine
 62
7
  6
CONTINUOUS
 10
15.5740038445
 20
19.7334113832
 11
15.5740038445
 21
18.2834113832
  0
LINE
  5
224
100
AcDbEntity
  8
0
100
AcDbLine
 62
7
  6
CONTINUOUS
 10
16.5990201456
 20
36.0666100687
 11
16.5990201456
 21
34.3601739392
  0
LINE
  5
225
100
AcDbEntity
  8
0
100
AcDbLine
 62
7
  6
CONTINUOUS
 10
14.1456221796
 20
13.0152955213
 11
14.145660233
 21
13.0347723348
  0
LINE
  5
226
100
AcDbEntity
  8
0
100
AcDbLine
 62
7
  6
CONTINUOUS
 10
17.0240201456
 20
25.4834100687
 11
17.0240201456
 21
25.6834113832
  0
LINE
  5
227
100
AcDbEntity
  8
0
100
AcDbLine
 62
7
  6
CONTINUOUS
 10
17.0240201456
 20
31.6834113832
 11
17.0240201456
 21
34.3601739392
  0
LINE
  5
228
100
AcDbEntity
  8
0
100
AcDbLine
 62
7
  6
CONTINUOUS
 10
18.2840201456
 20
25.6834113832
 11
18.2840201456
 21
31.6834113832
  0
LINE
  5
229
100
AcDbEntity
  8
0
100
AcDbLine
 62
7
  6
CONTINUOUS
 10
18.6490241188
 20
25.4834100687
 11
18.6490241188
 21
20.7334113832
  0
LINE
  5
22A
100
AcDbEntity
  8
0
100
AcDbLine
 62
7
  6
CONTINUOUS
 10
20.4990201456
 20
37.1038555592
 11
20.4990201456
 21
41.4834113832
  0
LINE
  5
22B
100
AcDbEntity
  8
0
100
AcDbLine
 62
7
  6
CONTINUOUS
 10
20.6115053083
 20
34.3601739392
 11
20.6115053083
 21
31.6834113832
  0
LINE
  5
22C
100
AcDbEntity
  8
0
100
AcDbLine
 62
7
  6
CONTINUOUS
 10
20.6115053083
 20
25.6834113832
 11
20.6115053083
 21
25.4834100687
  0
LINE
  5
22D
100
AcDbEntity
  8
0
100
AcDbLine
 62
7
  6
CONTINUOUS
 10
14.1990201456
 20
31.6834113832
 11
44.0990201456
 21
31.6834113832
  0
LINE
  5
22E
100
AcDbEntity
  8
0
100
AcDbLine
 62
7
  6
CONTINUOUS
 10
21.8490201456
 20
34.7427031281
 11
21.8490201456
 21
36.0666100687
  0
LINE
  5
22F
100
AcDbEntity
  8
0
100
AcDbLine
 62
7
  6
CONTINUOUS
 10
21.9040201456
 20
31.6834113832
 11
21.9040201456
 21
25.6834113832
  0
LINE
  5
230
100
AcDbEntity
  8
0
100
AcDbLine
 62
7
  6
CONTINUOUS
 10
22.4040067232
 20
25.6834113832
 11
22.4040067232
 21
31.6834113832
  0
LINE
  5
231
100
AcDbEntity
  8
0
100
AcDbLine
 62
7
  6
CONTINUOUS
 10
22.4990201456
 20
38.9834100687
 11
22.4990201456
 21
37.6057485384
  0
LINE
  5
232
100
AcDbEntity
  8
0
100
AcDbLine
 62
7
  6
CONTINUOUS
 10
24.2990201456
 20
41.4834113832
 11
24.2990201456
 21
76.4834113832
  0
LINE
  5
233
100
AcDbEntity
  8
0
100
AcDbLine
 62
7
  6
CONTINUOUS
 10
16.5990201456
 20
34.3601739392
 11
17.0240201456
 21
34.3601739392
  0
LINE
  5
234
100
AcDbEntity
  8
0
100
AcDbLine
 62
7
  6
CONTINUOUS
 10
41.2740201456
 20
34.3601739392
 11
41.6990201456
 21
34.3601739392
  0
LINE
  5
235
100
AcDbEntity
  8
0
100
AcDbLine
 62
7
  6
CONTINUOUS
 10
32.4051681767
 20
35.1834110687
 11
25.8928721146
 21
35.1834110687
  0
LINE
  5
236
100
AcDbEntity
  8
0
100
AcDbLine
 62
7
  6
CONTINUOUS
 10
14.1990201456
 20
36.0666100687
 11
25.8990201456
 21
36.0666100687
  0
LINE
  5
237
100
AcDbEntity
  8
0
100
AcDbLine
 62
7
  6
CONTINUOUS
 10
32.3990201456
 20
36.0666100687
 11
44.0990201456
 21
36.0666100687
  0
LINE
  5
238
100
AcDbEntity
  8
0
100
AcDbLine
 62
7
  6
CONTINUOUS
 10
25.3490201456
 20
41.4834113832
 11
25.3490201456
 21
43.0834113832
  0
LINE
  5
239
100
AcDbEntity
  8
0
100
AcDbLine
 62
7
  6
CONTINUOUS
 10
25.7490201456
 20
59.8719815662
 11
25.7490201456
 21
68.9448118336
  0
LINE
  5
23A
100
AcDbEntity
  8
0
100
AcDbLine
 62
7
  6
CONTINUOUS
 10
25.8928721146
 20
35.1834110687
 11
25.8928721146
 21
37.4384508768
  0
LINE
  5
23B
100
AcDbEntity
  8
0
100
AcDbLine
 62
7
  6
CONTINUOUS
 10
26.1490201456
 20
43.2263923595
 11
26.1490201456
 21
40.7643729769
  0
LINE
  5
23C
100
AcDbEntity
  8
0
100
AcDbLine
 62
7
  6
CONTINUOUS
 10
26.2040067232
 20
25.6834113832
 11
26.2040067232
 21
31.6834113832
  0
LINE
  5
23D
100
AcDbEntity
  8
0
100
AcDbLine
 62
7
  6
CONTINUOUS
 10
18.1990084474
 20
20.7334113832
 11
17.8990036174
 21
19.7334113832
  0
LINE
  5
23E
100
AcDbEntity
  8
0
100
AcDbLine
 62
7
  6
CONTINUOUS
 10
37.7990201456
 20
37.1038555592
 11
32.3990201456
 21
37.1038555592
  0
LINE
  5
23F
100
AcDbEntity
  8
0
100
AcDbLine
 62
7
  6
CONTINUOUS
 10
25.8990201456
 20
37.1038555592
 11
20.4990201456
 21
37.1038555592
  0
LINE
  5
240
100
AcDbEntity
  8
0
100
AcDbLine
 62
7
  6
CONTINUOUS
 10
20.4990201456
 20
37.6057485384
 11
37.7990201456
 21
37.6057485384
  0
LINE
  5
241
100
AcDbEntity
  8
0
100
AcDbLine
 62
7
  6
CONTINUOUS
 10
22.4990201456
 20
38.9834100687
 11
35.7990201456
 21
38.9834100687
  0
LINE
  5
242
100
AcDbEntity
  8
0
100
AcDbLine
 62
7
  6
CONTINUOUS
 10
27.1490201456
 20
20.0834101637
 11
27.1490201456
 21
25.6834113832
  0
LINE
  5
243
100
AcDbEntity
  8
0
100
AcDbLine
 62
7
  6
CONTINUOUS
 10
27.1490201456
 20
31.6834113832
 11
27.1490201456
 21
35.1834110687
  0
LINE
  5
244
100
AcDbEntity
  8
0
100
AcDbLine
 62
7
  6
CONTINUOUS
 10
27.1490201456
 20
38.9834100687
 11
27.1490201456
 21
40.3802446232
  0
LINE
  5
245
100
AcDbEntity
  8
0
100
AcDbLine
 62
7
  6
CONTINUOUS
 10
27.1796967652
 20
43.1342413315
 11
27.1796967652
 21
43.3078895092
  0
LINE
  5
246
100
AcDbEntity
  8
0
100
AcDbLine
 62
7
  6
CONTINUOUS
 10
27.7823805973
 20
38.9834100687
 11
27.7823805973
 21
37.6057485384
  0
LINE
  5
247
100
AcDbEntity
  8
0
100
AcDbLine
 62
7
  6
CONTINUOUS
 10
28.6796967652
 20
42.873769065
 11
28.6796967652
 21
43.5683617757
  0
LINE
  5
248
100
AcDbEntity
  8
0
100
AcDbLine
 62
7
  6
CONTINUOUS
 10
14.1990201456
 20
39.9245656564
 11
20.4990201456
 21
39.9245656564
  0
LINE
  5
249
100
AcDbEntity
  8
0
100
AcDbLine
 62
7
  6
CONTINUOUS
 10
37.7990201456
 20
39.9245656564
 11
44.0990201456
 21
39.9245656564
  0
LINE
  5
24A
100
AcDbEntity
  8
0
100
AcDbLine
 62
7
  6
CONTINUOUS
 10
20.4990201456
 20
40.1670527695
 11
27.1490201456
 21
40.1670527695
  0
LINE
  5
24B
100
AcDbEntity
  8
0
100
AcDbLine
 62
7
  6
CONTINUOUS
 10
31.1490201456
 20
40.1670527695
 11
37.7990201456
 21
40.1670527695
  0
LINE
  5
24C
100
AcDbEntity
  8
0
100
AcDbLine
 62
7
  6
CONTINUOUS
 10
14.1990201456
 20
41.4834113832
 11
26.1490201456
 21
41.4834113832
  0
LINE
  5
24D
100
AcDbEntity
  8
0
100
AcDbLine
 62
7
  6
CONTINUOUS
 10
32.1490201456
 20
41.4834113832
 11
44.0990201456
 21
41.4834113832
  0
LINE
  5
24E
100
AcDbEntity
  8
0
100
AcDbLine
 62
7
  6
CONTINUOUS
 10
29.6796967652
 20
42.873769065
 11
29.6796967652
 21
43.5683617757
  0
LINE
  5
24F
100
AcDbEntity
  8
0
100
AcDbLine
 62
7
  6
CONTINUOUS
 10
30.515659694
 20
37.6057485384
 11
30.515659694
 21
38.9834100687
  0
LINE
  5
250
100
AcDbEntity
  8
0
100
AcDbLine
 62
7
  6
CONTINUOUS
 10
31.1490201456
 20
20.0834101637
 11
31.1490201456
 21
25.6834113832
  0
LINE
  5
251
100
AcDbEntity
  8
0
100
AcDbLine
 62
7
  6
CONTINUOUS
 10
31.1490201456
 20
31.6834113832
 11
31.1490201456
 21
35.1834110687
  0
LINE
  5
252
100
AcDbEntity
  8
0
100
AcDbLine
 62
7
  6
CONTINUOUS
 10
31.1490201456
 20
38.9834100687
 11
31.1490201456
 21
40.3800441144
  0
LINE
  5
253
100
AcDbEntity
  8
0
100
AcDbLine
 62
7
  6
CONTINUOUS
 10
31.1796967652
 20
43.3078895092
 11
31.1796967652
 21
43.1342413315
  0
LINE
  5
254
100
AcDbEntity
  8
0
100
AcDbLine
 62
7
  6
CONTINUOUS
 10
29.6796967652
 20
42.873769065
 11
28.6796967652
 21
42.873769065
  0
LINE
  5
255
100
AcDbEntity
  8
0
100
AcDbLine
 62
7
  6
CONTINUOUS
 10
28.6796967652
 20
43.0759578992
 11
29.6796967652
 21
43.0759578992
  0
LINE
  5
256
100
AcDbEntity
  8
0
100
AcDbLine
 62
7
  6
CONTINUOUS
 10
34.1990201456
 20
43.0834113832
 11
33.1490201456
 21
43.0834113832
  0
LINE
  5
257
100
AcDbEntity
  8
0
100
AcDbLine
 62
7
  6
CONTINUOUS
 10
25.3490201456
 20
43.0834113832
 11
24.2990201456
 21
43.0834113832
  0
LINE
  5
258
100
AcDbEntity
  8
0
100
AcDbLine
 62
7
  6
CONTINUOUS
 10
31.1796967652
 20
43.1342413315
 11
29.6796967652
 21
43.1342413315
  0
LINE
  5
259
100
AcDbEntity
  8
0
100
AcDbLine
 62
7
  6
CONTINUOUS
 10
28.6796967652
 20
43.1342413315
 11
27.1796967652
 21
43.1342413315
  0
LINE
  5
25A
100
AcDbEntity
  8
0
100
AcDbLine
 62
7
  6
CONTINUOUS
 10
27.1796967652
 20
43.3078895092
 11
28.6796967652
 21
43.3078895092
  0
LINE
  5
25B
100
AcDbEntity
  8
0
100
AcDbLine
 62
7
  6
CONTINUOUS
 10
29.6796967652
 20
43.3078895092
 11
31.1796967652
 21
43.3078895092
  0
LINE
  5
25C
100
AcDbEntity
  8
0
100
AcDbLine
 62
7
  6
CONTINUOUS
 10
28.6796967652
 20
43.5683617757
 11
29.6796967652
 21
43.5683617757
  0
LINE
  5
25D
100
AcDbEntity
  8
0
100
AcDbLine
 62
7
  6
CONTINUOUS
 10
32.0940201456
 20
31.6834113832
 11
32.0940201456
 21
25.6834113832
  0
LINE
  5
25E
100
AcDbEntity
  8
0
100
AcDbLine
 62
7
  6
CONTINUOUS
 10
32.1490201456
 20
43.2263923595
 11
32.1490201456
 21
40.7643729769
  0
LINE
  5
25F
100
AcDbEntity
  8
0
100
AcDbLine
 62
7
  6
CONTINUOUS
 10
32.4051681767
 20
37.4384508787
 11
32.4051681767
 21
35.1834110687
  0
LINE
  5
260
100
AcDbEntity
  8
0
100
AcDbLine
 62
7
  6
CONTINUOUS
 10
32.7490201456
 20
59.8719815662
 11
32.7490201456
 21
68.9448118336
  0
LINE
  5
261
100
AcDbEntity
  8
0
100
AcDbLine
 62
7
  6
CONTINUOUS
 10
33.1490201456
 20
43.0834113832
 11
33.1490201456
 21
41.4834113832
  0
LINE
  5
262
100
AcDbEntity
  8
0
100
AcDbLine
 62
7
  6
CONTINUOUS
 10
34.1990201456
 20
41.4834113832
 11
34.1990201456
 21
76.4834113832
  0
LINE
  5
263
100
AcDbEntity
  8
0
100
AcDbLine
 62
7
  6
CONTINUOUS
 10
40.0990279648
 20
20.7334113832
 11
40.3990327949
 21
19.7334113832
  0
LINE
  5
264
100
AcDbEntity
  8
0
100
AcDbLine
 62
7
  6
CONTINUOUS
 10
35.7990201456
 20
38.9834100687
 11
35.7990201456
 21
37.6057485384
  0
LINE
  5
265
100
AcDbEntity
  8
0
100
AcDbLine
 62
7
  6
CONTINUOUS
 10
35.8940201456
 20
25.6834113832
 11
35.8940201456
 21
31.6834113832
  0
LINE
  5
266
100
AcDbEntity
  8
0
100
AcDbLine
 62
7
  6
CONTINUOUS
 10
36.3940201456
 20
25.6834113832
 11
36.3940201456
 21
31.6834113832
  0
LINE
  5
267
100
AcDbEntity
  8
0
100
AcDbLine
 62
7
  6
CONTINUOUS
 10
36.4490201456
 20
36.0666100687
 11
36.4490201456
 21
34.7427058524
  0
LINE
  5
268
100
AcDbEntity
  8
0
100
AcDbLine
 62
7
  6
CONTINUOUS
 10
37.686545181
 20
25.4834100687
 11
37.686545181
 21
25.6834113832
  0
LINE
  5
269
100
AcDbEntity
  8
0
100
AcDbLine
 62
7
  6
CONTINUOUS
 10
37.686545181
 20
31.6834113832
 11
37.686545181
 21
34.3601739392
  0
LINE
  5
26A
100
AcDbEntity
  8
0
100
AcDbLine
 62
7
  6
CONTINUOUS
 10
37.7990201456
 20
37.1038555592
 11
37.7990201456
 21
41.4834113832
  0
LINE
  5
26B
100
AcDbEntity
  8
0
100
AcDbLine
 62
7
  6
CONTINUOUS
 10
39.6490122935
 20
25.4834100687
 11
39.6490122935
 21
20.7334113832
  0
LINE
  5
26C
100
AcDbEntity
  8
0
100
AcDbLine
 62
7
  6
CONTINUOUS
 10
40.0140201456
 20
31.6834113832
 11
40.0140201456
 21
25.6834113832
  0
LINE
  5
26D
100
AcDbEntity
  8
0
100
AcDbLine
 62
7
  6
CONTINUOUS
 10
41.2740201456
 20
25.4834100687
 11
41.2740201456
 21
25.6834113832
  0
LINE
  5
26E
100
AcDbEntity
  8
0
100
AcDbLine
 62
7
  6
CONTINUOUS
 10
41.2740201456
 20
31.6834113832
 11
41.2740201456
 21
34.3601739392
  0
LINE
  5
26F
100
AcDbEntity
  8
0
100
AcDbLine
 62
7
  6
CONTINUOUS
 10
41.6990201456
 20
34.3601739392
 11
41.6990201456
 21
36.0666100687
  0
LINE
  5
270
100
AcDbEntity
  8
0
100
AcDbLine
 62
7
  6
CONTINUOUS
 10
42.7240325677
 20
19.7334113832
 11
42.7240325677
 21
18.2834113832
  0
LINE
  5
271
100
AcDbEntity
  8
0
100
AcDbLine
 62
7
  6
CONTINUOUS
 10
43.8140201456
 20
25.6834113832
 11
43.8140201456
 21
31.6834113832
  0
LINE
  5
272
100
AcDbEntity
  8
0
100
AcDbLine
 62
7
  6
CONTINUOUS
 10
44.0990201456
 20
31.6834113832
 11
44.0990201456
 21
41.4834113832
  0
LINE
  5
273
100
AcDbEntity
  8
0
100
AcDbLine
 62
7
  6
CONTINUOUS
 10
44.1523761792
 20
18.2834113832
 11
44.1524142327
 21
13.0152955213
  0
LINE
  5
274
100
AcDbEntity
  8
0
100
AcDbLine
 62
7
  6
CONTINUOUS
 10
34.1990201456
 20
59.5216496373
 11
24.2990201456
 21
59.5216496373
  0
LINE
  5
275
100
AcDbEntity
  8
0
100
AcDbLine
 62
7
  6
CONTINUOUS
 10
25.7490201456
 20
59.8719815662
 11
32.7490201456
 21
59.8719815662
  0
LINE
  5
276
100
AcDbEntity
  8
0
100
AcDbLine
 62
7
  6
CONTINUOUS
 10
32.7490201456
 20
60.6719815662
 11
25.7490201456
 21
60.6719815662
  0
LINE
  5
277
100
AcDbEntity
  8
0
100
AcDbLine
 62
7
  6
CONTINUOUS
 10
24.2990201456
 20
62.3564931886
 11
25.7490201456
 21
62.3564931886
  0
LINE
  5
278
100
AcDbEntity
  8
0
100
AcDbLine
 62
7
  6
CONTINUOUS
 10
32.7490201456
 20
62.3564931886
 11
34.1990201456
 21
62.3564931886
  0
LINE
  5
279
100
AcDbEntity
  8
0
100
AcDbLine
 62
7
  6
CONTINUOUS
 10
25.7490201456
 20
62.4291434872
 11
32.7490201456
 21
62.4291434872
  0
LINE
  5
27A
100
AcDbEntity
  8
0
100
AcDbLine
 62
7
  6
CONTINUOUS
 10
25.7490201456
 20
63.8024625242
 11
32.7490201456
 21
63.8024625242
  0
LINE
  5
27B
100
AcDbEntity
  8
0
100
AcDbLine
 62
7
  6
CONTINUOUS
 10
34.1990201456
 20
65.7766946218
 11
32.7490201456
 21
65.7766946218
  0
LINE
  5
27C
100
AcDbEntity
  8
0
100
AcDbLine
 62
7
  6
CONTINUOUS
 10
25.7490201456
 20
65.7766946218
 11
24.2990201456
 21
65.7766946218
  0
LINE
  5
27D
100
AcDbEntity
  8
0
100
AcDbLine
 62
7
  6
CONTINUOUS
 10
32.7490201456
 20
68.9448118336
 11
25.7490201456
 21
68.9448118336
  0
LINE
  5
27E
100
AcDbEntity
  8
0
100
AcDbLine
 62
7
  6
CONTINUOUS
 10
34.1990201456
 20
76.4834113832
 11
24.2990201456
 21
76.4834113832
  0
ARC
  5
27F
100
AcDbEntity
  8
0
100
AcDbCircle
 62
7
  6
CONTINUOUS
 10
29.1490182061
 20
37.8280918993
 40
31.7436127557
100
AcDbArc
 50
248.0119791187
 51
291.9880208813
  0
ARC
  5
280
100
AcDbEntity
  8
0
100
AcDbCircle
 62
7
  6
CONTINUOUS
 10
19.1300317921
 20
13.0152955213
 40
4.9844096125
100
AcDbArc
 50
180.0
 51
248.0119791187
  0
ARC
  5
281
100
AcDbEntity
  8
0
100
AcDbCircle
 62
7
  6
CONTINUOUS
 10
39.1680046202
 20
13.0152955213
 40
4.9844096125
100
AcDbArc
 50
291.9880208813
 51
360.0
  0
SPLINE
  5
282
100
AcDbEntity
  8
0
100
AcDbSpline
 62
7
  6
CONTINUOUS
 70
0
 71
3
 72
25
 73
21
 74
0
 42
0.0000001
 43
0.0000001
 44
0.0000000001
 40
0.0
 40
0.0
 40
0.0
 40
0.0
 40
0.1876261195
 40
0.3682528048
 40
0.4538462154
 40
0.5352224305
 40
0.6116420977
 40
0.6824205504
 40
0.7469469783
 40
0.8046792964
 40
0.8551884583
 40
0.8981676671
 40
0.9167962609
 40
0.9335201804
 40
0.9483806065
 40
0.9614537518
 40
0.9728688956
 40
0.9828448353
 40
0.9917252925
 40
1.0
 40
1.0
 40
1.0
 40
1.0
 10
29.1490201456
 20
40.2434284439
 30
0.0
 10
28.9538965025
 20
40.2434284439
 30
0.0
 10
28.5708990968
 20
40.2498624949
 30
0.0
 10
28.0994290376
 20
40.2741882419
 30
0.0
 10
27.7391180603
 20
40.3036017285
 30
0.0
 10
27.4873243569
 20
40.3296486538
 30
0.0
 10
27.2515101324
 20
40.3598006934
 30
0.0
 10
27.0339275716
 20
40.3937693532
 30
0.0
 10
26.8366532044
 20
40.4311897716
 30
0.0
 10
26.6615407329
 20
40.4716909308
 30
0.0
 10
26.5102381507
 20
40.5148407059
 30
0.0
 10
26.4003526816
 20
40.5542787009
 30
0.0
 10
26.3259345814
 20
40.5875085803
 30
0.0
 10
26.2795887128
 20
40.6116538245
 30
0.0
 10
26.2400760509
 20
40.6361616482
 30
0.0
 10
26.2074564016
 20
40.6610020574
 30
0.0
 10
26.1817839986
 20
40.6861842382
 30
0.0
 10
26.1631300209
 20
40.7117772736
 30
0.0
 10
26.1516621423
 20
40.7378431052
 30
0.0
 10
26.1490239278
 20
40.7557676129
 30
0.0
 10
26.1490237981
 20
40.764372977
 30
0.0
  0
SPLINE
  5
283
100
AcDbEntity
  8
0
100
AcDbSpline
 62
7
  6
CONTINUOUS
 70
0
 71
3
 72
25
 73
21
 74
0
 42
0.0000001
 43
0.0000001
 44
0.0000000001
 40
0.0
 40
0.0
 40
0.0
 40
0.0
 40
0.0082747129
 40
0.0171552094
 40
0.0271311661
 40
0.0385461764
 40
0.0516192463
 40
0.0664796181
 40
0.0832033607
 40
0.1018316555
 40
0.1448102765
 40
0.1953185792
 40
0.2530499734
 40
0.3175754851
 40
0.3883531991
 40
0.4647723669
 40
0.5461486123
 40
0.6317421512
 40
0.8123707446
 40
1.0
 40
1.0
 40
1.0
 40
1.0
 10
32.1490164932
 20
40.7643729768
 30
0.0
 10
32.1490166229
 20
40.7557676069
 30
0.0
 10
32.146378472
 20
40.7378429697
 30
0.0
 10
32.1349101756
 20
40.7117772459
 30
0.0
 10
32.1162561227
 20
40.6861844177
 30
0.0
 10
32.0905842679
 20
40.6610019689
 30
0.0
 10
32.0579647364
 20
40.6361618092
 30
0.0
 10
32.0184522835
 20
40.6116542748
 30
0.0
 10
31.9721069562
 20
40.5875091897
 30
0.0
 10
31.8976900018
 20
40.5542794474
 30
0.0
 10
31.7878062146
 20
40.5148421159
 30
0.0
 10
31.6365061392
 20
40.4716925644
 30
0.0
 10
31.4613964482
 20
40.4311917988
 30
0.0
 10
31.2641247995
 20
40.3937714219
 30
0.0
 10
31.0465444868
 20
40.3598028443
 30
0.0
 10
30.810731574
 20
40.3296503928
 30
0.0
 10
30.5589382259
 20
40.3036033972
 30
0.0
 10
30.1986251612
 20
40.274188957
 30
0.0
 10
29.7271497144
 20
40.2498627577
 30
0.0
 10
29.3441470556
 20
40.2434284439
 30
0.0
 10
29.1490201456
 20
40.2434284439
 30
0.0
  0
SPLINE
  5
284
100
AcDbEntity
  8
0
100
AcDbSpline
 62
7
  6
CONTINUOUS
 70
0
 71
3
 72
25
 73
21
 74
0
 42
0.0000001
 43
0.0000001
 44
0.0000000001
 40
0.0
 40
0.0
 40
0.0
 40
0.0
 40
0.1876261195
 40
0.3682528048
 40
0.4538462154
 40
0.5352224305
 40
0.6116420977
 40
0.6824205504
 40
0.7469469783
 40
0.8046792964
 40
0.8551884583
 40
0.8981676671
 40
0.9167962609
 40
0.9335201804
 40
0.9483806065
 40
0.9614537518
 40
0.9728688956
 40
0.9828448353
 40
0.9917252925
 40
1.0
 40
1.0
 40
1.0
 40
1.0
 10
29.1490201456
 20
43.7473368925
 30
0.0
 10
28.9538965025
 20
43.7473368925
 30
0.0
 10
28.5708990968
 20
43.7409028415
 30
0.0
 10
28.0994290376
 20
43.7165770945
 30
0.0
 10
27.7391180603
 20
43.6871636079
 30
0.0
 10
27.4873243569
 20
43.6611166826
 30
0.0
 10
27.2515101324
 20
43.630964643
 30
0.0
 10
27.0339275716
 20
43.5969959832
 30
0.0
 10
26.8366532044
 20
43.5595755647
 30
0.0
 10
26.6615407329
 20
43.5190744056
 30
0.0
 10
26.5102381507
 20
43.4759246305
 30
0.0
 10
26.4003526816
 20
43.4364866355
 30
0.0
 10
26.3259345814
 20
43.4032567561
 30
0.0
 10
26.2795887128
 20
43.3791115119
 30
0.0
 10
26.2400760509
 20
43.3546036882
 30
0.0
 10
26.2074564016
 20
43.329763279
 30
0.0
 10
26.1817839986
 20
43.3045810982
 30
0.0
 10
26.1631300209
 20
43.2789880628
 30
0.0
 10
26.1516621423
 20
43.2529222312
 30
0.0
 10
26.1490239278
 20
43.2349977235
 30
0.0
 10
26.1490237981
 20
43.2263923594
 30
0.0
  0
SPLINE
  5
285
100
AcDbEntity
  8
0
100
AcDbSpline
 62
7
  6
CONTINUOUS
 70
0
 71
3
 72
25
 73
21
 74
0
 42
0.0000001
 43
0.0000001
 44
0.0000000001
 40
0.0
 40
0.0
 40
0.0
 40
0.0
 40
0.0082747129
 40
0.0171552094
 40
0.0271311661
 40
0.0385461764
 40
0.0516192463
 40
0.0664796181
 40
0.0832033607
 40
0.1018316555
 40
0.1448102765
 40
0.1953185792
 40
0.2530499734
 40
0.3175754851
 40
0.3883531991
 40
0.4647723669
 40
0.5461486123
 40
0.6317421512
 40
0.8123707446
 40
1.0
 40
1.0
 40
1.0
 40
1.0
 10
32.1490164932
 20
43.2263923595
 30
0.0
 10
32.1490166229
 20
43.2349977295
 30
0.0
 10
32.146378472
 20
43.2529223667
 30
0.0
 10
32.1349101756
 20
43.2789880905
 30
0.0
 10
32.1162561227
 20
43.3045809187
 30
0.0
 10
32.0905842679
 20
43.3297633675
 30
0.0
 10
32.0579647364
 20
43.3546035272
 30
0.0
 10
32.0184522835
 20
43.3791110616
 30
0.0
 10
31.9721069562
 20
43.4032561467
 30
0.0
 10
31.8976900018
 20
43.436485889
 30
0.0
 10
31.7878062146
 20
43.4759232205
 30
0.0
 10
31.6365061392
 20
43.519072772
 30
0.0
 10
31.4613964482
 20
43.5595735376
 30
0.0
 10
31.2641247995
 20
43.5969939145
 30
0.0
 10
31.0465444868
 20
43.6309624921
 30
0.0
 10
30.810731574
 20
43.6611149436
 30
0.0
 10
30.5589382259
 20
43.6871619392
 30
0.0
 10
30.1986251612
 20
43.7165763793
 30
0.0
 10
29.7271497144
 20
43.7409025787
 30
0.0
 10
29.3441470556
 20
43.7473368925
 30
0.0
 10
29.1490201456
 20
43.7473368925
 30
0.0
  0
SPLINE
  5
286
100
AcDbEntity
  8
0
100
AcDbSpline
 62
7
  6
CONTINUOUS
 70
0
 71
3
 72
41
 73
37
 74
0
 42
0.0000001
 43
0.0000001
 44
0.0000000001
 40
0.0
 40
0.0
 40
0.0
 40
0.0
 40
0.0041335043
 40
0.0085738882
 40
0.0135635635
 40
0.0192721643
 40
0.0258096806
 40
0.0332409634
 40
0.050907609
 40
0.0723993376
 40
0.0976522939
 40
0.1265201837
 40
0.1587808682
 40
0.1941727585
 40
0.2323827456
 40
0.2730728729
 40
0.3158689038
 40
0.4061880456
 40
0.4999996552
 40
0.5938108977
 40
0.6841290636
 40
0.7269245998
 40
0.76761429
 40
0.8058241166
 40
0.8412160193
 40
0.8734770026
 40
0.9023453458
 40
0.9275988477
 40
0.9490911195
 40
0.96675823
 40
0.9741897765
 40
0.9807274833
 40
0.9864362242
 40
0.9914260194
 40
0.9958664764
 40
1.0
 40
1.0
 40
1.0
 40
1.0
 10
31.1490201456
 20
20.0834101637
 30
0.0
 10
31.1490201456
 20
20.0776786935
 30
0.0
 10
31.1472573613
 20
20.0657348098
 30
0.0
 10
31.139610639
 20
20.048362382
 30
0.0
 10
31.1271771539
 20
20.0312946013
 30
0.0
 10
31.110067179
 20
20.0144947064
 30
0.0
 10
31.0883194783
 20
19.9979286561
 30
0.0
 10
31.0509882117
 20
19.9747987304
 30
0.0
 10
30.9923380176
 20
19.9472772526
 30
0.0
 10
30.9082216833
 20
19.9170565754
 30
0.0
 10
30.8073357747
 20
19.888285481
 30
0.0
 10
30.690603488
 20
19.8612932986
 30
0.0
 10
30.5590868581
 20
19.8363379672
 30
0.0
 10
30.4140331242
 20
19.813701175
 30
0.0
 10
30.2568206557
 20
19.7935918263
 30
0.0
 10
30.088958449
 20
19.7762327758
 30
0.0
 10
29.8487463826
 20
19.7566175021
 30
0.0
 10
29.5344302044
 20
19.7404054425
 30
0.0
 10
29.1490222002
 20
19.7339283368
 30
0.0
 10
28.7636155455
 20
19.7404052805
 30
0.0
 10
28.4493019102
 20
19.7566170763
 30
0.0
 10
28.2090924512
 20
19.7762317813
 30
0.0
 10
28.0412317366
 20
19.7935905265
 30
0.0
 10
27.8840200256
 20
19.8136993925
 30
0.0
 10
27.7389660325
 20
19.8363358801
 30
0.0
 10
27.6074482824
 20
19.8612909801
 30
0.0
 10
27.4907141341
 20
19.888283122
 30
0.0
 10
27.3898260742
 20
19.9170544209
 30
0.0
 10
27.3057074142
 20
19.9472750368
 30
0.0
 10
27.2470555293
 20
19.9747970395
 30
0.0
 10
27.2097228888
 20
19.9979271694
 30
0.0
 10
27.1879744788
 20
20.0144936746
 30
0.0
 10
27.1708641222
 20
20.0312940649
 30
0.0
 10
27.1584301988
 20
20.0483620815
 30
0.0
 10
27.1507830808
 20
20.065734657
 30
0.0
 10
27.1490201456
 20
20.0776786667
 30
0.0
 10
27.1490201456
 20
20.0834101637
 30
0.0
  0
SPLINE
  5
287
100
AcDbEntity
  8
0
100
AcDbSpline
 62
7
  6
CONTINUOUS
 70
0
 71
3
 72
25
 73
21
 74
0
 42
0.0000001
 43
0.0000001
 44
0.0000000001
 40
0.0
 40
0.0
 40
0.0
 40
0.0
 40
0.1876261195
 40
0.3682528048
 40
0.4538462154
 40
0.5352224305
 40
0.6116420977
 40
0.6824205504
 40
0.7469469783
 40
0.8046792964
 40
0.8551884583
 40
0.8981676671
 40
0.9167962609
 40
0.9335201804
 40
0.9483806065
 40
0.9614537518
 40
0.9728688956
 40
0.9828448353
 40
0.9917252925
 40
1.0
 40
1.0
 40
1.0
 40
1.0
 10
29.1490201456
 20
42.7054478265
 30
0.0
 10
29.3441437887
 20
42.7054478265
 30
0.0
 10
29.7271411944
 20
42.7118818775
 30
0.0
 10
30.1986112537
 20
42.7362076245
 30
0.0
 10
30.5589222309
 20
42.765621111
 30
0.0
 10
30.8107159343
 20
42.7916680363
 30
0.0
 10
31.0465301588
 20
42.8218200759
 30
0.0
 10
31.2641127196
 20
42.8557887357
 30
0.0
 10
31.4613870868
 20
42.8932091542
 30
0.0
 10
31.6364995583
 20
42.9337103133
 30
0.0
 10
31.7878021406
 20
42.9768600885
 30
0.0
 10
31.8976876096
 20
43.0162980834
 30
0.0
 10
31.9721057098
 20
43.0495279628
 30
0.0
 10
32.0184515784
 20
43.073673207
 30
0.0
 10
32.0579642403
 20
43.0981810308
 30
0.0
 10
32.0905838896
 20
43.1230214399
 30
0.0
 10
32.1162562926
 20
43.1482036207
 30
0.0
 10
32.1349102703
 20
43.1737966561
 30
0.0
 10
32.1463781489
 20
43.1998624877
 30
0.0
 10
32.1490163634
 20
43.2177869954
 30
0.0
 10
32.1490164932
 20
43.2263923595
 30
0.0
  0
SPLINE
  5
288
100
AcDbEntity
  8
0
100
AcDbSpline
 62
7
  6
CONTINUOUS
 70
0
 71
3
 72
25
 73
21
 74
0
 42
0.0000001
 43
0.0000001
 44
0.0000000001
 40
0.0
 40
0.0
 40
0.0
 40
0.0
 40
0.0082747129
 40
0.0171552094
 40
0.0271311661
 40
0.0385461764
 40
0.0516192463
 40
0.0664796181
 40
0.0832033607
 40
0.1018316555
 40
0.1448102765
 40
0.1953185792
 40
0.2530499734
 40
0.3175754851
 40
0.3883531991
 40
0.4647723669
 40
0.5461486123
 40
0.6317421512
 40
0.8123707446
 40
1.0
 40
1.0
 40
1.0
 40
1.0
 10
26.1490237981
 20
43.2263923594
 30
0.0
 10
26.1490236683
 20
43.2177869894
 30
0.0
 10
26.1516618192
 20
43.1998623522
 30
0.0
 10
26.1631301156
 20
43.1737966284
 30
0.0
 10
26.1817841685
 20
43.1482038002
 30
0.0
 10
26.2074560233
 20
43.1230213515
 30
0.0
 10
26.2400755549
 20
43.0981811917
 30
0.0
 10
26.2795880077
 20
43.0736736574
 30
0.0
 10
26.3259333351
 20
43.0495285722
 30
0.0
 10
26.4003502894
 20
43.0162988299
 30
0.0
 10
26.5102340766
 20
42.9768614984
 30
0.0
 10
26.661534152
 20
42.933711947
 30
0.0
 10
26.8366438431
 20
42.8932111813
 30
0.0
 10
27.0339154918
 20
42.8557908045
 30
0.0
 10
27.2514958044
 20
42.8218222269
 30
0.0
 10
27.4873087172
 20
42.7916697753
 30
0.0
 10
27.7391020653
 20
42.7656227797
 30
0.0
 10
28.09941513
 20
42.7362083396
 30
0.0
 10
28.5708905768
 20
42.7118821402
 30
0.0
 10
28.9538932357
 20
42.7054478265
 30
0.0
 10
29.1490201456
 20
42.7054478265
 30
0.0
  0
SPLINE
  5
289
100
AcDbEntity
  8
0
100
AcDbSpline
 62
7
  6
CONTINUOUS
 70
0
 71
3
 72
9
 73
5
 74
0
 42
0.0000001
 43
0.0000001
 44
0.0000000001
 40
0.0
 40
0.0
 40
0.0
 40
0.0
 40
0.5112701228
 40
1.0
 40
1.0
 40
1.0
 40
1.0
 10
32.3665502543
 20
37.6057485384
 30
0.0
 10
32.3789514262
 20
37.5790470662
 30
0.0
 10
32.3984384612
 20
37.5243647299
 30
0.0
 10
32.4052156849
 20
37.4665936781
 30
0.0
 10
32.4052156849
 20
37.4384508768
 30
0.0
  0
SPLINE
  5
28A
100
AcDbEntity
  8
0
100
AcDbSpline
 62
7
  6
CONTINUOUS
 70
0
 71
3
 72
9
 73
5
 74
0
 42
0.0000001
 43
0.0000001
 44
0.0000000001
 40
0.0
 40
0.0
 40
0.0
 40
0.0
 40
0.4887298772
 40
1.0
 40
1.0
 40
1.0
 40
1.0
 10
25.8928246064
 20
37.4384508768
 30
0.0
 10
25.8928246064
 20
37.4665936781
 30
0.0
 10
25.89960183
 20
37.5243647299
 30
0.0
 10
25.919088865
 20
37.5790470662
 30
0.0
 10
25.931490037
 20
37.6057485384
 30
0.0
  0
ELLIPSE
  5
28B
100
AcDbEntity
  8
0
100
AcDbEllipse
 62
7
  6
CONTINUOUS
 10
29.1490252447
 20
31.6834139018
 30
0.0
 11
11.6999626593
 21
0.0
 31
0.0
 40
0.3345953195
 41
7.0360913838
 42
7.5725010916
  0
ELLIPSE
  5
28C
100
AcDbEntity
  8
0
100
AcDbEllipse
 62
7
  6
CONTINUOUS
 10
29.1490252447
 20
31.6834139018
 30
0.0
 11
11.6999626593
 21
0.0
 31
0.0
 40
0.3345953195
 41
1.8522777765
 42
2.3886865769
  0
ENDSEC
  0
SECTION
  2
OBJECTS
  0
DICTIONARY
  5
C
100
AcDbDictionary
280
0
281
1
  3
ACAD_GROUP
350
D
  3
ACAD_MLINESTYLE
350
17
  3
ACAD_LAYOUT
350
1A
  3
ACAD_PLOTSETTINGS
350
19
  3
ACAD_PLOTSTYLENAME
350
E
  0
DICTIONARY
  5
D
102
{ACAD_REACTORS
330
C
102
}
100
AcDbDictionary
280
0
281
1
  0
ACDBDICTIONARYWDFLT
  5
E
102
{ACAD_REACTORS
330
C
102
}
100
AcDbDictionary
281
1
  3
Normal
350
F
100
AcDbDictionaryWithDefault
340
F
  0
DICTIONARY
  5
17
102
{ACAD_REACTORS
330
C
102
}
100
AcDbDictionary
280
0
281
1
  3
Standard
350
18
  0
DICTIONARY
  5
19
102
{ACAD_REACTORS
330
C
102
}
100
AcDbDictionary
281
1
  0
DICTIONARY
  5
1A
102
{ACAD_REACTORS
330
C
102
}
100
AcDbDictionary
281
1
  3
Model
350
28D
  3
Layout1
350
28E
  0
ACDBPLACEHOLDER
  5
F
102
{ACAD_REACTORS
330
E
102
}
  0
MLINESTYLE
  5
18
102
{ACAD_REACTORS
330
17
102
}
100
AcDbMlineStyle
  2
STANDARD
 70
0
  3

 62
256
 51
90.0
 52
90.0
 71
2
 49
0.5
 62
256
  6
BYLAYER
 49
-0.5
 62
256
  6
BYLAYER
  0
LAYOUT
  5
28D
102
{ACAD_REACTORS
330
1A
102
}
100
AcDbPlotSettings
  1

  2
none_device
  4

  6

 40
0.0
 41
0.0
 42
0.0
 43
0.0
 44
210.0
 45
297.0
 46
0.0
 47
0.0
 48
0.0
 49
0.0
140
0.0
141
0.0
142
1.0
143
1.0
 70
1024
 72
1
 73
0
 74
0
  7

 75
0
147
1.0
148
0.0
149
0.0
100
AcDbLayout
  1
Model
 70
0
 71
0
 10
0.0
 20
0.0
 11
210.0
 21
297.0
 12
0.0
 22
0.0
 32
0.0
 14
0.0
 24
0.0
 34
0.0
 15
0.0
 25
0.0
 35
0.0
146
0.0
 13
0.0
 23
0.0
 33
0.0
 16
1.0
 26
0.0
 36
0.0
 17
0.0
 27
1.0
 37
0.0
 76
0
330
210
345
0
346
0
  0
LAYOUT
  5
28E
102
{ACAD_REACTORS
330
1A
102
}
100
AcDbPlotSettings
  1

  2
none_device
  4

  6

 40
0.0
 41
0.0
 42
0.0
 43
0.0
 44
210.0
 45
297.0
 46
0.0
 47
0.0
 48
0.0
 49
0.0
140
0.0
141
0.0
142
1.0
143
1.0
 70
0
 72
1
 73
0
 74
0
  7

 75
0
147
1.0
148
0.0
149
0.0
100
AcDbLayout
  1
Layout1
 70
0
 71
1
 10
0.0
 20
0.0
 11
210.0
 21
297.0
 12
0.0
 22
0.0
 32
0.0
 14
0.0
 24
0.0
 34
0.0
 15
0.0
 25
0.0
 35
0.0
146
0.0
 13
0.0
 23
0.0
 33
0.0
 16
1.0
 26
0.0
 36
0.0
 17
0.0
 27
1.0
 37
0.0
 76
0
330
211
345
0
346
0
  0
ENDSEC
  0
EOF
