999
DXF file: C:\Users\sesa63760\Dev\_Creo\CAD\MCADPP0002972_3D-CAD\drw0001_1.dxf
999
Pro/ENGINEER 2019471 by Parametric Technology Corporation
  0
SECTION
  2
HEADER
  9
$ACADVER
  1
AC1024
  9
$DWGCODEPAGE
  3
ANSI_1252
  9
$EXTMAX
 10
109.7360476973
 20
155.1981246005
 30
0.0
  9
$EXTMIN
 10
0.0
 20
0.0
 30
0.0
  9
$LIMMIN
 10
0.0
 20
0.0
  9
$LIMMAX
 10
109.7360476973
 20
155.1981246005
  9
$VIEWCTR
 10
54.8680238487
 20
77.5990623002
  9
$VIEWSIZE
 40
155.1981246005
  9
$CLAYER
  8
0
  9
$LTSCALE
 40
10.1166184925
  9
$CELTYPE
  6
BYLAYER
  9
$DIMSCALE
 40
1.0
  9
$DIMASZ
 40
1.3063815202
  9
$DIMEXO
 40
1.0
  9
$DIMDLI
 40
6.9896636857
  9
$DIMEXE
 40
1.0
  9
$DIMCEN
 40
1.6554466624
  9
$DIMLFAC
 40
1.0
  9
$DIMBLK
  1
_FILLED
  9
$DIMALT
 70
0
  9
$DIMALTF
 40
0.0393700787
  9
$DIMTXT
 40
1.8289341283
  9
$DIMTOL
 70
1
  9
$DIMLIM
 70
0
  9
$DIMTFAC
 40
1.0
  9
$DIMTP
 40
0.01
  9
$DIMTM
 40
0.01
  9
$DIMGAP
 40
0.625
  9
$DIMDSEP
 70
46
  9
$AUNITS
 70
0
  9
$PDMODE
 70
3
  9
$PDSIZE
 40
0.3125
  9
$HANDSEED
  5
4F3
  9
$TILEMODE
 70
1
  9
$MEASUREMENT
 70
1
  9
$INSUNITS
 70
4
  0
ENDSEC
  0
SECTION
  2
CLASSES
  0
CLASS
  1
ACDBDICTIONARYWDFLT
  2
AcDbDictionaryWithDefault
  3
AutoCAD 2000
 90
0
 91
1
280
0
281
0
  0
CLASS
  1
ACDBPLACEHOLDER
  2
AcDbPlaceHolder
  3
AutoCAD 2000
 90
0
 91
1
280
0
281
0
  0
CLASS
  1
LAYOUT
  2
AcDbLayout
  3
AutoCAD 2000
 90
0
 91
0
280
0
281
0
  0
ENDSEC
  0
SECTION
  2
TABLES
  0
TABLE
  2
VPORT
  5
8
100
AcDbSymbolTable
 70
2
  0
VPORT
  5
1F4
100
AcDbSymbolTableRecord
100
AcDbViewportTableRecord
  2
*ACTIVE
 70
0
 10
0.0
 20
0.0
 11
1.0
 21
1.0
 12
54.8680238487
 22
77.5990623002
 13
0.0
 23
0.0
 14
1.0
 24
1.0
 15
0.0
 25
0.0
 16
0.0
 26
0.0
 36
1.0
 17
0.0
 27
0.0
 37
0.0
 40
155.1981246005
 41
0.7070707071
 42
50.0
 43
0.0
 44
0.0
 50
0.0
 51
0.0
 71
0
 72
100
 73
1
 74
1
 75
0
 76
0
 77
0
 78
0
  0
ENDTAB
  0
TABLE
  2
LTYPE
  5
5
100
AcDbSymbolTable
 70
6
  0
LTYPE
  5
14
100
AcDbSymbolTableRecord
100
AcDbLinetypeTableRecord
  2
BYBLOCK
 70
0
  3

 72
65
 73
0
 40
0.0
  0
LTYPE
  5
15
100
AcDbSymbolTableRecord
100
AcDbLinetypeTableRecord
  2
BYLAYER
 70
0
  3

 72
65
 73
0
 40
0.0
  0
LTYPE
  5
16
100
AcDbSymbolTableRecord
100
AcDbLinetypeTableRecord
  2
CONTINUOUS
 70
64
  3
Solid line
 72
65
 73
0
 40
0.0
  0
LTYPE
  5
1F5
100
AcDbSymbolTableRecord
100
AcDbLinetypeTableRecord
  2
CENTER
 70
64
  3
____ _ ____ _ ____ _ ____ _ ____ _ ____ _ ____
 72
65
 73
4
 40
0.6
 49
0.375
 74
0
 49
-0.075
 74
0
 49
0.075
 74
0
 49
-0.075
 74
0
  0
LTYPE
  5
1F6
100
AcDbSymbolTableRecord
100
AcDbLinetypeTableRecord
  2
HIDDEN
 70
64
  3
- - - - - - - - - - - - - - - - - - - -
 72
65
 73
2
 40
0.2
 49
0.1
 74
0
 49
-0.1
 74
0
  0
LTYPE
  5
1F7
100
AcDbSymbolTableRecord
100
AcDbLinetypeTableRecord
  2
PHANTOM
 70
64
  3
_____ _ _ _____ _ _ _____ _ _ _____
 72
65
 73
6
 40
0.8
 49
0.45
 74
0
 49
-0.05
 74
0
 49
0.1
 74
0
 49
-0.05
 74
0
 49
0.1
 74
0
 49
-0.05
 74
0
  0
LTYPE
  5
1F8
100
AcDbSymbolTableRecord
100
AcDbLinetypeTableRecord
  2
DOT
 70
64
  3
. . . . . . . . . . . . . . . . . . . .
 72
65
 73
2
 40
0.2
 49
0.1
 74
0
 49
-0.1
 74
0
  0
LTYPE
  5
1F9
100
AcDbSymbolTableRecord
100
AcDbLinetypeTableRecord
  2
DASHED
 70
64
  3
- - - - - - - - - - - - - - - - - - - -
 72
65
 73
2
 40
0.2
 49
0.1
 74
0
 49
-0.1
 74
0
  0
ENDTAB
  0
TABLE
  2
LAYER
  5
2
100
AcDbSymbolTable
 70
36
  0
LAYER
  5
10
100
AcDbSymbolTableRecord
100
AcDbLayerTableRecord
  2
0
 70
0
 62
7
  6
CONTINUOUS
370
-3
390
F
  0
LAYER
  5
1FA
100
AcDbSymbolTableRecord
100
AcDbLayerTableRecord
  2
DEFAULT_1
 70
0
 62
7
  6
CENTER
370
-3
390
F
  0
LAYER
  5
1FB
100
AcDbSymbolTableRecord
100
AcDbLayerTableRecord
  2
DEFAULT_2
 70
0
 62
8
  6
HIDDEN
370
-3
390
F
  0
LAYER
  5
1FC
100
AcDbSymbolTableRecord
100
AcDbLayerTableRecord
  2
DEFAULT_3
 70
0
 62
7
  6
PHANTOM
370
-3
390
F
  0
LAYER
  5
1FD
100
AcDbSymbolTableRecord
100
AcDbLayerTableRecord
  2
00_COMPONENTS
 70
0
 62
7
  6
CONTINUOUS
370
-3
390
F
  0
LAYER
  5
1FE
100
AcDbSymbolTableRecord
100
AcDbLayerTableRecord
  2
01_1_DEFAULT_DATUMS
 70
0
 62
7
  6
CONTINUOUS
370
-3
390
F
  0
LAYER
  5
1FF
100
AcDbSymbolTableRecord
100
AcDbLayerTableRecord
  2
01_PLANES
 70
0
 62
7
  6
CONTINUOUS
370
-3
390
F
  0
LAYER
  5
200
100
AcDbSymbolTableRecord
100
AcDbLayerTableRecord
  2
02_COORD_SYS
 70
0
 62
7
  6
CONTINUOUS
370
-3
390
F
  0
LAYER
  5
201
100
AcDbSymbolTableRecord
100
AcDbLayerTableRecord
  2
03_AXES
 70
0
 62
7
  6
CONTINUOUS
370
-3
390
F
  0
LAYER
  5
202
100
AcDbSymbolTableRecord
100
AcDbLayerTableRecord
  2
04_POINTS
 70
0
 62
7
  6
CONTINUOUS
370
-3
390
F
  0
LAYER
  5
203
100
AcDbSymbolTableRecord
100
AcDbLayerTableRecord
  2
05_CURVES
 70
0
 62
7
  6
CONTINUOUS
370
-3
390
F
  0
LAYER
  5
204
100
AcDbSymbolTableRecord
100
AcDbLayerTableRecord
  2
06_SURFS
 70
0
 62
7
  6
CONTINUOUS
370
-3
390
F
  0
LAYER
  5
205
100
AcDbSymbolTableRecord
100
AcDbLayerTableRecord
  2
07_COSMETICS
 70
0
 62
7
  6
CONTINUOUS
370
-3
390
F
  0
LAYER
  5
206
100
AcDbSymbolTableRecord
100
AcDbLayerTableRecord
  2
10_NOTES
 70
0
 62
7
  6
CONTINUOUS
370
-3
390
F
  0
LAYER
  5
207
100
AcDbSymbolTableRecord
100
AcDbLayerTableRecord
  2
11_NOTES_PUB
 70
0
 62
7
  6
CONTINUOUS
370
-3
390
F
  0
LAYER
  5
208
100
AcDbSymbolTableRecord
100
AcDbLayerTableRecord
  2
13_REF_GTOL
 70
0
 62
7
  6
CONTINUOUS
370
-3
390
F
  0
LAYER
  5
209
100
AcDbSymbolTableRecord
100
AcDbLayerTableRecord
  2
16_MISC
 70
0
 62
7
  6
CONTINUOUS
370
-3
390
F
  0
LAYER
  5
20A
100
AcDbSymbolTableRecord
100
AcDbLayerTableRecord
  2
17_NO_PRINT
 70
0
 62
7
  6
CONTINUOUS
370
-3
390
F
  0
LAYER
  5
20B
100
AcDbSymbolTableRecord
100
AcDbLayerTableRecord
  2
18_DATUM_CAMS_JOINTS
 70
0
 62
7
  6
CONTINUOUS
370
-3
390
F
  0
LAYER
  5
20C
100
AcDbSymbolTableRecord
100
AcDbLayerTableRecord
  2
19_DATUM_FUNCTIONAL
 70
0
 62
7
  6
CONTINUOUS
370
-3
390
F
  0
LAYER
  5
20D
100
AcDbSymbolTableRecord
100
AcDbLayerTableRecord
  2
20_DATUM_KINEMATIC_SCHEME
 70
0
 62
7
  6
CONTINUOUS
370
-3
390
F
  0
ENDTAB
  0
TABLE
  2
STYLE
  5
3
100
AcDbSymbolTable
 70
1
  0
STYLE
  5
11
100
AcDbSymbolTableRecord
100
AcDbTextStyleTableRecord
  2
STANDARD
 70
0
 40
0.0
 41
0.8
 50
0.0
 71
0
 42
0.2
  3
txt
  4

  0
STYLE
  5
20E
100
AcDbSymbolTableRecord
100
AcDbTextStyleTableRecord
  2
TEXTSTYLE_1
 70
0
 40
0.0
 41
0.8
 50
0.0
 71
0
 42
0.2
  3
gdt
  4

  0
ENDTAB
  0
TABLE
  2
VIEW
  5
6
100
AcDbSymbolTable
 70
0
  0
ENDTAB
  0
TABLE
  2
UCS
  5
7
100
AcDbSymbolTable
 70
0
  0
ENDTAB
  0
TABLE
  2
APPID
  5
9
100
AcDbSymbolTable
 70
1
  0
APPID
  5
20F
100
AcDbSymbolTableRecord
100
AcDbRegAppTableRecord
  2
ACAD
 70
0
  0
ENDTAB
  0
TABLE
  2
BLOCK_RECORD
  5
1
100
AcDbSymbolTable
 70
0
  0
BLOCK_RECORD
  5
210
100
AcDbSymbolTableRecord
100
AcDbBlockTableRecord
  2
*Model_Space
  0
BLOCK_RECORD
  5
211
100
AcDbSymbolTableRecord
100
AcDbBlockTableRecord
  2
*Paper_Space
  0
BLOCK_RECORD
  5
212
100
AcDbSymbolTableRecord
100
AcDbBlockTableRecord
  2
_FILLED
  0
ENDTAB
  0
TABLE
  2
DIMSTYLE
  5
A
100
AcDbSymbolTable
 70
1
100
AcDbDimStyleTable
 71
0
  0
DIMSTYLE
105
213
100
AcDbSymbolTableRecord
100
AcDbDimStyleTableRecord
  2
STANDARD
 70
0
  3

  4

 40
1.0
 41
1.3063815202
 42
1.0
 43
0.38
 44
1.0
 45
0.0
 46
0.0
 47
0.01
 48
0.01
140
1.8289341283
141
0.09
142
0.0
143
25.4
144
1.0
145
0.0
146
1.0
147
0.625
 71
1
 72
0
 73
0
 74
0
 75
0
 76
0
 77
1
 78
8
 79
2
170
0
171
1
172
0
173
0
174
0
175
0
176
0
177
0
178
0
270
2
179
2
271
2
272
2
273
2
274
2
275
0
280
0
281
0
282
0
283
1
284
8
285
0
286
0
287
3
288
0
340
11
278
46
341
212
342
212
343
212
344
212
  0
ENDTAB
  0
ENDSEC
  0
SECTION
  2
BLOCKS
  0
BLOCK
  5
20
100
AcDbEntity
  8
0
100
AcDbBlockBegin
  2
*Model_Space
 70
0
 10
0.0
 20
0.0
 30
0.0
  3
*Model_Space
  1

  0
ENDBLK
  5
21
100
AcDbEntity
  8
0
100
AcDbBlockEnd
  0
BLOCK
  5
1C
100
AcDbEntity
  8
0
100
AcDbBlockBegin
  2
*Paper_Space
 70
0
 10
0.0
 20
0.0
 30
0.0
  3
*Paper_Space
  1

  0
ENDBLK
  5
1D
100
AcDbEntity
  8
0
100
AcDbBlockEnd
  0
BLOCK
  5
214
100
AcDbEntity
  8
0
100
AcDbBlockBegin
  2
_FILLED
 70
64
 10
0.0
 20
0.0
  3
_FILLED
  1

  0
SOLID
  5
215
100
AcDbEntity
  8
0
  6
BYBLOCK
 62
0
100
AcDbTrace
 10
0.0
 20
0.0
 11
-1.0
 21
0.25
 12
-1.0
 22
-0.25
 13
-1.0
 23
-0.25
  0
ENDBLK
  5
216
100
AcDbEntity
  8
0
  6
BYBLOCK
 62
0
100
AcDbBlockEnd
  0
ENDSEC
  0
SECTION
  2
ENTITIES
  0
LWPOLYLINE
  5
217
100
AcDbEntity
  8
0
100
AcDbPolyline
 62
7
  6
CONTINUOUS
 90
10
 70
0
 10
22.0151270965
 20
123.7980272147
 10
16.9166068459
 20
119.0934505199
 10
13.7064286392
 20
111.9558011904
 10
12.7392519766
 20
102.9230194767
 10
14.0792788441
 20
92.7774682273
 10
15.5698619994
 20
87.5270487829
 10
20.0288462227
 20
77.1437671375
 10
26.1648760089
 20
67.5231423562
 10
33.5443308012
 20
59.3525869923
 10
36.418866972
 20
57.1670402318
  0
LINE
  5
218
100
AcDbEntity
  8
0
100
AcDbLine
 62
7
  6
CONTINUOUS
 10
34.0358923291
 20
130.7381778305
 11
22.0151270965
 21
123.7980272147
  0
LINE
  5
219
100
AcDbEntity
  8
0
100
AcDbLine
 62
7
  6
CONTINUOUS
 10
47.3921022198
 20
22.6969198081
 11
40.2078674123
 21
26.8446458741
  0
LINE
  5
21A
100
AcDbEntity
  8
0
100
AcDbLine
 62
7
  6
CONTINUOUS
 10
43.7221310313
 20
123.0243868
 11
50.0860655662
 21
126.6985841849
  0
LINE
  5
21B
100
AcDbEntity
  8
0
100
AcDbLine
 62
7
  6
CONTINUOUS
 10
51.5002850165
 20
125.8821026758
 11
45.1363504816
 21
122.207905291
  0
LINE
  5
21C
100
AcDbEntity
  8
0
100
AcDbLine
 62
7
  6
CONTINUOUS
 10
45.1363504816
 20
122.1165334044
 11
51.5002850165
 21
125.7907307893
  0
LINE
  5
21D
100
AcDbEntity
  8
0
100
AcDbLine
 62
7
  6
CONTINUOUS
 10
55.0732056296
 20
34.8067031792
 11
55.9480586502
 21
35.0096908967
  0
LINE
  5
21E
100
AcDbEntity
  8
0
100
AcDbLine
 62
7
  6
CONTINUOUS
 10
40.2078674123
 20
34.2176627007
 11
47.3921022198
 21
30.0699366348
  0
LINE
  5
21F
100
AcDbEntity
  8
0
100
AcDbLine
 62
7
  6
CONTINUOUS
 10
47.1870399285
 20
30.9640023492
 11
36.9339489138
 21
36.8834932897
  0
LINE
  5
220
100
AcDbEntity
  8
0
100
AcDbLine
 62
7
  6
CONTINUOUS
 10
48.2406268245
 20
30.5598296195
 11
48.0085923943
 21
30.6937917296
  0
LINE
  5
221
100
AcDbEntity
  8
0
100
AcDbLine
 62
7
  6
CONTINUOUS
 10
54.9447209086
 20
28.5275278028
 11
55.0154318811
 21
28.4867037273
  0
LINE
  5
222
100
AcDbEntity
  8
0
100
AcDbLine
 62
7
  6
CONTINUOUS
 10
55.7370848219
 20
29.6398296097
 11
55.8077957944
 21
29.5990055342
  0
LINE
  5
223
100
AcDbEntity
  8
0
100
AcDbLine
 62
7
  6
CONTINUOUS
 10
55.4744157053
 20
30.2204144953
 11
55.5451266778
 21
30.1795904199
  0
LINE
  5
224
100
AcDbEntity
  8
0
100
AcDbLine
 62
7
  6
CONTINUOUS
 10
55.5451266778
 20
30.1933638901
 11
55.4744157053
 21
30.2341879655
  0
LINE
  5
225
100
AcDbEntity
  8
0
100
AcDbLine
 62
7
  6
CONTINUOUS
 10
55.0960596493
 20
30.4784583883
 11
55.1667706218
 21
30.4376343128
  0
LINE
  5
226
100
AcDbEntity
  8
0
100
AcDbLine
 62
7
  6
CONTINUOUS
 10
57.2427984062
 20
29.2814797639
 11
57.4683319001
 21
29.1512708862
  0
LINE
  5
227
100
AcDbEntity
  8
0
100
AcDbLine
 62
7
  6
CONTINUOUS
 10
55.0524012394
 20
30.5749577913
 11
55.1231122119
 21
30.5341337158
  0
LINE
  5
228
100
AcDbEntity
  8
0
100
AcDbLine
 62
7
  6
CONTINUOUS
 10
55.6234702332
 20
30.4923594142
 11
55.6941812058
 21
30.4515353387
  0
LINE
  5
229
100
AcDbEntity
  8
0
100
AcDbLine
 62
7
  6
CONTINUOUS
 10
55.9204063044
 20
30.5821456807
 11
55.8496953319
 21
30.6229697561
  0
LINE
  5
22A
100
AcDbEntity
  8
0
100
AcDbLine
 62
7
  6
CONTINUOUS
 10
55.9550914499
 20
30.6334100268
 11
56.0258024224
 21
30.5925859513
  0
LINE
  5
22B
100
AcDbEntity
  8
0
100
AcDbLine
 62
7
  6
CONTINUOUS
 10
57.4463684888
 20
29.8901972544
 11
57.3756575163
 21
29.9310213299
  0
LINE
  5
22C
100
AcDbEntity
  8
0
100
AcDbLine
 62
7
  6
CONTINUOUS
 10
55.1231122119
 20
31.2707489364
 11
55.0524012394
 21
31.3115730119
  0
LINE
  5
22D
100
AcDbEntity
  8
0
100
AcDbLine
 62
7
  6
CONTINUOUS
 10
56.2189576083
 20
30.780459379
 11
56.2896685808
 21
30.7396353035
  0
LINE
  5
22E
100
AcDbEntity
  8
0
100
AcDbLine
 62
7
  6
CONTINUOUS
 10
64.4759360036
 20
26.1674944689
 11
66.9508200416
 21
24.7386518281
  0
LINE
  5
22F
100
AcDbEntity
  8
0
100
AcDbLine
 62
7
  6
CONTINUOUS
 10
55.2014557673
 20
31.5697444605
 11
55.2721667398
 21
31.5289203851
  0
LINE
  5
230
100
AcDbEntity
  8
0
100
AcDbLine
 62
7
  6
CONTINUOUS
 10
57.5743968869
 20
30.2752499281
 11
57.6451078594
 21
30.2344258526
  0
LINE
  5
231
100
AcDbEntity
  8
0
100
AcDbLine
 62
7
  6
CONTINUOUS
 10
56.8293082452
 20
31.0099215641
 11
56.7585972726
 21
31.0507456396
  0
LINE
  5
232
100
AcDbEntity
  8
0
100
AcDbLine
 62
7
  6
CONTINUOUS
 10
56.5234352825
 20
31.3078421112
 11
56.5941462551
 21
31.2670180358
  0
LINE
  5
233
100
AcDbEntity
  8
0
100
AcDbLine
 62
7
  6
CONTINUOUS
 10
53.5166794893
 20
33.1090912955
 11
53.2681447044
 21
33.2525796743
  0
LINE
  5
234
100
AcDbEntity
  8
0
100
AcDbLine
 62
7
  6
CONTINUOUS
 10
56.892697559
 20
31.2251437782
 11
56.9634085315
 21
31.1843197028
  0
LINE
  5
235
100
AcDbEntity
  8
0
100
AcDbLine
 62
7
  6
CONTINUOUS
 10
56.787301441
 20
31.4548914635
 11
56.8580124135
 21
31.414067388
  0
LINE
  5
236
100
AcDbEntity
  8
0
100
AcDbLine
 62
7
  6
CONTINUOUS
 10
56.7585972727
 20
31.4848851242
 11
56.8293082452
 21
31.4440610487
  0
LINE
  5
237
100
AcDbEntity
  8
0
100
AcDbLine
 62
7
  6
CONTINUOUS
 10
57.1896336301
 20
31.3149300447
 11
57.1189226576
 21
31.3557541202
  0
LINE
  5
238
100
AcDbEntity
  8
0
100
AcDbLine
 62
7
  6
CONTINUOUS
 10
57.2243187756
 20
31.3661943908
 11
57.2950297481
 21
31.3253703154
  0
LINE
  5
239
100
AcDbEntity
  8
0
100
AcDbLine
 62
7
  6
CONTINUOUS
 10
57.1896336301
 20
32.6359638022
 11
57.1189226576
 21
32.6767878777
  0
LINE
  5
23A
100
AcDbEntity
  8
0
100
AcDbLine
 62
7
  6
CONTINUOUS
 10
57.2243187756
 20
32.6872281483
 11
57.2950297481
 21
32.6464040729
  0
LINE
  5
23B
100
AcDbEntity
  8
0
100
AcDbLine
 62
7
  6
CONTINUOUS
 10
57.6451078594
 20
33.0414614131
 11
57.5743968869
 21
33.0822854886
  0
LINE
  5
23C
100
AcDbEntity
  8
0
100
AcDbLine
 62
7
  6
CONTINUOUS
 10
54.9651939137
 20
34.8690631075
 11
55.0732056296
 21
34.8067031792
  0
LINE
  5
23D
100
AcDbEntity
  8
0
100
AcDbLine
 62
7
  6
CONTINUOUS
 10
58.2179875572
 20
33.5770799704
 11
58.9958082548
 21
33.1280151404
  0
LINE
  5
23E
100
AcDbEntity
  8
0
100
AcDbLine
 62
7
  6
CONTINUOUS
 10
55.9480586502
 20
35.0096908967
 11
54.9651939137
 21
35.5771352796
  0
LINE
  5
23F
100
AcDbEntity
  8
0
100
AcDbLine
 62
7
  6
CONTINUOUS
 10
56.8743742742
 20
34.760676957
 11
54.9651939137
 21
35.8629178161
  0
LINE
  5
240
100
AcDbEntity
  8
0
100
AcDbLine
 62
7
  6
CONTINUOUS
 10
76.602786242
 20
44.5591482056
 11
77.9701867298
 21
44.6449193068
  0
LINE
  5
241
100
AcDbEntity
  8
0
100
AcDbLine
 62
7
  6
CONTINUOUS
 10
64.8294879222
 20
40.6604088456
 11
66.9548445659
 21
40.3085612442
  0
LINE
  5
242
100
AcDbEntity
  8
0
100
AcDbLine
 62
7
  6
CONTINUOUS
 10
47.1870399285
 20
42.7216371559
 11
36.9339489138
 21
48.6411280964
  0
LINE
  5
243
100
AcDbEntity
  8
0
100
AcDbLine
 62
7
  6
CONTINUOUS
 10
47.2577503122
 20
42.7624615713
 11
37.0046592976
 21
48.6819525118
  0
LINE
  5
244
100
AcDbEntity
  8
0
100
AcDbLine
 62
7
  6
CONTINUOUS
 10
56.0258014594
 20
30.5925842812
 11
56.1374455392
 21
30.4759713017
  0
LINE
  5
245
100
AcDbEntity
  8
0
100
AcDbLine
 62
7
  6
CONTINUOUS
 10
65.0069424791
 20
48.4941709828
 11
65.7095976488
 21
48.6028723721
  0
LINE
  5
246
100
AcDbEntity
  8
0
100
AcDbLine
 62
7
  6
CONTINUOUS
 10
55.363659811
 20
48.9122926358
 11
55.3635623953
 21
48.9122941116
  0
LINE
  5
247
100
AcDbEntity
  8
0
100
AcDbLine
 62
7
  6
CONTINUOUS
 10
64.4759360036
 20
40.4562867687
 11
66.9508200416
 21
39.0274441278
  0
LWPOLYLINE
  5
248
100
AcDbEntity
  8
0
100
AcDbPolyline
 62
7
  6
CONTINUOUS
 90
4
 70
0
 10
36.418866972
 20
57.7300161729
 10
33.932608492
 20
59.5986604152
 10
27.446374921
 20
66.5040182582
 10
21.8371999807
 20
74.6546699363
  0
LINE
  5
249
100
AcDbEntity
  8
0
100
AcDbLine
 62
7
  6
CONTINUOUS
 10
56.7585972726
 20
31.4848851243
 11
56.787302404
 21
31.4548931336
  0
LINE
  5
24A
100
AcDbEntity
  8
0
100
AcDbLine
 62
7
  6
CONTINUOUS
 10
56.8580133765
 20
31.4140690581
 11
56.7463692967
 21
31.5306820376
  0
LINE
  5
24B
100
AcDbEntity
  8
0
100
AcDbLine
 62
7
  6
CONTINUOUS
 10
54.682246396
 20
128.5356862766
 11
52.9145044668
 21
125.0656211668
  0
LINE
  5
24C
100
AcDbEntity
  8
0
100
AcDbLine
 62
7
  6
CONTINUOUS
 10
52.9145044668
 20
124.9023206834
 11
52.9754622945
 21
125.0219804751
  0
LINE
  5
24D
100
AcDbEntity
  8
0
100
AcDbLine
 62
7
  6
CONTINUOUS
 10
70.9808712337
 20
56.5006396629
 11
72.2894169186
 21
56.7030728621
  0
LINE
  5
24E
100
AcDbEntity
  8
0
100
AcDbLine
 62
7
  6
CONTINUOUS
 10
92.2847468629
 20
41.7919157993
 11
95.4949476347
 21
40.806464059
  0
LINE
  5
24F
100
AcDbEntity
  8
0
100
AcDbLine
 62
7
  6
CONTINUOUS
 10
62.6822258405
 20
49.4339508166
 11
65.0069424791
 21
48.4941709828
  0
LINE
  5
250
100
AcDbEntity
  8
0
100
AcDbLine
 62
7
  6
CONTINUOUS
 10
66.5063763208
 20
41.8735015272
 11
68.4862835512
 21
40.7304274145
  0
LINE
  5
251
100
AcDbEntity
  8
0
100
AcDbLine
 62
7
  6
CONTINUOUS
 10
58.2179875572
 20
47.8658722702
 11
58.9958082548
 21
47.4168074402
  0
LINE
  5
252
100
AcDbEntity
  8
0
100
AcDbLine
 62
7
  6
CONTINUOUS
 10
68.1175225316
 20
42.3137986886
 11
67.4104128065
 21
42.7220394431
  0
LINE
  5
253
100
AcDbEntity
  8
0
100
AcDbLine
 62
7
  6
CONTINUOUS
 10
57.4683319001
 20
29.1512708862
 11
57.3293157365
 21
29.3490458178
  0
LINE
  5
254
100
AcDbEntity
  8
0
100
AcDbLine
 62
7
  6
CONTINUOUS
 10
36.3481565883
 20
49.4576164042
 11
36.3481565883
 21
37.6999815975
  0
LINE
  5
255
100
AcDbEntity
  8
0
100
AcDbLine
 62
7
  6
CONTINUOUS
 10
36.418866972
 20
63.1341513474
 11
36.418866972
 21
49.4984408195
  0
LINE
  5
256
100
AcDbEntity
  8
0
100
AcDbLine
 62
7
  6
CONTINUOUS
 10
36.9339489138
 20
48.6411280964
 11
36.9339489138
 21
36.8834932897
  0
LINE
  5
257
100
AcDbEntity
  8
0
100
AcDbLine
 62
7
  6
CONTINUOUS
 10
37.0046592976
 20
62.3543186146
 11
37.0046592976
 21
48.6819525118
  0
LINE
  5
258
100
AcDbEntity
  8
0
100
AcDbLine
 62
7
  6
CONTINUOUS
 10
38.7722628604
 20
105.3875637632
 11
39.3068334804
 21
108.9800305222
  0
LINE
  5
259
100
AcDbEntity
  8
0
100
AcDbLine
 62
7
  6
CONTINUOUS
 10
65.8835838904
 20
46.2087420659
 11
67.8988466071
 21
45.0452559155
  0
LINE
  5
25A
100
AcDbEntity
  8
0
100
AcDbLine
 62
7
  6
CONTINUOUS
 10
70.3737188692
 20
45.2493830914
 11
69.383765254
 21
45.8209201478
  0
LINE
  5
25B
100
AcDbEntity
  8
0
100
AcDbLine
 62
7
  6
CONTINUOUS
 10
64.7587160096
 20
49.1518517229
 11
67.0568226163
 21
47.8250692707
  0
LINE
  5
25C
100
AcDbEntity
  8
0
100
AcDbLine
 62
7
  6
CONTINUOUS
 10
76.602786242
 20
44.150896997
 11
79.07767028
 21
42.7220543562
  0
LINE
  5
25D
100
AcDbEntity
  8
0
100
AcDbLine
 62
7
  6
CONTINUOUS
 10
40.2078674123
 20
26.8446458741
 11
40.2078674123
 21
34.2176627007
  0
LINE
  5
25E
100
AcDbEntity
  8
0
100
AcDbLine
 62
7
  6
CONTINUOUS
 10
83.1080426271
 20
111.6344627228
 11
80.6331791968
 21
110.2056081842
  0
LINE
  5
25F
100
AcDbEntity
  8
0
100
AcDbLine
 62
7
  6
CONTINUOUS
 10
60.6928509874
 20
98.6931230451
 11
58.2179875572
 21
97.2642685065
  0
LINE
  5
260
100
AcDbEntity
  8
0
100
AcDbLine
 62
7
  6
CONTINUOUS
 10
72.8174282901
 20
104.7158401061
 11
63.978630325
 21
99.6127881827
  0
LINE
  5
261
100
AcDbEntity
  8
0
100
AcDbLine
 62
7
  6
CONTINUOUS
 10
58.2179875572
 20
96.2868993829
 11
56.9075919528
 21
95.530346644
  0
LINE
  5
262
100
AcDbEntity
  8
0
100
AcDbLine
 62
7
  6
CONTINUOUS
 10
64.2599743868
 20
98.1945332902
 11
76.9528631133
 21
105.5227322697
  0
LINE
  5
263
100
AcDbEntity
  8
0
100
AcDbLine
 62
7
  6
CONTINUOUS
 10
60.2247626896
 20
97.4396067394
 11
58.9958082548
 21
96.8152036765
  0
LINE
  5
264
100
AcDbEntity
  8
0
100
AcDbLine
 62
7
  6
CONTINUOUS
 10
69.6401809646
 20
56.4609732647
 11
69.9071802535
 21
56.3611871557
  0
LINE
  5
265
100
AcDbEntity
  8
0
100
AcDbLine
 62
7
  6
CONTINUOUS
 10
67.7639323415
 20
50.4787125804
 11
64.9354934409
 21
52.1116755985
  0
LINE
  5
266
100
AcDbEntity
  8
0
100
AcDbLine
 62
7
  6
CONTINUOUS
 10
76.3906533245
 20
46.8628990355
 11
78.3705605549
 21
45.7198249228
  0
LINE
  5
267
100
AcDbEntity
  8
0
100
AcDbLine
 62
7
  6
CONTINUOUS
 10
86.6501472133
 20
41.5008186151
 11
87.6401008285
 21
40.9292815588
  0
LINE
  5
268
100
AcDbEntity
  8
0
100
AcDbLine
 62
7
  6
CONTINUOUS
 10
67.0568049525
 20
53.4588834227
 11
67.8346256502
 21
53.0098185927
  0
LINE
  5
269
100
AcDbEntity
  8
0
100
AcDbLine
 62
7
  6
CONTINUOUS
 10
76.8149191595
 20
47.9884614937
 11
76.1078094344
 21
48.3967022483
  0
LINE
  5
26A
100
AcDbEntity
  8
0
100
AcDbLine
 62
7
  6
CONTINUOUS
 10
64.9354934409
 20
57.0106901013
 11
67.7639323415
 21
55.3777270832
  0
LINE
  5
26B
100
AcDbEntity
  8
0
100
AcDbLine
 62
7
  6
CONTINUOUS
 10
68.8796098511
 20
42.5678266059
 11
70.5865134657
 21
40.7144510281
  0
LINE
  5
26C
100
AcDbEntity
  8
0
100
AcDbLine
 62
7
  6
CONTINUOUS
 10
58.2179875572
 20
45.179692553
 11
56.9075919528
 21
46.9484528248
  0
LINE
  5
26D
100
AcDbEntity
  8
0
100
AcDbLine
 62
7
  6
CONTINUOUS
 10
43.7221310313
 20
123.0243868
 11
43.7221310313
 21
122.9330149135
  0
LINE
  5
26E
100
AcDbEntity
  8
0
100
AcDbLine
 62
7
  6
CONTINUOUS
 10
45.1363504816
 20
122.207905291
 11
45.1363504816
 21
122.1165334044
  0
LINE
  5
26F
100
AcDbEntity
  8
0
100
AcDbLine
 62
7
  6
CONTINUOUS
 10
83.8858633247
 20
111.1853978928
 11
82.8043602676
 21
110.4758656633
  0
LINE
  5
270
100
AcDbEntity
  8
0
100
AcDbLine
 62
7
  6
CONTINUOUS
 10
77.7391983579
 20
105.3444543892
 11
64.9040905681
 21
97.9341456852
  0
LINE
  5
271
100
AcDbEntity
  8
0
100
AcDbLine
 62
7
  6
CONTINUOUS
 10
66.7382287803
 20
97.6523460356
 11
67.6565567778
 21
98.1825397873
  0
LINE
  5
272
100
AcDbEntity
  8
0
100
AcDbLine
 62
7
  6
CONTINUOUS
 10
81.5176059689
 20
106.1851724998
 11
82.4359339664
 21
106.7153662515
  0
LINE
  5
273
100
AcDbEntity
  8
0
100
AcDbLine
 62
7
  6
CONTINUOUS
 10
83.7444796513
 20
105.9598941392
 11
76.956282814
 21
102.040750262
  0
LINE
  5
274
100
AcDbEntity
  8
0
100
AcDbLine
 62
7
  6
CONTINUOUS
 10
74.8349713024
 20
100.8160178004
 11
68.0467744651
 21
96.8968739232
  0
LINE
  5
275
100
AcDbEntity
  8
0
100
AcDbLine
 62
7
  6
CONTINUOUS
 10
74.8703267886
 20
100.7956057627
 11
76.9916383003
 21
102.0203382243
  0
LINE
  5
276
100
AcDbEntity
  8
0
100
AcDbLine
 62
7
  6
CONTINUOUS
 10
69.3837593661
 20
96.0358012925
 11
85.2359336509
 21
105.1880037518
  0
LINE
  5
277
100
AcDbEntity
  8
0
100
AcDbLine
 62
7
  6
CONTINUOUS
 10
68.1175225316
 20
91.7121949249
 11
68.8796098511
 21
91.9662228423
  0
LINE
  5
278
100
AcDbEntity
  8
0
100
AcDbLine
 62
7
  6
CONTINUOUS
 10
95.4949476346
 20
55.0952563587
 11
92.2847468629
 21
56.0807080991
  0
LINE
  5
279
100
AcDbEntity
  8
0
100
AcDbLine
 62
7
  6
CONTINUOUS
 10
74.8703267886
 20
51.3972095263
 11
74.8349713024
 21
51.4176215641
  0
LINE
  5
27A
100
AcDbEntity
  8
0
100
AcDbLine
 62
7
  6
CONTINUOUS
 10
72.3247724049
 20
53.186064477
 11
74.3400351215
 21
52.0225783266
  0
LINE
  5
27B
100
AcDbEntity
  8
0
100
AcDbLine
 62
7
  6
CONTINUOUS
 10
92.0176263415
 20
42.6401436981
 11
92.2847468629
 21
42.485925082
  0
LINE
  5
27C
100
AcDbEntity
  8
0
100
AcDbLine
 62
7
  6
CONTINUOUS
 10
75.4006997092
 20
53.0432220291
 11
74.410746094
 21
53.6147590854
  0
LINE
  5
27D
100
AcDbEntity
  8
0
100
AcDbLine
 62
7
  6
CONTINUOUS
 10
72.2894169186
 20
55.7451675506
 11
70.9808712337
 21
56.5006396629
  0
LINE
  5
27E
100
AcDbEntity
  8
0
100
AcDbLine
 62
7
  6
CONTINUOUS
 10
61.5990161412
 20
51.5175031314
 11
61.3644508344
 21
51.8341172855
  0
LINE
  5
27F
100
AcDbEntity
  8
0
100
AcDbLine
 62
7
  6
CONTINUOUS
 10
47.1870399285
 20
30.9640023492
 11
47.1870399285
 21
42.7216371559
  0
LINE
  5
280
100
AcDbEntity
  8
0
100
AcDbLine
 62
7
  6
CONTINUOUS
 10
47.2577503122
 20
42.7624615713
 11
47.2577503122
 21
61.1261131144
  0
LINE
  5
281
100
AcDbEntity
  8
0
100
AcDbLine
 62
7
  6
CONTINUOUS
 10
47.3921022198
 20
30.0699366348
 11
47.3921022198
 21
22.6969198081
  0
LINE
  5
282
100
AcDbEntity
  8
0
100
AcDbLine
 62
7
  6
CONTINUOUS
 10
48.2406268245
 20
30.6671763014
 11
48.2406268245
 21
30.5598296195
  0
LINE
  5
283
100
AcDbEntity
  8
0
100
AcDbLine
 62
7
  6
CONTINUOUS
 10
48.6718461159
 20
127.5150656939
 11
48.6718461159
 21
127.3517652105
  0
LINE
  5
284
100
AcDbEntity
  8
0
100
AcDbLine
 62
7
  6
CONTINUOUS
 10
50.0154670532
 20
42.7216439546
 11
50.0154670532
 21
30.9640091479
  0
LINE
  5
285
100
AcDbEntity
  8
0
100
AcDbLine
 62
7
  6
CONTINUOUS
 10
50.0861774369
 20
62.6448316694
 11
50.0861774369
 21
42.76246837
  0
LINE
  5
286
100
AcDbEntity
  8
0
100
AcDbLine
 62
7
  6
CONTINUOUS
 10
51.5002850165
 20
125.8821026758
 11
51.5002850165
 21
125.7907307893
  0
LINE
  5
287
100
AcDbEntity
  8
0
100
AcDbLine
 62
7
  6
CONTINUOUS
 10
92.6388148156
 20
107.9107058878
 11
89.4078574776
 21
106.0453229337
  0
LINE
  5
288
100
AcDbEntity
  8
0
100
AcDbLine
 62
7
  6
CONTINUOUS
 10
67.898852495
 20
93.6271672434
 11
64.6678951569
 21
91.7617842894
  0
LINE
  5
289
100
AcDbEntity
  8
0
100
AcDbLine
 62
7
  6
CONTINUOUS
 10
67.4104128065
 20
92.1204356794
 11
70.3737247571
 21
93.8312944194
  0
LINE
  5
28A
100
AcDbEntity
  8
0
100
AcDbLine
 62
7
  6
CONTINUOUS
 10
89.0543143909
 20
104.6164734942
 11
92.0176263415
 21
106.3273322342
  0
LINE
  5
28B
100
AcDbEntity
  8
0
100
AcDbLine
 62
7
  6
CONTINUOUS
 10
95.9420567596
 20
108.0215478523
 11
95.588504841
 21
107.8174257753
  0
LINE
  5
28C
100
AcDbEntity
  8
0
100
AcDbLine
 62
7
  6
CONTINUOUS
 10
64.8294879222
 20
90.0588050819
 11
64.4759360036
 21
89.854683005
  0
LINE
  5
28D
100
AcDbEntity
  8
0
100
AcDbLine
 62
7
  6
CONTINUOUS
 10
67.7639323415
 20
61.2565444865
 11
65.642603166
 21
62.4812667501
  0
LINE
  5
28E
100
AcDbEntity
  8
0
100
AcDbLine
 62
7
  6
CONTINUOUS
 10
80.8807544477
 20
56.2071142216
 11
79.8908008324
 21
56.7786512779
  0
LINE
  5
28F
100
AcDbEntity
  8
0
100
AcDbLine
 62
7
  6
CONTINUOUS
 10
76.9759682174
 20
48.5895089349
 11
79.4345204105
 21
46.30215644
  0
LINE
  5
290
100
AcDbEntity
  8
0
100
AcDbLine
 62
7
  6
CONTINUOUS
 10
52.9145044668
 20
125.0656211668
 11
52.9145044668
 21
124.9023206834
  0
LINE
  5
291
100
AcDbEntity
  8
0
100
AcDbLine
 62
7
  6
CONTINUOUS
 10
53.2681447044
 20
44.5995670624
 11
53.2681447044
 21
32.8419322557
  0
LINE
  5
292
100
AcDbEntity
  8
0
100
AcDbLine
 62
7
  6
CONTINUOUS
 10
53.9752485416
 20
50.0988905599
 11
53.9752485416
 21
62.9986577767
  0
LINE
  5
293
100
AcDbEntity
  8
0
100
AcDbLine
 62
7
  6
CONTINUOUS
 10
54.0388782896
 20
26.7793655797
 11
54.0388782896
 21
26.697715338
  0
LINE
  5
294
100
AcDbEntity
  8
0
100
AcDbLine
 62
7
  6
CONTINUOUS
 10
54.682246396
 20
128.5356862766
 11
54.682246396
 21
128.4540360349
  0
LINE
  5
295
100
AcDbEntity
  8
0
100
AcDbLine
 62
7
  6
CONTINUOUS
 10
54.6823553228
 20
62.9986594759
 11
54.6823553228
 21
50.098892261
  0
LINE
  5
296
100
AcDbEntity
  8
0
100
AcDbLine
 62
7
  6
CONTINUOUS
 10
54.8166925105
 20
28.6014492371
 11
54.8166925105
 21
31.4084847977
  0
LINE
  5
297
100
AcDbEntity
  8
0
100
AcDbLine
 62
7
  6
CONTINUOUS
 10
54.9651939137
 20
45.5793530317
 11
54.9651939137
 21
34.6382206421
  0
LINE
  5
298
100
AcDbEntity
  8
0
100
AcDbLine
 62
7
  6
CONTINUOUS
 10
55.0524012394
 20
30.5749577913
 11
55.0524012394
 21
31.3115730119
  0
LINE
  5
299
100
AcDbEntity
  8
0
100
AcDbLine
 62
7
  6
CONTINUOUS
 10
55.1231122119
 20
30.5341337158
 11
55.1231122119
 21
31.2707489365
  0
LINE
  5
29A
100
AcDbEntity
  8
0
100
AcDbLine
 62
7
  6
CONTINUOUS
 10
55.4744157053
 20
30.2204144953
 11
55.4744157053
 21
30.2341879655
  0
LINE
  5
29B
100
AcDbEntity
  8
0
100
AcDbLine
 62
7
  6
CONTINUOUS
 10
55.5451266778
 20
30.1795904199
 11
55.5451266778
 21
30.19336389
  0
LINE
  5
29C
100
AcDbEntity
  8
0
100
AcDbLine
 62
7
  6
CONTINUOUS
 10
70.666615032
 20
90.4485602027
 11
85.2359336509
 21
98.8601100191
  0
LINE
  5
29D
100
AcDbEntity
  8
0
100
AcDbLine
 62
7
  6
CONTINUOUS
 10
68.365033604
 20
88.4258437635
 11
68.5570057108
 21
88.5366782495
  0
LINE
  5
29E
100
AcDbEntity
  8
0
100
AcDbLine
 62
7
  6
CONTINUOUS
 10
69.9712133852
 20
89.3531665572
 11
70.4634283266
 21
89.6373452898
  0
LINE
  5
29F
100
AcDbEntity
  8
0
100
AcDbLine
 62
7
  6
CONTINUOUS
 10
96.318551963
 20
104.5647187768
 11
96.8107669043
 21
104.8488975094
  0
LINE
  5
2A0
100
AcDbEntity
  8
0
100
AcDbLine
 62
7
  6
CONTINUOUS
 10
98.2249745788
 20
105.6653858171
 11
98.4169466856
 21
105.7762203031
  0
LINE
  5
2A1
100
AcDbEntity
  8
0
100
AcDbLine
 62
7
  6
CONTINUOUS
 10
70.668451519
 20
87.6735602462
 11
89.0543143909
 21
98.2885797615
  0
LINE
  5
2A2
100
AcDbEntity
  8
0
100
AcDbLine
 62
7
  6
CONTINUOUS
 10
70.668451519
 20
86.0405554119
 11
89.0543143909
 21
96.6555749272
  0
LINE
  5
2A3
100
AcDbEntity
  8
0
100
AcDbLine
 62
7
  6
CONTINUOUS
 10
58.9958082548
 20
82.5264113768
 11
60.2247626896
 21
83.1508144396
  0
LWPOLYLINE
  5
2A4
100
AcDbEntity
  8
0
100
AcDbPolyline
 62
7
  6
CONTINUOUS
 90
7
 70
0
 10
59.8360263816
 20
73.4315430314
 10
56.4097066503
 20
74.792320188
 10
50.962539226
 20
78.9454872099
 10
46.0508982852
 20
84.6782862873
 10
42.1436167444
 20
91.450588597
 10
39.6433169415
 20
98.5561225191
 10
38.7722628604
 20
105.3875637632
  0
LINE
  5
2A5
100
AcDbEntity
  8
0
100
AcDbLine
 62
7
  6
CONTINUOUS
 10
72.3247724049
 20
63.5631787173
 11
72.2894169186
 21
63.583590755
  0
LINE
  5
2A6
100
AcDbEntity
  8
0
100
AcDbLine
 62
7
  6
CONTINUOUS
 10
88.7492317159
 20
55.3867652108
 11
88.4821265856
 21
55.540974941
  0
LINE
  5
2A7
100
AcDbEntity
  8
0
100
AcDbLine
 62
7
  6
CONTINUOUS
 10
72.3247724049
 20
66.0126859687
 11
72.2894169186
 21
66.0330980064
  0
LINE
  5
2A8
100
AcDbEntity
  8
0
100
AcDbLine
 62
7
  6
CONTINUOUS
 10
67.7639323415
 20
68.6867164824
 11
65.642603166
 21
69.911438746
  0
LINE
  5
2A9
100
AcDbEntity
  8
0
100
AcDbLine
 62
7
  6
CONTINUOUS
 10
92.0176263415
 20
56.9289359978
 11
92.7247360667
 21
56.5206952433
  0
LINE
  5
2AA
100
AcDbEntity
  8
0
100
AcDbLine
 62
7
  6
CONTINUOUS
 10
56.8743742742
 20
46.6816122471
 11
56.8743742742
 21
34.760676957
  0
LINE
  5
2AB
100
AcDbEntity
  8
0
100
AcDbLine
 62
7
  6
CONTINUOUS
 10
57.3386881581
 20
32.5499046699
 11
57.3386881581
 21
31.8132894493
  0
LINE
  5
2AC
100
AcDbEntity
  8
0
100
AcDbLine
 62
7
  6
CONTINUOUS
 10
57.3386881581
 20
31.2288709124
 11
57.3386881581
 21
31.2150974423
  0
LINE
  5
2AD
100
AcDbEntity
  8
0
100
AcDbLine
 62
7
  6
CONTINUOUS
 10
57.5743968869
 20
33.0822854886
 11
57.5743968869
 21
30.2752499281
  0
LINE
  5
2AE
100
AcDbEntity
  8
0
100
AcDbLine
 62
7
  6
CONTINUOUS
 10
57.6451078594
 20
33.0414614131
 11
57.6451078594
 21
30.2344258526
  0
LINE
  5
2AF
100
AcDbEntity
  8
0
100
AcDbLine
 62
7
  6
CONTINUOUS
 10
57.998659778
 20
29.6405171549
 11
57.998659778
 21
35.4097796207
  0
LINE
  5
2B0
100
AcDbEntity
  8
0
100
AcDbLine
 62
7
  6
CONTINUOUS
 10
58.0764507974
 20
49.091846868
 11
58.0764507974
 21
47.9513139396
  0
LINE
  5
2B1
100
AcDbEntity
  8
0
100
AcDbLine
 62
7
  6
CONTINUOUS
 10
58.0764507974
 20
45.3707376059
 11
58.0764507974
 21
35.4546920186
  0
LINE
  5
2B2
100
AcDbEntity
  8
0
100
AcDbLine
 62
7
  6
CONTINUOUS
 10
58.2179875572
 20
33.5770799704
 11
58.2179875572
 21
47.8658722702
  0
LINE
  5
2B3
100
AcDbEntity
  8
0
100
AcDbLine
 62
7
  6
CONTINUOUS
 10
58.2179875572
 20
82.9754762068
 11
58.2179875572
 21
97.2642685065
  0
LINE
  5
2B4
100
AcDbEntity
  8
0
100
AcDbLine
 62
7
  6
CONTINUOUS
 10
58.9958082548
 20
33.1280151404
 11
58.9958082548
 21
47.4168074402
  0
LINE
  5
2B5
100
AcDbEntity
  8
0
100
AcDbLine
 62
7
  6
CONTINUOUS
 10
58.9958082548
 20
82.5264113768
 11
58.9958082548
 21
96.8152036765
  0
LINE
  5
2B6
100
AcDbEntity
  8
0
100
AcDbLine
 62
7
  6
CONTINUOUS
 10
60.2247626896
 20
33.7524182033
 11
60.2247626896
 21
48.041210503
  0
LINE
  5
2B7
100
AcDbEntity
  8
0
100
AcDbLine
 62
7
  6
CONTINUOUS
 10
60.2247626896
 20
83.1508144396
 11
60.2247626896
 21
97.4396067394
  0
LINE
  5
2B8
100
AcDbEntity
  8
0
100
AcDbLine
 62
7
  6
CONTINUOUS
 10
37.0046475217
 20
63.9545956151
 11
41.5868214636
 21
66.6000991819
  0
LINE
  5
2B9
100
AcDbEntity
  8
0
100
AcDbLine
 62
7
  6
CONTINUOUS
 10
70.668451519
 20
82.4887219256
 11
85.2359336509
 21
90.8992114521
  0
LINE
  5
2BA
100
AcDbEntity
  8
0
100
AcDbLine
 62
7
  6
CONTINUOUS
 10
82.2595610043
 20
87.8335535429
 11
70.668451519
 21
81.1414633077
  0
LINE
  5
2BB
100
AcDbEntity
  8
0
100
AcDbLine
 62
7
  6
CONTINUOUS
 10
79.4345204106
 20
75.0642641185
 11
76.9759682174
 21
75.6157389419
  0
LINE
  5
2BC
100
AcDbEntity
  8
0
100
AcDbLine
 62
7
  6
CONTINUOUS
 10
87.7750168605
 20
60.1874947218
 11
86.7850632453
 21
60.7590317781
  0
LINE
  5
2BD
100
AcDbEntity
  8
0
100
AcDbLine
 62
7
  6
CONTINUOUS
 10
95.4672578378
 20
56.3078071975
 11
93.4873506074
 21
57.4508813101
  0
LINE
  5
2BE
100
AcDbEntity
  8
0
100
AcDbLine
 62
7
  6
CONTINUOUS
 10
64.4759360036
 20
75.5658907052
 11
66.9508200416
 21
74.1370480644
  0
LINE
  5
2BF
100
AcDbEntity
  8
0
100
AcDbLine
 62
7
  6
CONTINUOUS
 10
98.4169407976
 20
57.1943089751
 11
95.9420567596
 21
58.6231516159
  0
LINE
  5
2C0
100
AcDbEntity
  8
0
100
AcDbLine
 62
7
  6
CONTINUOUS
 10
70.9808712337
 20
74.6269933232
 11
72.2894169186
 21
73.8715212109
  0
LINE
  5
2C1
100
AcDbEntity
  8
0
100
AcDbLine
 62
7
  6
CONTINUOUS
 10
59.8476991793
 20
80.0384296428
 11
59.2025439734
 21
82.6314489699
  0
LINE
  5
2C2
100
AcDbEntity
  8
0
100
AcDbLine
 62
7
  6
CONTINUOUS
 10
63.5638261538
 20
33.289751784
 11
63.5638261538
 21
47.5785440838
  0
LINE
  5
2C3
100
AcDbEntity
  8
0
100
AcDbLine
 62
7
  6
CONTINUOUS
 10
63.5638261538
 20
82.6881480204
 11
63.5638261538
 21
96.9769403201
  0
LINE
  5
2C4
100
AcDbEntity
  8
0
100
AcDbLine
 62
7
  6
CONTINUOUS
 10
63.9455398257
 20
55.7497633997
 11
63.9455398257
 21
78.602497718
  0
LINE
  5
2C5
100
AcDbEntity
  8
0
100
AcDbLine
 62
7
  6
CONTINUOUS
 10
64.4759360036
 20
26.1674944689
 11
64.4759360036
 21
40.4562867687
  0
LINE
  5
2C6
100
AcDbEntity
  8
0
100
AcDbLine
 62
7
  6
CONTINUOUS
 10
64.4759360036
 20
75.5658907052
 11
64.4759360036
 21
89.854683005
  0
LINE
  5
2C7
100
AcDbEntity
  8
0
100
AcDbLine
 62
7
  6
CONTINUOUS
 10
64.492160992
 20
40.4656542142
 11
64.492160992
 21
42.1184436003
  0
LINE
  5
2C8
100
AcDbEntity
  8
0
100
AcDbLine
 62
7
  6
CONTINUOUS
 10
64.492160992
 20
89.8640504505
 11
64.492160992
 21
91.5168398367
  0
LINE
  5
2C9
100
AcDbEntity
  8
0
100
AcDbLine
 62
7
  6
CONTINUOUS
 10
64.7587160096
 20
49.1518517229
 11
64.7587160096
 21
48.5945179354
  0
LINE
  5
2CA
100
AcDbEntity
  8
0
100
AcDbLine
 62
7
  6
CONTINUOUS
 10
64.9354934409
 20
52.1116755985
 11
64.9354934409
 21
57.0106901013
  0
LINE
  5
2CB
100
AcDbEntity
  8
0
100
AcDbLine
 62
7
  6
CONTINUOUS
 10
65.5164268271
 20
40.5466877877
 11
65.5164268271
 21
41.8734991476
  0
LINE
  5
2CC
100
AcDbEntity
  8
0
100
AcDbLine
 62
7
  6
CONTINUOUS
 10
65.5164268271
 20
89.945084024
 11
65.5164268271
 21
91.271895384
  0
LINE
  5
2CD
100
AcDbEntity
  8
0
100
AcDbLine
 62
7
  6
CONTINUOUS
 10
65.642603166
 20
69.911438746
 11
65.642603166
 21
62.4812667501
  0
LINE
  5
2CE
100
AcDbEntity
  8
0
100
AcDbLine
 62
7
  6
CONTINUOUS
 10
56.2212702488
 20
66.2409352467
 11
56.2315961021
 21
66.2532237908
  0
LWPOLYLINE
  5
2CF
100
AcDbEntity
  8
0
100
AcDbPolyline
 62
7
  6
CONTINUOUS
 90
4
 70
0
 10
56.292760237
 20
66.3260137241
 10
58.4906094729
 20
68.9416200699
 10
59.9538878469
 20
73.8248701079
 10
59.8476991793
 20
80.0384296428
  0
LINE
  5
2D0
100
AcDbEntity
  8
0
100
AcDbLine
 62
7
  6
CONTINUOUS
 10
92.2847468629
 20
105.4791043354
 11
92.7247360667
 21
105.9190914796
  0
LINE
  5
2D1
100
AcDbEntity
  8
0
100
AcDbLine
 62
7
  6
CONTINUOUS
 10
56.221355399
 20
66.2411372369
 11
56.2333103969
 21
66.2501324353
  0
LINE
  5
2D2
100
AcDbEntity
  8
0
100
AcDbLine
 62
7
  6
CONTINUOUS
 10
89.0543143909
 20
90.3276811944
 11
92.0176263415
 21
92.0385399344
  0
LINE
  5
2D3
100
AcDbEntity
  8
0
100
AcDbLine
 62
7
  6
CONTINUOUS
 10
82.3529007249
 20
84.8580946668
 11
70.668451519
 21
78.1121150405
  0
LINE
  5
2D4
100
AcDbEntity
  8
0
100
AcDbLine
 62
7
  6
CONTINUOUS
 10
88.9771033932
 20
87.629527252
 11
76.602786242
 21
80.4852545593
  0
LINE
  5
2D5
100
AcDbEntity
  8
0
100
AcDbLine
 62
7
  6
CONTINUOUS
 10
76.602786242
 20
80.4664770207
 11
75.1714120248
 21
79.6400776641
  0
LINE
  5
2D6
100
AcDbEntity
  8
0
100
AcDbLine
 62
7
  6
CONTINUOUS
 10
77.0447642185
 20
79.5389393274
 11
75.8956765168
 21
78.8755171937
  0
LINE
  5
2D7
100
AcDbEntity
  8
0
100
AcDbLine
 62
7
  6
CONTINUOUS
 10
68.365033604
 20
74.1370514638
 11
68.5570057108
 21
74.2478859497
  0
LINE
  5
2D8
100
AcDbEntity
  8
0
100
AcDbLine
 62
7
  6
CONTINUOUS
 10
70.264109548
 20
75.2334769265
 11
70.4634283266
 21
75.34855299
  0
LINE
  5
2D9
100
AcDbEntity
  8
0
100
AcDbLine
 62
7
  6
CONTINUOUS
 10
96.318551963
 20
90.275926477
 11
96.8107669043
 21
90.5601052096
  0
LINE
  5
2DA
100
AcDbEntity
  8
0
100
AcDbLine
 62
7
  6
CONTINUOUS
 10
75.0471448467
 20
77.961553289
 11
72.3247724049
 21
76.389800209
  0
LINE
  5
2DB
100
AcDbEntity
  8
0
100
AcDbLine
 62
7
  6
CONTINUOUS
 10
74.410746094
 20
73.5524851489
 11
75.4006997092
 21
72.9809480926
  0
LINE
  5
2DC
100
AcDbEntity
  8
0
100
AcDbLine
 62
7
  6
CONTINUOUS
 10
58.2179875572
 20
82.9754762068
 11
58.9958082548
 21
82.5264113768
  0
LINE
  5
2DD
100
AcDbEntity
  8
0
100
AcDbLine
 62
7
  6
CONTINUOUS
 10
74.3400351215
 20
75.2263140586
 11
72.3247724049
 21
76.389800209
  0
LINE
  5
2DE
100
AcDbEntity
  8
0
100
AcDbLine
 62
7
  6
CONTINUOUS
 10
76.1078094344
 20
76.8109863644
 11
76.8149191595
 21
76.4027456098
  0
LINE
  5
2DF
100
AcDbEntity
  8
0
100
AcDbLine
 62
7
  6
CONTINUOUS
 10
91.8088375618
 20
53.4464291327
 11
89.3502853686
 21
55.7337816276
  0
LINE
  5
2E0
100
AcDbEntity
  8
0
100
AcDbLine
 62
7
  6
CONTINUOUS
 10
58.2179875572
 20
92.8844701687
 11
56.9075919528
 21
95.530346644
  0
LINE
  5
2E1
100
AcDbEntity
  8
0
100
AcDbLine
 62
7
  6
CONTINUOUS
 10
63.9455398257
 20
78.602497718
 11
62.3414688535
 21
83.3478277914
  0
LWPOLYLINE
  5
2E2
100
AcDbEntity
  8
0
100
AcDbPolyline
 62
7
  6
CONTINUOUS
 90
8
 70
0
 10
58.2179875572
 20
87.3818994448
 10
57.4039729848
 20
89.8547285341
 10
53.3241931557
 20
97.2399534468
 10
48.0988229794
 20
103.5862759794
 10
42.2384514696
 20
108.2735591601
 10
36.3157824963
 20
110.8437290259
 10
33.5132642359
 20
111.2475122911
 10
28.5686339562
 20
110.2430804943
  0
LINE
  5
2E3
100
AcDbEntity
  8
0
100
AcDbLine
 62
7
  6
CONTINUOUS
 10
65.8835838904
 20
95.6071383022
 11
65.8835838904
 21
92.4636583173
  0
LINE
  5
2E4
100
AcDbEntity
  8
0
100
AcDbLine
 62
7
  6
CONTINUOUS
 10
65.8835838904
 20
46.2087420659
 11
65.8835838904
 21
43.0652620809
  0
LINE
  5
2E5
100
AcDbEntity
  8
0
100
AcDbLine
 62
7
  6
CONTINUOUS
 10
66.5063763208
 20
91.2718977635
 11
66.5063763208
 21
89.7812003032
  0
LINE
  5
2E6
100
AcDbEntity
  8
0
100
AcDbLine
 62
7
  6
CONTINUOUS
 10
66.5063763208
 20
41.8735015272
 11
66.5063763208
 21
40.3828040668
  0
LINE
  5
2E7
100
AcDbEntity
  8
0
100
AcDbLine
 62
7
  6
CONTINUOUS
 10
66.9508200416
 20
24.7386518281
 11
66.9508200416
 21
39.0274441278
  0
LINE
  5
2E8
100
AcDbEntity
  8
0
100
AcDbLine
 62
7
  6
CONTINUOUS
 10
66.9508200416
 20
74.1370480644
 11
66.9508200416
 21
88.4258403642
  0
LINE
  5
2E9
100
AcDbEntity
  8
0
100
AcDbLine
 62
7
  6
CONTINUOUS
 10
67.0568049525
 20
55.7859780357
 11
67.0568049525
 21
53.4588834227
  0
LINE
  5
2EA
100
AcDbEntity
  8
0
100
AcDbLine
 62
7
  6
CONTINUOUS
 10
67.7639323415
 20
73.9875360538
 11
67.7639323415
 21
68.6867164824
  0
LINE
  5
2EB
100
AcDbEntity
  8
0
100
AcDbLine
 62
7
  6
CONTINUOUS
 10
67.7639323415
 20
48.784143551
 11
67.7639323415
 21
50.4787125804
  0
LINE
  5
2EC
100
AcDbEntity
  8
0
100
AcDbLine
 62
7
  6
CONTINUOUS
 10
67.7639323415
 20
55.3777270832
 11
67.7639323415
 21
61.2565444865
  0
LINE
  5
2ED
100
AcDbEntity
  8
0
100
AcDbLine
 62
7
  6
CONTINUOUS
 10
67.8988466071
 20
44.2287710071
 11
67.8988466071
 21
45.0452559155
  0
LINE
  5
2EE
100
AcDbEntity
  8
0
100
AcDbLine
 62
7
  6
CONTINUOUS
 10
67.8988466071
 20
93.6271672434
 11
67.8988466071
 21
94.4436521518
  0
LINE
  5
2EF
100
AcDbEntity
  8
0
100
AcDbLine
 62
7
  6
CONTINUOUS
 10
68.365033604
 20
88.4258437635
 11
68.365033604
 21
74.1370514638
  0
LINE
  5
2F0
100
AcDbEntity
  8
0
100
AcDbLine
 62
7
  6
CONTINUOUS
 10
68.365033604
 20
39.0274475272
 11
68.365033604
 21
24.7386552274
  0
LINE
  5
2F1
100
AcDbEntity
  8
0
100
AcDbLine
 62
7
  6
CONTINUOUS
 10
68.4862835512
 20
40.0029938866
 11
68.4862835512
 21
40.7304274145
  0
LINE
  5
2F2
100
AcDbEntity
  8
0
100
AcDbLine
 62
7
  6
CONTINUOUS
 10
68.4862835512
 20
89.4013901229
 11
68.4862835512
 21
90.1288236509
  0
LINE
  5
2F3
100
AcDbEntity
  8
0
100
AcDbLine
 62
7
  6
CONTINUOUS
 10
68.5570057108
 20
24.8494897134
 11
68.5570057108
 21
39.1382820131
  0
LINE
  5
2F4
100
AcDbEntity
  8
0
100
AcDbLine
 62
7
  6
CONTINUOUS
 10
68.5570057108
 20
74.2478859497
 11
68.5570057108
 21
88.5366782495
  0
LINE
  5
2F5
100
AcDbEntity
  8
0
100
AcDbLine
 62
7
  6
CONTINUOUS
 10
69.3837593661
 20
96.0358012925
 11
69.3837593661
 21
95.2193163841
  0
LINE
  5
2F6
100
AcDbEntity
  8
0
100
AcDbLine
 62
7
  6
CONTINUOUS
 10
69.3837593661
 20
46.6374050562
 11
69.3837593661
 21
45.8209201478
  0
LINE
  5
2F7
100
AcDbEntity
  8
0
100
AcDbLine
 62
7
  6
CONTINUOUS
 10
70.264109548
 20
25.2577338672
 11
70.264109548
 21
39.546526167
  0
LINE
  5
2F8
100
AcDbEntity
  8
0
100
AcDbLine
 62
7
  6
CONTINUOUS
 10
70.264109548
 20
74.6561301036
 11
70.264109548
 21
88.9449224033
  0
LINE
  5
2F9
100
AcDbEntity
  8
0
100
AcDbLine
 62
7
  6
CONTINUOUS
 10
67.908351339
 20
54.3012123529
 11
67.8346256502
 21
53.0098185927
  0
LINE
  5
2FA
100
AcDbEntity
  8
0
100
AcDbLine
 62
7
  6
CONTINUOUS
 10
81.5177685978
 20
106.6330961501
 11
82.0198383071
 21
107.7149085737
  0
LINE
  5
2FB
100
AcDbEntity
  8
0
100
AcDbLine
 62
7
  6
CONTINUOUS
 10
77.6816749197
 20
78.7635641898
 11
76.3906533245
 21
78.0181969735
  0
LINE
  5
2FC
100
AcDbEntity
  8
0
100
AcDbLine
 62
7
  6
CONTINUOUS
 10
54.4073149171
 20
65.1396267011
 11
50.0861774369
 21
62.6448316694
  0
LINE
  5
2FD
100
AcDbEntity
  8
0
100
AcDbLine
 62
7
  6
CONTINUOUS
 10
79.07767028
 20
79.0564119185
 11
91.4519874313
 21
86.2006846112
  0
LINE
  5
2FE
100
AcDbEntity
  8
0
100
AcDbLine
 62
7
  6
CONTINUOUS
 10
74.3400351215
 20
75.2263140586
 11
75.0471509562
 21
75.6345651392
  0
LINE
  5
2FF
100
AcDbEntity
  8
0
100
AcDbLine
 62
7
  6
CONTINUOUS
 10
92.1590971564
 20
84.9759414396
 11
79.7847800052
 21
77.8316687468
  0
LINE
  5
300
100
AcDbEntity
  8
0
100
AcDbLine
 62
7
  6
CONTINUOUS
 10
78.3705605549
 20
76.8751228608
 11
79.0004935528
 21
77.2388126758
  0
LINE
  5
301
100
AcDbEntity
  8
0
100
AcDbLine
 62
7
  6
CONTINUOUS
 10
79.7847800052
 20
77.6099959443
 11
92.1590971564
 21
84.7542686371
  0
LINE
  5
302
100
AcDbEntity
  8
0
100
AcDbLine
 62
7
  6
CONTINUOUS
 10
74.4107522036
 20
73.5524745669
 11
73.7036363689
 21
73.1442234863
  0
LINE
  5
303
100
AcDbEntity
  8
0
100
AcDbLine
 62
7
  6
CONTINUOUS
 10
92.659094918
 20
83.0717395238
 11
80.2847777667
 21
75.9274668311
  0
LINE
  5
304
100
AcDbEntity
  8
0
100
AcDbLine
 62
7
  6
CONTINUOUS
 10
72.2894169186
 20
71.2994906251
 11
67.7639323415
 21
68.6867164824
  0
LINE
  5
305
100
AcDbEntity
  8
0
100
AcDbLine
 62
7
  6
CONTINUOUS
 10
76.1078094344
 20
73.3892097552
 11
79.1281399012
 21
75.1329879543
  0
LINE
  5
306
100
AcDbEntity
  8
0
100
AcDbLine
 62
7
  6
CONTINUOUS
 10
79.7847800052
 20
75.4086238234
 11
92.1590971564
 21
82.5528965162
  0
LINE
  5
307
100
AcDbEntity
  8
0
100
AcDbLine
 62
7
  6
CONTINUOUS
 10
79.6389312571
 20
75.0896812134
 11
75.9006974708
 21
72.9314238136
  0
LINE
  5
308
100
AcDbEntity
  8
0
100
AcDbLine
 62
7
  6
CONTINUOUS
 10
92.0141187819
 20
82.232446357
 11
79.6398016306
 21
75.0881736643
  0
LINE
  5
309
100
AcDbEntity
  8
0
100
AcDbLine
 62
7
  6
CONTINUOUS
 10
64.8294879222
 20
90.0588050819
 11
66.9548445659
 21
89.7069574805
  0
LINE
  5
30A
100
AcDbEntity
  8
0
100
AcDbLine
 62
7
  6
CONTINUOUS
 10
78.3705605549
 20
76.8751228608
 11
76.3906533245
 21
78.0181969735
  0
LINE
  5
30B
100
AcDbEntity
  8
0
100
AcDbLine
 62
7
  6
CONTINUOUS
 10
79.07767028
 20
79.0564119185
 11
76.602786242
 21
80.4852545593
  0
LINE
  5
30C
100
AcDbEntity
  8
0
100
AcDbLine
 62
7
  6
CONTINUOUS
 10
70.5930337431
 20
74.2385295244
 11
70.264109548
 21
75.0862800544
  0
LINE
  5
30D
100
AcDbEntity
  8
0
100
AcDbLine
 62
7
  6
CONTINUOUS
 10
70.3737247571
 20
40.9454994554
 11
70.3737247571
 21
44.432898183
  0
LINE
  5
30E
100
AcDbEntity
  8
0
100
AcDbLine
 62
7
  6
CONTINUOUS
 10
70.3737247571
 20
90.3438956917
 11
70.3737247571
 21
93.8312944194
  0
LINE
  5
30F
100
AcDbEntity
  8
0
100
AcDbLine
 62
7
  6
CONTINUOUS
 10
70.4634283266
 20
25.9501567537
 11
70.4634283266
 21
40.2389490534
  0
LINE
  5
310
100
AcDbEntity
  8
0
100
AcDbLine
 62
7
  6
CONTINUOUS
 10
70.4634283266
 20
75.34855299
 11
70.4634283266
 21
89.6373452898
  0
LINE
  5
311
100
AcDbEntity
  8
0
100
AcDbLine
 62
7
  6
CONTINUOUS
 10
70.666615032
 20
40.5247175816
 11
70.666615032
 21
44.8411389376
  0
LINE
  5
312
100
AcDbEntity
  8
0
100
AcDbLine
 62
7
  6
CONTINUOUS
 10
70.666615032
 20
89.9231138179
 11
70.666615032
 21
94.2395351739
  0
LINE
  5
313
100
AcDbEntity
  8
0
100
AcDbLine
 62
7
  6
CONTINUOUS
 10
70.668451519
 20
26.2359252818
 11
70.668451519
 21
40.5247175816
  0
LINE
  5
314
100
AcDbEntity
  8
0
100
AcDbLine
 62
7
  6
CONTINUOUS
 10
70.668451519
 20
75.6343215182
 11
70.668451519
 21
89.9231138179
  0
LINE
  5
315
100
AcDbEntity
  8
0
100
AcDbLine
 62
7
  6
CONTINUOUS
 10
70.9808712337
 20
56.5006396629
 11
70.9808712337
 21
57.5610454905
  0
LINE
  5
316
100
AcDbEntity
  8
0
100
AcDbLine
 62
7
  6
CONTINUOUS
 10
70.9808712337
 20
73.5665874956
 11
70.9808712337
 21
74.6269933232
  0
LINE
  5
317
100
AcDbEntity
  8
0
100
AcDbLine
 62
7
  6
CONTINUOUS
 10
72.2894169186
 20
73.8715212109
 11
72.2894169186
 21
66.0330980064
  0
LINE
  5
318
100
AcDbEntity
  8
0
100
AcDbLine
 62
7
  6
CONTINUOUS
 10
72.2894169186
 20
63.583590755
 11
72.2894169186
 21
55.7451675506
  0
LINE
  5
319
100
AcDbEntity
  8
0
100
AcDbLine
 62
7
  6
CONTINUOUS
 10
72.3247724049
 20
63.5631787173
 11
72.3247724049
 21
66.0126859687
  0
LINE
  5
31A
100
AcDbEntity
  8
0
100
AcDbLine
 62
7
  6
CONTINUOUS
 10
73.7036363689
 20
54.839502257
 11
73.7036363689
 21
73.1442234863
  0
LINE
  5
31B
100
AcDbEntity
  8
0
100
AcDbLine
 62
7
  6
CONTINUOUS
 10
72.2894169186
 20
66.3187835525
 11
65.642603166
 21
62.4812667501
  0
LINE
  5
31C
100
AcDbEntity
  8
0
100
AcDbLine
 62
7
  6
CONTINUOUS
 10
56.9075919528
 20
95.530346644
 11
58.2179875572
 21
95.7860266364
  0
LINE
  5
31D
100
AcDbEntity
  8
0
100
AcDbLine
 62
7
  6
CONTINUOUS
 10
65.0069424791
 20
97.8925672191
 11
66.8807191675
 21
98.182442165
  0
LINE
  5
31E
100
AcDbEntity
  8
0
100
AcDbLine
 62
7
  6
CONTINUOUS
 10
64.4759360036
 20
89.854683005
 11
66.9508200416
 21
88.4258403642
  0
LINE
  5
31F
100
AcDbEntity
  8
0
100
AcDbLine
 62
7
  6
CONTINUOUS
 10
66.5063763208
 20
91.2718977635
 11
68.4862835512
 21
90.1288236509
  0
LINE
  5
320
100
AcDbEntity
  8
0
100
AcDbLine
 62
7
  6
CONTINUOUS
 10
58.2179875572
 20
97.2642685065
 11
58.9958082548
 21
96.8152036765
  0
LINE
  5
321
100
AcDbEntity
  8
0
100
AcDbLine
 62
7
  6
CONTINUOUS
 10
68.1175225316
 20
91.7121949249
 11
67.4104128065
 21
92.1204356794
  0
LINE
  5
322
100
AcDbEntity
  8
0
100
AcDbLine
 62
7
  6
CONTINUOUS
 10
77.9701867298
 20
78.4123298896
 11
76.602786242
 21
80.0770033507
  0
LINE
  5
323
100
AcDbEntity
  8
0
100
AcDbLine
 62
7
  6
CONTINUOUS
 10
75.0471448467
 20
79.3654060991
 11
75.0471448467
 21
75.6345757213
  0
LINE
  5
324
100
AcDbEntity
  8
0
100
AcDbLine
 62
7
  6
CONTINUOUS
 10
75.0471448467
 20
50.7978351549
 11
75.0471448467
 21
47.0670047771
  0
LINE
  5
325
100
AcDbEntity
  8
0
100
AcDbLine
 62
7
  6
CONTINUOUS
 10
76.1078094344
 20
48.3967022483
 11
76.1078094344
 21
51.8184788574
  0
LINE
  5
326
100
AcDbEntity
  8
0
100
AcDbLine
 62
7
  6
CONTINUOUS
 10
76.1078094344
 20
73.3892097552
 11
76.1078094344
 21
76.8109863644
  0
LINE
  5
327
100
AcDbEntity
  8
0
100
AcDbLine
 62
7
  6
CONTINUOUS
 10
76.602786242
 20
80.4852545593
 11
76.602786242
 21
80.0770033507
  0
LINE
  5
328
100
AcDbEntity
  8
0
100
AcDbLine
 62
7
  6
CONTINUOUS
 10
76.602786242
 20
44.5591482056
 11
76.602786242
 21
44.150896997
  0
LINE
  5
329
100
AcDbEntity
  8
0
100
AcDbLine
 62
7
  6
CONTINUOUS
 10
76.956282814
 20
101.9999258466
 11
76.956282814
 21
102.040750262
  0
LINE
  5
32A
100
AcDbEntity
  8
0
100
AcDbLine
 62
7
  6
CONTINUOUS
 10
79.1836911073
 20
58.0033944495
 11
79.1836911073
 21
74.8268497592
  0
LINE
  5
32B
100
AcDbEntity
  8
0
100
AcDbLine
 62
7
  6
CONTINUOUS
 10
72.3247724049
 20
63.8897310069
 11
67.7639323415
 21
61.2565444865
  0
LINE
  5
32C
100
AcDbEntity
  8
0
100
AcDbLine
 62
7
  6
CONTINUOUS
 10
72.3247724049
 20
63.6040031327
 11
72.2894169186
 21
63.583590755
  0
LINE
  5
32D
100
AcDbEntity
  8
0
100
AcDbLine
 62
7
  6
CONTINUOUS
 10
76.9528631133
 20
105.5227322697
 11
72.8174282901
 21
104.7158401061
  0
LINE
  5
32E
100
AcDbEntity
  8
0
100
AcDbLine
 62
7
  6
CONTINUOUS
 10
92.2847468629
 20
91.1903120357
 11
95.4949476347
 21
90.2048602953
  0
LINE
  5
32F
100
AcDbEntity
  8
0
100
AcDbLine
 62
7
  6
CONTINUOUS
 10
62.6822258405
 20
98.832347053
 11
65.0069424791
 21
97.8925672191
  0
LINE
  5
330
100
AcDbEntity
  8
0
100
AcDbLine
 62
7
  6
CONTINUOUS
 10
65.8835838904
 20
95.6071383022
 11
67.8988466071
 21
94.4436521518
  0
LINE
  5
331
100
AcDbEntity
  8
0
100
AcDbLine
 62
7
  6
CONTINUOUS
 10
70.3737188692
 20
94.6477793278
 11
69.383765254
 21
95.2193163841
  0
LINE
  5
332
100
AcDbEntity
  8
0
100
AcDbLine
 62
7
  6
CONTINUOUS
 10
68.0467744651
 20
96.8968739232
 11
66.7382287803
 21
97.6523460356
  0
LINE
  5
333
100
AcDbEntity
  8
0
100
AcDbLine
 62
7
  6
CONTINUOUS
 10
68.8796098511
 20
91.9662228423
 11
70.5865134657
 21
90.1128472644
  0
LINE
  5
334
100
AcDbEntity
  8
0
100
AcDbLine
 62
7
  6
CONTINUOUS
 10
76.9759682174
 20
75.6157389419
 11
76.8149191595
 21
76.4027456098
  0
LINE
  5
335
100
AcDbEntity
  8
0
100
AcDbLine
 62
7
  6
CONTINUOUS
 10
79.7847800052
 20
43.1303160188
 11
79.7847800052
 21
43.3519888213
  0
LINE
  5
336
100
AcDbEntity
  8
0
100
AcDbLine
 62
7
  6
CONTINUOUS
 10
79.7847800052
 20
44.9849936555
 11
79.7847800052
 21
45.5533609422
  0
LINE
  5
337
100
AcDbEntity
  8
0
100
AcDbLine
 62
7
  6
CONTINUOUS
 10
79.7847800052
 20
75.4086238234
 11
79.7847800052
 21
75.9769911101
  0
LINE
  5
338
100
AcDbEntity
  8
0
100
AcDbLine
 62
7
  6
CONTINUOUS
 10
79.7847800052
 20
77.6099959443
 11
79.7847800052
 21
77.8316687468
  0
LINE
  5
339
100
AcDbEntity
  8
0
100
AcDbLine
 62
7
  6
CONTINUOUS
 10
80.1207737437
 20
103.9694823051
 11
80.1207737437
 21
109.553784955
  0
LINE
  5
33A
100
AcDbEntity
  8
0
100
AcDbLine
 62
7
  6
CONTINUOUS
 10
80.3920492593
 20
109.0570573378
 11
80.3920492593
 21
104.0243791034
  0
LINE
  5
33B
100
AcDbEntity
  8
0
100
AcDbLine
 62
7
  6
CONTINUOUS
 10
81.4666589536
 20
104.6448015963
 11
81.4666589536
 21
106.4089589692
  0
LINE
  5
33C
100
AcDbEntity
  8
0
100
AcDbLine
 62
7
  6
CONTINUOUS
 10
81.5878641728
 20
54.9823710499
 11
81.5878641728
 21
76.2128813838
  0
LINE
  5
33D
100
AcDbEntity
  8
0
100
AcDbLine
 62
7
  6
CONTINUOUS
 10
82.2595610043
 20
84.8580946668
 11
82.2595610043
 21
87.8335535429
  0
LINE
  5
33E
100
AcDbEntity
  8
0
100
AcDbLine
 62
7
  6
CONTINUOUS
 10
82.8043602676
 20
110.4758656633
 11
82.8043602676
 21
108.8833329738
  0
LINE
  5
33F
100
AcDbEntity
  8
0
100
AcDbLine
 62
7
  6
CONTINUOUS
 10
83.0020718472
 20
55.7988593577
 11
83.0020718472
 21
77.0293696915
  0
LINE
  5
340
100
AcDbEntity
  8
0
100
AcDbLine
 62
7
  6
CONTINUOUS
 10
83.6737686788
 20
89.9973004685
 11
83.6737686788
 21
84.5676638039
  0
LINE
  5
341
100
AcDbEntity
  8
0
100
AcDbLine
 62
7
  6
CONTINUOUS
 10
83.8858633247
 20
108.2185186635
 11
83.8858633247
 21
111.1853978928
  0
LINE
  5
342
100
AcDbEntity
  8
0
100
AcDbLine
 62
7
  6
CONTINUOUS
 10
76.8149191595
 20
47.9884614937
 11
76.9759682174
 21
48.5895089349
  0
LINE
  5
343
100
AcDbEntity
  8
0
100
AcDbLine
 62
7
  6
CONTINUOUS
 10
69.9071802535
 20
56.3611871557
 11
70.5930337431
 21
57.3369294898
  0
LWPOLYLINE
  5
344
100
AcDbEntity
  8
0
100
AcDbPolyline
 62
7
  6
CONTINUOUS
 90
3
 70
0
 10
56.9438886602
 20
46.9693640367
 10
61.0522939478
 20
50.5314186387
 10
63.9455398257
 20
55.7497633997
  0
LINE
  5
345
100
AcDbEntity
  8
0
100
AcDbLine
 62
7
  6
CONTINUOUS
 10
55.94266653
 20
48.9506225256
 11
55.7430081352
 21
48.8353503857
  0
LINE
  5
346
100
AcDbEntity
  8
0
100
AcDbLine
 62
7
  6
CONTINUOUS
 10
72.2894169186
 20
58.375352912
 11
70.7615995786
 21
57.4932724248
  0
LINE
  5
347
100
AcDbEntity
  8
0
100
AcDbLine
 62
7
  6
CONTINUOUS
 10
70.2075833175
 20
56.7885612105
 11
67.7639323415
 21
55.3777270832
  0
LINE
  5
348
100
AcDbEntity
  8
0
100
AcDbLine
 62
7
  6
CONTINUOUS
 10
69.28758444
 20
55.0975082018
 11
67.908351339
 21
54.3012123529
  0
LINE
  5
349
100
AcDbEntity
  8
0
100
AcDbLine
 62
7
  6
CONTINUOUS
 10
67.1628732442
 20
53.3976462513
 11
64.9354934409
 21
52.1116755985
  0
LINE
  5
34A
100
AcDbEntity
  8
0
100
AcDbLine
 62
7
  6
CONTINUOUS
 10
60.6928509874
 20
49.2947268087
 11
58.2179875572
 21
47.8658722702
  0
LINE
  5
34B
100
AcDbEntity
  8
0
100
AcDbLine
 62
7
  6
CONTINUOUS
 10
56.9075919528
 20
46.9484528248
 11
56.9438693579
 21
46.9693974693
  0
LINE
  5
34C
100
AcDbEntity
  8
0
100
AcDbLine
 62
7
  6
CONTINUOUS
 10
70.4041385871
 20
54.4933187233
 11
67.8346256502
 21
53.0098185927
  0
LINE
  5
34D
100
AcDbEntity
  8
0
100
AcDbLine
 62
7
  6
CONTINUOUS
 10
56.8743742742
 20
46.6816122471
 11
54.9651939137
 21
45.5793530317
  0
LINE
  5
34E
100
AcDbEntity
  8
0
100
AcDbLine
 62
7
  6
CONTINUOUS
 10
53.2681447044
 20
44.5995670624
 11
50.0154670532
 21
42.7216439546
  0
LINE
  5
34F
100
AcDbEntity
  8
0
100
AcDbLine
 62
7
  6
CONTINUOUS
 10
60.2247626896
 20
48.041210503
 11
58.9958082548
 21
47.4168074402
  0
LINE
  5
350
100
AcDbEntity
  8
0
100
AcDbLine
 62
7
  6
CONTINUOUS
 10
91.4519874313
 20
86.2006846112
 11
88.9771033932
 21
87.629527252
  0
LINE
  5
351
100
AcDbEntity
  8
0
100
AcDbLine
 62
7
  6
CONTINUOUS
 10
86.6501472133
 20
90.8992148514
 11
87.6401008285
 21
90.3276777951
  0
LINE
  5
352
100
AcDbEntity
  8
0
100
AcDbLine
 62
7
  6
CONTINUOUS
 10
96.1979491728
 20
57.1919747805
 11
95.588504841
 21
58.419029539
  0
LINE
  5
353
100
AcDbEntity
  8
0
100
AcDbLine
 62
7
  6
CONTINUOUS
 10
85.2359336509
 20
41.5008152157
 11
85.2359336509
 21
45.0526487021
  0
LINE
  5
354
100
AcDbEntity
  8
0
100
AcDbLine
 62
7
  6
CONTINUOUS
 10
85.2359336509
 20
90.8992114521
 11
85.2359336509
 21
94.4510449384
  0
LINE
  5
355
100
AcDbEntity
  8
0
100
AcDbLine
 62
7
  6
CONTINUOUS
 10
85.2359336509
 20
98.8601100191
 11
85.2359336509
 21
105.1880037518
  0
LINE
  5
356
100
AcDbEntity
  8
0
100
AcDbLine
 62
7
  6
CONTINUOUS
 10
86.0779535201
 20
61.9837749498
 11
86.0779535201
 21
78.8072302594
  0
LINE
  5
357
100
AcDbEntity
  8
0
100
AcDbLine
 62
7
  6
CONTINUOUS
 10
86.6501472133
 20
105.1880071512
 11
86.6501472133
 21
98.8601134184
  0
LINE
  5
358
100
AcDbEntity
  8
0
100
AcDbLine
 62
7
  6
CONTINUOUS
 10
86.6501472133
 20
95.2675366455
 11
86.6501472133
 21
90.8992148514
  0
LINE
  5
359
100
AcDbEntity
  8
0
100
AcDbLine
 62
7
  6
CONTINUOUS
 10
86.6501472133
 20
45.8691404092
 11
86.6501472133
 21
41.5008186151
  0
LINE
  5
35A
100
AcDbEntity
  8
0
100
AcDbLine
 62
7
  6
CONTINUOUS
 10
87.6401008285
 20
40.9292815588
 11
87.6401008285
 21
46.4406869837
  0
LINE
  5
35B
100
AcDbEntity
  8
0
100
AcDbLine
 62
7
  6
CONTINUOUS
 10
87.6401008285
 20
90.3276777951
 11
87.6401008285
 21
95.8390832201
  0
LINE
  5
35C
100
AcDbEntity
  8
0
100
AcDbLine
 62
7
  6
CONTINUOUS
 10
87.6401008285
 20
98.2885763621
 11
87.6401008285
 21
104.6164700949
  0
LINE
  5
35D
100
AcDbEntity
  8
0
100
AcDbLine
 62
7
  6
CONTINUOUS
 10
88.4821265856
 20
55.540974941
 11
88.4821265856
 21
58.9627515502
  0
LINE
  5
35E
100
AcDbEntity
  8
0
100
AcDbLine
 62
7
  6
CONTINUOUS
 10
73.7036363689
 20
54.839502257
 11
79.1836911073
 21
58.0033944495
  0
LINE
  5
35F
100
AcDbEntity
  8
0
100
AcDbLine
 62
7
  6
CONTINUOUS
 10
83.0020718472
 20
60.2079244383
 11
86.0779535201
 21
61.9837749498
  0
LINE
  5
360
100
AcDbEntity
  8
0
100
AcDbLine
 62
7
  6
CONTINUOUS
 10
72.389002423
 20
53.1489820976
 11
67.7639323415
 21
50.4787125804
  0
LINE
  5
361
100
AcDbEntity
  8
0
100
AcDbLine
 62
7
  6
CONTINUOUS
 10
40.2078674123
 20
34.2176627007
 11
40.8796318109
 21
34.605503742
  0
LINE
  5
362
100
AcDbEntity
  8
0
100
AcDbLine
 62
7
  6
CONTINUOUS
 10
86.7850632453
 20
60.7590317781
 11
83.0020718472
 21
58.5749337134
  0
LINE
  5
363
100
AcDbEntity
  8
0
100
AcDbLine
 62
7
  6
CONTINUOUS
 10
79.8908008324
 20
56.7786512779
 11
74.410746094
 21
53.6147590854
  0
LINE
  5
364
100
AcDbEntity
  8
0
100
AcDbLine
 62
7
  6
CONTINUOUS
 10
75.4006997092
 20
53.0432220291
 11
80.8807544477
 21
56.2071142216
  0
LINE
  5
365
100
AcDbEntity
  8
0
100
AcDbLine
 62
7
  6
CONTINUOUS
 10
83.0020718472
 20
57.4318500826
 11
87.7750168605
 21
60.1874947218
  0
LINE
  5
366
100
AcDbEntity
  8
0
100
AcDbLine
 62
7
  6
CONTINUOUS
 10
74.8349713024
 20
51.4176215641
 11
68.0467744651
 21
47.4984776869
  0
LINE
  5
367
100
AcDbEntity
  8
0
100
AcDbLine
 62
7
  6
CONTINUOUS
 10
88.4821265856
 20
58.9627515502
 11
83.0020718472
 21
55.7988593577
  0
LINE
  5
368
100
AcDbEntity
  8
0
100
AcDbLine
 62
7
  6
CONTINUOUS
 10
81.5878641728
 20
54.9823710499
 11
76.1078094344
 21
51.8184788574
  0
LINE
  5
369
100
AcDbEntity
  8
0
100
AcDbLine
 62
7
  6
CONTINUOUS
 10
74.8703267886
 20
100.7956057627
 11
74.8349713024
 21
100.8160178004
  0
LINE
  5
36A
100
AcDbEntity
  8
0
100
AcDbLine
 62
7
  6
CONTINUOUS
 10
92.0176263415
 20
92.0385399344
 11
92.2847468629
 21
91.8843213184
  0
LINE
  5
36B
100
AcDbEntity
  8
0
100
AcDbLine
 62
7
  6
CONTINUOUS
 10
76.9916383003
 20
102.0203382243
 11
76.956282814
 21
102.040750262
  0
LINE
  5
36C
100
AcDbEntity
  8
0
100
AcDbLine
 62
7
  6
CONTINUOUS
 10
45.1363504816
 20
122.207905291
 11
43.7221310313
 21
123.0243868
  0
LWPOLYLINE
  5
36D
100
AcDbEntity
  8
0
100
AcDbPolyline
 62
7
  6
CONTINUOUS
 90
8
 70
0
 10
76.4430436017
 20
105.4232579976
 10
72.0441284594
 20
112.6578510208
 10
64.8620112366
 20
121.0536740079
 10
56.9543504965
 20
127.4788747926
 10
52.909977459
 20
129.7975075048
 10
45.0137770562
 20
132.4326354994
 10
37.857578179
 20
132.2569466195
 10
34.0358923291
 20
130.7381778305
  0
LWPOLYLINE
  5
36E
100
AcDbEntity
  8
0
100
AcDbPolyline
 62
7
  6
CONTINUOUS
 90
8
 70
0
 10
77.2369913064
 20
105.6691186503
 10
75.5507138599
 20
108.9420936507
 10
68.7712730694
 20
118.07001875
 10
64.9574041361
 20
122.0165577802
 10
56.8171501661
 20
128.294255969
 10
48.4932492591
 20
131.9993842338
 10
40.6903136129
 20
132.8041311917
 10
34.0358923291
 20
130.7381778305
  0
LINE
  5
36F
100
AcDbEntity
  8
0
100
AcDbLine
 62
7
  6
CONTINUOUS
 10
84.1362873843
 20
83.6427078375
 11
83.6737686788
 21
85.7700470511
  0
LWPOLYLINE
  5
370
100
AcDbEntity
  8
0
100
AcDbPolyline
 62
7
  6
CONTINUOUS
 90
3
 70
0
 10
84.518254541
 20
85.0552250334
 10
84.1622884544
 20
88.171209699
 10
83.6737686788
 20
89.7106781435
  0
LINE
  5
371
100
AcDbEntity
  8
0
100
AcDbLine
 62
7
  6
CONTINUOUS
 10
89.0543143909
 20
104.6164734942
 11
89.0543143909
 21
98.2885797615
  0
LINE
  5
372
100
AcDbEntity
  8
0
100
AcDbLine
 62
7
  6
CONTINUOUS
 10
89.0543143909
 20
96.6555749272
 11
89.0543143909
 21
90.3276811944
  0
LINE
  5
373
100
AcDbEntity
  8
0
100
AcDbLine
 62
7
  6
CONTINUOUS
 10
89.0543143909
 20
47.2571786909
 11
89.0543143909
 21
40.9292849581
  0
LINE
  5
374
100
AcDbEntity
  8
0
100
AcDbLine
 62
7
  6
CONTINUOUS
 10
92.0176263415
 20
42.6401436981
 11
92.0176263415
 21
49.8776281076
  0
LINE
  5
375
100
AcDbEntity
  8
0
100
AcDbLine
 62
7
  6
CONTINUOUS
 10
92.0176263415
 20
53.177524154
 11
92.0176263415
 21
56.9289359978
  0
LINE
  5
376
100
AcDbEntity
  8
0
100
AcDbLine
 62
7
  6
CONTINUOUS
 10
92.0176263415
 20
92.0385399344
 11
92.0176263415
 21
106.3273322342
  0
LINE
  5
377
100
AcDbEntity
  8
0
100
AcDbLine
 62
7
  6
CONTINUOUS
 10
92.1590971564
 20
52.1292663483
 11
92.1590971564
 21
52.697633635
  0
LINE
  5
378
100
AcDbEntity
  8
0
100
AcDbLine
 62
7
  6
CONTINUOUS
 10
92.1590971564
 20
82.5528965162
 11
92.1590971564
 21
82.7830674047
  0
LINE
  5
379
100
AcDbEntity
  8
0
100
AcDbLine
 62
7
  6
CONTINUOUS
 10
92.1590971564
 20
84.7542686371
 11
92.1590971564
 21
84.9759414396
  0
LINE
  5
37A
100
AcDbEntity
  8
0
100
AcDbLine
 62
7
  6
CONTINUOUS
 10
92.2847468629
 20
41.7919157993
 11
92.2847468629
 21
50.2306085747
  0
LINE
  5
37B
100
AcDbEntity
  8
0
100
AcDbLine
 62
7
  6
CONTINUOUS
 10
92.2847468629
 20
52.0357235792
 11
92.2847468629
 21
56.0807080991
  0
LINE
  5
37C
100
AcDbEntity
  8
0
100
AcDbLine
 62
7
  6
CONTINUOUS
 10
92.2847468629
 20
91.1903120357
 11
92.2847468629
 21
105.4791043354
  0
LINE
  5
37D
100
AcDbEntity
  8
0
100
AcDbLine
 62
7
  6
CONTINUOUS
 10
93.4873464858
 20
57.4508813101
 11
93.4873464858
 21
58.022420746
  0
LINE
  5
37E
100
AcDbEntity
  8
0
100
AcDbLine
 62
7
  6
CONTINUOUS
 10
93.4873464858
 20
106.8492775465
 11
93.4873464858
 21
107.4208169823
  0
LINE
  5
37F
100
AcDbEntity
  8
0
100
AcDbLine
 62
7
  6
CONTINUOUS
 10
69.3837593661
 20
46.6374050562
 11
75.0471448467
 21
49.9071426702
  0
LINE
  5
380
100
AcDbEntity
  8
0
100
AcDbLine
 62
7
  6
CONTINUOUS
 10
92.6388148156
 20
58.5123096514
 11
89.4078574776
 21
56.6469266974
  0
LINE
  5
381
100
AcDbEntity
  8
0
100
AcDbLine
 62
7
  6
CONTINUOUS
 10
67.898852495
 20
44.2287710071
 11
64.6678951569
 21
42.3633880531
  0
LINE
  5
382
100
AcDbEntity
  8
0
100
AcDbLine
 62
7
  6
CONTINUOUS
 10
88.4821265856
 20
55.540974941
 11
76.1078094344
 21
48.3967022483
  0
LINE
  5
383
100
AcDbEntity
  8
0
100
AcDbLine
 62
7
  6
CONTINUOUS
 10
89.3502853686
 20
55.7337816276
 11
76.9759682174
 21
48.5895089349
  0
LINE
  5
384
100
AcDbEntity
  8
0
100
AcDbLine
 62
7
  6
CONTINUOUS
 10
58.2179875572
 20
37.5776285866
 11
58.0764507974
 21
37.495912788
  0
LINE
  5
385
100
AcDbEntity
  8
0
100
AcDbLine
 62
7
  6
CONTINUOUS
 10
67.4104128065
 20
42.7220394431
 11
70.3737247571
 21
44.432898183
  0
LINE
  5
386
100
AcDbEntity
  8
0
100
AcDbLine
 62
7
  6
CONTINUOUS
 10
89.5789937421
 20
55.5209992144
 11
92.0176263415
 21
56.9289359978
  0
LINE
  5
387
100
AcDbEntity
  8
0
100
AcDbLine
 62
7
  6
CONTINUOUS
 10
95.9420567596
 20
58.6231516159
 11
95.588504841
 21
58.419029539
  0
LINE
  5
388
100
AcDbEntity
  8
0
100
AcDbLine
 62
7
  6
CONTINUOUS
 10
64.8294879222
 20
40.6604088456
 11
64.4759360036
 21
40.4562867687
  0
LINE
  5
389
100
AcDbEntity
  8
0
100
AcDbLine
 62
7
  6
CONTINUOUS
 10
54.9651939137
 20
34.7443429581
 11
55.0732056296
 21
34.8067031792
  0
LINE
  5
38A
100
AcDbEntity
  8
0
100
AcDbLine
 62
7
  6
CONTINUOUS
 10
76.3906576011
 20
46.8628916281
 11
75.8956765168
 21
46.5771158717
  0
LINE
  5
38B
100
AcDbEntity
  8
0
100
AcDbLine
 62
7
  6
CONTINUOUS
 10
56.1955571249
 20
35.1525833548
 11
55.9480586502
 21
35.0096908967
  0
LINE
  5
38C
100
AcDbEntity
  8
0
100
AcDbLine
 62
7
  6
CONTINUOUS
 10
48.2406268245
 20
30.5598296195
 11
47.3921022198
 21
30.0699366348
  0
LINE
  5
38D
100
AcDbEntity
  8
0
100
AcDbLine
 62
7
  6
CONTINUOUS
 10
76.5664037251
 20
46.7614317899
 11
75.7714093387
 21
46.3024443067
  0
LINE
  5
38E
100
AcDbEntity
  8
0
100
AcDbLine
 62
7
  6
CONTINUOUS
 10
53.2681447044
 20
32.8419322557
 11
50.0154670532
 21
30.9640091479
  0
LINE
  5
38F
100
AcDbEntity
  8
0
100
AcDbLine
 62
7
  6
CONTINUOUS
 10
58.0764507974
 20
35.4546920186
 11
56.8743742742
 21
34.760676957
  0
LINE
  5
390
100
AcDbEntity
  8
0
100
AcDbLine
 62
7
  6
CONTINUOUS
 10
68.1175225316
 20
42.3137986886
 11
68.8796098511
 21
42.5678266059
  0
LINE
  5
391
100
AcDbEntity
  8
0
100
AcDbLine
 62
7
  6
CONTINUOUS
 10
95.4949476346
 20
104.4936525951
 11
92.2847468629
 21
105.4791043354
  0
LINE
  5
392
100
AcDbEntity
  8
0
100
AcDbLine
 62
7
  6
CONTINUOUS
 10
86.6501472133
 20
98.8601134184
 11
87.6401008285
 21
98.2885763621
  0
LINE
  5
393
100
AcDbEntity
  8
0
100
AcDbLine
 62
7
  6
CONTINUOUS
 10
77.7391983579
 20
105.3444543892
 11
80.2088699294
 21
103.9186210992
  0
LINE
  5
394
100
AcDbEntity
  8
0
100
AcDbLine
 62
7
  6
CONTINUOUS
 10
82.9148896819
 20
105.4809330061
 11
82.4359339664
 21
106.7153662515
  0
LINE
  5
395
100
AcDbEntity
  8
0
100
AcDbLine
 62
7
  6
CONTINUOUS
 10
93.6630806507
 20
57.3494258175
 11
93.6630806507
 21
58.2673651987
  0
LINE
  5
396
100
AcDbEntity
  8
0
100
AcDbLine
 62
7
  6
CONTINUOUS
 10
93.6630806507
 20
106.7478220539
 11
93.6630806507
 21
107.665761435
  0
LINE
  5
397
100
AcDbEntity
  8
0
100
AcDbLine
 62
7
  6
CONTINUOUS
 10
95.4949476347
 20
40.806464059
 11
95.4949476347
 21
55.0952563587
  0
LINE
  5
398
100
AcDbEntity
  8
0
100
AcDbLine
 62
7
  6
CONTINUOUS
 10
95.4949476347
 20
90.2048602953
 11
95.4949476347
 21
104.4936525951
  0
LINE
  5
399
100
AcDbEntity
  8
0
100
AcDbLine
 62
7
  6
CONTINUOUS
 10
95.588504841
 20
56.2554612159
 11
95.588504841
 21
58.419029539
  0
LINE
  5
39A
100
AcDbEntity
  8
0
100
AcDbLine
 62
7
  6
CONTINUOUS
 10
95.588504841
 20
105.6538574522
 11
95.588504841
 21
107.8174257753
  0
LINE
  5
39B
100
AcDbEntity
  8
0
100
AcDbLine
 62
7
  6
CONTINUOUS
 10
96.1979491728
 20
56.1635932378
 11
96.1979491728
 21
57.1919747805
  0
LINE
  5
39C
100
AcDbEntity
  8
0
100
AcDbLine
 62
7
  6
CONTINUOUS
 10
96.1979491728
 20
105.5619894742
 11
96.1979491728
 21
106.5903710169
  0
LINE
  5
39D
100
AcDbEntity
  8
0
100
AcDbLine
 62
7
  6
CONTINUOUS
 10
96.318551963
 20
104.5647187768
 11
96.318551963
 21
90.275926477
  0
LINE
  5
39E
100
AcDbEntity
  8
0
100
AcDbLine
 62
7
  6
CONTINUOUS
 10
96.318551963
 20
55.1663225405
 11
96.318551963
 21
40.8775302407
  0
LINE
  5
39F
100
AcDbEntity
  8
0
100
AcDbLine
 62
7
  6
CONTINUOUS
 10
96.8107669043
 20
41.1617089733
 11
96.8107669043
 21
55.450501273
  0
LINE
  5
3A0
100
AcDbEntity
  8
0
100
AcDbLine
 62
7
  6
CONTINUOUS
 10
96.8107669043
 20
90.5601052096
 11
96.8107669043
 21
104.8488975094
  0
LINE
  5
3A1
100
AcDbEntity
  8
0
100
AcDbLine
 62
7
  6
CONTINUOUS
 10
92.2847468629
 20
56.0807080991
 11
92.7247360667
 21
56.5206952433
  0
LINE
  5
3A2
100
AcDbEntity
  8
0
100
AcDbLine
 62
7
  6
CONTINUOUS
 10
57.3293157365
 20
29.3490458178
 11
54.0388782896
 21
26.7793655797
  0
LINE
  5
3A3
100
AcDbEntity
  8
0
100
AcDbLine
 62
7
  6
CONTINUOUS
 10
57.8634076978
 20
29.3992847386
 11
57.4683319001
 21
29.1512708862
  0
LINE
  5
3A4
100
AcDbEntity
  8
0
100
AcDbLine
 62
7
  6
CONTINUOUS
 10
79.4345204106
 20
46.30215644
 11
91.8088375618
 21
53.4464291327
  0
LINE
  5
3A5
100
AcDbEntity
  8
0
100
AcDbLine
 62
7
  6
CONTINUOUS
 10
78.4765020865
 20
45.6409320954
 11
76.602786242
 21
44.5591482056
  0
LINE
  5
3A6
100
AcDbEntity
  8
0
100
AcDbLine
 62
7
  6
CONTINUOUS
 10
70.666615032
 20
41.0501639664
 11
76.602786242
 21
44.4773935546
  0
LINE
  5
3A7
100
AcDbEntity
  8
0
100
AcDbLine
 62
7
  6
CONTINUOUS
 10
55.0154318811
 20
31.7527133958
 11
57.4463684888
 21
33.1562069229
  0
LINE
  5
3A8
100
AcDbEntity
  8
0
100
AcDbLine
 62
7
  6
CONTINUOUS
 10
55.2014557673
 20
31.5697444605
 11
57.1189226576
 21
32.6767878777
  0
LINE
  5
3A9
100
AcDbEntity
  8
0
100
AcDbLine
 62
7
  6
CONTINUOUS
 10
77.9701867298
 20
44.6449193068
 11
78.8616224591
 21
45.1595868929
  0
LINE
  5
3AA
100
AcDbEntity
  8
0
100
AcDbLine
 62
7
  6
CONTINUOUS
 10
55.2721667398
 20
31.5289203851
 11
57.1896336301
 21
32.6359638022
  0
LINE
  5
3AB
100
AcDbEntity
  8
0
100
AcDbLine
 62
7
  6
CONTINUOUS
 10
68.365033604
 20
39.0274475272
 11
68.5570057108
 21
39.1382820131
  0
LINE
  5
3AC
100
AcDbEntity
  8
0
100
AcDbLine
 62
7
  6
CONTINUOUS
 10
69.9712133852
 20
39.9547703209
 11
70.4634283266
 21
40.2389490534
  0
LINE
  5
3AD
100
AcDbEntity
  8
0
100
AcDbLine
 62
7
  6
CONTINUOUS
 10
96.318551963
 20
55.1663225405
 11
96.8107669043
 21
55.450501273
  0
LINE
  5
3AE
100
AcDbEntity
  8
0
100
AcDbLine
 62
7
  6
CONTINUOUS
 10
98.2249745788
 20
56.2669895808
 11
98.4169466856
 21
56.3778240667
  0
LINE
  5
3AF
100
AcDbEntity
  8
0
100
AcDbLine
 62
7
  6
CONTINUOUS
 10
92.1590971564
 20
52.697633635
 11
79.7847800052
 21
45.5533609422
  0
LINE
  5
3B0
100
AcDbEntity
  8
0
100
AcDbLine
 62
7
  6
CONTINUOUS
 10
79.7847800052
 20
44.9849936555
 11
92.1590971564
 21
52.1292663483
  0
LINE
  5
3B1
100
AcDbEntity
  8
0
100
AcDbLine
 62
7
  6
CONTINUOUS
 10
57.1896336301
 20
31.5551180006
 11
56.9634085315
 21
31.4245076587
  0
LINE
  5
3B2
100
AcDbEntity
  8
0
100
AcDbLine
 62
7
  6
CONTINUOUS
 10
55.9204063044
 20
30.8223336366
 11
55.2721667398
 21
30.4480745835
  0
LINE
  5
3B3
100
AcDbEntity
  8
0
100
AcDbLine
 62
7
  6
CONTINUOUS
 10
55.6234702332
 20
30.4923594142
 11
55.8496953319
 21
30.6229697561
  0
LINE
  5
3B4
100
AcDbEntity
  8
0
100
AcDbLine
 62
7
  6
CONTINUOUS
 10
56.892697559
 20
31.2251437782
 11
57.1189226576
 21
31.3557541202
  0
LINE
  5
3B5
100
AcDbEntity
  8
0
100
AcDbLine
 62
7
  6
CONTINUOUS
 10
55.6941812058
 20
30.4515353387
 11
55.9204063044
 21
30.5821456807
  0
LINE
  5
3B6
100
AcDbEntity
  8
0
100
AcDbLine
 62
7
  6
CONTINUOUS
 10
56.9634085315
 20
31.1843197028
 11
57.1896336301
 21
31.3149300447
  0
LINE
  5
3B7
100
AcDbEntity
  8
0
100
AcDbLine
 62
7
  6
CONTINUOUS
 10
70.668451519
 20
38.2751640099
 11
78.7242009521
 21
42.9261253511
  0
LINE
  5
3B8
100
AcDbEntity
  8
0
100
AcDbLine
 62
7
  6
CONTINUOUS
 10
79.7847800052
 20
43.1303160188
 11
80.0359087943
 21
43.2753044274
  0
LINE
  5
3B9
100
AcDbEntity
  8
0
100
AcDbLine
 62
7
  6
CONTINUOUS
 10
92.659094918
 20
50.446737235
 11
80.2847777667
 21
43.3024645422
  0
LINE
  5
3BA
100
AcDbEntity
  8
0
100
AcDbLine
 62
7
  6
CONTINUOUS
 10
57.3756575163
 20
29.9310213299
 11
54.9447209086
 21
28.5275278028
  0
LINE
  5
3BB
100
AcDbEntity
  8
0
100
AcDbLine
 62
7
  6
CONTINUOUS
 10
91.9519851928
 20
49.8168027699
 11
79.5776680416
 21
42.6725300772
  0
LINE
  5
3BC
100
AcDbEntity
  8
0
100
AcDbLine
 62
7
  6
CONTINUOUS
 10
57.4463684888
 20
29.8901972544
 11
55.0154318811
 21
28.4867037273
  0
LINE
  5
3BD
100
AcDbEntity
  8
0
100
AcDbLine
 62
7
  6
CONTINUOUS
 10
58.9958082548
 20
33.1280151404
 11
60.2247626896
 21
33.7524182033
  0
LINE
  5
3BE
100
AcDbEntity
  8
0
100
AcDbLine
 62
7
  6
CONTINUOUS
 10
82.4359339664
 20
106.7153662515
 11
83.7444796513
 21
105.9598941392
  0
LINE
  5
3BF
100
AcDbEntity
  8
0
100
AcDbLine
 62
7
  6
CONTINUOUS
 10
86.6501472133
 20
105.1880071512
 11
87.6401008285
 21
104.6164700949
  0
LINE
  5
3C0
100
AcDbEntity
  8
0
100
AcDbLine
 62
7
  6
CONTINUOUS
 10
52.9145044668
 20
124.9023206834
 11
52.8413537335
 21
124.9445533235
  0
LINE
  5
3C1
100
AcDbEntity
  8
0
100
AcDbLine
 62
7
  6
CONTINUOUS
 10
48.7449968492
 20
127.3095325704
 11
48.6718461159
 21
127.3517652105
  0
LINE
  5
3C2
100
AcDbEntity
  8
0
100
AcDbLine
 62
7
  6
CONTINUOUS
 10
52.9145044668
 20
125.0656211668
 11
51.5002850165
 21
125.8821026758
  0
LINE
  5
3C3
100
AcDbEntity
  8
0
100
AcDbLine
 62
7
  6
CONTINUOUS
 10
50.0860655662
 20
126.6985841849
 11
48.6718461159
 21
127.5150656939
  0
LINE
  5
3C4
100
AcDbEntity
  8
0
100
AcDbLine
 62
7
  6
CONTINUOUS
 10
87.9936439152
 20
106.0453195344
 11
85.9783811985
 21
107.2088056848
  0
LINE
  5
3C5
100
AcDbEntity
  8
0
100
AcDbLine
 62
7
  6
CONTINUOUS
 10
82.0198383071
 20
107.7149085737
 11
80.3920492593
 21
109.0570573378
  0
LINE
  5
3C6
100
AcDbEntity
  8
0
100
AcDbLine
 62
7
  6
CONTINUOUS
 10
98.4169466856
 20
56.0873358642
 11
98.4169466856
 21
56.3778240667
  0
LINE
  5
3C7
100
AcDbEntity
  8
0
100
AcDbLine
 62
7
  6
CONTINUOUS
 10
98.4169466856
 20
105.4857321006
 11
98.4169466856
 21
105.7762203031
  0
LINE
  5
3C8
100
AcDbEntity
  8
0
100
AcDbLine
 62
7
  6
CONTINUOUS
 10
98.5178707415
 20
41.5699531271
 11
98.5178707415
 21
55.8587454269
  0
LINE
  5
3C9
100
AcDbEntity
  8
0
100
AcDbLine
 62
7
  6
CONTINUOUS
 10
98.5178707415
 20
90.9683493635
 11
98.5178707415
 21
105.2571416632
  0
LINE
  5
3CA
100
AcDbEntity
  8
0
100
AcDbLine
 62
7
  6
CONTINUOUS
 10
98.7098369604
 20
42.4972725215
 11
98.7098369604
 21
56.7860648212
  0
LINE
  5
3CB
100
AcDbEntity
  8
0
100
AcDbLine
 62
7
  6
CONTINUOUS
 10
98.7098369604
 20
91.8956687578
 11
98.7098369604
 21
106.1844610576
  0
LINE
  5
3CC
100
AcDbEntity
  8
0
100
AcDbLine
 62
7
  6
CONTINUOUS
 10
70.668451519
 20
36.6421591756
 11
89.0543143909
 21
47.2571786909
  0
LINE
  5
3CD
100
AcDbEntity
  8
0
100
AcDbLine
 62
7
  6
CONTINUOUS
 10
53.8974575222
 20
26.4527660238
 11
47.3921022198
 21
22.6969198081
  0
LINE
  5
3CE
100
AcDbEntity
  8
0
100
AcDbLine
 62
7
  6
CONTINUOUS
 10
70.668451519
 20
33.0903256893
 11
85.2359336509
 21
41.5008152157
  0
LINE
  5
3CF
100
AcDbEntity
  8
0
100
AcDbLine
 62
7
  6
CONTINUOUS
 10
92.0176263415
 20
106.3273322342
 11
92.7247360667
 21
105.9190914796
  0
LINE
  5
3D0
100
AcDbEntity
  8
0
100
AcDbLine
 62
7
  6
CONTINUOUS
 10
83.8858633247
 20
111.1853978928
 11
83.1080426271
 21
111.6344627228
  0
LINE
  5
3D1
100
AcDbEntity
  8
0
100
AcDbLine
 62
7
  6
CONTINUOUS
 10
95.4672578378
 20
105.7062034338
 11
93.4873506074
 21
106.8492775465
  0
LINE
  5
3D2
100
AcDbEntity
  8
0
100
AcDbLine
 62
7
  6
CONTINUOUS
 10
98.4169407976
 20
106.5927052115
 11
95.9420567596
 21
108.0215478523
  0
LINE
  5
3D3
100
AcDbEntity
  8
0
100
AcDbLine
 62
7
  6
CONTINUOUS
 10
89.0543143909
 20
40.9292849581
 11
92.0176263415
 21
42.6401436981
  0
LINE
  5
3D4
100
AcDbEntity
  8
0
100
AcDbLine
 62
7
  6
CONTINUOUS
 10
48.6718461159
 20
127.5150656939
 11
54.682246396
 21
128.5356862766
  0
LINE
  5
3D5
100
AcDbEntity
  8
0
100
AcDbLine
 62
7
  6
CONTINUOUS
 10
96.1979491728
 20
106.5903710169
 11
95.588504841
 21
107.8174257753
  0
LINE
  5
3D6
100
AcDbEntity
  8
0
100
AcDbLine
 62
7
  6
CONTINUOUS
 10
68.365033604
 20
24.7386552274
 11
68.5570057108
 21
24.8494897134
  0
LINE
  5
3D7
100
AcDbEntity
  8
0
100
AcDbLine
 62
7
  6
CONTINUOUS
 10
70.264109548
 20
25.8350806901
 11
70.4634283266
 21
25.9501567537
  0
LINE
  5
3D8
100
AcDbEntity
  8
0
100
AcDbLine
 62
7
  6
CONTINUOUS
 10
96.318551963
 20
40.8775302407
 11
96.8107669043
 21
41.1617089733
  0
ARC
  5
3D9
100
AcDbEntity
  8
0
100
AcDbCircle
 62
7
  6
CONTINUOUS
 10
29.438629187
 20
89.3404132975
 40
42.6068339963
100
AcDbArc
 50
56.6829429008
 51
58.8154607153
  0
ARC
  5
3DA
100
AcDbEntity
  8
0
100
AcDbCircle
 62
7
  6
CONTINUOUS
 10
24.5186251828
 20
88.0377961935
 40
39.830276504
100
AcDbArc
 50
58.8259519092
 51
61.1751706171
  0
ARC
  5
3DB
100
AcDbEntity
  8
0
100
AcDbCircle
 62
7
  6
CONTINUOUS
 10
32.2535816351
 20
94.188613199
 40
36.9994875068
100
AcDbArc
 50
61.3304423498
 51
63.5305803365
  0
ARC
  5
3DC
100
AcDbEntity
  8
0
100
AcDbCircle
 62
7
  6
CONTINUOUS
 10
58.2756804961
 20
109.7883251891
 40
11.6636497094
100
AcDbArc
 50
290.7170056324
 51
291.8524385054
  0
ARC
  5
3DD
100
AcDbEntity
  8
0
100
AcDbCircle
 62
7
  6
CONTINUOUS
 10
51.9199297469
 20
71.9702706668
 40
7.1641631765
100
AcDbArc
 50
307.0188249073
 51
307.7291147977
  0
ARC
  5
3DE
100
AcDbEntity
  8
0
100
AcDbCircle
 62
7
  6
CONTINUOUS
 10
44.2455718766
 20
64.7115012164
 40
3.390418584
100
AcDbArc
 50
144.7147468577
 51
147.8095603929
  0
ARC
  5
3DF
100
AcDbEntity
  8
0
100
AcDbCircle
 62
7
  6
CONTINUOUS
 10
44.1630791517
 20
64.7703521437
 40
3.2890858325
100
AcDbArc
 50
141.5027371246
 51
144.721496838
  0
ARC
  5
3E0
100
AcDbEntity
  8
0
100
AcDbCircle
 62
7
  6
CONTINUOUS
 10
37.0161696799
 20
49.457546505
 40
0.6680096809
100
AcDbArc
 50
174.9462500325
 51
179.9940046911
  0
ARC
  5
3E1
100
AcDbEntity
  8
0
100
AcDbCircle
 62
7
  6
CONTINUOUS
 10
37.0824057364
 20
49.4984496374
 40
0.6635287848
100
AcDbArc
 50
180.0007614254
 51
182.0371429689
  0
SPLINE
  5
3E2
100
AcDbEntity
  8
0
100
AcDbSpline
 62
7
  6
CONTINUOUS
 70
0
 71
3
 72
11
 73
7
 74
0
 42
0.0000001
 43
0.0000001
 44
0.0000000001
 40
0.0
 40
0.0
 40
0.0
 40
0.0
 40
0.2177442246
 40
0.4508817658
 40
0.7104588047
 40
1.0
 40
1.0
 40
1.0
 40
1.0
 10
57.2950238508
 20
31.3253601009
 30
0.0
 10
57.3019759372
 20
31.321346399
 30
0.0
 10
57.3149964666
 20
31.3104252783
 30
0.0
 10
57.3288471237
 20
31.2877686983
 30
0.0
 10
57.3370582888
 20
31.2598569892
 30
0.0
 10
57.3386881581
 20
31.2395453718
 30
0.0
 10
57.3386881581
 20
31.2288709124
 30
0.0
  0
SPLINE
  5
3E3
100
AcDbEntity
  8
0
100
AcDbSpline
 62
7
  6
CONTINUOUS
 70
0
 71
3
 72
11
 73
7
 74
0
 42
0.0000001
 43
0.0000001
 44
0.0000000001
 40
0.0
 40
0.0
 40
0.0
 40
0.0
 40
0.2359904162
 40
0.4973152534
 40
0.760092908
 40
1.0
 40
1.0
 40
1.0
 40
1.0
 10
57.998659778
 20
29.6405171549
 30
0.0
 10
57.998659778
 20
29.6180160683
 30
0.0
 10
57.9904575573
 20
29.5705622154
 30
0.0
 10
57.9616289934
 20
29.5035117073
 30
0.0
 10
57.9192072239
 20
29.44366126
 30
0.0
 10
57.8827811684
 20
29.4114466809
 30
0.0
 10
57.8634076978
 20
29.3992847386
 30
0.0
  0
SPLINE
  5
3E4
100
AcDbEntity
  8
0
100
AcDbSpline
 62
7
  6
CONTINUOUS
 70
0
 71
3
 72
11
 73
7
 74
0
 42
0.0000001
 43
0.0000001
 44
0.0000000001
 40
0.0
 40
0.0
 40
0.0
 40
0.0
 40
0.2372542275
 40
0.5000017852
 40
0.7627483734
 40
1.0
 40
1.0
 40
1.0
 40
1.0
 10
54.0388782896
 20
26.697715338
 30
0.0
 10
54.0388782896
 20
26.6745301489
 30
0.0
 10
54.030185508
 20
26.6256355221
 30
0.0
 10
53.9998646301
 20
26.5569401458
 30
0.0
 10
53.9555335802
 20
26.4963337926
 30
0.0
 10
53.9175362947
 20
26.4643584393
 30
0.0
 10
53.8974575222
 20
26.4527660238
 30
0.0
  0
SPLINE
  5
3E5
100
AcDbEntity
  8
0
100
AcDbSpline
 62
7
  6
CONTINUOUS
 70
0
 71
3
 72
11
 73
7
 74
0
 42
0.0000001
 43
0.0000001
 44
0.0000000001
 40
0.0
 40
0.0
 40
0.0
 40
0.0
 40
0.2372518718
 40
0.4999985497
 40
0.7627460178
 40
1.0
 40
1.0
 40
1.0
 40
1.0
 10
55.0154318811
 20
31.7527133958
 30
0.0
 10
54.9872150441
 20
31.7364224946
 30
0.0
 10
54.9338172232
 20
31.6914873172
 30
0.0
 10
54.87151856
 20
31.606316838
 30
0.0
 10
54.8289085036
 20
31.5097788736
 30
0.0
 10
54.8166925105
 20
31.4410670357
 30
0.0
 10
54.8166925105
 20
31.4084847977
 30
0.0
  0
SPLINE
  5
3E6
100
AcDbEntity
  8
0
100
AcDbSpline
 62
7
  6
CONTINUOUS
 70
0
 71
3
 72
11
 73
7
 74
0
 42
0.0000001
 43
0.0000001
 44
0.0000000001
 40
0.0
 40
0.0
 40
0.0
 40
0.0
 40
0.2895411595
 40
0.5491183966
 40
0.7822559144
 40
1.0
 40
1.0
 40
1.0
 40
1.0
 10
54.8166925105
 20
28.6014492371
 30
0.0
 10
54.8166925105
 20
28.5872166265
 30
0.0
 10
54.8188656865
 20
28.5601344652
 30
0.0
 10
54.8298138893
 20
28.5229188402
 30
0.0
 10
54.8482814475
 20
28.4927100754
 30
0.0
 10
54.8656421414
 20
28.4781485799
 30
0.0
 10
54.8749115867
 20
28.4727969858
 30
0.0
  0
SPLINE
  5
3E7
100
AcDbEntity
  8
0
100
AcDbSpline
 62
7
  6
CONTINUOUS
 70
0
 71
3
 72
11
 73
7
 74
0
 42
0.0000001
 43
0.0000001
 44
0.0000000001
 40
0.0
 40
0.0
 40
0.0
 40
0.0
 40
0.217758567
 40
0.4509254857
 40
0.710220039
 40
1.0
 40
1.0
 40
1.0
 40
1.0
 10
56.7463848469
 20
31.5307089728
 30
0.0
 10
56.7262995825
 20
31.5423040861
 30
0.0
 10
56.6801447195
 20
31.5590535787
 30
0.0
 10
56.6034935238
 20
31.560992828
 30
0.0
 10
56.5217856293
 20
31.5412771088
 30
0.0
 10
56.4686350707
 20
31.5159797454
 30
0.0
 10
56.4419074179
 20
31.50054862
 30
0.0
  0
SPLINE
  5
3E8
100
AcDbEntity
  8
0
100
AcDbSpline
 62
7
  6
CONTINUOUS
 70
0
 71
3
 72
11
 73
7
 74
0
 42
0.0000001
 43
0.0000001
 44
0.0000000001
 40
0.0
 40
0.0
 40
0.0
 40
0.0
 40
0.2177442246
 40
0.4508817658
 40
0.7104588047
 40
1.0
 40
1.0
 40
1.0
 40
1.0
 10
57.2950238508
 20
32.6463938584
 30
0.0
 10
57.3019759372
 20
32.6423801565
 30
0.0
 10
57.3149964666
 20
32.6314590358
 30
0.0
 10
57.3288471237
 20
32.6088024558
 30
0.0
 10
57.3370582888
 20
32.5808907467
 30
0.0
 10
57.3386881581
 20
32.5605791293
 30
0.0
 10
57.3386881581
 20
32.5499046699
 30
0.0
  0
SPLINE
  5
3E9
100
AcDbEntity
  8
0
100
AcDbSpline
 62
7
  6
CONTINUOUS
 70
0
 71
3
 72
17
 73
13
 74
0
 42
0.0000001
 43
0.0000001
 44
0.0000000001
 40
0.0
 40
0.0
 40
0.0
 40
0.0
 40
0.0428567916
 40
0.0874847188
 40
0.1353117925
 40
0.187277638
 40
0.3045377072
 40
0.4382000305
 40
0.5825388704
 40
0.729686241
 40
0.8713150959
 40
1.0
 40
1.0
 40
1.0
 40
1.0
 10
56.5941399883
 20
31.2670071961
 30
0.0
 10
56.6016461456
 20
31.2626737939
 30
0.0
 10
56.6158861161
 20
31.2517960008
 30
0.0
 10
56.6329943267
 20
31.23013227
 30
0.0
 10
56.6458065806
 20
31.203659999
 30
0.0
 10
56.6572806579
 20
31.161076434
 30
0.0
 10
56.658735491
 20
31.0990024568
 30
0.0
 10
56.6426662997
 20
31.0202171043
 30
0.0
 10
56.6102901654
 20
30.940088637
 30
0.0
 10
56.5642039801
 20
30.8651113683
 30
0.0
 10
56.5081986613
 20
30.8014031389
 30
0.0
 10
56.4644456191
 20
30.7677280533
 30
0.0
 10
56.4419074179
 20
30.7547156945
 30
0.0
  0
SPLINE
  5
3EA
100
AcDbEntity
  8
0
100
AcDbSpline
 62
7
  6
CONTINUOUS
 70
0
 71
3
 72
11
 73
7
 74
0
 42
0.0000001
 43
0.0000001
 44
0.0000000001
 40
0.0
 40
0.0
 40
0.0
 40
0.0
 40
0.2177456295
 40
0.4508837762
 40
0.7104602913
 40
1.0
 40
1.0
 40
1.0
 40
1.0
 10
57.5868887833
 20
33.1701136644
 30
0.0
 10
57.5776196393
 20
33.1754650845
 30
0.0
 10
57.5563293337
 20
33.1832185755
 30
0.0
 10
57.5209353443
 20
33.1841073693
 30
0.0
 10
57.4832331362
 20
33.1749813858
 30
0.0
 10
57.4586937597
 20
33.1633228789
 30
0.0
 10
57.4463684888
 20
33.1562069229
 30
0.0
  0
SPLINE
  5
3EB
100
AcDbEntity
  8
0
100
AcDbSpline
 62
7
  6
CONTINUOUS
 70
0
 71
3
 72
12
 73
8
 74
0
 42
0.0000001
 43
0.0000001
 44
0.0000000001
 40
0.0
 40
0.0
 40
0.0
 40
0.0
 40
0.2895557227
 40
0.5486525747
 40
0.7816316463
 40
0.8918387372
 40
1.0
 40
1.0
 40
1.0
 40
1.0
 10
56.441907418
 20
29.6618190146
 30
0.0
 10
56.3862447192
 20
29.6296823323
 30
0.0
 10
56.2755243753
 20
29.5770178124
 30
0.0
 10
56.1054774073
 20
29.5358784138
 30
0.0
 10
55.9696894882
 20
29.5395185063
 30
0.0
 10
55.87274117
 20
29.566328116
 30
0.0
 10
55.828592905
 20
29.5870093521
 30
0.0
 10
55.8078004556
 20
29.5990136079
 30
0.0
  0
SPLINE
  5
3EC
100
AcDbEntity
  8
0
100
AcDbSpline
 62
7
  6
CONTINUOUS
 70
0
 71
3
 72
15
 73
11
 74
0
 42
0.0000001
 43
0.0000001
 44
0.0000000001
 40
0.0
 40
0.0
 40
0.0
 40
0.0
 40
0.1141475829
 40
0.2373370756
 40
0.3669780685
 40
0.5000016033
 40
0.6330249151
 40
0.7626652568
 40
0.8858537231
 40
1.0
 40
1.0
 40
1.0
 40
1.0
 10
57.3386881581
 20
31.2150974423
 30
0.0
 10
57.3386881581
 20
31.1442126602
 30
0.0
 10
57.325695356
 20
30.9966916598
 30
0.0
 10
57.2739464735
 20
30.7741433493
 30
0.0
 10
57.1910085119
 20
30.5487245647
 30
0.0
 10
57.0800432916
 20
30.3289057187
 30
0.0
 10
56.9451584275
 20
30.122897271
 30
0.0
 10
56.7914105294
 20
29.9383617593
 30
0.0
 10
56.6245542178
 20
29.7822725925
 30
0.0
 10
56.5032948292
 20
29.6972608414
 30
0.0
 10
56.441907418
 20
29.6618190146
 30
0.0
  0
SPLINE
  5
3ED
100
AcDbEntity
  8
0
100
AcDbSpline
 62
7
  6
CONTINUOUS
 70
0
 71
3
 72
11
 73
7
 74
0
 42
0.0000001
 43
0.0000001
 44
0.0000000001
 40
0.0
 40
0.0
 40
0.0
 40
0.0
 40
0.2895396729
 40
0.5491163863
 40
0.7822545095
 40
1.0
 40
1.0
 40
1.0
 40
1.0
 10
55.2721667398
 20
30.4480745835
 30
0.0
 10
55.2629227879
 20
30.4427376172
 30
0.0
 10
55.2445182461
 20
30.4339937463
 30
0.0
 10
55.2162415882
 20
30.4271492426
 30
0.0
 10
55.1896960959
 20
30.4278158512
 30
0.0
 10
55.1737283704
 20
30.4336309612
 30
0.0
 10
55.1667765191
 20
30.4376445273
 30
0.0
  0
SPLINE
  5
3EE
100
AcDbEntity
  8
0
100
AcDbSpline
 62
7
  6
CONTINUOUS
 70
0
 71
3
 72
11
 73
7
 74
0
 42
0.0000001
 43
0.0000001
 44
0.0000000001
 40
0.0
 40
0.0
 40
0.0
 40
0.0
 40
0.2590374327
 40
0.5206764702
 40
0.7715283367
 40
1.0
 40
1.0
 40
1.0
 40
1.0
 10
56.0545065905
 20
30.9967317745
 30
0.0
 10
56.0483076793
 20
30.978401725
 30
0.0
 10
56.03258956
 20
30.942597882
 30
0.0
 10
56.001254906
 20
30.8939459918
 30
0.0
 10
55.9639659126
 20
30.8527101484
 30
0.0
 10
55.9351864598
 20
30.8308669124
 30
0.0
 10
55.9204063044
 20
30.8223336366
 30
0.0
  0
SPLINE
  5
3EF
100
AcDbEntity
  8
0
100
AcDbSpline
 62
7
  6
CONTINUOUS
 70
0
 71
3
 72
11
 73
7
 74
0
 42
0.0000001
 43
0.0000001
 44
0.0000000001
 40
0.0
 40
0.0
 40
0.0
 40
0.0
 40
0.2284813994
 40
0.4793248744
 40
0.7409509205
 40
1.0
 40
1.0
 40
1.0
 40
1.0
 10
56.4419074179
 20
31.50054862
 30
0.0
 10
56.3992073711
 20
31.4758958836
 30
0.0
 10
56.3160636125
 20
31.4127959551
 30
0.0
 10
56.2083509186
 20
31.2936638966
 30
0.0
 10
56.1178195357
 20
31.1531228915
 30
0.0
 10
56.0724153615
 20
31.0496876326
 30
0.0
 10
56.0545065905
 20
30.9967317745
 30
0.0
  0
SPLINE
  5
3F0
100
AcDbEntity
  8
0
100
AcDbSpline
 62
7
  6
CONTINUOUS
 70
0
 71
3
 72
11
 73
7
 74
0
 42
0.0000001
 43
0.0000001
 44
0.0000000001
 40
0.0
 40
0.0
 40
0.0
 40
0.0
 40
0.289668433
 40
0.5491247064
 40
0.782240178
 40
1.0
 40
1.0
 40
1.0
 40
1.0
 10
56.9634085315
 20
31.4245076587
 30
0.0
 10
56.9541602877
 20
31.4191682145
 30
0.0
 10
56.935758211
 20
31.4104160253
 30
0.0
 10
56.9074769433
 20
31.4035861114
 30
0.0
 10
56.8809387986
 20
31.4042535395
 30
0.0
 10
56.8649657031
 20
31.4100549441
 30
0.0
 10
56.8580126301
 20
31.4140677651
 30
0.0
  0
SPLINE
  5
3F1
100
AcDbEntity
  8
0
100
AcDbSpline
 62
7
  6
CONTINUOUS
 70
0
 71
3
 72
11
 73
7
 74
0
 42
0.0000001
 43
0.0000001
 44
0.0000000001
 40
0.0
 40
0.0
 40
0.0
 40
0.0
 40
0.2372542275
 40
0.5000017851
 40
0.7627483734
 40
1.0
 40
1.0
 40
1.0
 40
1.0
 10
57.3386881581
 20
31.8132894493
 30
0.0
 10
57.3386881581
 20
31.7888527455
 30
0.0
 10
57.3295261483
 20
31.7373188326
 30
0.0
 10
57.2975685778
 20
31.6649153442
 30
0.0
 10
57.2508445794
 20
31.6010375168
 30
0.0
 10
57.210796236
 20
31.5673361639
 30
0.0
 10
57.1896336301
 20
31.5551180006
 30
0.0
  0
SPLINE
  5
3F2
100
AcDbEntity
  8
0
100
AcDbSpline
 62
7
  6
CONTINUOUS
 70
0
 71
3
 72
11
 73
7
 74
0
 42
0.0000001
 43
0.0000001
 44
0.0000000001
 40
0.0
 40
0.0
 40
0.0
 40
0.0
 40
0.2895448512
 40
0.5491358493
 40
0.7822770651
 40
1.0
 40
1.0
 40
1.0
 40
1.0
 10
56.4419074179
 20
30.7547156945
 30
0.0
 10
56.4285547259
 20
30.7470065602
 30
0.0
 10
56.4019694105
 20
30.7343760827
 30
0.0
 10
56.3611234767
 20
30.7244888862
 30
0.0
 10
56.3227808744
 20
30.7254553238
 30
0.0
 10
56.2997155369
 20
30.7338495227
 30
0.0
 10
56.2896748476
 20
30.7396461432
 30
0.0
  0
SPLINE
  5
3F3
100
AcDbEntity
  8
0
100
AcDbSpline
 62
7
  6
CONTINUOUS
 70
0
 71
3
 72
9
 73
5
 74
0
 42
0.0000001
 43
0.0000001
 44
0.0000000001
 40
0.0
 40
0.0
 40
0.0
 40
0.0
 40
0.2468314479
 40
1.0
 40
1.0
 40
1.0
 40
1.0
 10
56.700579263
 20
31.5545834101
 30
0.0
 10
56.7036611199
 20
31.5521361955
 30
0.0
 10
56.7158626997
 20
31.5418670446
 30
0.0
 10
56.7268845254
 20
31.5302123556
 30
0.0
 10
56.7344356613
 20
31.5208757222
 30
0.0
  0
SPLINE
  5
3F4
100
AcDbEntity
  8
0
100
AcDbSpline
 62
7
  6
CONTINUOUS
 70
0
 71
3
 72
9
 73
5
 74
0
 42
0.0000001
 43
0.0000001
 44
0.0000000001
 40
0.0
 40
0.0
 40
0.0
 40
0.0
 40
0.2455532685
 40
1.0
 40
1.0
 40
1.0
 40
1.0
 10
56.7344356613
 20
31.5208757222
 30
0.0
 10
56.7366684698
 20
31.5181149568
 30
0.0
 10
56.7455043199
 20
31.5066654147
 30
0.0
 10
56.7533044286
 20
31.4944243388
 30
0.0
 10
56.7585972726
 20
31.4848851243
 30
0.0
  0
SPLINE
  5
3F5
100
AcDbEntity
  8
0
100
AcDbSpline
 62
7
  6
CONTINUOUS
 70
0
 71
3
 72
11
 73
7
 74
0
 42
0.0000001
 43
0.0000001
 44
0.0000000001
 40
0.0
 40
0.0
 40
0.0
 40
0.0
 40
0.2177456295
 40
0.4508837762
 40
0.7104602913
 40
1.0
 40
1.0
 40
1.0
 40
1.0
 10
57.2243128785
 20
31.3661841763
 30
0.0
 10
57.2173610205
 20
31.3701977413
 30
0.0
 10
57.2013932913
 20
31.3760128596
 30
0.0
 10
57.1748477992
 20
31.376679455
 30
0.0
 10
57.1465711432
 20
31.3698349673
 30
0.0
 10
57.1281666108
 20
31.3610910872
 30
0.0
 10
57.1189226576
 20
31.3557541202
 30
0.0
  0
SPLINE
  5
3F6
100
AcDbEntity
  8
0
100
AcDbSpline
 62
7
  6
CONTINUOUS
 70
0
 71
3
 72
11
 73
7
 74
0
 42
0.0000001
 43
0.0000001
 44
0.0000000001
 40
0.0
 40
0.0
 40
0.0
 40
0.0
 40
0.2177456295
 40
0.4508837762
 40
0.7104602913
 40
1.0
 40
1.0
 40
1.0
 40
1.0
 10
54.8749115867
 20
28.4727969858
 30
0.0
 10
54.8841807307
 20
28.4674455658
 30
0.0
 10
54.9054710362
 20
28.4596920748
 30
0.0
 10
54.9408650257
 20
28.4588032809
 30
0.0
 10
54.9785672337
 20
28.4679292644
 30
0.0
 10
55.0031066103
 20
28.4795877713
 30
0.0
 10
55.0154318811
 20
28.4867037273
 30
0.0
  0
SPLINE
  5
3F7
100
AcDbEntity
  8
0
100
AcDbSpline
 62
7
  6
CONTINUOUS
 70
0
 71
3
 72
9
 73
5
 74
0
 42
0.0000001
 43
0.0000001
 44
0.0000000001
 40
0.0
 40
0.0
 40
0.0
 40
0.0
 40
0.2465627696
 40
1.0
 40
1.0
 40
1.0
 40
1.0
 10
57.536384666
 20
33.1953144
 30
0.0
 10
57.537413364
 20
33.1942758347
 30
0.0
 10
57.5414928236
 20
33.1899724784
 30
0.0
 10
57.5451967874
 20
33.1853161085
 30
0.0
 10
57.5477656116
 20
33.1816617608
 30
0.0
  0
SPLINE
  5
3F8
100
AcDbEntity
  8
0
100
AcDbSpline
 62
7
  6
CONTINUOUS
 70
0
 71
3
 72
9
 73
5
 74
0
 42
0.0000001
 43
0.0000001
 44
0.0000000001
 40
0.0
 40
0.0
 40
0.0
 40
0.0
 40
0.2454177732
 40
1.0
 40
1.0
 40
1.0
 40
1.0
 10
57.5477656116
 20
33.1816617608
 30
0.0
 10
57.5486207705
 20
33.1804452323
 30
0.0
 10
57.5520075009
 20
33.1754199563
 30
0.0
 10
57.555003173
 20
33.1701335011
 30
0.0
 10
57.5570469829
 20
33.1660436122
 30
0.0
  0
SPLINE
  5
3F9
100
AcDbEntity
  8
0
100
AcDbSpline
 62
7
  6
CONTINUOUS
 70
0
 71
3
 72
9
 73
5
 74
0
 42
0.0000001
 43
0.0000001
 44
0.0000000001
 40
0.0
 40
0.0
 40
0.0
 40
0.0
 40
0.2288584979
 40
1.0
 40
1.0
 40
1.0
 40
1.0
 10
57.5570469829
 20
33.1660436122
 30
0.0
 10
57.5599792168
 20
33.1601758888
 30
0.0
 10
57.5708619357
 20
33.1335669468
 30
0.0
 10
57.5743968869
 20
33.1043880947
 30
0.0
 10
57.5743968869
 20
33.0822854886
 30
0.0
  0
SPLINE
  5
3FA
100
AcDbEntity
  8
0
100
AcDbSpline
 62
7
  6
CONTINUOUS
 70
0
 71
3
 72
11
 73
7
 74
0
 42
0.0000001
 43
0.0000001
 44
0.0000000001
 40
0.0
 40
0.0
 40
0.0
 40
0.0
 40
0.217758567
 40
0.4509254857
 40
0.710220039
 40
1.0
 40
1.0
 40
1.0
 40
1.0
 10
56.1374299889
 20
30.4759443666
 30
0.0
 10
56.1575152534
 20
30.4643492532
 30
0.0
 10
56.2036701164
 20
30.4475997606
 30
0.0
 10
56.2803213121
 20
30.4456605113
 30
0.0
 10
56.3620292066
 20
30.4653762305
 30
0.0
 10
56.4151797652
 20
30.4906735939
 30
0.0
 10
56.4419074179
 20
30.5061047194
 30
0.0
  0
SPLINE
  5
3FB
100
AcDbEntity
  8
0
100
AcDbSpline
 62
7
  6
CONTINUOUS
 70
0
 71
3
 72
11
 73
7
 74
0
 42
0.0000001
 43
0.0000001
 44
0.0000000001
 40
0.0
 40
0.0
 40
0.0
 40
0.0
 40
0.2177456295
 40
0.4508837762
 40
0.7104602913
 40
1.0
 40
1.0
 40
1.0
 40
1.0
 10
57.2243128785
 20
32.6872179338
 30
0.0
 10
57.2173610205
 20
32.6912314988
 30
0.0
 10
57.2013932913
 20
32.6970466171
 30
0.0
 10
57.1748477992
 20
32.6977132125
 30
0.0
 10
57.1465711432
 20
32.6908687248
 30
0.0
 10
57.1281666108
 20
32.6821248447
 30
0.0
 10
57.1189226576
 20
32.6767878777
 30
0.0
  0
SPLINE
  5
3FC
100
AcDbEntity
  8
0
100
AcDbSpline
 62
7
  6
CONTINUOUS
 70
0
 71
3
 72
11
 73
7
 74
0
 42
0.0000001
 43
0.0000001
 44
0.0000000001
 40
0.0
 40
0.0
 40
0.0
 40
0.0
 40
0.2895411595
 40
0.5491183966
 40
0.7822559144
 40
1.0
 40
1.0
 40
1.0
 40
1.0
 10
57.6451078594
 20
33.0414614131
 30
0.0
 10
57.6451078594
 20
33.0556940237
 30
0.0
 10
57.6429346835
 20
33.082776185
 30
0.0
 10
57.6319864807
 20
33.11999181
 30
0.0
 10
57.6135189225
 20
33.1502005748
 30
0.0
 10
57.5961582286
 20
33.1647620704
 30
0.0
 10
57.5868887833
 20
33.1701136644
 30
0.0
  0
SPLINE
  5
3FD
100
AcDbEntity
  8
0
100
AcDbSpline
 62
7
  6
CONTINUOUS
 70
0
 71
3
 72
11
 73
7
 74
0
 42
0.0000001
 43
0.0000001
 44
0.0000000001
 40
0.0
 40
0.0
 40
0.0
 40
0.0
 40
0.2177442246
 40
0.4508817658
 40
0.7104588047
 40
1.0
 40
1.0
 40
1.0
 40
1.0
 10
55.1667765191
 20
30.4376445273
 30
0.0
 10
55.1598244327
 20
30.4416582292
 30
0.0
 10
55.1468039034
 20
30.4525793499
 30
0.0
 10
55.1329532462
 20
30.4752359299
 30
0.0
 10
55.1247420811
 20
30.503147639
 30
0.0
 10
55.1231122119
 20
30.5234592564
 30
0.0
 10
55.1231122119
 20
30.5341337158
 30
0.0
  0
SPLINE
  5
3FE
100
AcDbEntity
  8
0
100
AcDbSpline
 62
7
  6
CONTINUOUS
 70
0
 71
3
 72
11
 73
7
 74
0
 42
0.0000001
 43
0.0000001
 44
0.0000000001
 40
0.0
 40
0.0
 40
0.0
 40
0.0
 40
0.2372518718
 40
0.4999985497
 40
0.7627460178
 40
1.0
 40
1.0
 40
1.0
 40
1.0
 10
57.4463684888
 20
29.8901972544
 30
0.0
 10
57.4745853258
 20
29.9064881556
 30
0.0
 10
57.5279831468
 20
29.9514233331
 30
0.0
 10
57.59028181
 20
30.0365938123
 30
0.0
 10
57.6328918663
 20
30.1331317766
 30
0.0
 10
57.6451078594
 20
30.2018436145
 30
0.0
 10
57.6451078594
 20
30.2344258526
 30
0.0
  0
SPLINE
  5
3FF
100
AcDbEntity
  8
0
100
AcDbSpline
 62
7
  6
CONTINUOUS
 70
0
 71
3
 72
11
 73
7
 74
0
 42
0.0000001
 43
0.0000001
 44
0.0000000001
 40
0.0
 40
0.0
 40
0.0
 40
0.0
 40
0.2177245443
 40
0.4508738016
 40
0.7104688578
 40
1.0
 40
1.0
 40
1.0
 40
1.0
 10
56.5234286117
 20
31.3078306007
 30
0.0
 10
56.5133882006
 20
31.3136278216
 30
0.0
 10
56.4903221094
 20
31.3220217682
 30
0.0
 10
56.4519789378
 20
31.3229883671
 30
0.0
 10
56.4111333108
 20
31.3131004624
 30
0.0
 10
56.3845484748
 20
31.300470472
 30
0.0
 10
56.3711964454
 20
31.2927617203
 30
0.0
  0
SPLINE
  5
400
100
AcDbEntity
  8
0
100
AcDbSpline
 62
7
  6
CONTINUOUS
 70
0
 71
3
 72
11
 73
7
 74
0
 42
0.0000001
 43
0.0000001
 44
0.0000000001
 40
0.0
 40
0.0
 40
0.0
 40
0.0
 40
0.2895396729
 40
0.5491163863
 40
0.7822545095
 40
1.0
 40
1.0
 40
1.0
 40
1.0
 10
57.1896336301
 20
31.3149300447
 30
0.0
 10
57.198877582
 20
31.320267011
 30
0.0
 10
57.2172821238
 20
31.3290108819
 30
0.0
 10
57.2455587818
 20
31.3358553857
 30
0.0
 10
57.272104274
 20
31.335188777
 30
0.0
 10
57.2880719995
 20
31.329373667
 30
0.0
 10
57.2950238508
 20
31.3253601009
 30
0.0
  0
SPLINE
  5
401
100
AcDbEntity
  8
0
100
AcDbSpline
 62
7
  6
CONTINUOUS
 70
0
 71
3
 72
11
 73
7
 74
0
 42
0.0000001
 43
0.0000001
 44
0.0000000001
 40
0.0
 40
0.0
 40
0.0
 40
0.0
 40
0.2590374326
 40
0.5206764701
 40
0.7715283367
 40
1.0
 40
1.0
 40
1.0
 40
1.0
 10
56.8293082449
 20
31.0099215636
 30
0.0
 10
56.8355071561
 20
31.0282516133
 30
0.0
 10
56.8512252754
 20
31.0640554565
 30
0.0
 10
56.8825599295
 20
31.112707347
 30
0.0
 10
56.9198489231
 20
31.1539431907
 30
0.0
 10
56.948628376
 20
31.1757864269
 30
0.0
 10
56.9634085315
 20
31.1843197028
 30
0.0
  0
SPLINE
  5
402
100
AcDbEntity
  8
0
100
AcDbSpline
 62
7
  6
CONTINUOUS
 70
0
 71
3
 72
11
 73
7
 74
0
 42
0.0000001
 43
0.0000001
 44
0.0000000001
 40
0.0
 40
0.0
 40
0.0
 40
0.0
 40
0.2284813994
 40
0.4793248744
 40
0.7409509204
 40
1.0
 40
1.0
 40
1.0
 40
1.0
 10
56.4419074179
 20
30.5061047194
 30
0.0
 10
56.4846074648
 20
30.5307574557
 30
0.0
 10
56.5677512231
 20
30.593857384
 30
0.0
 10
56.6754639169
 20
30.7129894422
 30
0.0
 10
56.7659952997
 20
30.853530447
 30
0.0
 10
56.8113994739
 20
30.9569657056
 30
0.0
 10
56.8293082449
 20
31.0099215636
 30
0.0
  0
SPLINE
  5
403
100
AcDbEntity
  8
0
100
AcDbSpline
 62
7
  6
CONTINUOUS
 70
0
 71
3
 72
11
 73
7
 74
0
 42
0.0000001
 43
0.0000001
 44
0.0000000001
 40
0.0
 40
0.0
 40
0.0
 40
0.0
 40
0.289668433
 40
0.5491247064
 40
0.7822401781
 40
1.0
 40
1.0
 40
1.0
 40
1.0
 10
55.9204063044
 20
30.5821456807
 30
0.0
 10
55.9296545482
 20
30.5874851249
 30
0.0
 10
55.9480566249
 20
30.596237314
 30
0.0
 10
55.9763378926
 20
30.6030672279
 30
0.0
 10
56.0028760372
 20
30.6023997999
 30
0.0
 10
56.0188491328
 20
30.5965983952
 30
0.0
 10
56.0258022058
 20
30.5925855742
 30
0.0
  0
SPLINE
  5
404
100
AcDbEntity
  8
0
100
AcDbSpline
 62
7
  6
CONTINUOUS
 70
0
 71
3
 72
11
 73
7
 74
0
 42
0.0000001
 43
0.0000001
 44
0.0000000001
 40
0.0
 40
0.0
 40
0.0
 40
0.0
 40
0.2372542274
 40
0.5000017851
 40
0.7627483734
 40
1.0
 40
1.0
 40
1.0
 40
1.0
 10
55.5451266778
 20
30.19336389
 30
0.0
 10
55.5451266778
 20
30.2178005939
 30
0.0
 10
55.5542886876
 20
30.2693345068
 30
0.0
 10
55.5862462581
 20
30.3417379952
 30
0.0
 10
55.6329702565
 20
30.4056158225
 30
0.0
 10
55.6730185999
 20
30.4393171754
 30
0.0
 10
55.6941812058
 20
30.4515353387
 30
0.0
  0
SPLINE
  5
405
100
AcDbEntity
  8
0
100
AcDbSpline
 62
7
  6
CONTINUOUS
 70
0
 71
3
 72
11
 73
7
 74
0
 42
0.0000001
 43
0.0000001
 44
0.0000000001
 40
0.0
 40
0.0
 40
0.0
 40
0.0
 40
0.2895396729
 40
0.5491163863
 40
0.7822545095
 40
1.0
 40
1.0
 40
1.0
 40
1.0
 10
57.1896336301
 20
32.6359638022
 30
0.0
 10
57.198877582
 20
32.6413007685
 30
0.0
 10
57.2172821239
 20
32.6500446394
 30
0.0
 10
57.2455587818
 20
32.6568891431
 30
0.0
 10
57.272104274
 20
32.6562225345
 30
0.0
 10
57.2880719996
 20
32.6504074245
 30
0.0
 10
57.2950238508
 20
32.6463938584
 30
0.0
  0
SPLINE
  5
406
100
AcDbEntity
  8
0
100
AcDbSpline
 62
7
  6
CONTINUOUS
 70
0
 71
3
 72
11
 73
7
 74
0
 42
0.0000001
 43
0.0000001
 44
0.0000000001
 40
0.0
 40
0.0
 40
0.0
 40
0.0
 40
0.2372542275
 40
0.5000017852
 40
0.7627483734
 40
1.0
 40
1.0
 40
1.0
 40
1.0
 10
55.1231122119
 20
31.2707489365
 30
0.0
 10
55.1231122119
 20
31.2951856403
 30
0.0
 10
55.1322742217
 20
31.3467195532
 30
0.0
 10
55.1642317922
 20
31.4191230416
 30
0.0
 10
55.2109557906
 20
31.4830008689
 30
0.0
 10
55.2510041339
 20
31.5167022218
 30
0.0
 10
55.2721667398
 20
31.5289203851
 30
0.0
  0
SPLINE
  5
407
100
AcDbEntity
  8
0
100
AcDbSpline
 62
7
  6
CONTINUOUS
 70
0
 71
3
 72
11
 73
7
 74
0
 42
0.0000001
 43
0.0000001
 44
0.0000000001
 40
0.0
 40
0.0
 40
0.0
 40
0.0
 40
0.217759822
 40
0.4508752936
 40
0.710331567
 40
1.0
 40
1.0
 40
1.0
 40
1.0
 10
55.9550912332
 20
30.6334096497
 30
0.0
 10
55.9481381603
 20
30.6374224707
 30
0.0
 10
55.9321650647
 20
30.6432238753
 30
0.0
 10
55.9056269201
 20
30.6438913034
 30
0.0
 10
55.8773456524
 20
30.6370613895
 30
0.0
 10
55.8589435757
 20
30.6283092003
 30
0.0
 10
55.8496953319
 20
30.6229697561
 30
0.0
  0
SPLINE
  5
408
100
AcDbEntity
  8
0
100
AcDbSpline
 62
7
  6
CONTINUOUS
 70
0
 71
3
 72
11
 73
7
 74
0
 42
0.0000001
 43
0.0000001
 44
0.0000000001
 40
0.0
 40
0.0
 40
0.0
 40
0.0
 40
0.2895448512
 40
0.5491358493
 40
0.7822770651
 40
1.0
 40
1.0
 40
1.0
 40
1.0
 10
56.4419074179
 20
31.2519376448
 30
0.0
 10
56.45526011
 20
31.2596467792
 30
0.0
 10
56.4818454254
 20
31.2722772567
 30
0.0
 10
56.5226913592
 20
31.2821644531
 30
0.0
 10
56.5610339615
 20
31.2811980155
 30
0.0
 10
56.584099299
 20
31.2728038166
 30
0.0
 10
56.5941399883
 20
31.2670071961
 30
0.0
  0
SPLINE
  5
409
100
AcDbEntity
  8
0
100
AcDbSpline
 62
7
  6
CONTINUOUS
 70
0
 71
3
 72
12
 73
8
 74
0
 42
0.0000001
 43
0.0000001
 44
0.0000000001
 40
0.0
 40
0.0
 40
0.0
 40
0.0
 40
0.1081605139
 40
0.2183669701
 40
0.4513454431
 40
0.7104428158
 40
1.0
 40
1.0
 40
1.0
 40
1.0
 10
55.8078004556
 20
29.5990136079
 30
0.0
 10
55.7870073256
 20
29.6110182566
 30
0.0
 10
55.7470209028
 20
29.6389114263
 30
0.0
 10
55.6753255844
 20
29.7094680133
 30
0.0
 10
55.6042759263
 20
29.8252479907
 30
0.0
 10
55.5548781963
 20
29.9930896814
 30
0.0
 10
55.5451266778
 20
30.1153138941
 30
0.0
 10
55.5451266778
 20
30.1795904199
 30
0.0
  0
SPLINE
  5
40A
100
AcDbEntity
  8
0
100
AcDbSpline
 62
7
  6
CONTINUOUS
 70
0
 71
3
 72
17
 73
13
 74
0
 42
0.0000001
 43
0.0000001
 44
0.0000000001
 40
0.0
 40
0.0
 40
0.0
 40
0.0
 40
0.0428567916
 40
0.0874847188
 40
0.1353117925
 40
0.187277638
 40
0.3045377072
 40
0.4382000305
 40
0.5825388704
 40
0.729686241
 40
0.8713150959
 40
1.0
 40
1.0
 40
1.0
 40
1.0
 10
56.2896748476
 20
30.7396461432
 30
0.0
 10
56.2821686903
 20
30.7439795454
 30
0.0
 10
56.2679287198
 20
30.7548573385
 30
0.0
 10
56.2508205092
 20
30.7765210693
 30
0.0
 10
56.2380082552
 20
30.8029933403
 30
0.0
 10
56.226534178
 20
30.8455769053
 30
0.0
 10
56.2250793449
 20
30.9076508825
 30
0.0
 10
56.2411485362
 20
30.986436235
 30
0.0
 10
56.2735246705
 20
31.0665647023
 30
0.0
 10
56.3196108558
 20
31.141541971
 30
0.0
 10
56.3756161746
 20
31.2052502005
 30
0.0
 10
56.4193692168
 20
31.238925286
 30
0.0
 10
56.4419074179
 20
31.2519376448
 30
0.0
  0
SPLINE
  5
40B
100
AcDbEntity
  8
0
100
AcDbSpline
 62
7
  6
CONTINUOUS
 70
0
 71
3
 72
11
 73
7
 74
0
 42
0.0000001
 43
0.0000001
 44
0.0000000001
 40
0.0
 40
0.0
 40
0.0
 40
0.0
 40
0.2372542274
 40
0.5000017851
 40
0.7627483734
 40
1.0
 40
1.0
 40
1.0
 40
1.0
 10
57.5743968869
 20
30.2752499281
 30
0.0
 10
57.5743968869
 20
30.2426676563
 30
0.0
 10
57.5621808739
 20
30.1739557724
 30
0.0
 10
57.5195707799
 20
30.0774177879
 30
0.0
 10
57.4572721153
 20
29.9922473514
 30
0.0
 10
57.4038743241
 20
29.9473122142
 30
0.0
 10
57.3756575163
 20
29.9310213299
 30
0.0
  0
SPLINE
  5
40C
100
AcDbEntity
  8
0
100
AcDbSpline
 62
7
  6
CONTINUOUS
 70
0
 71
3
 72
9
 73
5
 74
0
 42
0.0000001
 43
0.0000001
 44
0.0000000001
 40
0.0
 40
0.0
 40
0.0
 40
0.0
 40
0.2793447911
 40
1.0
 40
1.0
 40
1.0
 40
1.0
 10
54.9447209086
 20
28.5275278028
 30
0.0
 10
54.936358461
 20
28.5226997702
 30
0.0
 10
54.9056389275
 20
28.5071015784
 30
0.0
 10
54.8701593986
 20
28.4986876161
 30
0.0
 10
54.8453473235
 20
28.5009041266
 30
0.0
  0
SPLINE
  5
40D
100
AcDbEntity
  8
0
100
AcDbSpline
 62
7
  6
CONTINUOUS
 70
0
 71
3
 72
11
 73
7
 74
0
 42
0.0000001
 43
0.0000001
 44
0.0000000001
 40
0.0
 40
0.0
 40
0.0
 40
0.0
 40
0.2836923423
 40
0.543356836
 40
0.7804234497
 40
1.0
 40
1.0
 40
1.0
 40
1.0
 10
56.3711964454
 20
30.5469287948
 30
0.0
 10
56.3493046083
 20
30.5342896122
 30
0.0
 10
56.3056966412
 20
30.5127901619
 30
0.0
 10
56.2388449493
 20
30.492372125
 30
0.0
 10
56.174889824
 20
30.4858636065
 30
0.0
 10
56.1340573488
 20
30.4913381688
 30
0.0
 10
56.115197759
 20
30.4965460191
 30
0.0
  0
SPLINE
  5
40E
100
AcDbEntity
  8
0
100
AcDbSpline
 62
7
  6
CONTINUOUS
 70
0
 71
3
 72
11
 73
7
 74
0
 42
0.0000001
 43
0.0000001
 44
0.0000000001
 40
0.0
 40
0.0
 40
0.0
 40
0.0
 40
0.2590491451
 40
0.5206752085
 40
0.7715186607
 40
1.0
 40
1.0
 40
1.0
 40
1.0
 10
56.7585972726
 20
31.0507456394
 30
0.0
 10
56.740688497
 20
30.997789768
 30
0.0
 10
56.6952843132
 20
30.8943544935
 30
0.0
 10
56.604752917
 20
30.7538134817
 30
0.0
 10
56.4970402267
 20
30.6346814392
 30
0.0
 10
56.413896481
 20
30.5715815247
 30
0.0
 10
56.3711964454
 20
30.5469287948
 30
0.0
  0
SPLINE
  5
40F
100
AcDbEntity
  8
0
100
AcDbSpline
 62
7
  6
CONTINUOUS
 70
0
 71
3
 72
11
 73
7
 74
0
 42
0.0000001
 43
0.0000001
 44
0.0000000001
 40
0.0
 40
0.0
 40
0.0
 40
0.0
 40
0.2284716633
 40
0.4793235298
 40
0.7409625674
 40
1.0
 40
1.0
 40
1.0
 40
1.0
 10
56.892697559
 20
31.2251437782
 30
0.0
 10
56.8779174035
 20
31.2166105024
 30
0.0
 10
56.8491379506
 20
31.1947672662
 30
0.0
 10
56.8118489571
 20
31.1535314226
 30
0.0
 10
56.780514303
 20
31.1048795322
 30
0.0
 10
56.7647961838
 20
31.069075689
 30
0.0
 10
56.7585972726
 20
31.0507456394
 30
0.0
  0
SPLINE
  5
410
100
AcDbEntity
  8
0
100
AcDbSpline
 62
7
  6
CONTINUOUS
 70
0
 71
3
 72
17
 73
13
 74
0
 42
0.0000001
 43
0.0000001
 44
0.0000000001
 40
0.0
 40
0.0
 40
0.0
 40
0.0
 40
0.128683677
 40
0.2703019317
 40
0.4174419792
 40
0.5617806345
 40
0.6954483591
 40
0.812712644
 40
0.8646793555
 40
0.9125090668
 40
0.9571393752
 40
1.0
 40
1.0
 40
1.0
 40
1.0
 10
56.3711964454
 20
31.2927617203
 30
0.0
 10
56.348658458
 20
31.2797494848
 30
0.0
 10
56.3049070938
 20
31.2460761646
 30
0.0
 10
56.2489040303
 20
31.1823712342
 30
0.0
 10
56.2028176693
 20
31.1073984563
 30
0.0
 10
56.1704401773
 20
31.0272708772
 30
0.0
 10
56.1543690421
 20
30.9484841965
 30
0.0
 10
56.1558212606
 20
30.8864076945
 30
0.0
 10
56.167296332
 20
30.8438228896
 30
0.0
 10
56.1801070437
 20
30.8173485574
 30
0.0
 10
56.1972166847
 20
30.7956834183
 30
0.0
 10
56.2114576965
 20
30.7848051062
 30
0.0
 10
56.2189642792
 20
30.7804708895
 30
0.0
  0
SPLINE
  5
411
100
AcDbEntity
  8
0
100
AcDbSpline
 62
7
  6
CONTINUOUS
 70
0
 71
3
 72
12
 73
8
 74
0
 42
0.0000001
 43
0.0000001
 44
0.0000000001
 40
0.0
 40
0.0
 40
0.0
 40
0.0
 40
0.2895571842
 40
0.5486545569
 40
0.7816330299
 40
0.8918394861
 40
1.0
 40
1.0
 40
1.0
 40
1.0
 10
55.4744157053
 20
30.2204144953
 30
0.0
 10
55.4744157053
 20
30.1561379696
 30
0.0
 10
55.4841672237
 20
30.0339137568
 30
0.0
 10
55.5335649538
 20
29.8660720661
 30
0.0
 10
55.6046146118
 20
29.7502920887
 30
0.0
 10
55.6763099303
 20
29.6797355017
 30
0.0
 10
55.7162963531
 20
29.6518423321
 30
0.0
 10
55.7370894831
 20
29.6398376833
 30
0.0
  0
SPLINE
  5
412
100
AcDbEntity
  8
0
100
AcDbSpline
 62
7
  6
CONTINUOUS
 70
0
 71
3
 72
11
 73
7
 74
0
 42
0.0000001
 43
0.0000001
 44
0.0000000001
 40
0.0
 40
0.0
 40
0.0
 40
0.0
 40
0.2372518718
 40
0.4999985497
 40
0.7627460178
 40
1.0
 40
1.0
 40
1.0
 40
1.0
 10
55.6234702332
 20
30.4923594142
 30
0.0
 10
55.6023076055
 20
30.4801412383
 30
0.0
 10
55.5622592397
 20
30.4464398552
 30
0.0
 10
55.5155352423
 20
30.3825619958
 30
0.0
 10
55.4835777001
 20
30.3101585225
 30
0.0
 10
55.4744157053
 20
30.2586246441
 30
0.0
 10
55.4744157053
 20
30.2341879655
 30
0.0
  0
SPLINE
  5
413
100
AcDbEntity
  8
0
100
AcDbSpline
 62
7
  6
CONTINUOUS
 70
0
 71
3
 72
11
 73
7
 74
0
 42
0.0000001
 43
0.0000001
 44
0.0000000001
 40
0.0
 40
0.0
 40
0.0
 40
0.0
 40
0.2895411595
 40
0.5491183966
 40
0.7822559144
 40
1.0
 40
1.0
 40
1.0
 40
1.0
 10
55.0524012394
 20
30.5749577913
 30
0.0
 10
55.0524012394
 20
30.5642833333
 30
0.0
 10
55.0540311213
 20
30.5439717124
 30
0.0
 10
55.0622422734
 20
30.5160599936
 30
0.0
 10
55.0760929421
 20
30.49340342
 30
0.0
 10
55.0891134625
 20
30.4824822984
 30
0.0
 10
55.0960655465
 20
30.4784686028
 30
0.0
  0
SPLINE
  5
414
100
AcDbEntity
  8
0
100
AcDbSpline
 62
7
  6
CONTINUOUS
 70
0
 71
3
 72
11
 73
7
 74
0
 42
0.0000001
 43
0.0000001
 44
0.0000000001
 40
0.0
 40
0.0
 40
0.0
 40
0.0
 40
0.2372518718
 40
0.4999985497
 40
0.7627460178
 40
1.0
 40
1.0
 40
1.0
 40
1.0
 10
55.2014557673
 20
31.5697444605
 30
0.0
 10
55.1802931395
 20
31.5575262846
 30
0.0
 10
55.1402447738
 20
31.5238249015
 30
0.0
 10
55.0935207764
 20
31.4599470421
 30
0.0
 10
55.0615632342
 20
31.3875435689
 30
0.0
 10
55.0524012394
 20
31.3360096905
 30
0.0
 10
55.0524012394
 20
31.3115730119
 30
0.0
  0
SPLINE
  5
415
100
AcDbEntity
  8
0
100
AcDbSpline
 62
7
  6
CONTINUOUS
 70
0
 71
3
 72
15
 73
11
 74
0
 42
0.0000001
 43
0.0000001
 44
0.0000000001
 40
0.0
 40
0.0
 40
0.0
 40
0.0
 40
0.1141549974
 40
0.2373268943
 40
0.3669765742
 40
0.5000005394
 40
0.633024429
 40
0.7626738905
 40
0.8858454396
 40
1.0
 40
1.0
 40
1.0
 40
1.0
 10
47.1870399285
 20
30.9640023492
 30
0.0
 10
47.2838546696
 20
30.9081075969
 30
0.0
 10
47.4955572221
 20
30.8095274264
 30
0.0
 10
47.8403020076
 20
30.7047477425
 30
0.0
 10
48.2135415377
 20
30.6402525823
 30
0.0
 10
48.6012559261
 20
30.6184933613
 30
0.0
 10
48.9889699978
 20
30.640254432
 30
0.0
 10
49.3622085868
 20
30.7047513729
 30
0.0
 10
49.7069518559
 20
30.8095326905
 30
0.0
 10
49.9186530858
 20
30.9081139114
 30
0.0
 10
50.0154670532
 20
30.9640091479
 30
0.0
  0
SPLINE
  5
416
100
AcDbEntity
  8
0
100
AcDbSpline
 62
7
  6
CONTINUOUS
 70
0
 71
3
 72
14
 73
10
 74
0
 42
0.0000001
 43
0.0000001
 44
0.0000000001
 40
0.0
 40
0.0
 40
0.0
 40
0.0
 40
0.108045758
 40
0.2181291408
 40
0.3321091572
 40
0.4514977165
 40
0.5774414204
 40
0.7107250264
 40
1.0
 40
1.0
 40
1.0
 40
1.0
 10
36.3481600027
 20
37.6999815975
 30
0.0
 10
36.3481600001
 20
37.6621192809
 30
0.0
 10
36.3547495575
 20
37.5855289626
 30
0.0
 10
36.3840766137
 20
37.4723913841
 30
0.0
 10
36.4325455744
 20
37.3617085919
 30
0.0
 10
36.4994457553
 20
37.2545702293
 30
0.0
 10
36.5841120247
 20
37.1519582757
 30
0.0
 10
36.723206817
 20
37.0188280736
 30
0.0
 10
36.8461592447
 20
36.9341775322
 30
0.0
 10
36.9339489138
 20
36.8834932897
 30
0.0
  0
SPLINE
  5
417
100
AcDbEntity
  8
0
100
AcDbSpline
 62
7
  6
CONTINUOUS
 70
0
 71
3
 72
9
 73
5
 74
0
 42
0.0000001
 43
0.0000001
 44
0.0000000001
 40
0.0
 40
0.0
 40
0.0
 40
0.0
 40
0.2476753147
 40
1.0
 40
1.0
 40
1.0
 40
1.0
 10
36.3507568882
 20
49.5163916437
 30
0.0
 10
36.3518755552
 20
49.5290503047
 30
0.0
 10
36.3578366996
 20
49.5800252734
 30
0.0
 10
36.3695926503
 20
49.6302981664
 30
0.0
 10
36.3813387239
 20
49.6670687262
 30
0.0
  0
SPLINE
  5
418
100
AcDbEntity
  8
0
100
AcDbSpline
 62
7
  6
CONTINUOUS
 70
0
 71
3
 72
15
 73
11
 74
0
 42
0.0000001
 43
0.0000001
 44
0.0000000001
 40
0.0
 40
0.0
 40
0.0
 40
0.0
 40
0.1141545727
 40
0.2373261359
 40
0.366975604
 40
0.4999994966
 40
0.6330234588
 40
0.7626731321
 40
0.8858450149
 40
1.0
 40
1.0
 40
1.0
 40
1.0
 10
50.0154670532
 20
42.7216439546
 30
0.0
 10
49.9186530754
 20
42.6657487121
 30
0.0
 10
49.7069518199
 20
42.5671674842
 30
0.0
 10
49.3622085184
 20
42.4623861616
 30
0.0
 10
48.9889699041
 20
42.3978892292
 30
0.0
 10
48.6012558256
 20
42.3761281679
 30
0.0
 10
48.213541444
 20
42.3978873986
 30
0.0
 10
47.8403019392
 20
42.4623825672
 30
0.0
 10
47.4955571861
 20
42.5671622461
 30
0.0
 10
47.2838546591
 20
42.6657424096
 30
0.0
 10
47.1870399285
 20
42.7216371559
 30
0.0
  0
SPLINE
  5
419
100
AcDbEntity
  8
0
100
AcDbSpline
 62
7
  6
CONTINUOUS
 70
0
 71
3
 72
14
 73
10
 74
0
 42
0.0000001
 43
0.0000001
 44
0.0000000001
 40
0.0
 40
0.0
 40
0.0
 40
0.0
 40
0.2892749824
 40
0.422558598
 40
0.5485023015
 40
0.6678908559
 40
0.7818708695
 40
0.8919542479
 40
1.0
 40
1.0
 40
1.0
 40
1.0
 10
36.9339489138
 20
48.6411280964
 30
0.0
 10
36.8461592421
 20
48.6918123404
 30
0.0
 10
36.7232068108
 20
48.7764628876
 30
0.0
 10
36.5841120141
 20
48.909593094
 30
0.0
 10
36.4994457447
 20
49.0122050497
 30
0.0
 10
36.4325455703
 20
49.1193434128
 30
0.0
 10
36.3840766123
 20
49.230026201
 30
0.0
 10
36.3547495555
 20
49.3431637751
 30
0.0
 10
36.3481600036
 20
49.4197540897
 30
0.0
 10
36.3481600027
 20
49.4576164042
 30
0.0
  0
SPLINE
  5
41A
100
AcDbEntity
  8
0
100
AcDbSpline
 62
7
  6
CONTINUOUS
 70
0
 71
3
 72
11
 73
7
 74
0
 42
0.0000001
 43
0.0000001
 44
0.0000000001
 40
0.0
 40
0.0
 40
0.0
 40
0.0
 40
0.2177460211
 40
0.4508843679
 40
0.7104607696
 40
1.0
 40
1.0
 40
1.0
 40
1.0
 10
75.7713925531
 20
46.3024733809
 30
0.0
 10
75.751604903
 20
46.2910490486
 30
0.0
 10
75.7061546004
 20
46.2744965806
 30
0.0
 10
75.6305957542
 20
46.2725985453
 30
0.0
 10
75.5501092481
 20
46.2920799399
 30
0.0
 10
75.4977226401
 20
46.3169680015
 30
0.0
 10
75.4714106818
 20
46.3321588741
 30
0.0
  0
SPLINE
  5
41B
100
AcDbEntity
  8
0
100
AcDbSpline
 62
7
  6
CONTINUOUS
 70
0
 71
3
 72
17
 73
13
 74
0
 42
0.0000001
 43
0.0000001
 44
0.0000000001
 40
0.0
 40
0.0
 40
0.0
 40
0.0
 40
0.0428579803
 40
0.0874855365
 40
0.1353182087
 40
0.1872817653
 40
0.3045429422
 40
0.4382107634
 40
0.5825533132
 40
0.729712045
 40
0.871310822
 40
1.0
 40
1.0
 40
1.0
 40
1.0
 10
78.8205505154
 20
44.2055626782
 30
0.0
 10
78.8427430645
 20
44.2183635921
 30
0.0
 10
78.884797465
 20
44.2505644815
 30
0.0
 10
78.9354177103
 20
44.3145593786
 30
0.0
 10
78.9732357686
 20
44.3928399027
 30
0.0
 10
79.0072147462
 20
44.5186898722
 30
0.0
 10
79.0114752792
 20
44.7021884167
 30
0.0
 10
78.9639779642
 20
44.9350642549
 30
0.0
 10
78.8682770092
 20
45.1719293216
 30
0.0
 10
78.7320318404
 20
45.3935260562
 30
0.0
 10
78.5665079983
 20
45.5818438147
 30
0.0
 10
78.4371827052
 20
45.6813614766
 30
0.0
 10
78.3705605549
 20
45.7198249228
 30
0.0
  0
SPLINE
  5
41C
100
AcDbEntity
  8
0
100
AcDbSpline
 62
7
  6
CONTINUOUS
 70
0
 71
3
 72
11
 73
7
 74
0
 42
0.0000001
 43
0.0000001
 44
0.0000000001
 40
0.0
 40
0.0
 40
0.0
 40
0.0
 40
0.2177843137
 40
0.4509117637
 40
0.7102976701
 40
1.0
 40
1.0
 40
1.0
 40
1.0
 10
79.5776655467
 20
42.6725343985
 30
0.0
 10
79.5446796827
 20
42.6534901294
 30
0.0
 10
79.4688895322
 20
42.625985263
 30
0.0
 10
79.3430033837
 20
42.62279785
 30
0.0
 10
79.2088382521
 20
42.6551963375
 30
0.0
 10
79.1215491041
 20
42.6967214784
 30
0.0
 10
79.07767028
 20
42.7220543562
 30
0.0
  0
SPLINE
  5
41D
100
AcDbEntity
  8
0
100
AcDbSpline
 62
7
  6
CONTINUOUS
 70
0
 71
3
 72
11
 73
7
 74
0
 42
0.0000001
 43
0.0000001
 44
0.0000000001
 40
0.0
 40
0.0
 40
0.0
 40
0.0
 40
0.2292081545
 40
0.4676221361
 40
0.7228340089
 40
1.0
 40
1.0
 40
1.0
 40
1.0
 10
91.9519826979
 20
49.8168070913
 30
0.0
 10
91.9763572671
 20
49.8308796757
 30
0.0
 10
92.0225588926
 20
49.8661664962
 30
0.0
 10
92.0784085918
 20
49.9361301158
 30
0.0
 10
92.1203703165
 20
50.0216715396
 30
0.0
 10
92.1379492774
 20
50.0850138399
 30
0.0
 10
92.1445704645
 20
50.1183977705
 30
0.0
  0
SPLINE
  5
41E
100
AcDbEntity
  8
0
100
AcDbSpline
 62
7
  6
CONTINUOUS
 70
0
 71
3
 72
11
 73
7
 74
0
 42
0.0000001
 43
0.0000001
 44
0.0000000001
 40
0.0
 40
0.0
 40
0.0
 40
0.0
 40
0.2177708978
 40
0.4509069655
 40
0.7103767312
 40
1.0
 40
1.0
 40
1.0
 40
1.0
 10
80.284768742
 20
43.3024803604
 30
0.0
 10
80.2517767288
 20
43.2834518384
 30
0.0
 10
80.1760116495
 20
43.255895185
 30
0.0
 10
80.0500998407
 20
43.2527358233
 30
0.0
 10
79.9159438871
 20
43.2851539175
 30
0.0
 10
79.8286466263
 20
43.3266629887
 30
0.0
 10
79.7847800052
 20
43.3519888213
 30
0.0
  0
SPLINE
  5
41F
100
AcDbEntity
  8
0
100
AcDbSpline
 62
7
  6
CONTINUOUS
 70
0
 71
3
 72
17
 73
13
 74
0
 42
0.0000001
 43
0.0000001
 44
0.0000000001
 40
0.0
 40
0.0
 40
0.0
 40
0.0
 40
0.0428585858
 40
0.087486285
 40
0.1353183907
 40
0.1872813365
 40
0.3045400647
 40
0.4382041791
 40
0.5825467842
 40
0.7297090047
 40
0.8713108814
 40
1.0
 40
1.0
 40
1.0
 40
1.0
 10
92.6590864442
 20
50.4467520175
 30
0.0
 10
92.6837457959
 20
50.4609745342
 30
0.0
 10
92.7304755042
 20
50.4967512508
 30
0.0
 10
92.7867203155
 20
50.567857307
 30
0.0
 10
92.8287410809
 20
50.654834858
 30
0.0
 10
92.8664911275
 20
50.7946673547
 30
0.0
 10
92.871226427
 20
50.998549697
 30
0.0
 10
92.8184578726
 20
51.2572985875
 30
0.0
 10
92.7121250029
 20
51.5204836495
 30
0.0
 10
92.5607357943
 20
51.7667049639
 30
0.0
 10
92.376817126
 20
51.975950239
 30
0.0
 10
92.2331219222
 20
52.0865290967
 30
0.0
 10
92.1590971564
 20
52.1292663483
 30
0.0
  0
SPLINE
  5
420
100
AcDbEntity
  8
0
100
AcDbSpline
 62
7
  6
CONTINUOUS
 70
0
 71
3
 72
11
 73
7
 74
0
 42
0.0000001
 43
0.0000001
 44
0.0000000001
 40
0.0
 40
0.0
 40
0.0
 40
0.0
 40
0.2304033673
 40
0.4846037853
 40
0.7469318827
 40
1.0
 40
1.0
 40
1.0
 40
1.0
 10
92.1590971564
 20
52.697633635
 30
0.0
 10
92.1590971564
 20
52.7626262529
 30
0.0
 10
92.1393889598
 20
52.8994724106
 30
0.0
 10
92.06700236
 20
53.0985488612
 30
0.0
 10
91.9568064872
 20
53.2868829914
 30
0.0
 10
91.8611019267
 20
53.3978041632
 30
0.0
 10
91.8088375618
 20
53.4464291327
 30
0.0
  0
SPLINE
  5
421
100
AcDbEntity
  8
0
100
AcDbSpline
 62
7
  6
CONTINUOUS
 70
0
 71
3
 72
13
 73
9
 74
0
 42
0.0000001
 43
0.0000001
 44
0.0000000001
 40
0.0
 40
0.0
 40
0.0
 40
0.0
 40
0.1142259181
 40
0.2375599982
 40
0.5000010158
 40
0.7624414734
 40
0.8857749255
 40
1.0
 40
1.0
 40
1.0
 40
1.0
 10
88.4821265856
 20
58.9627515502
 30
0.0
 10
88.4821265856
 20
59.0186320202
 30
0.0
 10
88.4718745333
 20
59.1349644593
 30
0.0
 10
88.4163027939
 20
59.3737754209
 30
0.0
 10
88.2871491408
 20
59.6666798583
 30
0.0
 10
88.098062303
 20
59.9249813759
 30
0.0
 10
87.9190314676
 20
60.0925115864
 30
0.0
 10
87.8234106834
 20
60.1595551672
 30
0.0
 10
87.7750168605
 20
60.1874947218
 30
0.0
  0
SPLINE
  5
422
100
AcDbEntity
  8
0
100
AcDbSpline
 62
7
  6
CONTINUOUS
 70
0
 71
3
 72
13
 73
9
 74
0
 42
0.0000001
 43
0.0000001
 44
0.0000000001
 40
0.0
 40
0.0
 40
0.0
 40
0.0
 40
0.1142250362
 40
0.2375584228
 40
0.4999988469
 40
0.762439898
 40
0.8857740437
 40
1.0
 40
1.0
 40
1.0
 40
1.0
 10
86.7850632453
 20
60.7590317781
 30
0.0
 10
86.7366694386
 20
60.7869713234
 30
0.0
 10
86.6410486863
 20
60.8540148606
 30
0.0
 10
86.4620179008
 20
61.0215450269
 30
0.0
 10
86.2729310519
 20
61.2798464909
 30
0.0
 10
86.143777347
 20
61.5727509455
 30
0.0
 10
86.0882055943
 20
61.8115619725
 30
0.0
 10
86.0779535201
 20
61.9278944611
 30
0.0
 10
86.0779535201
 20
61.9837749498
 30
0.0
  0
SPLINE
  5
423
100
AcDbEntity
  8
0
100
AcDbSpline
 62
7
  6
CONTINUOUS
 70
0
 71
3
 72
11
 73
7
 74
0
 42
0.0000001
 43
0.0000001
 44
0.0000000001
 40
0.0
 40
0.0
 40
0.0
 40
0.0
 40
0.2177843137
 40
0.4509117637
 40
0.7102976701
 40
1.0
 40
1.0
 40
1.0
 40
1.0
 10
75.9006949759
 20
72.931428135
 30
0.0
 10
75.867709112
 20
72.9123838658
 30
0.0
 10
75.7919189614
 20
72.8848789994
 30
0.0
 10
75.6660328129
 20
72.8816915864
 30
0.0
 10
75.5318676813
 20
72.9140900739
 30
0.0
 10
75.4445785333
 20
72.9556152148
 30
0.0
 10
75.4006997092
 20
72.9809480926
 30
0.0
  0
SPLINE
  5
424
100
AcDbEntity
  8
0
100
AcDbSpline
 62
7
  6
CONTINUOUS
 70
0
 71
3
 72
9
 73
5
 74
0
 42
0.0000001
 43
0.0000001
 44
0.0000000001
 40
0.0
 40
0.0
 40
0.0
 40
0.0
 40
0.4751229606
 40
1.0
 40
1.0
 40
1.0
 40
1.0
 10
79.6398009415
 20
75.0881748673
 30
0.0
 10
79.6109462496
 20
75.0715122157
 30
0.0
 10
79.5417775931
 20
75.0499387572
 30
0.0
 10
79.4704373879
 20
75.0562076254
 30
0.0
 10
79.4345204106
 20
75.0642641185
 30
0.0
  0
SPLINE
  5
425
100
AcDbEntity
  8
0
100
AcDbSpline
 62
7
  6
CONTINUOUS
 70
0
 71
3
 72
11
 73
7
 74
0
 42
0.0000001
 43
0.0000001
 44
0.0000000001
 40
0.0
 40
0.0
 40
0.0
 40
0.0
 40
0.2177770099
 40
0.4509126738
 40
0.7102789474
 40
1.0
 40
1.0
 40
1.0
 40
1.0
 10
92.0141180927
 20
82.2324475602
 30
0.0
 10
92.0372068211
 20
82.2457805492
 30
0.0
 10
92.0804038069
 20
82.2821041924
 30
0.0
 10
92.1264042708
 20
82.3572975113
 30
0.0
 10
92.1537210363
 20
82.4499750576
 30
0.0
 10
92.1590971564
 20
82.5174266587
 30
0.0
 10
92.1590971564
 20
82.5528965162
 30
0.0
  0
SPLINE
  5
426
100
AcDbEntity
  8
0
100
AcDbSpline
 62
7
  6
CONTINUOUS
 70
0
 71
3
 72
13
 73
9
 74
0
 42
0.0000001
 43
0.0000001
 44
0.0000000001
 40
0.0
 40
0.0
 40
0.0
 40
0.0
 40
0.1142259181
 40
0.2375599982
 40
0.5000010158
 40
0.7624414734
 40
0.8857749255
 40
1.0
 40
1.0
 40
1.0
 40
1.0
 10
92.1590971564
 20
84.9759414396
 30
0.0
 10
92.1590971564
 20
85.0318219096
 30
0.0
 10
92.1488451041
 20
85.1481543487
 30
0.0
 10
92.0932733646
 20
85.3869653103
 30
0.0
 10
91.9641197116
 20
85.6798697477
 30
0.0
 10
91.7750328738
 20
85.9381712653
 30
0.0
 10
91.5960020384
 20
86.1057014758
 30
0.0
 10
91.5003812542
 20
86.1727450566
 30
0.0
 10
91.4519874313
 20
86.2006846112
 30
0.0
  0
SPLINE
  5
427
100
AcDbEntity
  8
0
100
AcDbSpline
 62
7
  6
CONTINUOUS
 70
0
 71
3
 72
11
 73
7
 74
0
 42
0.0000001
 43
0.0000001
 44
0.0000000001
 40
0.0
 40
0.0
 40
0.0
 40
0.0
 40
0.2177708978
 40
0.4509069655
 40
0.7103767312
 40
1.0
 40
1.0
 40
1.0
 40
1.0
 10
80.284768742
 20
75.9274826492
 30
0.0
 10
80.2517767288
 20
75.9084541272
 30
0.0
 10
80.1760116495
 20
75.8808974738
 30
0.0
 10
80.0500998407
 20
75.8777381121
 30
0.0
 10
79.9159438871
 20
75.9101562063
 30
0.0
 10
79.8286466263
 20
75.9516652775
 30
0.0
 10
79.7847800052
 20
75.9769911101
 30
0.0
  0
SPLINE
  5
428
100
AcDbEntity
  8
0
100
AcDbSpline
 62
7
  6
CONTINUOUS
 70
0
 71
3
 72
17
 73
13
 74
0
 42
0.0000001
 43
0.0000001
 44
0.0000000001
 40
0.0
 40
0.0
 40
0.0
 40
0.0
 40
0.0428585858
 40
0.087486285
 40
0.1353183907
 40
0.1872813365
 40
0.3045400647
 40
0.4382041791
 40
0.5825467842
 40
0.7297090047
 40
0.8713108814
 40
1.0
 40
1.0
 40
1.0
 40
1.0
 10
92.6590864442
 20
83.0717543064
 30
0.0
 10
92.6837457959
 20
83.0859768231
 30
0.0
 10
92.7304755042
 20
83.1217535396
 30
0.0
 10
92.7867203155
 20
83.1928595959
 30
0.0
 10
92.8287410809
 20
83.2798371468
 30
0.0
 10
92.8664911275
 20
83.4196696435
 30
0.0
 10
92.871226427
 20
83.6235519859
 30
0.0
 10
92.8184578726
 20
83.8823008763
 30
0.0
 10
92.7121250029
 20
84.1454859383
 30
0.0
 10
92.5607357943
 20
84.3917072528
 30
0.0
 10
92.376817126
 20
84.6009525279
 30
0.0
 10
92.2331219222
 20
84.7115313855
 30
0.0
 10
92.1590971564
 20
84.7542686371
 30
0.0
  0
SPLINE
  5
429
100
AcDbEntity
  8
0
100
AcDbSpline
 62
7
  6
CONTINUOUS
 70
0
 71
3
 72
17
 73
13
 74
0
 42
0.0000001
 43
0.0000001
 44
0.0000000001
 40
0.0
 40
0.0
 40
0.0
 40
0.0
 40
0.0428579803
 40
0.0874855365
 40
0.1353182087
 40
0.1872817653
 40
0.3045429422
 40
0.4382107634
 40
0.5825533132
 40
0.729712045
 40
0.871310822
 40
1.0
 40
1.0
 40
1.0
 40
1.0
 10
78.8205505154
 20
76.830564967
 30
0.0
 10
78.8427430645
 20
76.8433658809
 30
0.0
 10
78.884797465
 20
76.8755667704
 30
0.0
 10
78.9354177103
 20
76.9395616674
 30
0.0
 10
78.9732357686
 20
77.0178421916
 30
0.0
 10
79.0072147462
 20
77.143692161
 30
0.0
 10
79.0114752792
 20
77.3271907055
 30
0.0
 10
78.9639779642
 20
77.5600665437
 30
0.0
 10
78.8682770092
 20
77.7969316104
 30
0.0
 10
78.7320318404
 20
78.0185283451
 30
0.0
 10
78.5665079983
 20
78.2068461035
 30
0.0
 10
78.4371827052
 20
78.3063637654
 30
0.0
 10
78.3705605549
 20
78.3448272117
 30
0.0
  0
SPLINE
  5
42A
100
AcDbEntity
  8
0
100
AcDbSpline
 62
7
  6
CONTINUOUS
 70
0
 71
3
 72
9
 73
5
 74
0
 42
0.0000001
 43
0.0000001
 44
0.0000000001
 40
0.0
 40
0.0
 40
0.0
 40
0.0
 40
0.2417395605
 40
1.0
 40
1.0
 40
1.0
 40
1.0
 10
83.0595489193
 20
84.2102991751
 30
0.0
 10
82.9979438477
 20
84.2570005262
 30
0.0
 10
82.7479244811
 20
84.4565144195
 30
0.0
 10
82.5169857727
 20
84.6795599742
 30
0.0
 10
82.3529007249
 20
84.8580946668
 30
0.0
  0
SPLINE
  5
42B
100
AcDbEntity
  8
0
100
AcDbSpline
 62
7
  6
CONTINUOUS
 70
0
 71
3
 72
9
 73
5
 74
0
 42
0.0000001
 43
0.0000001
 44
0.0000000001
 40
0.0
 40
0.0
 40
0.0
 40
0.0
 40
0.2293901529
 40
1.0
 40
1.0
 40
1.0
 40
1.0
 10
82.3529007249
 20
84.8580946668
 30
0.0
 10
82.3053223593
 20
84.8618571709
 30
0.0
 10
82.0990529038
 20
84.893095457
 30
0.0
 10
81.9034374721
 20
84.9772728445
 30
0.0
 10
81.7645841967
 20
85.0574380068
 30
0.0
  0
SPLINE
  5
42C
100
AcDbEntity
  8
0
100
AcDbSpline
 62
7
  6
CONTINUOUS
 70
0
 71
3
 72
11
 73
7
 74
0
 42
0.0000001
 43
0.0000001
 44
0.0000000001
 40
0.0
 40
0.0
 40
0.0
 40
0.0
 40
0.2284833052
 40
0.4793197089
 40
0.740963909
 40
1.0
 40
1.0
 40
1.0
 40
1.0
 10
81.7645841967
 20
85.0574380068
 30
0.0
 10
81.6173790173
 20
85.1424250341
 30
0.0
 10
81.3307486539
 20
85.3599412824
 30
0.0
 10
80.9593670113
 20
85.7705977282
 30
0.0
 10
80.6472324739
 20
86.2550691837
 30
0.0
 10
80.4906360422
 20
86.6116199741
 30
0.0
 10
80.4288615352
 20
86.7941565744
 30
0.0
  0
SPLINE
  5
42D
100
AcDbEntity
  8
0
100
AcDbSpline
 62
7
  6
CONTINUOUS
 70
0
 71
3
 72
11
 73
7
 74
0
 42
0.0000001
 43
0.0000001
 44
0.0000000001
 40
0.0
 40
0.0
 40
0.0
 40
0.0
 40
0.2177833598
 40
0.4509104088
 40
0.7102966711
 40
1.0
 40
1.0
 40
1.0
 40
1.0
 10
74.8400303882
 20
75.176794101
 30
0.0
 10
74.8730169805
 20
75.1958388112
 30
0.0
 10
74.934733539
 20
75.2477237988
 30
0.0
 10
75.0004381301
 20
75.355153797
 30
0.0
 10
75.0394627933
 20
75.487547494
 30
0.0
 10
75.0471448467
 20
75.5839075769
 30
0.0
 10
75.0471448467
 20
75.6345757213
 30
0.0
  0
SPLINE
  5
42E
100
AcDbEntity
  8
0
100
AcDbSpline
 62
7
  6
CONTINUOUS
 70
0
 71
3
 72
9
 73
5
 74
0
 42
0.0000001
 43
0.0000001
 44
0.0000000001
 40
0.0
 40
0.0
 40
0.0
 40
0.0
 40
0.5000089437
 40
1.0
 40
1.0
 40
1.0
 40
1.0
 10
70.9808712337
 20
73.5665874956
 30
0.0
 10
70.8996489216
 20
73.6676820081
 30
0.0
 10
70.7530729908
 20
73.8830062524
 30
0.0
 10
70.6399407264
 20
74.1176341309
 30
0.0
 10
70.5930337431
 20
74.2385295244
 30
0.0
  0
SPLINE
  5
42F
100
AcDbEntity
  8
0
100
AcDbSpline
 62
7
  6
CONTINUOUS
 70
0
 71
3
 72
11
 73
7
 74
0
 42
0.0000001
 43
0.0000001
 44
0.0000000001
 40
0.0
 40
0.0
 40
0.0
 40
0.0
 40
0.2895401978
 40
0.5491171512
 40
0.782255066
 40
1.0
 40
1.0
 40
1.0
 40
1.0
 10
75.0471448467
 20
79.3654060991
 30
0.0
 10
75.0471448467
 20
79.395789273
 30
0.0
 10
75.0517840766
 20
79.4536031841
 30
0.0
 10
75.0751559181
 20
79.5330496894
 30
0.0
 10
75.1145797974
 20
79.5975384017
 30
0.0
 10
75.1516407305
 20
79.6286240094
 30
0.0
 10
75.1714288104
 20
79.6400485899
 30
0.0
  0
SPLINE
  5
430
100
AcDbEntity
  8
0
100
AcDbSpline
 62
7
  6
CONTINUOUS
 70
0
 71
3
 72
11
 73
7
 74
0
 42
0.0000001
 43
0.0000001
 44
0.0000000001
 40
0.0
 40
0.0
 40
0.0
 40
0.0
 40
0.2856911477
 40
0.5454248048
 40
0.7814343601
 40
1.0
 40
1.0
 40
1.0
 40
1.0
 10
78.3705605549
 20
78.3448272117
 30
0.0
 10
78.3360866172
 20
78.3647302986
 30
0.0
 10
78.2674520249
 20
78.3982081833
 30
0.0
 10
78.1621458995
 20
78.4284111145
 30
0.0
 10
78.0619606019
 20
78.4349503272
 30
0.0
 10
77.9988655515
 20
78.4225751408
 30
0.0
 10
77.9701867298
 20
78.4123298896
 30
0.0
  0
SPLINE
  5
431
100
AcDbEntity
  8
0
100
AcDbSpline
 62
7
  6
CONTINUOUS
 70
0
 71
3
 72
11
 73
7
 74
0
 42
0.0000001
 43
0.0000001
 44
0.0000000001
 40
0.0
 40
0.0
 40
0.0
 40
0.0
 40
0.289702329
 40
0.5490881649
 40
0.7822156415
 40
1.0
 40
1.0
 40
1.0
 40
1.0
 10
74.410746094
 20
73.5524851489
 30
0.0
 10
74.36686727
 20
73.5778180267
 30
0.0
 10
74.2795781399
 20
73.6193431772
 30
0.0
 10
74.1454130101
 20
73.6517416522
 30
0.0
 10
74.0195268683
 20
73.6485542379
 30
0.0
 10
73.9437366893
 20
73.6210493951
 30
0.0
 10
73.9107508274
 20
73.6020051066
 30
0.0
  0
SPLINE
  5
432
100
AcDbEntity
  8
0
100
AcDbSpline
 62
7
  6
CONTINUOUS
 70
0
 71
3
 72
11
 73
7
 74
0
 42
0.0000001
 43
0.0000001
 44
0.0000000001
 40
0.0
 40
0.0
 40
0.0
 40
0.0
 40
0.289702329
 40
0.5490881649
 40
0.7822156415
 40
1.0
 40
1.0
 40
1.0
 40
1.0
 10
76.3906533245
 20
46.8628990355
 30
0.0
 10
76.3599381476
 20
46.8806320499
 30
0.0
 10
76.2988357566
 20
46.9096996553
 30
0.0
 10
76.2049201657
 20
46.9323785878
 30
0.0
 10
76.1167998664
 20
46.9301473978
 30
0.0
 10
76.0637467412
 20
46.9108940078
 30
0.0
 10
76.0406566378
 20
46.8975630059
 30
0.0
  0
SPLINE
  5
433
100
AcDbEntity
  8
0
100
AcDbSpline
 62
7
  6
CONTINUOUS
 70
0
 71
3
 72
11
 73
7
 74
0
 42
0.0000001
 43
0.0000001
 44
0.0000000001
 40
0.0
 40
0.0
 40
0.0
 40
0.0
 40
0.2372523758
 40
0.4999990758
 40
0.7627462798
 40
1.0
 40
1.0
 40
1.0
 40
1.0
 10
75.4714106818
 20
46.3321588741
 30
0.0
 10
75.4111738888
 20
46.366935816
 30
0.0
 10
75.2971810762
 20
46.4628612957
 30
0.0
 10
75.1641867362
 20
46.6446798665
 30
0.0
 10
75.0732233634
 20
46.8507656025
 30
0.0
 10
75.0471448467
 20
46.9974493191
 30
0.0
 10
75.0471448467
 20
47.0670047771
 30
0.0
  0
SPLINE
  5
434
100
AcDbEntity
  8
0
100
AcDbSpline
 62
7
  6
CONTINUOUS
 70
0
 71
3
 72
13
 73
9
 74
0
 42
0.0000001
 43
0.0000001
 44
0.0000000001
 40
0.0
 40
0.0
 40
0.0
 40
0.0
 40
0.1142259181
 40
0.2375599982
 40
0.5000010158
 40
0.7624414734
 40
0.8857749255
 40
1.0
 40
1.0
 40
1.0
 40
1.0
 10
75.0471448467
 20
50.7978351549
 30
0.0
 10
75.0471448467
 20
50.8537156249
 30
0.0
 10
75.0368927943
 20
50.9700480641
 30
0.0
 10
74.9813210549
 20
51.2088590257
 30
0.0
 10
74.8521674019
 20
51.5017634631
 30
0.0
 10
74.6630805641
 20
51.7600649806
 30
0.0
 10
74.4840497286
 20
51.9275951911
 30
0.0
 10
74.3884289444
 20
51.994638772
 30
0.0
 10
74.3400351215
 20
52.0225783266
 30
0.0
  0
SPLINE
  5
435
100
AcDbEntity
  8
0
100
AcDbSpline
 62
7
  6
CONTINUOUS
 70
0
 71
3
 72
9
 73
5
 74
0
 42
0.0000001
 43
0.0000001
 44
0.0000000001
 40
0.0
 40
0.0
 40
0.0
 40
0.0
 40
0.5204382316
 40
1.0
 40
1.0
 40
1.0
 40
1.0
 10
72.3247724049
 20
53.186064477
 30
0.0
 10
72.1432311436
 20
53.3892973197
 30
0.0
 10
71.7681860354
 20
53.7573993287
 30
0.0
 10
71.340150343
 20
54.0641628663
 30
0.0
 10
71.1226858721
 20
54.1897131968
 30
0.0
  0
SPLINE
  5
436
100
AcDbEntity
  8
0
100
AcDbSpline
 62
7
  6
CONTINUOUS
 70
0
 71
3
 72
9
 73
5
 74
0
 42
0.0000001
 43
0.0000001
 44
0.0000000001
 40
0.0
 40
0.0
 40
0.0
 40
0.0
 40
0.5295640843
 40
1.0
 40
1.0
 40
1.0
 40
1.0
 10
71.1226858721
 20
54.1897131968
 30
0.0
 10
70.9371340416
 20
54.2968391726
 30
0.0
 10
70.5687008891
 20
54.4704840831
 30
0.0
 10
70.1684957031
 20
54.5584764103
 30
0.0
 10
69.9785835736
 20
54.5711269308
 30
0.0
  0
SPLINE
  5
437
100
AcDbEntity
  8
0
100
AcDbSpline
 62
7
  6
CONTINUOUS
 70
0
 71
3
 72
9
 73
5
 74
0
 42
0.0000001
 43
0.0000001
 44
0.0000000001
 40
0.0
 40
0.0
 40
0.0
 40
0.0
 40
0.5194735343
 40
1.0
 40
1.0
 40
1.0
 40
1.0
 10
69.9785835736
 20
54.5711269308
 30
0.0
 10
69.8888188531
 20
54.6676773499
 30
0.0
 10
69.7042428058
 20
54.8430431064
 30
0.0
 10
69.4958777568
 20
54.9901246413
 30
0.0
 10
69.3902670455
 20
55.0510976344
 30
0.0
  0
SPLINE
  5
438
100
AcDbEntity
  8
0
100
AcDbSpline
 62
7
  6
CONTINUOUS
 70
0
 71
3
 72
12
 73
8
 74
0
 42
0.0000001
 43
0.0000001
 44
0.0000000001
 40
0.0
 40
0.0
 40
0.0
 40
0.0
 40
0.2895661473
 40
0.5486457354
 40
0.7816337778
 40
0.8918382293
 40
1.0
 40
1.0
 40
1.0
 40
1.0
 10
69.3902670455
 20
55.0510976344
 30
0.0
 10
69.2980939669
 20
55.1043125823
 30
0.0
 10
69.114760456
 20
55.1915227374
 30
0.0
 10
68.8331854184
 20
55.2596249404
 30
0.0
 10
68.6083409413
 20
55.2536196877
 30
0.0
 10
68.4478125469
 20
55.209202222
 30
0.0
 10
68.3747083452
 20
55.1749636058
 30
0.0
 10
68.3402774332
 20
55.1550887343
 30
0.0
  0
SPLINE
  5
439
100
AcDbEntity
  8
0
100
AcDbSpline
 62
7
  6
CONTINUOUS
 70
0
 71
3
 72
9
 73
5
 74
0
 42
0.0000001
 43
0.0000001
 44
0.0000000001
 40
0.0
 40
0.0
 40
0.0
 40
0.0
 40
0.5080379532
 40
1.0
 40
1.0
 40
1.0
 40
1.0
 10
70.5930337431
 20
57.3369294898
 30
0.0
 10
70.6155573698
 20
57.36897315
 30
0.0
 10
70.666246066
 20
57.427907601
 30
0.0
 10
70.7287514396
 20
57.4743104175
 30
0.0
 10
70.7615983842
 20
57.4932744936
 30
0.0
  0
SPLINE
  5
43A
100
AcDbEntity
  8
0
100
AcDbSpline
 62
7
  6
CONTINUOUS
 70
0
 71
3
 72
13
 73
9
 74
0
 42
0.0000001
 43
0.0000001
 44
0.0000000001
 40
0.0
 40
0.0
 40
0.0
 40
0.0
 40
0.1142250362
 40
0.2375584228
 40
0.4999988469
 40
0.762439898
 40
0.8857740437
 40
1.0
 40
1.0
 40
1.0
 40
1.0
 10
79.07767028
 20
79.0564119185
 30
0.0
 10
79.1260640867
 20
79.0284723732
 30
0.0
 10
79.221684839
 20
78.961428836
 30
0.0
 10
79.4007156245
 20
78.7938986697
 30
0.0
 10
79.5898024734
 20
78.5355972057
 30
0.0
 10
79.7189561783
 20
78.242692751
 30
0.0
 10
79.774527931
 20
78.0038817241
 30
0.0
 10
79.7847800052
 20
77.8875492355
 30
0.0
 10
79.7847800052
 20
77.8316687468
 30
0.0
  0
SPLINE
  5
43B
100
AcDbEntity
  8
0
100
AcDbSpline
 62
7
  6
CONTINUOUS
 70
0
 71
3
 72
17
 73
13
 74
0
 42
0.0000001
 43
0.0000001
 44
0.0000000001
 40
0.0
 40
0.0
 40
0.0
 40
0.0
 40
0.1286881222
 40
0.2702818383
 40
0.4174372881
 40
0.561779096
 40
0.6954477395
 40
0.8127095278
 40
0.8646743529
 40
0.9125077163
 40
0.9571384033
 40
1.0
 40
1.0
 40
1.0
 40
1.0
 10
79.7847800052
 20
77.6099959443
 30
0.0
 10
79.8588041656
 20
77.5672590422
 30
0.0
 10
80.0024949513
 20
77.4566845919
 30
0.0
 10
80.1864068406
 20
77.2474478477
 30
0.0
 10
80.3377939667
 20
77.0012378406
 30
0.0
 10
80.4441313116
 20
76.7380573779
 30
0.0
 10
80.4969081167
 20
76.4793045797
 30
0.0
 10
80.4921718875
 20
76.2754175372
 30
0.0
 10
80.4544317213
 20
76.1355774342
 30
0.0
 10
80.4124053444
 20
76.0485986537
 30
0.0
 10
80.3561660703
 20
75.977481765
 30
0.0
 10
80.3094297949
 20
75.9417061944
 30
0.0
 10
80.284768742
 20
75.9274826492
 30
0.0
  0
SPLINE
  5
43C
100
AcDbEntity
  8
0
100
AcDbSpline
 62
7
  6
CONTINUOUS
 70
0
 71
3
 72
11
 73
7
 74
0
 42
0.0000001
 43
0.0000001
 44
0.0000000001
 40
0.0
 40
0.0
 40
0.0
 40
0.0
 40
0.2897210679
 40
0.5490874123
 40
0.7822230377
 40
1.0
 40
1.0
 40
1.0
 40
1.0
 10
79.7847800052
 20
75.4086238234
 30
0.0
 10
79.7847800052
 20
75.3731539641
 30
0.0
 10
79.7794038729
 20
75.3057023535
 30
0.0
 10
79.7520871123
 20
75.2130248012
 30
0.0
 10
79.7060866479
 20
75.1378314816
 30
0.0
 10
79.6628896626
 20
75.1015078572
 30
0.0
 10
79.6398009415
 20
75.0881748673
 30
0.0
  0
SPLINE
  5
43D
100
AcDbEntity
  8
0
100
AcDbSpline
 62
7
  6
CONTINUOUS
 70
0
 71
3
 72
11
 73
7
 74
0
 42
0.0000001
 43
0.0000001
 44
0.0000000001
 40
0.0
 40
0.0
 40
0.0
 40
0.0
 40
0.2897033281
 40
0.5490895198
 40
0.7822165953
 40
1.0
 40
1.0
 40
1.0
 40
1.0
 10
76.1078094344
 20
73.3892097552
 30
0.0
 10
76.1078094344
 20
73.3385416108
 30
0.0
 10
76.1001273982
 20
73.2421815388
 30
0.0
 10
76.0611027252
 20
73.1097878495
 30
0.0
 10
75.9953981363
 20
73.0023578577
 30
0.0
 10
75.933681584
 20
72.9504728338
 30
0.0
 10
75.9006949759
 20
72.931428135
 30
0.0
  0
SPLINE
  5
43E
100
AcDbEntity
  8
0
100
AcDbSpline
 62
7
  6
CONTINUOUS
 70
0
 71
3
 72
13
 73
9
 74
0
 42
0.0000001
 43
0.0000001
 44
0.0000000001
 40
0.0
 40
0.0
 40
0.0
 40
0.0
 40
0.1142259181
 40
0.2375599982
 40
0.5000010158
 40
0.7624414734
 40
0.8857749255
 40
1.0
 40
1.0
 40
1.0
 40
1.0
 10
73.7036363689
 20
54.839502257
 30
0.0
 10
73.7036363689
 20
54.783621787
 30
0.0
 10
73.7138884212
 20
54.6672893479
 30
0.0
 10
73.7694601607
 20
54.4284783863
 30
0.0
 10
73.8986138137
 20
54.1355739488
 30
0.0
 10
74.0877006515
 20
53.8772724313
 30
0.0
 10
74.2667314869
 20
53.7097422208
 30
0.0
 10
74.3623522711
 20
53.64269864
 30
0.0
 10
74.410746094
 20
53.6147590854
 30
0.0
  0
SPLINE
  5
43F
100
AcDbEntity
  8
0
100
AcDbSpline
 62
7
  6
CONTINUOUS
 70
0
 71
3
 72
13
 73
9
 74
0
 42
0.0000001
 43
0.0000001
 44
0.0000000001
 40
0.0
 40
0.0
 40
0.0
 40
0.0
 40
0.1142250362
 40
0.2375584228
 40
0.4999988469
 40
0.762439898
 40
0.8857740437
 40
1.0
 40
1.0
 40
1.0
 40
1.0
 10
75.4006997092
 20
53.0432220291
 30
0.0
 10
75.4490935159
 20
53.0152824838
 30
0.0
 10
75.5447142682
 20
52.9482389466
 30
0.0
 10
75.7237450537
 20
52.7807087803
 30
0.0
 10
75.9128319026
 20
52.5224073163
 30
0.0
 10
76.0419856075
 20
52.2295028616
 30
0.0
 10
76.0975573602
 20
51.9906918347
 30
0.0
 10
76.1078094344
 20
51.8743593461
 30
0.0
 10
76.1078094344
 20
51.8184788574
 30
0.0
  0
SPLINE
  5
440
100
AcDbEntity
  8
0
100
AcDbSpline
 62
7
  6
CONTINUOUS
 70
0
 71
3
 72
11
 73
7
 74
0
 42
0.0000001
 43
0.0000001
 44
0.0000000001
 40
0.0
 40
0.0
 40
0.0
 40
0.0
 40
0.2530682265
 40
0.5153963557
 40
0.7695967351
 40
1.0
 40
1.0
 40
1.0
 40
1.0
 10
79.4345204105
 20
46.30215644
 30
0.0
 10
79.486784798
 20
46.2535314495
 30
0.0
 10
79.5824893803
 20
46.1426102422
 30
0.0
 10
79.6926852517
 20
45.9542760775
 30
0.0
 10
79.7650718226
 20
45.7551996492
 30
0.0
 10
79.7847800052
 20
45.6183535312
 30
0.0
 10
79.7847800052
 20
45.5533609422
 30
0.0
  0
SPLINE
  5
441
100
AcDbEntity
  8
0
100
AcDbSpline
 62
7
  6
CONTINUOUS
 70
0
 71
3
 72
17
 73
13
 74
0
 42
0.0000001
 43
0.0000001
 44
0.0000000001
 40
0.0
 40
0.0
 40
0.0
 40
0.0
 40
0.1286881222
 40
0.2702818383
 40
0.4174372881
 40
0.561779096
 40
0.6954477395
 40
0.8127095278
 40
0.8646743529
 40
0.9125077163
 40
0.9571384033
 40
1.0
 40
1.0
 40
1.0
 40
1.0
 10
79.7847800052
 20
44.9849936555
 30
0.0
 10
79.8588041656
 20
44.9422567534
 30
0.0
 10
80.0024949513
 20
44.831682303
 30
0.0
 10
80.1864068406
 20
44.6224455589
 30
0.0
 10
80.3377939667
 20
44.3762355518
 30
0.0
 10
80.4441313116
 20
44.1130550891
 30
0.0
 10
80.4969081167
 20
43.8543022909
 30
0.0
 10
80.4921718875
 20
43.6504152483
 30
0.0
 10
80.4544317213
 20
43.5105751454
 30
0.0
 10
80.4124053444
 20
43.4235963649
 30
0.0
 10
80.3561660703
 20
43.3524794762
 30
0.0
 10
80.3094297949
 20
43.3167039055
 30
0.0
 10
80.284768742
 20
43.3024803604
 30
0.0
  0
SPLINE
  5
442
100
AcDbEntity
  8
0
100
AcDbSpline
 62
7
  6
CONTINUOUS
 70
0
 71
3
 72
11
 73
7
 74
0
 42
0.0000001
 43
0.0000001
 44
0.0000000001
 40
0.0
 40
0.0
 40
0.0
 40
0.0
 40
0.2897033281
 40
0.5490895198
 40
0.7822165953
 40
1.0
 40
1.0
 40
1.0
 40
1.0
 10
79.7847800052
 20
43.1303160188
 30
0.0
 10
79.7847800052
 20
43.0796478744
 30
0.0
 10
79.777097969
 20
42.9832878024
 30
0.0
 10
79.7380732959
 20
42.8508941131
 30
0.0
 10
79.6723687071
 20
42.7434641213
 30
0.0
 10
79.6106521548
 20
42.6915790974
 30
0.0
 10
79.5776655467
 20
42.6725343985
 30
0.0
  0
SPLINE
  5
443
100
AcDbEntity
  8
0
100
AcDbSpline
 62
7
  6
CONTINUOUS
 70
0
 71
3
 72
9
 73
5
 74
0
 42
0.0000001
 43
0.0000001
 44
0.0000000001
 40
0.0
 40
0.0
 40
0.0
 40
0.0
 40
0.5250716896
 40
1.0
 40
1.0
 40
1.0
 40
1.0
 10
77.9701867298
 20
44.6449193068
 30
0.0
 10
78.0248251859
 20
44.5623105822
 30
0.0
 10
78.1440174025
 20
44.4144404844
 30
0.0
 10
78.292977414
 20
44.2949122059
 30
0.0
 10
78.3705605549
 20
44.250120572
 30
0.0
  0
SPLINE
  5
444
100
AcDbEntity
  8
0
100
AcDbSpline
 62
7
  6
CONTINUOUS
 70
0
 71
3
 72
11
 73
7
 74
0
 42
0.0000001
 43
0.0000001
 44
0.0000000001
 40
0.0
 40
0.0
 40
0.0
 40
0.0
 40
0.2896403952
 40
0.5491094116
 40
0.7822346475
 40
1.0
 40
1.0
 40
1.0
 40
1.0
 10
78.3705605549
 20
44.250120572
 30
0.0
 10
78.4100429785
 20
44.2273258998
 30
0.0
 10
78.4886127553
 20
44.1899663262
 30
0.0
 10
78.6093544916
 20
44.1607874577
 30
0.0
 10
78.7226723385
 20
44.1636372104
 30
0.0
 10
78.7908590026
 20
44.1884362771
 30
0.0
 10
78.8205505154
 20
44.2055626782
 30
0.0
  0
SPLINE
  5
445
100
AcDbEntity
  8
0
100
AcDbSpline
 62
7
  6
CONTINUOUS
 70
0
 71
3
 72
9
 73
5
 74
0
 42
0.0000001
 43
0.0000001
 44
0.0000000001
 40
0.0
 40
0.0
 40
0.0
 40
0.0
 40
0.491988687
 40
1.0
 40
1.0
 40
1.0
 40
1.0
 10
70.7615983842
 20
57.4932744936
 30
0.0
 10
70.794389165
 20
57.5122061437
 30
0.0
 10
70.8656935315
 20
57.5430942173
 30
0.0
 10
70.9419320079
 20
57.557541354
 30
0.0
 10
70.9808712337
 20
57.5610454905
 30
0.0
  0
SPLINE
  5
446
100
AcDbEntity
  8
0
100
AcDbSpline
 62
7
  6
CONTINUOUS
 70
0
 71
3
 72
11
 73
7
 74
0
 42
0.0000001
 43
0.0000001
 44
0.0000000001
 40
0.0
 40
0.0
 40
0.0
 40
0.0
 40
0.2895401978
 40
0.5491171512
 40
0.782255066
 40
1.0
 40
1.0
 40
1.0
 40
1.0
 10
75.8956765168
 20
46.5771158717
 30
0.0
 10
75.8956765168
 20
46.5467326978
 30
0.0
 10
75.891037287
 20
46.4889187867
 30
0.0
 10
75.8676654454
 20
46.4094722814
 30
0.0
 10
75.8282415662
 20
46.3449835691
 30
0.0
 10
75.791180633
 20
46.3138979613
 30
0.0
 10
75.7713925531
 20
46.3024733809
 30
0.0
  0
SPLINE
  5
447
100
AcDbEntity
  8
0
100
AcDbSpline
 62
7
  6
CONTINUOUS
 70
0
 71
3
 72
11
 73
7
 74
0
 42
0.0000001
 43
0.0000001
 44
0.0000000001
 40
0.0
 40
0.0
 40
0.0
 40
0.0
 40
0.2213376665
 40
0.456037152
 40
0.7140180034
 40
1.0
 40
1.0
 40
1.0
 40
1.0
 10
68.3402774332
 20
55.1550887343
 30
0.0
 10
68.2767026794
 20
55.1183908956
 30
0.0
 10
68.1572570139
 20
55.02099778
 30
0.0
 10
68.0244317404
 20
54.8215036802
 30
0.0
 10
67.9382429212
 20
54.575792618
 30
0.0
 10
67.913757265
 20
54.3959036229
 30
0.0
 10
67.908351339
 20
54.3012123529
 30
0.0
  0
SPLINE
  5
448
100
AcDbEntity
  8
0
100
AcDbSpline
 62
7
  6
CONTINUOUS
 70
0
 71
3
 72
11
 73
7
 74
0
 42
0.0000001
 43
0.0000001
 44
0.0000000001
 40
0.0
 40
0.0
 40
0.0
 40
0.0
 40
0.2177460211
 40
0.4508843679
 40
0.7104607696
 40
1.0
 40
1.0
 40
1.0
 40
1.0
 10
75.1714288104
 20
79.6400485899
 30
0.0
 10
75.1912164605
 20
79.6514729222
 30
0.0
 10
75.2366667631
 20
79.6680253901
 30
0.0
 10
75.3122256094
 20
79.6699234254
 30
0.0
 10
75.3927121154
 20
79.6504420309
 30
0.0
 10
75.4450987234
 20
79.6255539692
 30
0.0
 10
75.4714106818
 20
79.6103630966
 30
0.0
  0
SPLINE
  5
449
100
AcDbEntity
  8
0
100
AcDbSpline
 62
7
  6
CONTINUOUS
 70
0
 71
3
 72
11
 73
7
 74
0
 42
0.0000001
 43
0.0000001
 44
0.0000000001
 40
0.0
 40
0.0
 40
0.0
 40
0.0
 40
0.2177833598
 40
0.4509104088
 40
0.7102966711
 40
1.0
 40
1.0
 40
1.0
 40
1.0
 10
73.9107508274
 20
73.6020051066
 30
0.0
 10
73.8777642351
 20
73.5829603964
 30
0.0
 10
73.8160476766
 20
73.5310754088
 30
0.0
 10
73.7503430855
 20
73.4236454106
 30
0.0
 10
73.7113184223
 20
73.2912517135
 30
0.0
 10
73.7036363689
 20
73.1948916307
 30
0.0
 10
73.7036363689
 20
73.1442234863
 30
0.0
  0
SPLINE
  5
44A
100
AcDbEntity
  8
0
100
AcDbSpline
 62
7
  6
CONTINUOUS
 70
0
 71
3
 72
11
 73
7
 74
0
 42
0.0000001
 43
0.0000001
 44
0.0000000001
 40
0.0
 40
0.0
 40
0.0
 40
0.0
 40
0.2177833598
 40
0.4509104088
 40
0.7102966711
 40
1.0
 40
1.0
 40
1.0
 40
1.0
 10
76.0406566378
 20
46.8975630059
 30
0.0
 10
76.0175660232
 20
46.8842317087
 30
0.0
 10
75.9743644322
 20
46.8479122174
 30
0.0
 10
75.9283712185
 20
46.7727112187
 30
0.0
 10
75.9010539542
 20
46.6800356307
 30
0.0
 10
75.8956765168
 20
46.6125835727
 30
0.0
 10
75.8956765168
 20
46.5771158717
 30
0.0
  0
SPLINE
  5
44B
100
AcDbEntity
  8
0
100
AcDbSpline
 62
7
  6
CONTINUOUS
 70
0
 71
3
 72
9
 73
5
 74
0
 42
0.0000001
 43
0.0000001
 44
0.0000000001
 40
0.0
 40
0.0
 40
0.0
 40
0.0
 40
0.256931751
 40
1.0
 40
1.0
 40
1.0
 40
1.0
 10
70.6678515373
 20
77.0792660866
 30
0.0
 10
70.7051124965
 20
77.0507446259
 30
0.0
 10
70.8517861027
 20
76.9419241498
 30
0.0
 10
71.0051587352
 20
76.8420228437
 30
0.0
 10
71.1226858721
 20
76.7741700546
 30
0.0
  0
SPLINE
  5
44C
100
AcDbEntity
  8
0
100
AcDbSpline
 62
7
  6
CONTINUOUS
 70
0
 71
3
 72
9
 73
5
 74
0
 42
0.0000001
 43
0.0000001
 44
0.0000000001
 40
0.0
 40
0.0
 40
0.0
 40
0.0
 40
0.274521549
 40
1.0
 40
1.0
 40
1.0
 40
1.0
 10
71.1226858721
 20
76.7741700546
 30
0.0
 10
71.2232174621
 20
76.7161294271
 30
0.0
 10
71.598045741
 20
76.521925901
 30
0.0
 10
72.0181888722
 20
76.4005884953
 30
0.0
 10
72.3247724049
 20
76.389800209
 30
0.0
  0
SPLINE
  5
44D
100
AcDbEntity
  8
0
100
AcDbSpline
 62
7
  6
CONTINUOUS
 70
0
 71
3
 72
11
 73
7
 74
0
 42
0.0000001
 43
0.0000001
 44
0.0000000001
 40
0.0
 40
0.0
 40
0.0
 40
0.0
 40
0.289702329
 40
0.5490881649
 40
0.7822156415
 40
1.0
 40
1.0
 40
1.0
 40
1.0
 10
74.3400351215
 20
75.2263140586
 30
0.0
 10
74.3839139456
 20
75.2009811809
 30
0.0
 10
74.4712030756
 20
75.1594560304
 30
0.0
 10
74.6053682054
 20
75.1270575554
 30
0.0
 10
74.7312543473
 20
75.1302449696
 30
0.0
 10
74.8070445262
 20
75.1577498125
 30
0.0
 10
74.8400303882
 20
75.176794101
 30
0.0
  0
SPLINE
  5
44E
100
AcDbEntity
  8
0
100
AcDbSpline
 62
7
  6
CONTINUOUS
 70
0
 71
3
 72
11
 73
7
 74
0
 42
0.0000001
 43
0.0000001
 44
0.0000000001
 40
0.0
 40
0.0
 40
0.0
 40
0.0
 40
0.2372523758
 40
0.4999990758
 40
0.7627462798
 40
1.0
 40
1.0
 40
1.0
 40
1.0
 10
75.4714106818
 20
79.6103630966
 30
0.0
 10
75.5316474747
 20
79.5755861548
 30
0.0
 10
75.6456402873
 20
79.479660675
 30
0.0
 10
75.7786346274
 20
79.2978421042
 30
0.0
 10
75.8695980001
 20
79.0917563682
 30
0.0
 10
75.8956765168
 20
78.9450726516
 30
0.0
 10
75.8956765168
 20
78.8755171937
 30
0.0
  0
SPLINE
  5
44F
100
AcDbEntity
  8
0
100
AcDbSpline
 62
7
  6
CONTINUOUS
 70
0
 71
3
 72
13
 73
9
 74
0
 42
0.0000001
 43
0.0000001
 44
0.0000000001
 40
0.0
 40
0.0
 40
0.0
 40
0.0
 40
0.1142259181
 40
0.2375599982
 40
0.5000010158
 40
0.7624414734
 40
0.8857749255
 40
1.0
 40
1.0
 40
1.0
 40
1.0
 10
81.5878641728
 20
54.9823710499
 30
0.0
 10
81.5878641728
 20
55.0382515199
 30
0.0
 10
81.5776121205
 20
55.1545839591
 30
0.0
 10
81.522040381
 20
55.3933949207
 30
0.0
 10
81.392886728
 20
55.6862993581
 30
0.0
 10
81.2037998902
 20
55.9446008756
 30
0.0
 10
81.0247690548
 20
56.1121310861
 30
0.0
 10
80.9291482706
 20
56.179174667
 30
0.0
 10
80.8807544477
 20
56.2071142216
 30
0.0
  0
SPLINE
  5
450
100
AcDbEntity
  8
0
100
AcDbSpline
 62
7
  6
CONTINUOUS
 70
0
 71
3
 72
13
 73
9
 74
0
 42
0.0000001
 43
0.0000001
 44
0.0000000001
 40
0.0
 40
0.0
 40
0.0
 40
0.0
 40
0.1142250362
 40
0.2375584228
 40
0.4999988469
 40
0.762439898
 40
0.8857740437
 40
1.0
 40
1.0
 40
1.0
 40
1.0
 10
79.8908008324
 20
56.7786512779
 30
0.0
 10
79.8424070258
 20
56.8065908231
 30
0.0
 10
79.7467862735
 20
56.8736343603
 30
0.0
 10
79.567755488
 20
57.0411645267
 30
0.0
 10
79.3786686391
 20
57.2994659907
 30
0.0
 10
79.2495149342
 20
57.5923704453
 30
0.0
 10
79.1939431814
 20
57.8311814722
 30
0.0
 10
79.1836911073
 20
57.9475139608
 30
0.0
 10
79.1836911073
 20
58.0033944495
 30
0.0
  0
SPLINE
  5
451
100
AcDbEntity
  8
0
100
AcDbSpline
 62
7
  6
CONTINUOUS
 70
0
 71
3
 72
11
 73
7
 74
0
 42
0.0000001
 43
0.0000001
 44
0.0000000001
 40
0.0
 40
0.0
 40
0.0
 40
0.0
 40
0.2372413576
 40
0.5000010231
 40
0.762760128
 40
1.0
 40
1.0
 40
1.0
 40
1.0
 10
75.8956765168
 20
78.8755171937
 30
0.0
 10
75.8956765168
 20
78.7943731126
 30
0.0
 10
75.9261132448
 20
78.6232467323
 30
0.0
 10
76.0321912122
 20
78.3827849701
 30
0.0
 10
76.1873988603
 20
78.170688974
 30
0.0
 10
76.3203805315
 20
78.0587680716
 30
0.0
 10
76.3906533245
 20
78.0181969735
 30
0.0
  0
SPLINE
  5
452
100
AcDbEntity
  8
0
100
AcDbSpline
 62
7
  6
CONTINUOUS
 70
0
 71
3
 72
11
 73
7
 74
0
 42
0.0000001
 43
0.0000001
 44
0.0000000001
 40
0.0
 40
0.0
 40
0.0
 40
0.0
 40
0.2896403952
 40
0.5491094116
 40
0.7822346475
 40
1.0
 40
1.0
 40
1.0
 40
1.0
 10
78.3705605549
 20
76.8751228608
 30
0.0
 10
78.4100429785
 20
76.8523281886
 30
0.0
 10
78.4886127553
 20
76.8149686151
 30
0.0
 10
78.6093544916
 20
76.7857897466
 30
0.0
 10
78.7226723385
 20
76.7886394993
 30
0.0
 10
78.7908590026
 20
76.8134385659
 30
0.0
 10
78.8205505154
 20
76.830564967
 30
0.0
  0
SPLINE
  5
453
100
AcDbEntity
  8
0
100
AcDbSpline
 62
7
  6
CONTINUOUS
 70
0
 71
3
 72
11
 73
7
 74
0
 42
0.0000001
 43
0.0000001
 44
0.0000000001
 40
0.0
 40
0.0
 40
0.0
 40
0.0
 40
0.2177438688
 40
0.4508811915
 40
0.7104582954
 40
1.0
 40
1.0
 40
1.0
 40
1.0
 10
64.4921945638
 20
42.1184436001
 30
0.0
 10
64.4921945689
 20
42.1412919377
 30
0.0
 10
64.5005848959
 20
42.1889285485
 30
0.0
 10
64.5367209193
 20
42.2553122082
 30
0.0
 10
64.5938360487
 20
42.3152736646
 30
0.0
 10
64.6415833255
 20
42.3481970008
 30
0.0
 10
64.6678951569
 20
42.3633880531
 30
0.0
  0
SPLINE
  5
454
100
AcDbEntity
  8
0
100
AcDbSpline
 62
7
  6
CONTINUOUS
 70
0
 71
3
 72
15
 73
11
 74
0
 42
0.0000001
 43
0.0000001
 44
0.0000000001
 40
0.0
 40
0.0
 40
0.0
 40
0.0
 40
0.1165580925
 40
0.2411373524
 40
0.3711962267
 40
0.5038449195
 40
0.6359637812
 40
0.7644718999
 40
0.8865953406
 40
1.0
 40
1.0
 40
1.0
 40
1.0
 10
60.2247626896
 20
33.7524182033
 30
0.0
 10
60.3277792168
 20
33.8047584962
 30
0.0
 10
60.5496601583
 20
33.8962516941
 30
0.0
 10
60.905952777
 20
33.9915847389
 30
0.0
 10
61.2866832515
 20
34.0471729666
 30
0.0
 10
61.6786060522
 20
34.0611417744
 30
0.0
 10
62.0682303335
 20
34.0329600532
 30
0.0
 10
62.4421611569
 20
33.9636436377
 30
0.0
 10
62.7874051984
 20
33.8555372707
 30
0.0
 10
62.9996606156
 20
33.7557756296
 30
0.0
 10
63.0970234641
 20
33.6995644344
 30
0.0
  0
SPLINE
  5
455
100
AcDbEntity
  8
0
100
AcDbSpline
 62
7
  6
CONTINUOUS
 70
0
 71
3
 72
9
 73
5
 74
0
 42
0.0000001
 43
0.0000001
 44
0.0000000001
 40
0.0
 40
0.0
 40
0.0
 40
0.0
 40
0.2725619985
 40
1.0
 40
1.0
 40
1.0
 40
1.0
 10
63.0970234641
 20
33.6995644344
 30
0.0
 10
63.1461091985
 20
33.6712254136
 30
0.0
 10
63.3213979765
 20
33.5598267064
 30
0.0
 10
63.4780956464
 20
33.4143828446
 30
0.0
 10
63.5638261538
 20
33.289751784
 30
0.0
  0
SPLINE
  5
456
100
AcDbEntity
  8
0
100
AcDbSpline
 62
7
  6
CONTINUOUS
 70
0
 71
3
 72
9
 73
5
 74
0
 42
0.0000001
 43
0.0000001
 44
0.0000000001
 40
0.0
 40
0.0
 40
0.0
 40
0.0
 40
0.2578633203
 40
1.0
 40
1.0
 40
1.0
 40
1.0
 10
63.5638261538
 20
33.289751784
 30
0.0
 10
63.6443179568
 20
33.2717827269
 30
0.0
 10
63.9549709357
 20
33.1957062593
 30
0.0
 10
64.259554214
 20
33.0937429646
 30
0.0
 10
64.4783092716
 20
33.0016245259
 30
0.0
  0
SPLINE
  5
457
100
AcDbEntity
  8
0
100
AcDbSpline
 62
7
  6
CONTINUOUS
 70
0
 71
3
 72
11
 73
7
 74
0
 42
0.0000001
 43
0.0000001
 44
0.0000000001
 40
0.0
 40
0.0
 40
0.0
 40
0.0
 40
0.2177817009
 40
0.4509079353
 40
0.7102947134
 40
1.0
 40
1.0
 40
1.0
 40
1.0
 10
69.0908740811
 20
46.2291643016
 30
0.0
 10
69.0908740881
 20
46.1910758879
 30
0.0
 10
69.1049496434
 20
46.1116875773
 30
0.0
 10
69.1651342072
 20
46.0010742592
 30
0.0
 10
69.2602774453
 20
45.9010843584
 30
0.0
 10
69.3398858208
 20
45.8462533772
 30
0.0
 10
69.383765254
 20
45.8209201478
 30
0.0
  0
SPLINE
  5
458
100
AcDbEntity
  8
0
100
AcDbSpline
 62
7
  6
CONTINUOUS
 70
0
 71
3
 72
13
 73
9
 74
0
 42
0.0000001
 43
0.0000001
 44
0.0000000001
 40
0.0
 40
0.0
 40
0.0
 40
0.0
 40
0.1142253587
 40
0.237559206
 40
0.5000004539
 40
0.7624414493
 40
0.885775028
 40
1.0
 40
1.0
 40
1.0
 40
1.0
 10
66.9508200416
 20
24.7386518281
 30
0.0
 10
66.999213898
 20
24.7107122541
 30
0.0
 10
67.1050866666
 20
24.6614257993
 30
0.0
 10
67.339688678
 20
24.5901486801
 30
0.0
 10
67.6579278435
 20
24.5555478154
 30
0.0
 10
67.9761667439
 20
24.5901501151
 30
0.0
 10
68.2107679391
 20
24.6614284096
 30
0.0
 10
68.3166401129
 20
24.7107153991
 30
0.0
 10
68.365033604
 20
24.7386552274
 30
0.0
  0
SPLINE
  5
459
100
AcDbEntity
  8
0
100
AcDbSpline
 62
7
  6
CONTINUOUS
 70
0
 71
3
 72
17
 73
13
 74
0
 42
0.0000001
 43
0.0000001
 44
0.0000000001
 40
0.0
 40
0.0
 40
0.0
 40
0.0
 40
0.1286889502
 40
0.2702836189
 40
0.4174399011
 40
0.5617822414
 40
0.6954509723
 40
0.8127122805
 40
0.8646766214
 40
0.912509344
 40
0.9571392561
 40
1.0
 40
1.0
 40
1.0
 40
1.0
 10
68.5570057108
 20
24.8494897134
 30
0.0
 10
68.6310295492
 20
24.8067529971
 30
0.0
 10
68.7986354826
 20
24.7376032805
 30
0.0
 10
69.0717949117
 20
24.6829519242
 30
0.0
 10
69.3607109626
 20
24.6749527703
 30
0.0
 10
69.6417985325
 20
24.7144512992
 30
0.0
 10
69.8922712937
 20
24.7981190755
 30
0.0
 10
70.0664732828
 20
24.9041608724
 30
0.0
 10
70.1687076942
 20
25.00676173
 30
0.0
 10
70.2230200211
 20
25.0866444603
 30
0.0
 10
70.2564893241
 20
25.1709049175
 30
0.0
 10
70.2641038423
 20
25.2292657764
 30
0.0
 10
70.2640913399
 20
25.2577337738
 30
0.0
  0
SPLINE
  5
45A
100
AcDbEntity
  8
0
100
AcDbSpline
 62
7
  6
CONTINUOUS
 70
0
 71
3
 72
11
 73
7
 74
0
 42
0.0000001
 43
0.0000001
 44
0.0000000001
 40
0.0
 40
0.0
 40
0.0
 40
0.0
 40
0.2897225438
 40
0.5490892313
 40
0.7822242333
 40
1.0
 40
1.0
 40
1.0
 40
1.0
 10
70.4634283266
 20
25.9501567537
 30
0.0
 10
70.4941452242
 20
25.9678910569
 30
0.0
 10
70.5498702943
 20
26.0062712432
 30
0.0
 10
70.6164711609
 20
26.0762642008
 30
0.0
 10
70.6585891719
 20
26.1536952127
 30
0.0
 10
70.6684477139
 20
26.2092644677
 30
0.0
 10
70.668450132
 20
26.2359252771
 30
0.0
  0
SPLINE
  5
45B
100
AcDbEntity
  8
0
100
AcDbSpline
 62
7
  6
CONTINUOUS
 70
0
 71
3
 72
13
 73
9
 74
0
 42
0.0000001
 43
0.0000001
 44
0.0000000001
 40
0.0
 40
0.0
 40
0.0
 40
0.0
 40
0.1142249338
 40
0.2375584468
 40
0.4999994088
 40
0.7624406902
 40
0.885774603
 40
1.0
 40
1.0
 40
1.0
 40
1.0
 10
85.2359336509
 20
41.5008152157
 30
0.0
 10
85.2843271258
 20
41.5287550347
 30
0.0
 10
85.3901992459
 20
41.5780420183
 30
0.0
 10
85.6248003778
 20
41.6493202917
 30
0.0
 10
85.9430392374
 20
41.6839226278
 30
0.0
 10
86.2612784438
 20
41.6493217994
 30
0.0
 10
86.4958805183
 20
41.578044659
 30
0.0
 10
86.6017533407
 20
41.5287581984
 30
0.0
 10
86.6501472133
 20
41.5008186151
 30
0.0
  0
SPLINE
  5
45C
100
AcDbEntity
  8
0
100
AcDbSpline
 62
7
  6
CONTINUOUS
 70
0
 71
3
 72
13
 73
9
 74
0
 42
0.0000001
 43
0.0000001
 44
0.0000000001
 40
0.0
 40
0.0
 40
0.0
 40
0.0
 40
0.1142253587
 40
0.237559206
 40
0.5000004539
 40
0.7624414493
 40
0.885775028
 40
1.0
 40
1.0
 40
1.0
 40
1.0
 10
87.6401008285
 20
40.9292815588
 30
0.0
 10
87.6884946849
 20
40.9013419848
 30
0.0
 10
87.7943674535
 20
40.85205553
 30
0.0
 10
88.0289694649
 20
40.7807784108
 30
0.0
 10
88.3472086304
 20
40.7461775461
 30
0.0
 10
88.6654475308
 20
40.7807798458
 30
0.0
 10
88.900048726
 20
40.8520581403
 30
0.0
 10
89.0059208998
 20
40.9013451298
 30
0.0
 10
89.0543143909
 20
40.9292849581
 30
0.0
  0
SPLINE
  5
45D
100
AcDbEntity
  8
0
100
AcDbSpline
 62
7
  6
CONTINUOUS
 70
0
 71
3
 72
11
 73
7
 74
0
 42
0.0000001
 43
0.0000001
 44
0.0000000001
 40
0.0
 40
0.0
 40
0.0
 40
0.0
 40
0.2530693203
 40
0.5153981224
 40
0.7695982521
 40
1.0
 40
1.0
 40
1.0
 40
1.0
 10
95.4949476347
 20
40.806464059
 30
0.0
 10
95.5631907094
 20
40.7855151335
 30
0.0
 10
95.7071039287
 20
40.758094558
 30
0.0
 10
95.9253038762
 20
40.7568302445
 30
0.0
 10
96.1339015124
 20
40.7936797921
 30
0.0
 10
96.2622671557
 20
40.845034386
 30
0.0
 10
96.318551963
 20
40.8775302407
 30
0.0
  0
SPLINE
  5
45E
100
AcDbEntity
  8
0
100
AcDbSpline
 62
7
  6
CONTINUOUS
 70
0
 71
3
 72
17
 73
13
 74
0
 42
0.0000001
 43
0.0000001
 44
0.0000000001
 40
0.0
 40
0.0
 40
0.0
 40
0.0
 40
0.1286889502
 40
0.2702836189
 40
0.4174399011
 40
0.5617822414
 40
0.6954509723
 40
0.8127122805
 40
0.8646766214
 40
0.912509344
 40
0.9571392561
 40
1.0
 40
1.0
 40
1.0
 40
1.0
 10
96.8107669043
 20
41.1617089733
 30
0.0
 10
96.8847907428
 20
41.118972257
 30
0.0
 10
97.0523966762
 20
41.0498225404
 30
0.0
 10
97.3255561053
 20
40.9951711841
 30
0.0
 10
97.6144721562
 20
40.9871720302
 30
0.0
 10
97.8955597261
 20
41.0266705591
 30
0.0
 10
98.1460324873
 20
41.1103383354
 30
0.0
 10
98.3202344764
 20
41.2163801323
 30
0.0
 10
98.4224688877
 20
41.3189809899
 30
0.0
 10
98.4767812146
 20
41.3988637202
 30
0.0
 10
98.5102505177
 20
41.4831241774
 30
0.0
 10
98.5178650359
 20
41.5414850363
 30
0.0
 10
98.5178525335
 20
41.5699530337
 30
0.0
  0
SPLINE
  5
45F
100
AcDbEntity
  8
0
100
AcDbSpline
 62
7
  6
CONTINUOUS
 70
0
 71
3
 72
11
 73
7
 74
0
 42
0.0000001
 43
0.0000001
 44
0.0000000001
 40
0.0
 40
0.0
 40
0.0
 40
0.0
 40
0.2771651677
 40
0.5323768021
 40
0.7707911331
 40
1.0
 40
1.0
 40
1.0
 40
1.0
 10
98.5449594942
 20
42.1797170474
 30
0.0
 10
98.5705573347
 20
42.20214164
 30
0.0
 10
98.6166186224
 20
42.2490333029
 30
0.0
 10
98.6697126479
 20
42.3281376031
 30
0.0
 10
98.7023742721
 20
42.411479572
 30
0.0
 10
98.7098319758
 20
42.469129676
 30
0.0
 10
98.7098319705
 20
42.4972725215
 30
0.0
  0
SPLINE
  5
460
100
AcDbEntity
  8
0
100
AcDbSpline
 62
7
  6
CONTINUOUS
 70
0
 71
3
 72
11
 73
7
 74
0
 42
0.0000001
 43
0.0000001
 44
0.0000000001
 40
0.0
 40
0.0
 40
0.0
 40
0.0
 40
0.2177817009
 40
0.4509079353
 40
0.7102947134
 40
1.0
 40
1.0
 40
1.0
 40
1.0
 10
93.2823267863
 20
57.7366522178
 30
0.0
 10
93.2823267912
 20
57.7099903282
 30
0.0
 10
93.2921796799
 20
57.6544185108
 30
0.0
 10
93.3343088746
 20
57.5769891881
 30
0.0
 10
93.4009091413
 20
57.5069962576
 30
0.0
 10
93.4566350041
 20
57.4686145707
 30
0.0
 10
93.4873506074
 20
57.4508813101
 30
0.0
  0
SPLINE
  5
461
100
AcDbEntity
  8
0
100
AcDbSpline
 62
7
  6
CONTINUOUS
 70
0
 71
3
 72
11
 73
7
 74
0
 42
0.0000001
 43
0.0000001
 44
0.0000000001
 40
0.0
 40
0.0
 40
0.0
 40
0.0
 40
0.262275874
 40
0.5232451855
 40
0.7721958346
 40
1.0
 40
1.0
 40
1.0
 40
1.0
 10
88.4800337467
 20
56.492069441
 30
0.0
 10
88.5628456398
 20
56.4812594082
 30
0.0
 10
88.7298990439
 20
56.4720896271
 30
0.0
 10
88.9756704351
 20
56.4938767016
 30
0.0
 10
89.2047931015
 20
56.5496154596
 30
0.0
 10
89.3450377109
 20
56.6106579047
 30
0.0
 10
89.4078574776
 20
56.6469266974
 30
0.0
  0
SPLINE
  5
462
100
AcDbEntity
  8
0
100
AcDbSpline
 62
7
  6
CONTINUOUS
 70
0
 71
3
 72
11
 73
7
 74
0
 42
0.0000001
 43
0.0000001
 44
0.0000000001
 40
0.0
 40
0.0
 40
0.0
 40
0.0
 40
0.2372524156
 40
0.4999996414
 40
0.7627470637
 40
1.0
 40
1.0
 40
1.0
 40
1.0
 10
92.6388148156
 20
58.5123096514
 30
0.0
 10
92.6990512625
 20
58.5470869727
 30
0.0
 10
92.8391218593
 20
58.5978435282
 30
0.0
 10
93.0630783404
 20
58.6221100744
 30
0.0
 10
93.2870350817
 20
58.5978445021
 30
0.0
 10
93.4271061231
 20
58.5470886542
 30
0.0
 10
93.487342953
 20
58.512311691
 30
0.0
  0
SPLINE
  5
463
100
AcDbEntity
  8
0
100
AcDbSpline
 62
7
  6
CONTINUOUS
 70
0
 71
3
 72
11
 73
7
 74
0
 42
0.0000001
 43
0.0000001
 44
0.0000000001
 40
0.0
 40
0.0
 40
0.0
 40
0.0
 40
0.2895421522
 40
0.5491196247
 40
0.782256727
 40
1.0
 40
1.0
 40
1.0
 40
1.0
 10
93.487342953
 20
58.512311691
 30
0.0
 10
93.5136552732
 20
58.4971206095
 30
0.0
 10
93.5614034478
 20
58.4641971114
 30
0.0
 10
93.6185197776
 20
58.4042352287
 30
0.0
 10
93.6546565505
 20
58.3378509074
 30
0.0
 10
93.663047084
 20
58.290213768
 30
0.0
 10
93.6630470789
 20
58.2673651989
 30
0.0
  0
SPLINE
  5
464
100
AcDbEntity
  8
0
100
AcDbSpline
 62
7
  6
CONTINUOUS
 70
0
 71
3
 72
17
 73
13
 74
0
 42
0.0000001
 43
0.0000001
 44
0.0000000001
 40
0.0
 40
0.0
 40
0.0
 40
0.0
 40
0.1286888525
 40
0.2702802895
 40
0.4174331647
 40
0.5617754839
 40
0.695448121
 40
0.8127120865
 40
0.8646770447
 40
0.9125101515
 40
0.9571398234
 40
1.0
 40
1.0
 40
1.0
 40
1.0
 10
95.4672578378
 20
56.3078071975
 30
0.0
 10
95.5338790585
 20
56.2693442879
 30
0.0
 10
95.6847211454
 20
56.2071083296
 30
0.0
 10
95.9305602058
 20
56.1579226685
 30
0.0
 10
96.1905799893
 20
56.1507255272
 30
0.0
 10
96.4435581277
 20
56.1862739706
 30
0.0
 10
96.6689881997
 20
56.2615707931
 30
0.0
 10
96.8257748825
 20
56.3570092587
 30
0.0
 10
96.9177847009
 20
56.4493536487
 30
0.0
 10
96.9666661284
 20
56.5212481965
 30
0.0
 10
96.9967869667
 20
56.5970825059
 30
0.0
 10
97.0036426049
 20
56.6496060866
 30
0.0
 10
97.0036324273
 20
56.6752268752
 30
0.0
  0
SPLINE
  5
465
100
AcDbEntity
  8
0
100
AcDbSpline
 62
7
  6
CONTINUOUS
 70
0
 71
3
 72
11
 73
7
 74
0
 42
0.0000001
 43
0.0000001
 44
0.0000000001
 40
0.0
 40
0.0
 40
0.0
 40
0.0
 40
0.2897052857
 40
0.5490919933
 40
0.7822182543
 40
1.0
 40
1.0
 40
1.0
 40
1.0
 10
98.4169407976
 20
57.1943089751
 30
0.0
 10
98.4608202308
 20
57.1689757456
 30
0.0
 10
98.5404286056
 20
57.1141447848
 30
0.0
 10
98.635571832
 20
57.0141548793
 30
0.0
 10
98.6957563914
 20
56.9035415664
 30
0.0
 10
98.7098319812
 20
56.824153243
 30
0.0
 10
98.7098319705
 20
56.7860648213
 30
0.0
  0
SPLINE
  5
466
100
AcDbEntity
  8
0
100
AcDbSpline
 62
7
  6
CONTINUOUS
 70
0
 71
3
 72
11
 73
7
 74
0
 42
0.0000001
 43
0.0000001
 44
0.0000000001
 40
0.0
 40
0.0
 40
0.0
 40
0.0
 40
0.2896378906
 40
0.5491052299
 40
0.7822336571
 40
1.0
 40
1.0
 40
1.0
 40
1.0
 10
98.2249745788
 20
56.2669895808
 30
0.0
 10
98.2688435829
 20
56.2416623724
 30
0.0
 10
98.3484432973
 20
56.1868156001
 30
0.0
 10
98.4435992366
 20
56.0868425638
 30
0.0
 10
98.5038157107
 20
55.9762211859
 30
0.0
 10
98.5178369254
 20
55.8968309063
 30
0.0
 10
98.5178537059
 20
55.8587453742
 30
0.0
  0
SPLINE
  5
467
100
AcDbEntity
  8
0
100
AcDbSpline
 62
7
  6
CONTINUOUS
 70
0
 71
3
 72
11
 73
7
 74
0
 42
0.0000001
 43
0.0000001
 44
0.0000000001
 40
0.0
 40
0.0
 40
0.0
 40
0.0
 40
0.2897052857
 40
0.5490919933
 40
0.7822182543
 40
1.0
 40
1.0
 40
1.0
 40
1.0
 10
70.3737188692
 20
45.2493830914
 30
0.0
 10
70.4175983024
 20
45.224049862
 30
0.0
 10
70.4972066772
 20
45.1692189011
 30
0.0
 10
70.5923499036
 20
45.0692289957
 30
0.0
 10
70.652534463
 20
44.9586156827
 30
0.0
 10
70.6666100528
 20
44.8792273593
 30
0.0
 10
70.6666100421
 20
44.8411389376
 30
0.0
  0
SPLINE
  5
468
100
AcDbEntity
  8
0
100
AcDbSpline
 62
7
  6
CONTINUOUS
 70
0
 71
3
 72
9
 73
5
 74
0
 42
0.0000001
 43
0.0000001
 44
0.0000000001
 40
0.0
 40
0.0
 40
0.0
 40
0.0
 40
0.5248798259
 40
1.0
 40
1.0
 40
1.0
 40
1.0
 10
70.5865134657
 20
40.7144510281
 30
0.0
 10
70.6114501097
 20
40.6873745332
 30
0.0
 10
70.6525510895
 20
40.6287270485
 30
0.0
 10
70.6684531485
 20
40.5580378748
 30
0.0
 10
70.6684501319
 20
40.5247175768
 30
0.0
  0
SPLINE
  5
469
100
AcDbEntity
  8
0
100
AcDbSpline
 62
7
  6
CONTINUOUS
 70
0
 71
3
 72
11
 73
7
 74
0
 42
0.0000001
 43
0.0000001
 44
0.0000000001
 40
0.0
 40
0.0
 40
0.0
 40
0.0
 40
0.2896378906
 40
0.5491052299
 40
0.7822336571
 40
1.0
 40
1.0
 40
1.0
 40
1.0
 10
69.9712133852
 20
39.9547703209
 30
0.0
 10
70.0150823893
 20
39.9294431125
 30
0.0
 10
70.0946821038
 20
39.8745963402
 30
0.0
 10
70.1898380431
 20
39.7746233038
 30
0.0
 10
70.2500545171
 20
39.664001926
 30
0.0
 10
70.2640757318
 20
39.5846116463
 30
0.0
 10
70.2640925123
 20
39.5465261143
 30
0.0
  0
SPLINE
  5
46A
100
AcDbEntity
  8
0
100
AcDbSpline
 62
7
  6
CONTINUOUS
 70
0
 71
3
 72
11
 73
7
 74
0
 42
0.0000001
 43
0.0000001
 44
0.0000000001
 40
0.0
 40
0.0
 40
0.0
 40
0.0
 40
0.2185634152
 40
0.4545723164
 40
0.7143068101
 40
1.0
 40
1.0
 40
1.0
 40
1.0
 10
66.9548445659
 20
40.3085612442
 30
0.0
 10
66.9603119354
 20
40.2786027173
 30
0.0
 10
66.9811435716
 20
40.217774645
 30
0.0
 10
67.0369010224
 20
40.1342837371
 30
0.0
 10
67.1157120516
 20
40.0581898489
 30
0.0
 10
67.1790227509
 20
40.0154909989
 30
0.0
 10
67.2134966442
 20
39.9955879376
 30
0.0
  0
SPLINE
  5
46B
100
AcDbEntity
  8
0
100
AcDbSpline
 62
7
  6
CONTINUOUS
 70
0
 71
3
 72
17
 73
13
 74
0
 42
0.0000001
 43
0.0000001
 44
0.0000000001
 40
0.0
 40
0.0
 40
0.0
 40
0.0
 40
0.1286888525
 40
0.2702802895
 40
0.4174331647
 40
0.5617754839
 40
0.695448121
 40
0.8127120865
 40
0.8646770447
 40
0.9125101515
 40
0.9571398234
 40
1.0
 40
1.0
 40
1.0
 40
1.0
 10
67.2134966442
 20
39.9955879376
 30
0.0
 10
67.280117865
 20
39.957125028
 30
0.0
 10
67.4309599518
 20
39.8948890697
 30
0.0
 10
67.6767990123
 20
39.8457034086
 30
0.0
 10
67.9368187958
 20
39.8385062673
 30
0.0
 10
68.1897969341
 20
39.8740547107
 30
0.0
 10
68.4152270062
 20
39.9493515332
 30
0.0
 10
68.5720136889
 20
40.0447899988
 30
0.0
 10
68.6640235074
 20
40.1371343888
 30
0.0
 10
68.7129049348
 20
40.2090289366
 30
0.0
 10
68.7430257731
 20
40.284863246
 30
0.0
 10
68.7498814113
 20
40.3373868267
 30
0.0
 10
68.7498712338
 20
40.3630076153
 30
0.0
  0
SPLINE
  5
46C
100
AcDbEntity
  8
0
100
AcDbSpline
 62
7
  6
CONTINUOUS
 70
0
 71
3
 72
11
 73
7
 74
0
 42
0.0000001
 43
0.0000001
 44
0.0000000001
 40
0.0
 40
0.0
 40
0.0
 40
0.0
 40
0.2897048043
 40
0.5490913404
 40
0.7822177947
 40
1.0
 40
1.0
 40
1.0
 40
1.0
 10
67.898852495
 20
44.2287710071
 30
0.0
 10
67.9427311074
 20
44.2541041846
 30
0.0
 10
68.0223379713
 20
44.3089349362
 30
0.0
 10
68.1174792648
 20
44.4089241007
 30
0.0
 10
68.1776625279
 20
44.519536342
 30
0.0
 10
68.191737787
 20
44.5989237501
 30
0.0
 10
68.19173778
 20
44.6370117616
 30
0.0
  0
SPLINE
  5
46D
100
AcDbEntity
  8
0
100
AcDbSpline
 62
7
  6
CONTINUOUS
 70
0
 71
3
 72
15
 73
11
 74
0
 42
0.0000001
 43
0.0000001
 44
0.0000000001
 40
0.0
 40
0.0
 40
0.0
 40
0.0
 40
0.1098092179
 40
0.2287953788
 40
0.3549359128
 40
0.4858500983
 40
0.6187046239
 40
0.7505286898
 40
0.8785445789
 40
1.0
 40
1.0
 40
1.0
 40
1.0
 10
60.6928509874
 20
49.2947268087
 30
0.0
 10
60.7558219872
 20
49.3362890574
 30
0.0
 10
60.8947811291
 20
49.4113949146
 30
0.0
 10
61.1239875444
 20
49.4965172939
 30
0.0
 10
61.3759474891
 20
49.5563892985
 30
0.0
 10
61.6423642655
 20
49.5891488608
 30
0.0
 10
61.9146362299
 20
49.5936684914
 30
0.0
 10
62.1839298907
 20
49.5698785791
 30
0.0
 10
62.4413500349
 20
49.5184721462
 30
0.0
 10
62.6048561126
 20
49.4652279662
 30
0.0
 10
62.6822258405
 20
49.4339508166
 30
0.0
  0
SPLINE
  5
46E
100
AcDbEntity
  8
0
100
AcDbSpline
 62
7
  6
CONTINUOUS
 70
0
 71
3
 72
9
 73
5
 74
0
 42
0.0000001
 43
0.0000001
 44
0.0000000001
 40
0.0
 40
0.0
 40
0.0
 40
0.0
 40
0.4749282684
 40
1.0
 40
1.0
 40
1.0
 40
1.0
 10
96.7400447447
 20
57.0426466744
 30
0.0
 10
96.6624614863
 20
57.0874383763
 30
0.0
 10
96.4844657109
 20
57.1566746679
 30
0.0
 10
96.29680986
 20
57.1859614758
 30
0.0
 10
96.1979491728
 20
57.1919747805
 30
0.0
  0
SPLINE
  5
46F
100
AcDbEntity
  8
0
100
AcDbSpline
 62
7
  6
CONTINUOUS
 70
0
 71
3
 72
11
 73
7
 74
0
 42
0.0000001
 43
0.0000001
 44
0.0000000001
 40
0.0
 40
0.0
 40
0.0
 40
0.0
 40
0.2304018502
 40
0.4846020186
 40
0.7469307889
 40
1.0
 40
1.0
 40
1.0
 40
1.0
 10
96.318551963
 20
55.1663225405
 30
0.0
 10
96.2622671307
 20
55.1338266713
 30
0.0
 10
96.1339014459
 20
55.0824720698
 30
0.0
 10
95.925303776
 20
55.045622536
 30
0.0
 10
95.7071038577
 20
55.046886868
 30
0.0
 10
95.56319068
 20
55.0743074423
 30
0.0
 10
95.4949476346
 20
55.0952563587
 30
0.0
  0
SPLINE
  5
470
100
AcDbEntity
  8
0
100
AcDbSpline
 62
7
  6
CONTINUOUS
 70
0
 71
3
 72
11
 73
7
 74
0
 42
0.0000001
 43
0.0000001
 44
0.0000000001
 40
0.0
 40
0.0
 40
0.0
 40
0.0
 40
0.2897048043
 40
0.5490913404
 40
0.7822177947
 40
1.0
 40
1.0
 40
1.0
 40
1.0
 10
69.3837593661
 20
46.6374050562
 30
0.0
 10
69.3398807537
 20
46.6120718787
 30
0.0
 10
69.2602738898
 20
46.557241127
 30
0.0
 10
69.1651325963
 20
46.4572519626
 30
0.0
 10
69.1049493331
 20
46.3466397212
 30
0.0
 10
69.090874074
 20
46.2672523131
 30
0.0
 10
69.0908740811
 20
46.2291643016
 30
0.0
  0
SPLINE
  5
471
100
AcDbEntity
  8
0
100
AcDbSpline
 62
7
  6
CONTINUOUS
 70
0
 71
3
 72
11
 73
7
 74
0
 42
0.0000001
 43
0.0000001
 44
0.0000000001
 40
0.0
 40
0.0
 40
0.0
 40
0.0
 40
0.2177821605
 40
0.4509085882
 40
0.7102951949
 40
1.0
 40
1.0
 40
1.0
 40
1.0
 10
70.6666100421
 20
44.8411389376
 30
0.0
 10
70.6666100314
 20
44.8030509341
 30
0.0
 10
70.6525348069
 20
44.7236635388
 30
0.0
 10
70.5923515393
 20
44.6130512923
 30
0.0
 10
70.4972102341
 20
44.5130621325
 30
0.0
 10
70.4176033695
 20
44.4582313605
 30
0.0
 10
70.3737247571
 20
44.432898183
 30
0.0
  0
SPLINE
  5
472
100
AcDbEntity
  8
0
100
AcDbSpline
 62
7
  6
CONTINUOUS
 70
0
 71
3
 72
17
 73
13
 74
0
 42
0.0000001
 43
0.0000001
 44
0.0000000001
 40
0.0
 40
0.0
 40
0.0
 40
0.0
 40
0.0428577332
 40
0.0874846575
 40
0.1353161226
 40
0.1872785841
 40
0.3045368321
 40
0.4382010338
 40
0.5825441713
 40
0.7297072242
 40
0.8713100535
 40
1.0
 40
1.0
 40
1.0
 40
1.0
 10
70.2640925123
 20
39.5465261143
 30
0.0
 10
70.2641050545
 20
39.5180601042
 30
0.0
 10
70.256486261
 20
39.4597043595
 30
0.0
 10
70.2230291071
 20
39.3754445229
 30
0.0
 10
70.1687150394
 20
39.2955672669
 30
0.0
 10
70.0664921549
 20
39.192961656
 30
0.0
 10
69.8922937716
 20
39.0869230144
 30
0.0
 10
69.6418285199
 20
39.0032500469
 30
0.0
 10
69.3607392046
 20
38.9637453429
 30
0.0
 10
69.0718123201
 20
38.9717406469
 30
0.0
 10
68.7986421136
 20
39.0263936084
 30
0.0
 10
68.6310301545
 20
39.0955449475
 30
0.0
 10
68.5570057108
 20
39.1382820131
 30
0.0
  0
SPLINE
  5
473
100
AcDbEntity
  8
0
100
AcDbSpline
 62
7
  6
CONTINUOUS
 70
0
 71
3
 72
13
 73
9
 74
0
 42
0.0000001
 43
0.0000001
 44
0.0000000001
 40
0.0
 40
0.0
 40
0.0
 40
0.0
 40
0.1142249338
 40
0.2375584468
 40
0.4999994088
 40
0.7624406902
 40
0.885774603
 40
1.0
 40
1.0
 40
1.0
 40
1.0
 10
68.365033604
 20
39.0274475272
 30
0.0
 10
68.3166401291
 20
38.9995077082
 30
0.0
 10
68.210768009
 20
38.9502207246
 30
0.0
 10
67.9761668771
 20
38.8789424512
 30
0.0
 10
67.6579280175
 20
38.8443401151
 30
0.0
 10
67.3396888112
 20
38.8789409435
 30
0.0
 10
67.1050867366
 20
38.9502180839
 30
0.0
 10
66.9992139142
 20
38.9995045446
 30
0.0
 10
66.9508200416
 20
39.0274441278
 30
0.0
  0
SPLINE
  5
474
100
AcDbEntity
  8
0
100
AcDbSpline
 62
7
  6
CONTINUOUS
 70
0
 71
3
 72
11
 73
7
 74
0
 42
0.0000001
 43
0.0000001
 44
0.0000000001
 40
0.0
 40
0.0
 40
0.0
 40
0.0
 40
0.2177438688
 40
0.4508811915
 40
0.7104582954
 40
1.0
 40
1.0
 40
1.0
 40
1.0
 10
93.6630470789
 20
58.2673651989
 30
0.0
 10
93.6630470739
 20
58.2445168613
 30
0.0
 10
93.6546567468
 20
58.1968802506
 30
0.0
 10
93.6185207235
 20
58.1304965909
 30
0.0
 10
93.561405594
 20
58.0705351344
 30
0.0
 10
93.5136583173
 20
58.0376117983
 30
0.0
 10
93.4873464858
 20
58.022420746
 30
0.0
  0
SPLINE
  5
475
100
AcDbEntity
  8
0
100
AcDbSpline
 62
7
  6
CONTINUOUS
 70
0
 71
3
 72
11
 73
7
 74
0
 42
0.0000001
 43
0.0000001
 44
0.0000000001
 40
0.0
 40
0.0
 40
0.0
 40
0.0
 40
0.2372405738
 40
0.5000004574
 40
0.7627600882
 40
1.0
 40
1.0
 40
1.0
 40
1.0
 10
66.5063763208
 20
41.8735015272
 30
0.0
 10
66.4361034429
 20
41.9140726743
 30
0.0
 10
66.2726853352
 20
41.9732753074
 30
0.0
 10
66.0114008558
 20
42.0016391511
 30
0.0
 10
65.7501167328
 20
41.9732741374
 30
0.0
 10
65.5866992164
 20
41.9140706883
 30
0.0
 10
65.5164268271
 20
41.8734991476
 30
0.0
  0
SPLINE
  5
476
100
AcDbEntity
  8
0
100
AcDbSpline
 62
7
  6
CONTINUOUS
 70
0
 71
3
 72
11
 73
7
 74
0
 42
0.0000001
 43
0.0000001
 44
0.0000000001
 40
0.0
 40
0.0
 40
0.0
 40
0.0
 40
0.2372524156
 40
0.4999996414
 40
0.7627470637
 40
1.0
 40
1.0
 40
1.0
 40
1.0
 10
65.5164268271
 20
41.8734991476
 30
0.0
 10
65.4561903802
 20
41.8387218264
 30
0.0
 10
65.3161197834
 20
41.7879652709
 30
0.0
 10
65.0921633023
 20
41.7636987246
 30
0.0
 10
64.868206561
 20
41.7879642969
 30
0.0
 10
64.7281355196
 20
41.8387201448
 30
0.0
 10
64.6678986897
 20
41.873497108
 30
0.0
  0
SPLINE
  5
477
100
AcDbEntity
  8
0
100
AcDbSpline
 62
7
  6
CONTINUOUS
 70
0
 71
3
 72
11
 73
7
 74
0
 42
0.0000001
 43
0.0000001
 44
0.0000000001
 40
0.0
 40
0.0
 40
0.0
 40
0.0
 40
0.2895421522
 40
0.5491196247
 40
0.782256727
 40
1.0
 40
1.0
 40
1.0
 40
1.0
 10
64.6678986897
 20
41.873497108
 30
0.0
 10
64.6415863695
 20
41.8886881895
 30
0.0
 10
64.5938381949
 20
41.9216116877
 30
0.0
 10
64.5367218652
 20
41.9815735703
 30
0.0
 10
64.5005850922
 20
42.0479578917
 30
0.0
 10
64.4921945587
 20
42.0955950311
 30
0.0
 10
64.4921945638
 20
42.1184436001
 30
0.0
  0
SPLINE
  5
478
100
AcDbEntity
  8
0
100
AcDbSpline
 62
7
  6
CONTINUOUS
 70
0
 71
3
 72
10
 73
6
 74
0
 42
0.0000001
 43
0.0000001
 44
0.0000000001
 40
0.0
 40
0.0
 40
0.0
 40
0.0
 40
0.2273087251
 40
0.5958004265
 40
1.0
 40
1.0
 40
1.0
 40
1.0
 10
65.8835838904
 20
46.2087420659
 30
0.0
 10
65.8324466657
 20
46.2905251131
 30
0.0
 10
65.6811956123
 20
46.4943916409
 30
0.0
 10
65.3716616324
 20
46.7883140031
 30
0.0
 10
65.0981872709
 20
46.9718122657
 30
0.0
 10
64.9496499431
 20
47.0575683918
 30
0.0
  0
SPLINE
  5
479
100
AcDbEntity
  8
0
100
AcDbSpline
 62
7
  6
CONTINUOUS
 70
0
 71
3
 72
9
 73
5
 74
0
 42
0.0000001
 43
0.0000001
 44
0.0000000001
 40
0.0
 40
0.0
 40
0.0
 40
0.0
 40
0.4802410199
 40
1.0
 40
1.0
 40
1.0
 40
1.0
 10
64.9496499431
 20
47.0575683918
 30
0.0
 10
64.7438182021
 20
47.1764027145
 30
0.0
 10
64.2917255917
 20
47.3839933217
 30
0.0
 10
63.8148767059
 20
47.5224993497
 30
0.0
 10
63.5638261538
 20
47.5785440838
 30
0.0
  0
SPLINE
  5
47A
100
AcDbEntity
  8
0
100
AcDbSpline
 62
7
  6
CONTINUOUS
 70
0
 71
3
 72
9
 73
5
 74
0
 42
0.0000001
 43
0.0000001
 44
0.0000000001
 40
0.0
 40
0.0
 40
0.0
 40
0.0
 40
0.2293891061
 40
1.0
 40
1.0
 40
1.0
 40
1.0
 10
63.5638261538
 20
47.5785440838
 30
0.0
 10
63.536777724
 20
47.6178658444
 30
0.0
 10
63.406586022
 20
47.7808771707
 30
0.0
 10
63.2358763763
 20
47.9081917816
 30
0.0
 10
63.0970234641
 20
47.9883567342
 30
0.0
  0
SPLINE
  5
47B
100
AcDbEntity
  8
0
100
AcDbSpline
 62
7
  6
CONTINUOUS
 70
0
 71
3
 72
15
 73
11
 74
0
 42
0.0000001
 43
0.0000001
 44
0.0000000001
 40
0.0
 40
0.0
 40
0.0
 40
0.0
 40
0.1134046594
 40
0.2355281001
 40
0.3640362188
 40
0.4961550805
 40
0.6288037733
 40
0.7588626476
 40
0.8834419075
 40
1.0
 40
1.0
 40
1.0
 40
1.0
 10
63.0970234641
 20
47.9883567342
 30
0.0
 10
62.9996606156
 20
48.0445679293
 30
0.0
 10
62.7874051984
 20
48.1443295705
 30
0.0
 10
62.4421611569
 20
48.2524359374
 30
0.0
 10
62.0682303335
 20
48.321752353
 30
0.0
 10
61.6786060522
 20
48.3499340742
 30
0.0
 10
61.2866832515
 20
48.3359652664
 30
0.0
 10
60.905952777
 20
48.2803770387
 30
0.0
 10
60.5496601583
 20
48.1850439939
 30
0.0
 10
60.3277792168
 20
48.093550796
 30
0.0
 10
60.2247626896
 20
48.041210503
 30
0.0
  0
SPLINE
  5
47C
100
AcDbEntity
  8
0
100
AcDbSpline
 62
7
  6
CONTINUOUS
 70
0
 71
3
 72
11
 73
7
 74
0
 42
0.0000001
 43
0.0000001
 44
0.0000000001
 40
0.0
 40
0.0
 40
0.0
 40
0.0
 40
0.2177758143
 40
0.4509108548
 40
0.7102774716
 40
1.0
 40
1.0
 40
1.0
 40
1.0
 10
70.6684501319
 20
40.5247175768
 30
0.0
 10
70.6684477183
 20
40.4980567615
 30
0.0
 10
70.6585891602
 20
40.4424874967
 30
0.0
 10
70.6164711495
 20
40.3650564855
 30
0.0
 10
70.5498702906
 20
40.2950635268
 30
0.0
 10
70.4941452226
 20
40.2566833558
 30
0.0
 10
70.4634283266
 20
40.2389490534
 30
0.0
  0
SPLINE
  5
47D
100
AcDbEntity
  8
0
100
AcDbSpline
 62
7
  6
CONTINUOUS
 70
0
 71
3
 72
11
 73
7
 74
0
 42
0.0000001
 43
0.0000001
 44
0.0000000001
 40
0.0
 40
0.0
 40
0.0
 40
0.0
 40
0.2177817009
 40
0.4509079353
 40
0.7102947134
 40
1.0
 40
1.0
 40
1.0
 40
1.0
 10
68.19173778
 20
44.6370117616
 30
0.0
 10
68.1917377729
 20
44.6751001754
 30
0.0
 10
68.1776622177
 20
44.754488486
 30
0.0
 10
68.1174776538
 20
44.865101804
 30
0.0
 10
68.0223344157
 20
44.9650917048
 30
0.0
 10
67.9427260403
 20
45.019922686
 30
0.0
 10
67.8988466071
 20
45.0452559155
 30
0.0
  0
SPLINE
  5
47E
100
AcDbEntity
  8
0
100
AcDbSpline
 62
7
  6
CONTINUOUS
 70
0
 71
3
 72
17
 73
13
 74
0
 42
0.0000001
 43
0.0000001
 44
0.0000000001
 40
0.0
 40
0.0
 40
0.0
 40
0.0
 40
0.0428577332
 40
0.0874846575
 40
0.1353161226
 40
0.1872785841
 40
0.3045368321
 40
0.4382010338
 40
0.5825441713
 40
0.7297072242
 40
0.8713100535
 40
1.0
 40
1.0
 40
1.0
 40
1.0
 10
98.5178537059
 20
55.8587453742
 30
0.0
 10
98.517866248
 20
55.8302793641
 30
0.0
 10
98.5102474546
 20
55.7719236194
 30
0.0
 10
98.4767903006
 20
55.6876637828
 30
0.0
 10
98.422476233
 20
55.6077865268
 30
0.0
 10
98.3202533485
 20
55.5051809159
 30
0.0
 10
98.1460549652
 20
55.3991422743
 30
0.0
 10
97.8955897134
 20
55.3154693068
 30
0.0
 10
97.6145003981
 20
55.2759646028
 30
0.0
 10
97.3255735137
 20
55.2839599068
 30
0.0
 10
97.0524033072
 20
55.3386128683
 30
0.0
 10
96.8847913481
 20
55.4077642074
 30
0.0
 10
96.8107669043
 20
55.450501273
 30
0.0
  0
SPLINE
  5
47F
100
AcDbEntity
  8
0
100
AcDbSpline
 62
7
  6
CONTINUOUS
 70
0
 71
3
 72
11
 73
7
 74
0
 42
0.0000001
 43
0.0000001
 44
0.0000000001
 40
0.0
 40
0.0
 40
0.0
 40
0.0
 40
0.2177643494
 40
0.4508943819
 40
0.7103680107
 40
1.0
 40
1.0
 40
1.0
 40
1.0
 10
97.0036324273
 20
56.6752268752
 30
0.0
 10
97.0036188113
 20
56.7095035994
 30
0.0
 10
96.9910054372
 20
56.7809561253
 30
0.0
 10
96.9368086786
 20
56.8805166012
 30
0.0
 10
96.8511660184
 20
56.9704905594
 30
0.0
 10
96.7795261114
 20
57.0198526124
 30
0.0
 10
96.7400447447
 20
57.0426466744
 30
0.0
  0
SPLINE
  5
480
100
AcDbEntity
  8
0
100
AcDbSpline
 62
7
  6
CONTINUOUS
 70
0
 71
3
 72
11
 73
7
 74
0
 42
0.0000001
 43
0.0000001
 44
0.0000000001
 40
0.0
 40
0.0
 40
0.0
 40
0.0
 40
0.2177821605
 40
0.4509085882
 40
0.7102951949
 40
1.0
 40
1.0
 40
1.0
 40
1.0
 10
98.7098319705
 20
56.7860648213
 30
0.0
 10
98.7098319599
 20
56.7479768177
 30
0.0
 10
98.6957567353
 20
56.6685894224
 30
0.0
 10
98.6355734678
 20
56.557977176
 30
0.0
 10
98.5404321626
 20
56.4579880162
 30
0.0
 10
98.460825298
 20
56.4031572442
 30
0.0
 10
98.4169466856
 20
56.3778240667
 30
0.0
  0
SPLINE
  5
481
100
AcDbEntity
  8
0
100
AcDbSpline
 62
7
  6
CONTINUOUS
 70
0
 71
3
 72
11
 73
7
 74
0
 42
0.0000001
 43
0.0000001
 44
0.0000000001
 40
0.0
 40
0.0
 40
0.0
 40
0.0
 40
0.2177643494
 40
0.4508943819
 40
0.7103680107
 40
1.0
 40
1.0
 40
1.0
 40
1.0
 10
68.7498712338
 20
40.3630076153
 30
0.0
 10
68.7498576177
 20
40.3972843395
 30
0.0
 10
68.7372442437
 20
40.4687368654
 30
0.0
 10
68.683047485
 20
40.5682973413
 30
0.0
 10
68.5974048249
 20
40.6582712995
 30
0.0
 10
68.5257649179
 20
40.7076333525
 30
0.0
 10
68.4862835512
 20
40.7304274145
 30
0.0
  0
SPLINE
  5
482
100
AcDbEntity
  8
0
100
AcDbSpline
 62
7
  6
CONTINUOUS
 70
0
 71
3
 72
11
 73
7
 74
0
 42
0.0000001
 43
0.0000001
 44
0.0000000001
 40
0.0
 40
0.0
 40
0.0
 40
0.0
 40
0.2897048043
 40
0.5490913404
 40
0.7822177947
 40
1.0
 40
1.0
 40
1.0
 40
1.0
 10
93.4873464858
 20
58.022420746
 30
0.0
 10
93.4566314571
 20
58.0046875218
 30
0.0
 10
93.4009066524
 20
57.9663059956
 30
0.0
 10
93.3343077469
 20
57.8963135805
 30
0.0
 10
93.2921794628
 20
57.8188850115
 30
0.0
 10
93.2823267814
 20
57.7633138259
 30
0.0
 10
93.2823267863
 20
57.7366522178
 30
0.0
  0
SPLINE
  5
483
100
AcDbEntity
  8
0
100
AcDbSpline
 62
7
  6
CONTINUOUS
 70
0
 71
3
 72
11
 73
7
 74
0
 42
0.0000001
 43
0.0000001
 44
0.0000000001
 40
0.0
 40
0.0
 40
0.0
 40
0.0
 40
0.2177438688
 40
0.4508811915
 40
0.7104582954
 40
1.0
 40
1.0
 40
1.0
 40
1.0
 10
64.4921945638
 20
91.5168398365
 30
0.0
 10
64.4921945689
 20
91.5396881741
 30
0.0
 10
64.5005848959
 20
91.5873247848
 30
0.0
 10
64.5367209193
 20
91.6537084445
 30
0.0
 10
64.5938360487
 20
91.713669901
 30
0.0
 10
64.6415833255
 20
91.7465932371
 30
0.0
 10
64.6678951569
 20
91.7617842894
 30
0.0
  0
SPLINE
  5
484
100
AcDbEntity
  8
0
100
AcDbSpline
 62
7
  6
CONTINUOUS
 70
0
 71
3
 72
15
 73
11
 74
0
 42
0.0000001
 43
0.0000001
 44
0.0000000001
 40
0.0
 40
0.0
 40
0.0
 40
0.0
 40
0.1165580925
 40
0.2411373524
 40
0.3711962267
 40
0.5038449195
 40
0.6359637812
 40
0.7644718999
 40
0.8865953406
 40
1.0
 40
1.0
 40
1.0
 40
1.0
 10
60.2247626896
 20
83.1508144396
 30
0.0
 10
60.3277792168
 20
83.2031547325
 30
0.0
 10
60.5496601583
 20
83.2946479304
 30
0.0
 10
60.905952777
 20
83.3899809752
 30
0.0
 10
61.2866832515
 20
83.445569203
 30
0.0
 10
61.6786060522
 20
83.4595380107
 30
0.0
 10
62.0682303335
 20
83.4313562895
 30
0.0
 10
62.4421611569
 20
83.362039874
 30
0.0
 10
62.7874051984
 20
83.2539335071
 30
0.0
 10
62.9996606156
 20
83.1541718659
 30
0.0
 10
63.0970234641
 20
83.0979606708
 30
0.0
  0
SPLINE
  5
485
100
AcDbEntity
  8
0
100
AcDbSpline
 62
7
  6
CONTINUOUS
 70
0
 71
3
 72
9
 73
5
 74
0
 42
0.0000001
 43
0.0000001
 44
0.0000000001
 40
0.0
 40
0.0
 40
0.0
 40
0.0
 40
0.2725619985
 40
1.0
 40
1.0
 40
1.0
 40
1.0
 10
63.0970234641
 20
83.0979606708
 30
0.0
 10
63.1461091985
 20
83.0696216499
 30
0.0
 10
63.3213979765
 20
82.9582229427
 30
0.0
 10
63.4780956464
 20
82.8127790809
 30
0.0
 10
63.5638261538
 20
82.6881480204
 30
0.0
  0
SPLINE
  5
486
100
AcDbEntity
  8
0
100
AcDbSpline
 62
7
  6
CONTINUOUS
 70
0
 71
3
 72
9
 73
5
 74
0
 42
0.0000001
 43
0.0000001
 44
0.0000000001
 40
0.0
 40
0.0
 40
0.0
 40
0.0
 40
0.2578633203
 40
1.0
 40
1.0
 40
1.0
 40
1.0
 10
63.5638261538
 20
82.6881480204
 30
0.0
 10
63.6443179568
 20
82.6701789633
 30
0.0
 10
63.9549709357
 20
82.5941024957
 30
0.0
 10
64.259554214
 20
82.4921392009
 30
0.0
 10
64.4783092716
 20
82.4000207622
 30
0.0
  0
SPLINE
  5
487
100
AcDbEntity
  8
0
100
AcDbSpline
 62
7
  6
CONTINUOUS
 70
0
 71
3
 72
11
 73
7
 74
0
 42
0.0000001
 43
0.0000001
 44
0.0000000001
 40
0.0
 40
0.0
 40
0.0
 40
0.0
 40
0.2177817009
 40
0.4509079353
 40
0.7102947134
 40
1.0
 40
1.0
 40
1.0
 40
1.0
 10
69.0908740811
 20
95.627560538
 30
0.0
 10
69.0908740881
 20
95.5894721242
 30
0.0
 10
69.1049496434
 20
95.5100838136
 30
0.0
 10
69.1651342072
 20
95.3994704955
 30
0.0
 10
69.2602774453
 20
95.2994805948
 30
0.0
 10
69.3398858208
 20
95.2446496136
 30
0.0
 10
69.383765254
 20
95.2193163841
 30
0.0
  0
SPLINE
  5
488
100
AcDbEntity
  8
0
100
AcDbSpline
 62
7
  6
CONTINUOUS
 70
0
 71
3
 72
13
 73
9
 74
0
 42
0.0000001
 43
0.0000001
 44
0.0000000001
 40
0.0
 40
0.0
 40
0.0
 40
0.0
 40
0.1142253587
 40
0.237559206
 40
0.5000004539
 40
0.7624414493
 40
0.885775028
 40
1.0
 40
1.0
 40
1.0
 40
1.0
 10
66.9508200416
 20
74.1370480644
 30
0.0
 10
66.999213898
 20
74.1091084905
 30
0.0
 10
67.1050866666
 20
74.0598220357
 30
0.0
 10
67.339688678
 20
73.9885449164
 30
0.0
 10
67.6579278435
 20
73.9539440517
 30
0.0
 10
67.9761667439
 20
73.9885463515
 30
0.0
 10
68.2107679391
 20
74.059824646
 30
0.0
 10
68.3166401129
 20
74.1091116354
 30
0.0
 10
68.365033604
 20
74.1370514638
 30
0.0
  0
SPLINE
  5
489
100
AcDbEntity
  8
0
100
AcDbSpline
 62
7
  6
CONTINUOUS
 70
0
 71
3
 72
17
 73
13
 74
0
 42
0.0000001
 43
0.0000001
 44
0.0000000001
 40
0.0
 40
0.0
 40
0.0
 40
0.0
 40
0.1286889502
 40
0.2702836189
 40
0.4174399011
 40
0.5617822414
 40
0.6954509723
 40
0.8127122805
 40
0.8646766214
 40
0.912509344
 40
0.9571392561
 40
1.0
 40
1.0
 40
1.0
 40
1.0
 10
68.5570057108
 20
74.2478859497
 30
0.0
 10
68.6310295492
 20
74.2051492335
 30
0.0
 10
68.7986354826
 20
74.1359995168
 30
0.0
 10
69.0717949117
 20
74.0813481606
 30
0.0
 10
69.3607109626
 20
74.0733490067
 30
0.0
 10
69.6417985325
 20
74.1128475356
 30
0.0
 10
69.8922712937
 20
74.1965153118
 30
0.0
 10
70.0664732828
 20
74.3025571088
 30
0.0
 10
70.1687076942
 20
74.4051579663
 30
0.0
 10
70.2230200211
 20
74.4850406966
 30
0.0
 10
70.2564893241
 20
74.5693011539
 30
0.0
 10
70.2641038423
 20
74.6276620128
 30
0.0
 10
70.2640913399
 20
74.6561300102
 30
0.0
  0
SPLINE
  5
48A
100
AcDbEntity
  8
0
100
AcDbSpline
 62
7
  6
CONTINUOUS
 70
0
 71
3
 72
11
 73
7
 74
0
 42
0.0000001
 43
0.0000001
 44
0.0000000001
 40
0.0
 40
0.0
 40
0.0
 40
0.0
 40
0.2897225438
 40
0.5490892313
 40
0.7822242333
 40
1.0
 40
1.0
 40
1.0
 40
1.0
 10
70.4634283266
 20
75.34855299
 30
0.0
 10
70.4941452242
 20
75.3662872933
 30
0.0
 10
70.5498702943
 20
75.4046674795
 30
0.0
 10
70.6164711609
 20
75.4746604372
 30
0.0
 10
70.6585891719
 20
75.5520914491
 30
0.0
 10
70.6684477139
 20
75.607660704
 30
0.0
 10
70.668450132
 20
75.6343215135
 30
0.0
  0
SPLINE
  5
48B
100
AcDbEntity
  8
0
100
AcDbSpline
 62
7
  6
CONTINUOUS
 70
0
 71
3
 72
13
 73
9
 74
0
 42
0.0000001
 43
0.0000001
 44
0.0000000001
 40
0.0
 40
0.0
 40
0.0
 40
0.0
 40
0.1142249338
 40
0.2375584468
 40
0.4999994088
 40
0.7624406902
 40
0.885774603
 40
1.0
 40
1.0
 40
1.0
 40
1.0
 10
85.2359336509
 20
90.8992114521
 30
0.0
 10
85.2843271258
 20
90.927151271
 30
0.0
 10
85.3901992459
 20
90.9764382547
 30
0.0
 10
85.6248003778
 20
91.047716528
 30
0.0
 10
85.9430392374
 20
91.0823188641
 30
0.0
 10
86.2612784438
 20
91.0477180357
 30
0.0
 10
86.4958805183
 20
90.9764408954
 30
0.0
 10
86.6017533407
 20
90.9271544347
 30
0.0
 10
86.6501472133
 20
90.8992148514
 30
0.0
  0
SPLINE
  5
48C
100
AcDbEntity
  8
0
100
AcDbSpline
 62
7
  6
CONTINUOUS
 70
0
 71
3
 72
13
 73
9
 74
0
 42
0.0000001
 43
0.0000001
 44
0.0000000001
 40
0.0
 40
0.0
 40
0.0
 40
0.0
 40
0.1142253587
 40
0.237559206
 40
0.5000004539
 40
0.7624414493
 40
0.885775028
 40
1.0
 40
1.0
 40
1.0
 40
1.0
 10
87.6401008285
 20
90.3276777951
 30
0.0
 10
87.6884946849
 20
90.2997382212
 30
0.0
 10
87.7943674535
 20
90.2504517664
 30
0.0
 10
88.0289694649
 20
90.1791746471
 30
0.0
 10
88.3472086304
 20
90.1445737824
 30
0.0
 10
88.6654475308
 20
90.1791760821
 30
0.0
 10
88.900048726
 20
90.2504543766
 30
0.0
 10
89.0059208998
 20
90.2997413661
 30
0.0
 10
89.0543143909
 20
90.3276811944
 30
0.0
  0
SPLINE
  5
48D
100
AcDbEntity
  8
0
100
AcDbSpline
 62
7
  6
CONTINUOUS
 70
0
 71
3
 72
11
 73
7
 74
0
 42
0.0000001
 43
0.0000001
 44
0.0000000001
 40
0.0
 40
0.0
 40
0.0
 40
0.0
 40
0.2530693203
 40
0.5153981224
 40
0.7695982521
 40
1.0
 40
1.0
 40
1.0
 40
1.0
 10
95.4949476347
 20
90.2048602953
 30
0.0
 10
95.5631907094
 20
90.1839113698
 30
0.0
 10
95.7071039287
 20
90.1564907944
 30
0.0
 10
95.9253038762
 20
90.1552264808
 30
0.0
 10
96.1339015124
 20
90.1920760285
 30
0.0
 10
96.2622671557
 20
90.2434306224
 30
0.0
 10
96.318551963
 20
90.275926477
 30
0.0
  0
SPLINE
  5
48E
100
AcDbEntity
  8
0
100
AcDbSpline
 62
7
  6
CONTINUOUS
 70
0
 71
3
 72
17
 73
13
 74
0
 42
0.0000001
 43
0.0000001
 44
0.0000000001
 40
0.0
 40
0.0
 40
0.0
 40
0.0
 40
0.1286889502
 40
0.2702836189
 40
0.4174399011
 40
0.5617822414
 40
0.6954509723
 40
0.8127122805
 40
0.8646766214
 40
0.912509344
 40
0.9571392561
 40
1.0
 40
1.0
 40
1.0
 40
1.0
 10
96.8107669043
 20
90.5601052096
 30
0.0
 10
96.8847907428
 20
90.5173684934
 30
0.0
 10
97.0523966762
 20
90.4482187767
 30
0.0
 10
97.3255561053
 20
90.3935674205
 30
0.0
 10
97.6144721562
 20
90.3855682666
 30
0.0
 10
97.8955597261
 20
90.4250667955
 30
0.0
 10
98.1460324873
 20
90.5087345717
 30
0.0
 10
98.3202344764
 20
90.6147763687
 30
0.0
 10
98.4224688877
 20
90.7173772262
 30
0.0
 10
98.4767812146
 20
90.7972599565
 30
0.0
 10
98.5102505177
 20
90.8815204138
 30
0.0
 10
98.5178650359
 20
90.9398812727
 30
0.0
 10
98.5178525335
 20
90.9683492701
 30
0.0
  0
SPLINE
  5
48F
100
AcDbEntity
  8
0
100
AcDbSpline
 62
7
  6
CONTINUOUS
 70
0
 71
3
 72
11
 73
7
 74
0
 42
0.0000001
 43
0.0000001
 44
0.0000000001
 40
0.0
 40
0.0
 40
0.0
 40
0.0
 40
0.2771651677
 40
0.5323768021
 40
0.7707911331
 40
1.0
 40
1.0
 40
1.0
 40
1.0
 10
98.5449594942
 20
91.5781132838
 30
0.0
 10
98.5705573347
 20
91.6005378764
 30
0.0
 10
98.6166186224
 20
91.6474295392
 30
0.0
 10
98.6697126479
 20
91.7265338395
 30
0.0
 10
98.7023742721
 20
91.8098758083
 30
0.0
 10
98.7098319758
 20
91.8675259124
 30
0.0
 10
98.7098319705
 20
91.8956687578
 30
0.0
  0
SPLINE
  5
490
100
AcDbEntity
  8
0
100
AcDbSpline
 62
7
  6
CONTINUOUS
 70
0
 71
3
 72
11
 73
7
 74
0
 42
0.0000001
 43
0.0000001
 44
0.0000000001
 40
0.0
 40
0.0
 40
0.0
 40
0.0
 40
0.2177817009
 40
0.4509079353
 40
0.7102947134
 40
1.0
 40
1.0
 40
1.0
 40
1.0
 10
93.2823267863
 20
107.1350484542
 30
0.0
 10
93.2823267912
 20
107.1083865645
 30
0.0
 10
93.2921796799
 20
107.0528147471
 30
0.0
 10
93.3343088746
 20
106.9753854245
 30
0.0
 10
93.4009091413
 20
106.9053924939
 30
0.0
 10
93.4566350041
 20
106.8670108071
 30
0.0
 10
93.4873506074
 20
106.8492775465
 30
0.0
  0
SPLINE
  5
491
100
AcDbEntity
  8
0
100
AcDbSpline
 62
7
  6
CONTINUOUS
 70
0
 71
3
 72
12
 73
8
 74
0
 42
0.0000001
 43
0.0000001
 44
0.0000000001
 40
0.0
 40
0.0
 40
0.0
 40
0.0
 40
0.108160388
 40
0.2183636491
 40
0.4513504675
 40
0.7104309155
 40
1.0
 40
1.0
 40
1.0
 40
1.0
 10
82.280860368
 20
109.67490202
 30
0.0
 10
82.2808635788
 20
109.6351468997
 30
0.0
 10
82.2877642057
 20
109.5547181143
 30
0.0
 10
82.3295628339
 20
109.3934887421
 30
0.0
 10
82.4367878862
 20
109.1957664794
 30
0.0
 10
82.6365594384
 20
108.9859691294
 30
0.0
 10
82.8037565489
 20
108.870804965
 30
0.0
 10
82.8959309061
 20
108.8175892789
 30
0.0
  0
SPLINE
  5
492
100
AcDbEntity
  8
0
100
AcDbSpline
 62
7
  6
CONTINUOUS
 70
0
 71
3
 72
12
 73
8
 74
0
 42
0.0000001
 43
0.0000001
 44
0.0000000001
 40
0.0
 40
0.0
 40
0.0
 40
0.0
 40
0.1062391633
 40
0.2148312556
 40
0.4463126127
 40
0.7068305626
 40
1.0
 40
1.0
 40
1.0
 40
1.0
 10
80.1207967431
 20
109.5537849522
 30
0.0
 10
80.1207957686
 20
109.5846054479
 30
0.0
 10
80.1266052974
 20
109.6470822597
 30
0.0
 10
80.1619508736
 20
109.772276377
 30
0.0
 10
80.2525547186
 20
109.9247647374
 30
0.0
 10
80.4192342462
 20
110.0829411242
 30
0.0
 10
80.557261566
 20
110.1672676796
 30
0.0
 10
80.6331791969
 20
110.2056081843
 30
0.0
  0
SPLINE
  5
493
100
AcDbEntity
  8
0
100
AcDbSpline
 62
7
  6
CONTINUOUS
 70
0
 71
3
 72
9
 73
5
 74
0
 42
0.0000001
 43
0.0000001
 44
0.0000000001
 40
0.0
 40
0.0
 40
0.0
 40
0.0
 40
0.4919622167
 40
1.0
 40
1.0
 40
1.0
 40
1.0
 10
81.4666565648
 20
106.4089589691
 30
0.0
 10
81.4666565623
 20
106.4468844702
 30
0.0
 10
81.4755892151
 20
106.524211298
 30
0.0
 10
81.5012812826
 20
106.5975708393
 30
0.0
 10
81.5177685978
 20
106.6330961501
 30
0.0
  0
SPLINE
  5
494
100
AcDbEntity
  8
0
100
AcDbSpline
 62
7
  6
CONTINUOUS
 70
0
 71
3
 72
9
 73
5
 74
0
 42
0.0000001
 43
0.0000001
 44
0.0000000001
 40
0.0
 40
0.0
 40
0.0
 40
0.0
 40
0.4805262415
 40
1.0
 40
1.0
 40
1.0
 40
1.0
 10
82.8959309061
 20
108.8175892789
 30
0.0
 10
83.0015417289
 20
108.7566162214
 30
0.0
 10
83.2331027359
 20
108.6497114318
 30
0.0
 10
83.4772632179
 20
108.5775498326
 30
0.0
 10
83.6057612728
 20
108.5480878857
 30
0.0
  0
SPLINE
  5
495
100
AcDbEntity
  8
0
100
AcDbSpline
 62
7
  6
CONTINUOUS
 70
0
 71
3
 72
9
 73
5
 74
0
 42
0.0000001
 43
0.0000001
 44
0.0000000001
 40
0.0
 40
0.0
 40
0.0
 40
0.0
 40
0.470434578
 40
1.0
 40
1.0
 40
1.0
 40
1.0
 10
83.6057612728
 20
108.5480878857
 30
0.0
 10
83.7116765148
 20
108.3899483684
 30
0.0
 10
83.9879894873
 20
108.0873653312
 30
0.0
 10
84.3225905523
 20
107.8551237254
 30
0.0
 10
84.5081420804
 20
107.7479979242
 30
0.0
  0
SPLINE
  5
496
100
AcDbEntity
  8
0
100
AcDbSpline
 62
7
  6
CONTINUOUS
 70
0
 71
3
 72
9
 73
5
 74
0
 42
0.0000001
 43
0.0000001
 44
0.0000000001
 40
0.0
 40
0.0
 40
0.0
 40
0.0
 40
0.4795615547
 40
1.0
 40
1.0
 40
1.0
 40
1.0
 10
84.5081420804
 20
107.7479979242
 30
0.0
 10
84.7256067945
 20
107.6224474533
 30
0.0
 10
85.2052939718
 20
107.4051473692
 30
0.0
 10
85.7116046504
 20
107.264405906
 30
0.0
 10
85.9783811985
 20
107.2088056848
 30
0.0
  0
SPLINE
  5
497
100
AcDbEntity
  8
0
100
AcDbSpline
 62
7
  6
CONTINUOUS
 70
0
 71
3
 72
13
 73
9
 74
0
 42
0.0000001
 43
0.0000001
 44
0.0000000001
 40
0.0
 40
0.0
 40
0.0
 40
0.0
 40
0.1142253587
 40
0.237559206
 40
0.5000004539
 40
0.7624414493
 40
0.885775028
 40
1.0
 40
1.0
 40
1.0
 40
1.0
 10
87.9936439152
 20
106.0453195344
 30
0.0
 10
88.0420377716
 20
106.0173799605
 30
0.0
 10
88.1479105402
 20
105.9680935056
 30
0.0
 10
88.3825125516
 20
105.8968163864
 30
0.0
 10
88.7007517171
 20
105.8622155217
 30
0.0
 10
89.0189906175
 20
105.8968178214
 30
0.0
 10
89.2535918127
 20
105.9680961159
 30
0.0
 10
89.3594639865
 20
106.0173831054
 30
0.0
 10
89.4078574776
 20
106.0453229337
 30
0.0
  0
SPLINE
  5
498
100
AcDbEntity
  8
0
100
AcDbSpline
 62
7
  6
CONTINUOUS
 70
0
 71
3
 72
11
 73
7
 74
0
 42
0.0000001
 43
0.0000001
 44
0.0000000001
 40
0.0
 40
0.0
 40
0.0
 40
0.0
 40
0.2372524156
 40
0.4999996414
 40
0.7627470637
 40
1.0
 40
1.0
 40
1.0
 40
1.0
 10
92.6388148156
 20
107.9107058878
 30
0.0
 10
92.6990512625
 20
107.945483209
 30
0.0
 10
92.8391218593
 20
107.9962397645
 30
0.0
 10
93.0630783404
 20
108.0205063108
 30
0.0
 10
93.2870350817
 20
107.9962407385
 30
0.0
 10
93.4271061231
 20
107.9454848906
 30
0.0
 10
93.487342953
 20
107.9107079274
 30
0.0
  0
SPLINE
  5
499
100
AcDbEntity
  8
0
100
AcDbSpline
 62
7
  6
CONTINUOUS
 70
0
 71
3
 72
11
 73
7
 74
0
 42
0.0000001
 43
0.0000001
 44
0.0000000001
 40
0.0
 40
0.0
 40
0.0
 40
0.0
 40
0.2895421522
 40
0.5491196247
 40
0.782256727
 40
1.0
 40
1.0
 40
1.0
 40
1.0
 10
93.487342953
 20
107.9107079274
 30
0.0
 10
93.5136552732
 20
107.8955168459
 30
0.0
 10
93.5614034478
 20
107.8625933477
 30
0.0
 10
93.6185197776
 20
107.802631465
 30
0.0
 10
93.6546565505
 20
107.7362471437
 30
0.0
 10
93.663047084
 20
107.6886100043
 30
0.0
 10
93.6630470789
 20
107.6657614353
 30
0.0
  0
SPLINE
  5
49A
100
AcDbEntity
  8
0
100
AcDbSpline
 62
7
  6
CONTINUOUS
 70
0
 71
3
 72
17
 73
13
 74
0
 42
0.0000001
 43
0.0000001
 44
0.0000000001
 40
0.0
 40
0.0
 40
0.0
 40
0.0
 40
0.1286888525
 40
0.2702802895
 40
0.4174331647
 40
0.5617754839
 40
0.695448121
 40
0.8127120865
 40
0.8646770447
 40
0.9125101515
 40
0.9571398234
 40
1.0
 40
1.0
 40
1.0
 40
1.0
 10
95.4672578378
 20
105.7062034338
 30
0.0
 10
95.5338790585
 20
105.6677405242
 30
0.0
 10
95.6847211454
 20
105.6055045659
 30
0.0
 10
95.9305602058
 20
105.5563189048
 30
0.0
 10
96.1905799893
 20
105.5491217636
 30
0.0
 10
96.4435581277
 20
105.5846702069
 30
0.0
 10
96.6689881997
 20
105.6599670294
 30
0.0
 10
96.8257748825
 20
105.755405495
 30
0.0
 10
96.9177847009
 20
105.8477498851
 30
0.0
 10
96.9666661284
 20
105.9196444328
 30
0.0
 10
96.9967869667
 20
105.9954787422
 30
0.0
 10
97.0036426049
 20
106.048002323
 30
0.0
 10
97.0036324273
 20
106.0736231115
 30
0.0
  0
SPLINE
  5
49B
100
AcDbEntity
  8
0
100
AcDbSpline
 62
7
  6
CONTINUOUS
 70
0
 71
3
 72
11
 73
7
 74
0
 42
0.0000001
 43
0.0000001
 44
0.0000000001
 40
0.0
 40
0.0
 40
0.0
 40
0.0
 40
0.2897052857
 40
0.5490919933
 40
0.7822182543
 40
1.0
 40
1.0
 40
1.0
 40
1.0
 10
98.4169407976
 20
106.5927052115
 30
0.0
 10
98.4608202308
 20
106.567371982
 30
0.0
 10
98.5404286056
 20
106.5125410212
 30
0.0
 10
98.635571832
 20
106.4125511157
 30
0.0
 10
98.6957563914
 20
106.3019378027
 30
0.0
 10
98.7098319812
 20
106.2225494793
 30
0.0
 10
98.7098319705
 20
106.1844610576
 30
0.0
  0
SPLINE
  5
49C
100
AcDbEntity
  8
0
100
AcDbSpline
 62
7
  6
CONTINUOUS
 70
0
 71
3
 72
11
 73
7
 74
0
 42
0.0000001
 43
0.0000001
 44
0.0000000001
 40
0.0
 40
0.0
 40
0.0
 40
0.0
 40
0.2896378906
 40
0.5491052299
 40
0.7822336571
 40
1.0
 40
1.0
 40
1.0
 40
1.0
 10
98.2249745788
 20
105.6653858171
 30
0.0
 10
98.2688435829
 20
105.6400586088
 30
0.0
 10
98.3484432973
 20
105.5852118364
 30
0.0
 10
98.4435992366
 20
105.4852388001
 30
0.0
 10
98.5038157107
 20
105.3746174222
 30
0.0
 10
98.5178369254
 20
105.2952271426
 30
0.0
 10
98.5178537059
 20
105.2571416105
 30
0.0
  0
SPLINE
  5
49D
100
AcDbEntity
  8
0
100
AcDbSpline
 62
7
  6
CONTINUOUS
 70
0
 71
3
 72
11
 73
7
 74
0
 42
0.0000001
 43
0.0000001
 44
0.0000000001
 40
0.0
 40
0.0
 40
0.0
 40
0.0
 40
0.2897052857
 40
0.5490919933
 40
0.7822182543
 40
1.0
 40
1.0
 40
1.0
 40
1.0
 10
70.3737188692
 20
94.6477793278
 30
0.0
 10
70.4175983024
 20
94.6224460983
 30
0.0
 10
70.4972066772
 20
94.5676151375
 30
0.0
 10
70.5923499036
 20
94.467625232
 30
0.0
 10
70.652534463
 20
94.3570119191
 30
0.0
 10
70.6666100528
 20
94.2776235956
 30
0.0
 10
70.6666100421
 20
94.2395351739
 30
0.0
  0
SPLINE
  5
49E
100
AcDbEntity
  8
0
100
AcDbSpline
 62
7
  6
CONTINUOUS
 70
0
 71
3
 72
9
 73
5
 74
0
 42
0.0000001
 43
0.0000001
 44
0.0000000001
 40
0.0
 40
0.0
 40
0.0
 40
0.0
 40
0.5248798259
 40
1.0
 40
1.0
 40
1.0
 40
1.0
 10
70.5865134657
 20
90.1128472644
 30
0.0
 10
70.6114501097
 20
90.0857707695
 30
0.0
 10
70.6525510895
 20
90.0271232849
 30
0.0
 10
70.6684531485
 20
89.9564341111
 30
0.0
 10
70.6684501319
 20
89.9231138132
 30
0.0
  0
SPLINE
  5
49F
100
AcDbEntity
  8
0
100
AcDbSpline
 62
7
  6
CONTINUOUS
 70
0
 71
3
 72
11
 73
7
 74
0
 42
0.0000001
 43
0.0000001
 44
0.0000000001
 40
0.0
 40
0.0
 40
0.0
 40
0.0
 40
0.2896378906
 40
0.5491052299
 40
0.7822336571
 40
1.0
 40
1.0
 40
1.0
 40
1.0
 10
69.9712133852
 20
89.3531665572
 30
0.0
 10
70.0150823893
 20
89.3278393488
 30
0.0
 10
70.0946821038
 20
89.2729925765
 30
0.0
 10
70.1898380431
 20
89.1730195402
 30
0.0
 10
70.2500545171
 20
89.0623981623
 30
0.0
 10
70.2640757318
 20
88.9830078827
 30
0.0
 10
70.2640925123
 20
88.9449223506
 30
0.0
  0
SPLINE
  5
4A0
100
AcDbEntity
  8
0
100
AcDbSpline
 62
7
  6
CONTINUOUS
 70
0
 71
3
 72
11
 73
7
 74
0
 42
0.0000001
 43
0.0000001
 44
0.0000000001
 40
0.0
 40
0.0
 40
0.0
 40
0.0
 40
0.2185634152
 40
0.4545723164
 40
0.7143068101
 40
1.0
 40
1.0
 40
1.0
 40
1.0
 10
66.9548445659
 20
89.7069574805
 30
0.0
 10
66.9603119354
 20
89.6769989536
 30
0.0
 10
66.9811435716
 20
89.6161708814
 30
0.0
 10
67.0369010224
 20
89.5326799734
 30
0.0
 10
67.1157120516
 20
89.4565860853
 30
0.0
 10
67.1790227509
 20
89.4138872352
 30
0.0
 10
67.2134966442
 20
89.3939841739
 30
0.0
  0
SPLINE
  5
4A1
100
AcDbEntity
  8
0
100
AcDbSpline
 62
7
  6
CONTINUOUS
 70
0
 71
3
 72
17
 73
13
 74
0
 42
0.0000001
 43
0.0000001
 44
0.0000000001
 40
0.0
 40
0.0
 40
0.0
 40
0.0
 40
0.1286888525
 40
0.2702802895
 40
0.4174331647
 40
0.5617754839
 40
0.695448121
 40
0.8127120865
 40
0.8646770447
 40
0.9125101515
 40
0.9571398234
 40
1.0
 40
1.0
 40
1.0
 40
1.0
 10
67.2134966442
 20
89.3939841739
 30
0.0
 10
67.280117865
 20
89.3555212643
 30
0.0
 10
67.4309599518
 20
89.293285306
 30
0.0
 10
67.6767990123
 20
89.2440996449
 30
0.0
 10
67.9368187958
 20
89.2369025037
 30
0.0
 10
68.1897969341
 20
89.272450947
 30
0.0
 10
68.4152270062
 20
89.3477477695
 30
0.0
 10
68.5720136889
 20
89.4431862351
 30
0.0
 10
68.6640235074
 20
89.5355306252
 30
0.0
 10
68.7129049348
 20
89.6074251729
 30
0.0
 10
68.7430257731
 20
89.6832594823
 30
0.0
 10
68.7498814113
 20
89.7357830631
 30
0.0
 10
68.7498712338
 20
89.7614038516
 30
0.0
  0
SPLINE
  5
4A2
100
AcDbEntity
  8
0
100
AcDbSpline
 62
7
  6
CONTINUOUS
 70
0
 71
3
 72
11
 73
7
 74
0
 42
0.0000001
 43
0.0000001
 44
0.0000000001
 40
0.0
 40
0.0
 40
0.0
 40
0.0
 40
0.2897048043
 40
0.5490913404
 40
0.7822177947
 40
1.0
 40
1.0
 40
1.0
 40
1.0
 10
67.898852495
 20
93.6271672434
 30
0.0
 10
67.9427311074
 20
93.6525004209
 30
0.0
 10
68.0223379713
 20
93.7073311726
 30
0.0
 10
68.1174792648
 20
93.807320337
 30
0.0
 10
68.1776625279
 20
93.9179325784
 30
0.0
 10
68.191737787
 20
93.9973199865
 30
0.0
 10
68.19173778
 20
94.0354079979
 30
0.0
  0
SPLINE
  5
4A3
100
AcDbEntity
  8
0
100
AcDbSpline
 62
7
  6
CONTINUOUS
 70
0
 71
3
 72
15
 73
11
 74
0
 42
0.0000001
 43
0.0000001
 44
0.0000000001
 40
0.0
 40
0.0
 40
0.0
 40
0.0
 40
0.1098092179
 40
0.2287953788
 40
0.3549359128
 40
0.4858500983
 40
0.6187046239
 40
0.7505286898
 40
0.8785445789
 40
1.0
 40
1.0
 40
1.0
 40
1.0
 10
60.6928509874
 20
98.6931230451
 30
0.0
 10
60.7558219872
 20
98.7346852937
 30
0.0
 10
60.8947811291
 20
98.809791151
 30
0.0
 10
61.1239875444
 20
98.8949135302
 30
0.0
 10
61.3759474891
 20
98.9547855348
 30
0.0
 10
61.6423642655
 20
98.9875450972
 30
0.0
 10
61.9146362299
 20
98.9920647277
 30
0.0
 10
62.1839298907
 20
98.9682748154
 30
0.0
 10
62.4413500349
 20
98.9168683825
 30
0.0
 10
62.6048561126
 20
98.8636242025
 30
0.0
 10
62.6822258405
 20
98.832347053
 30
0.0
  0
SPLINE
  5
4A4
100
AcDbEntity
  8
0
100
AcDbSpline
 62
7
  6
CONTINUOUS
 70
0
 71
3
 72
9
 73
5
 74
0
 42
0.0000001
 43
0.0000001
 44
0.0000000001
 40
0.0
 40
0.0
 40
0.0
 40
0.0
 40
0.4999904978
 40
1.0
 40
1.0
 40
1.0
 40
1.0
 10
66.8807191675
 20
98.182442165
 30
0.0
 10
67.0088709535
 20
98.202267362
 30
0.0
 10
67.2686306465
 20
98.2216066
 30
0.0
 10
67.5283949032
 20
98.2023319806
 30
0.0
 10
67.6565567778
 20
98.1825397873
 30
0.0
  0
SPLINE
  5
4A5
100
AcDbEntity
  8
0
100
AcDbSpline
 62
7
  6
CONTINUOUS
 70
0
 71
3
 72
9
 73
5
 74
0
 42
0.0000001
 43
0.0000001
 44
0.0000000001
 40
0.0
 40
0.0
 40
0.0
 40
0.0
 40
0.4749282684
 40
1.0
 40
1.0
 40
1.0
 40
1.0
 10
96.7400447447
 20
106.4410429108
 30
0.0
 10
96.6624614863
 20
106.4858346126
 30
0.0
 10
96.4844657109
 20
106.5550709042
 30
0.0
 10
96.29680986
 20
106.5843577121
 30
0.0
 10
96.1979491728
 20
106.5903710169
 30
0.0
  0
SPLINE
  5
4A6
100
AcDbEntity
  8
0
100
AcDbSpline
 62
7
  6
CONTINUOUS
 70
0
 71
3
 72
11
 73
7
 74
0
 42
0.0000001
 43
0.0000001
 44
0.0000000001
 40
0.0
 40
0.0
 40
0.0
 40
0.0
 40
0.2304018502
 40
0.4846020186
 40
0.7469307889
 40
1.0
 40
1.0
 40
1.0
 40
1.0
 10
96.318551963
 20
104.5647187768
 30
0.0
 10
96.2622671307
 20
104.5322229077
 30
0.0
 10
96.1339014459
 20
104.4808683061
 30
0.0
 10
95.925303776
 20
104.4440187723
 30
0.0
 10
95.7071038577
 20
104.4452831044
 30
0.0
 10
95.56319068
 20
104.4727036786
 30
0.0
 10
95.4949476346
 20
104.4936525951
 30
0.0
  0
SPLINE
  5
4A7
100
AcDbEntity
  8
0
100
AcDbSpline
 62
7
  6
CONTINUOUS
 70
0
 71
3
 72
13
 73
9
 74
0
 42
0.0000001
 43
0.0000001
 44
0.0000000001
 40
0.0
 40
0.0
 40
0.0
 40
0.0
 40
0.1142249338
 40
0.2375584468
 40
0.4999994088
 40
0.7624406902
 40
0.885774603
 40
1.0
 40
1.0
 40
1.0
 40
1.0
 10
89.0543143909
 20
104.6164734942
 30
0.0
 10
89.005920916
 20
104.5885336753
 30
0.0
 10
88.9000487959
 20
104.5392466916
 30
0.0
 10
88.665447664
 20
104.4679684183
 30
0.0
 10
88.3472088044
 20
104.4333660822
 30
0.0
 10
88.0289695981
 20
104.4679669105
 30
0.0
 10
87.7943675235
 20
104.5392440509
 30
0.0
 10
87.6884947011
 20
104.5885305116
 30
0.0
 10
87.6401008285
 20
104.6164700949
 30
0.0
  0
SPLINE
  5
4A8
100
AcDbEntity
  8
0
100
AcDbSpline
 62
7
  6
CONTINUOUS
 70
0
 71
3
 72
13
 73
9
 74
0
 42
0.0000001
 43
0.0000001
 44
0.0000000001
 40
0.0
 40
0.0
 40
0.0
 40
0.0
 40
0.1142253587
 40
0.237559206
 40
0.5000004539
 40
0.7624414493
 40
0.885775028
 40
1.0
 40
1.0
 40
1.0
 40
1.0
 10
86.6501472133
 20
105.1880071512
 30
0.0
 10
86.6017533569
 20
105.2159467251
 30
0.0
 10
86.4958805883
 20
105.2652331799
 30
0.0
 10
86.2612785769
 20
105.3365102992
 30
0.0
 10
85.9430394114
 20
105.3711111639
 30
0.0
 10
85.624800511
 20
105.3365088641
 30
0.0
 10
85.3901993158
 20
105.2652305696
 30
0.0
 10
85.284327142
 20
105.2159435801
 30
0.0
 10
85.2359336509
 20
105.1880037518
 30
0.0
  0
SPLINE
  5
4A9
100
AcDbEntity
  8
0
100
AcDbSpline
 62
7
  6
CONTINUOUS
 70
0
 71
3
 72
11
 73
7
 74
0
 42
0.0000001
 43
0.0000001
 44
0.0000000001
 40
0.0
 40
0.0
 40
0.0
 40
0.0
 40
0.2897048043
 40
0.5490913404
 40
0.7822177947
 40
1.0
 40
1.0
 40
1.0
 40
1.0
 10
69.3837593661
 20
96.0358012925
 30
0.0
 10
69.3398807537
 20
96.010468115
 30
0.0
 10
69.2602738898
 20
95.9556373634
 30
0.0
 10
69.1651325963
 20
95.8556481989
 30
0.0
 10
69.1049493331
 20
95.7450359576
 30
0.0
 10
69.090874074
 20
95.6656485495
 30
0.0
 10
69.0908740811
 20
95.627560538
 30
0.0
  0
SPLINE
  5
4AA
100
AcDbEntity
  8
0
100
AcDbSpline
 62
7
  6
CONTINUOUS
 70
0
 71
3
 72
11
 73
7
 74
0
 42
0.0000001
 43
0.0000001
 44
0.0000000001
 40
0.0
 40
0.0
 40
0.0
 40
0.0
 40
0.2177821605
 40
0.4509085882
 40
0.7102951949
 40
1.0
 40
1.0
 40
1.0
 40
1.0
 10
70.6666100421
 20
94.2395351739
 30
0.0
 10
70.6666100314
 20
94.2014471704
 30
0.0
 10
70.6525348069
 20
94.1220597751
 30
0.0
 10
70.5923515393
 20
94.0114475286
 30
0.0
 10
70.4972102341
 20
93.9114583689
 30
0.0
 10
70.4176033695
 20
93.8566275968
 30
0.0
 10
70.3737247571
 20
93.8312944194
 30
0.0
  0
SPLINE
  5
4AB
100
AcDbEntity
  8
0
100
AcDbSpline
 62
7
  6
CONTINUOUS
 70
0
 71
3
 72
17
 73
13
 74
0
 42
0.0000001
 43
0.0000001
 44
0.0000000001
 40
0.0
 40
0.0
 40
0.0
 40
0.0
 40
0.0428577332
 40
0.0874846575
 40
0.1353161226
 40
0.1872785841
 40
0.3045368321
 40
0.4382010338
 40
0.5825441713
 40
0.7297072242
 40
0.8713100535
 40
1.0
 40
1.0
 40
1.0
 40
1.0
 10
70.2640925123
 20
88.9449223506
 30
0.0
 10
70.2641050545
 20
88.9164563405
 30
0.0
 10
70.256486261
 20
88.8581005958
 30
0.0
 10
70.2230291071
 20
88.7738407593
 30
0.0
 10
70.1687150394
 20
88.6939635032
 30
0.0
 10
70.0664921549
 20
88.5913578923
 30
0.0
 10
69.8922937716
 20
88.4853192508
 30
0.0
 10
69.6418285199
 20
88.4016462833
 30
0.0
 10
69.3607392046
 20
88.3621415793
 30
0.0
 10
69.0718123201
 20
88.3701368832
 30
0.0
 10
68.7986421136
 20
88.4247898447
 30
0.0
 10
68.6310301545
 20
88.4939411838
 30
0.0
 10
68.5570057108
 20
88.5366782495
 30
0.0
  0
SPLINE
  5
4AC
100
AcDbEntity
  8
0
100
AcDbSpline
 62
7
  6
CONTINUOUS
 70
0
 71
3
 72
13
 73
9
 74
0
 42
0.0000001
 43
0.0000001
 44
0.0000000001
 40
0.0
 40
0.0
 40
0.0
 40
0.0
 40
0.1142249338
 40
0.2375584468
 40
0.4999994088
 40
0.7624406902
 40
0.885774603
 40
1.0
 40
1.0
 40
1.0
 40
1.0
 10
68.365033604
 20
88.4258437635
 30
0.0
 10
68.3166401291
 20
88.3979039446
 30
0.0
 10
68.210768009
 20
88.3486169609
 30
0.0
 10
67.9761668771
 20
88.2773386876
 30
0.0
 10
67.6579280175
 20
88.2427363515
 30
0.0
 10
67.3396888112
 20
88.2773371799
 30
0.0
 10
67.1050867366
 20
88.3486143202
 30
0.0
 10
66.9992139142
 20
88.3979007809
 30
0.0
 10
66.9508200416
 20
88.4258403642
 30
0.0
  0
SPLINE
  5
4AD
100
AcDbEntity
  8
0
100
AcDbSpline
 62
7
  6
CONTINUOUS
 70
0
 71
3
 72
11
 73
7
 74
0
 42
0.0000001
 43
0.0000001
 44
0.0000000001
 40
0.0
 40
0.0
 40
0.0
 40
0.0
 40
0.2177438688
 40
0.4508811915
 40
0.7104582954
 40
1.0
 40
1.0
 40
1.0
 40
1.0
 10
93.6630470789
 20
107.6657614353
 30
0.0
 10
93.6630470739
 20
107.6429130977
 30
0.0
 10
93.6546567468
 20
107.5952764869
 30
0.0
 10
93.6185207235
 20
107.5288928272
 30
0.0
 10
93.561405594
 20
107.4689313708
 30
0.0
 10
93.5136583173
 20
107.4360080346
 30
0.0
 10
93.4873464858
 20
107.4208169823
 30
0.0
  0
SPLINE
  5
4AE
100
AcDbEntity
  8
0
100
AcDbSpline
 62
7
  6
CONTINUOUS
 70
0
 71
3
 72
11
 73
7
 74
0
 42
0.0000001
 43
0.0000001
 44
0.0000000001
 40
0.0
 40
0.0
 40
0.0
 40
0.0
 40
0.2372405738
 40
0.5000004574
 40
0.7627600882
 40
1.0
 40
1.0
 40
1.0
 40
1.0
 10
66.5063763208
 20
91.2718977635
 30
0.0
 10
66.4361034429
 20
91.3124689107
 30
0.0
 10
66.2726853352
 20
91.3716715437
 30
0.0
 10
66.0114008558
 20
91.4000353875
 30
0.0
 10
65.7501167328
 20
91.3716703737
 30
0.0
 10
65.5866992164
 20
91.3124669247
 30
0.0
 10
65.5164268271
 20
91.271895384
 30
0.0
  0
SPLINE
  5
4AF
100
AcDbEntity
  8
0
100
AcDbSpline
 62
7
  6
CONTINUOUS
 70
0
 71
3
 72
11
 73
7
 74
0
 42
0.0000001
 43
0.0000001
 44
0.0000000001
 40
0.0
 40
0.0
 40
0.0
 40
0.0
 40
0.2372524156
 40
0.4999996414
 40
0.7627470637
 40
1.0
 40
1.0
 40
1.0
 40
1.0
 10
65.5164268271
 20
91.271895384
 30
0.0
 10
65.4561903802
 20
91.2371180627
 30
0.0
 10
65.3161197834
 20
91.1863615072
 30
0.0
 10
65.0921633023
 20
91.162094961
 30
0.0
 10
64.868206561
 20
91.1863605333
 30
0.0
 10
64.7281355196
 20
91.2371163812
 30
0.0
 10
64.6678986897
 20
91.2718933444
 30
0.0
  0
SPLINE
  5
4B0
100
AcDbEntity
  8
0
100
AcDbSpline
 62
7
  6
CONTINUOUS
 70
0
 71
3
 72
11
 73
7
 74
0
 42
0.0000001
 43
0.0000001
 44
0.0000000001
 40
0.0
 40
0.0
 40
0.0
 40
0.0
 40
0.2895421522
 40
0.5491196247
 40
0.782256727
 40
1.0
 40
1.0
 40
1.0
 40
1.0
 10
64.6678986897
 20
91.2718933444
 30
0.0
 10
64.6415863695
 20
91.2870844259
 30
0.0
 10
64.5938381949
 20
91.320007924
 30
0.0
 10
64.5367218652
 20
91.3799698067
 30
0.0
 10
64.5005850922
 20
91.446354128
 30
0.0
 10
64.4921945587
 20
91.4939912674
 30
0.0
 10
64.4921945638
 20
91.5168398365
 30
0.0
  0
SPLINE
  5
4B1
100
AcDbEntity
  8
0
100
AcDbSpline
 62
7
  6
CONTINUOUS
 70
0
 71
3
 72
10
 73
6
 74
0
 42
0.0000001
 43
0.0000001
 44
0.0000000001
 40
0.0
 40
0.0
 40
0.0
 40
0.0
 40
0.2273087251
 40
0.5958004265
 40
1.0
 40
1.0
 40
1.0
 40
1.0
 10
65.8835838904
 20
95.6071383022
 30
0.0
 10
65.8324466657
 20
95.6889213494
 30
0.0
 10
65.6811956123
 20
95.8927878772
 30
0.0
 10
65.3716616324
 20
96.1867102394
 30
0.0
 10
65.0981872709
 20
96.370208502
 30
0.0
 10
64.9496499431
 20
96.4559646281
 30
0.0
  0
SPLINE
  5
4B2
100
AcDbEntity
  8
0
100
AcDbSpline
 62
7
  6
CONTINUOUS
 70
0
 71
3
 72
9
 73
5
 74
0
 42
0.0000001
 43
0.0000001
 44
0.0000000001
 40
0.0
 40
0.0
 40
0.0
 40
0.0
 40
0.4802410199
 40
1.0
 40
1.0
 40
1.0
 40
1.0
 10
64.9496499431
 20
96.4559646281
 30
0.0
 10
64.7438182021
 20
96.5747989508
 30
0.0
 10
64.2917255917
 20
96.7823895581
 30
0.0
 10
63.8148767059
 20
96.9208955861
 30
0.0
 10
63.5638261538
 20
96.9769403201
 30
0.0
  0
SPLINE
  5
4B3
100
AcDbEntity
  8
0
100
AcDbSpline
 62
7
  6
CONTINUOUS
 70
0
 71
3
 72
9
 73
5
 74
0
 42
0.0000001
 43
0.0000001
 44
0.0000000001
 40
0.0
 40
0.0
 40
0.0
 40
0.0
 40
0.2293891061
 40
1.0
 40
1.0
 40
1.0
 40
1.0
 10
63.5638261538
 20
96.9769403201
 30
0.0
 10
63.536777724
 20
97.0162620807
 30
0.0
 10
63.406586022
 20
97.179273407
 30
0.0
 10
63.2358763763
 20
97.3065880179
 30
0.0
 10
63.0970234641
 20
97.3867529705
 30
0.0
  0
SPLINE
  5
4B4
100
AcDbEntity
  8
0
100
AcDbSpline
 62
7
  6
CONTINUOUS
 70
0
 71
3
 72
15
 73
11
 74
0
 42
0.0000001
 43
0.0000001
 44
0.0000000001
 40
0.0
 40
0.0
 40
0.0
 40
0.0
 40
0.1134046594
 40
0.2355281001
 40
0.3640362188
 40
0.4961550805
 40
0.6288037733
 40
0.7588626476
 40
0.8834419075
 40
1.0
 40
1.0
 40
1.0
 40
1.0
 10
63.0970234641
 20
97.3867529705
 30
0.0
 10
62.9996606156
 20
97.4429641657
 30
0.0
 10
62.7874051984
 20
97.5427258068
 30
0.0
 10
62.4421611569
 20
97.6508321738
 30
0.0
 10
62.0682303335
 20
97.7201485893
 30
0.0
 10
61.6786060522
 20
97.7483303105
 30
0.0
 10
61.2866832515
 20
97.7343615027
 30
0.0
 10
60.905952777
 20
97.678773275
 30
0.0
 10
60.5496601583
 20
97.5834402302
 30
0.0
 10
60.3277792168
 20
97.4919470323
 30
0.0
 10
60.2247626896
 20
97.4396067394
 30
0.0
  0
SPLINE
  5
4B5
100
AcDbEntity
  8
0
100
AcDbSpline
 62
7
  6
CONTINUOUS
 70
0
 71
3
 72
11
 73
7
 74
0
 42
0.0000001
 43
0.0000001
 44
0.0000000001
 40
0.0
 40
0.0
 40
0.0
 40
0.0
 40
0.2177758143
 40
0.4509108548
 40
0.7102774716
 40
1.0
 40
1.0
 40
1.0
 40
1.0
 10
70.6684501319
 20
89.9231138132
 30
0.0
 10
70.6684477183
 20
89.8964529979
 30
0.0
 10
70.6585891602
 20
89.840883733
 30
0.0
 10
70.6164711495
 20
89.7634527219
 30
0.0
 10
70.5498702906
 20
89.6934597631
 30
0.0
 10
70.4941452226
 20
89.6550795921
 30
0.0
 10
70.4634283266
 20
89.6373452898
 30
0.0
  0
SPLINE
  5
4B6
100
AcDbEntity
  8
0
100
AcDbSpline
 62
7
  6
CONTINUOUS
 70
0
 71
3
 72
9
 73
5
 74
0
 42
0.0000001
 43
0.0000001
 44
0.0000000001
 40
0.0
 40
0.0
 40
0.0
 40
0.0
 40
0.5080126748
 40
1.0
 40
1.0
 40
1.0
 40
1.0
 10
81.5176059689
 20
106.1851724998
 30
0.0
 10
81.5011695941
 20
106.2206475324
 30
0.0
 10
81.4755596239
 20
106.2938970326
 30
0.0
 10
81.4666565672
 20
106.3710945856
 30
0.0
 10
81.4666565648
 20
106.4089589691
 30
0.0
  0
SPLINE
  5
4B7
100
AcDbEntity
  8
0
100
AcDbSpline
 62
7
  6
CONTINUOUS
 70
0
 71
3
 72
11
 73
7
 74
0
 42
0.0000001
 43
0.0000001
 44
0.0000000001
 40
0.0
 40
0.0
 40
0.0
 40
0.0
 40
0.2787662064
 40
0.5347506984
 40
0.7724084237
 40
1.0
 40
1.0
 40
1.0
 40
1.0
 10
80.3920492593
 20
109.0570573378
 30
0.0
 10
80.3501904754
 20
109.0915708487
 30
0.0
 10
80.2747189778
 20
109.1640910752
 30
0.0
 10
80.1871707436
 20
109.2875822747
 30
0.0
 10
80.133091756
 20
109.4185352692
 30
0.0
 10
80.1207981434
 20
109.5094918303
 30
0.0
 10
80.1207967431
 20
109.5537849522
 30
0.0
  0
SPLINE
  5
4B8
100
AcDbEntity
  8
0
100
AcDbSpline
 62
7
  6
CONTINUOUS
 70
0
 71
3
 72
11
 73
7
 74
0
 42
0.0000001
 43
0.0000001
 44
0.0000000001
 40
0.0
 40
0.0
 40
0.0
 40
0.0
 40
0.2859832857
 40
0.5439644189
 40
0.7786633572
 40
1.0
 40
1.0
 40
1.0
 40
1.0
 10
82.8043602676
 20
110.4758656633
 30
0.0
 10
82.7250607388
 20
110.4238403166
 30
0.0
 10
82.581519818
 20
110.3126951205
 30
0.0
 10
82.4118274128
 20
110.1152061469
 30
0.0
 10
82.3054761157
 20
109.9004382609
 30
0.0
 10
82.2808544398
 20
109.7483051373
 30
0.0
 10
82.280860368
 20
109.67490202
 30
0.0
  0
SPLINE
  5
4B9
100
AcDbEntity
  8
0
100
AcDbSpline
 62
7
  6
CONTINUOUS
 70
0
 71
3
 72
11
 73
7
 74
0
 42
0.0000001
 43
0.0000001
 44
0.0000000001
 40
0.0
 40
0.0
 40
0.0
 40
0.0
 40
0.2177817009
 40
0.4509079353
 40
0.7102947134
 40
1.0
 40
1.0
 40
1.0
 40
1.0
 10
68.19173778
 20
94.0354079979
 30
0.0
 10
68.1917377729
 20
94.0734964117
 30
0.0
 10
68.1776622177
 20
94.1528847223
 30
0.0
 10
68.1174776538
 20
94.2634980404
 30
0.0
 10
68.0223344157
 20
94.3634879412
 30
0.0
 10
67.9427260403
 20
94.4183189224
 30
0.0
 10
67.8988466071
 20
94.4436521518
 30
0.0
  0
SPLINE
  5
4BA
100
AcDbEntity
  8
0
100
AcDbSpline
 62
7
  6
CONTINUOUS
 70
0
 71
3
 72
17
 73
13
 74
0
 42
0.0000001
 43
0.0000001
 44
0.0000000001
 40
0.0
 40
0.0
 40
0.0
 40
0.0
 40
0.0428577332
 40
0.0874846575
 40
0.1353161226
 40
0.1872785841
 40
0.3045368321
 40
0.4382010338
 40
0.5825441713
 40
0.7297072242
 40
0.8713100535
 40
1.0
 40
1.0
 40
1.0
 40
1.0
 10
98.5178537059
 20
105.2571416105
 30
0.0
 10
98.517866248
 20
105.2286756004
 30
0.0
 10
98.5102474546
 20
105.1703198557
 30
0.0
 10
98.4767903006
 20
105.0860600192
 30
0.0
 10
98.422476233
 20
105.0061827631
 30
0.0
 10
98.3202533485
 20
104.9035771523
 30
0.0
 10
98.1460549652
 20
104.7975385107
 30
0.0
 10
97.8955897134
 20
104.7138655432
 30
0.0
 10
97.6145003981
 20
104.6743608392
 30
0.0
 10
97.3255735137
 20
104.6823561431
 30
0.0
 10
97.0524033072
 20
104.7370091046
 30
0.0
 10
96.8847913481
 20
104.8061604437
 30
0.0
 10
96.8107669043
 20
104.8488975094
 30
0.0
  0
SPLINE
  5
4BB
100
AcDbEntity
  8
0
100
AcDbSpline
 62
7
  6
CONTINUOUS
 70
0
 71
3
 72
11
 73
7
 74
0
 42
0.0000001
 43
0.0000001
 44
0.0000000001
 40
0.0
 40
0.0
 40
0.0
 40
0.0
 40
0.2177643494
 40
0.4508943819
 40
0.7103680107
 40
1.0
 40
1.0
 40
1.0
 40
1.0
 10
97.0036324273
 20
106.0736231115
 30
0.0
 10
97.0036188113
 20
106.1078998358
 30
0.0
 10
96.9910054372
 20
106.1793523617
 30
0.0
 10
96.9368086786
 20
106.2789128376
 30
0.0
 10
96.8511660184
 20
106.3688867957
 30
0.0
 10
96.7795261114
 20
106.4182488488
 30
0.0
 10
96.7400447447
 20
106.4410429108
 30
0.0
  0
SPLINE
  5
4BC
100
AcDbEntity
  8
0
100
AcDbSpline
 62
7
  6
CONTINUOUS
 70
0
 71
3
 72
11
 73
7
 74
0
 42
0.0000001
 43
0.0000001
 44
0.0000000001
 40
0.0
 40
0.0
 40
0.0
 40
0.0
 40
0.2177821605
 40
0.4509085882
 40
0.7102951949
 40
1.0
 40
1.0
 40
1.0
 40
1.0
 10
98.7098319705
 20
106.1844610576
 30
0.0
 10
98.7098319599
 20
106.1463730541
 30
0.0
 10
98.6957567353
 20
106.0669856588
 30
0.0
 10
98.6355734678
 20
105.9563734123
 30
0.0
 10
98.5404321626
 20
105.8563842525
 30
0.0
 10
98.460825298
 20
105.8015534805
 30
0.0
 10
98.4169466856
 20
105.7762203031
 30
0.0
  0
SPLINE
  5
4BD
100
AcDbEntity
  8
0
100
AcDbSpline
 62
7
  6
CONTINUOUS
 70
0
 71
3
 72
11
 73
7
 74
0
 42
0.0000001
 43
0.0000001
 44
0.0000000001
 40
0.0
 40
0.0
 40
0.0
 40
0.0
 40
0.2177643494
 40
0.4508943819
 40
0.7103680107
 40
1.0
 40
1.0
 40
1.0
 40
1.0
 10
68.7498712338
 20
89.7614038516
 30
0.0
 10
68.7498576177
 20
89.7956805759
 30
0.0
 10
68.7372442437
 20
89.8671331018
 30
0.0
 10
68.683047485
 20
89.9666935777
 30
0.0
 10
68.5974048249
 20
90.0566675358
 30
0.0
 10
68.5257649179
 20
90.1060295889
 30
0.0
 10
68.4862835512
 20
90.1288236509
 30
0.0
  0
SPLINE
  5
4BE
100
AcDbEntity
  8
0
100
AcDbSpline
 62
7
  6
CONTINUOUS
 70
0
 71
3
 72
13
 73
9
 74
0
 42
0.0000001
 43
0.0000001
 44
0.0000000001
 40
0.0
 40
0.0
 40
0.0
 40
0.0
 40
0.1142249338
 40
0.2375584468
 40
0.4999994088
 40
0.7624406902
 40
0.885774603
 40
1.0
 40
1.0
 40
1.0
 40
1.0
 10
85.2359336509
 20
98.8601100191
 30
0.0
 10
85.2843271258
 20
98.888049838
 30
0.0
 10
85.3901992459
 20
98.9373368217
 30
0.0
 10
85.6248003778
 20
99.008615095
 30
0.0
 10
85.9430392374
 20
99.0432174311
 30
0.0
 10
86.2612784438
 20
99.0086166028
 30
0.0
 10
86.4958805183
 20
98.9373394624
 30
0.0
 10
86.6017533407
 20
98.8880530017
 30
0.0
 10
86.6501472133
 20
98.8601134184
 30
0.0
  0
SPLINE
  5
4BF
100
AcDbEntity
  8
0
100
AcDbSpline
 62
7
  6
CONTINUOUS
 70
0
 71
3
 72
13
 73
9
 74
0
 42
0.0000001
 43
0.0000001
 44
0.0000000001
 40
0.0
 40
0.0
 40
0.0
 40
0.0
 40
0.1142253587
 40
0.237559206
 40
0.5000004539
 40
0.7624414493
 40
0.885775028
 40
1.0
 40
1.0
 40
1.0
 40
1.0
 10
87.6401008285
 20
98.2885763621
 30
0.0
 10
87.6884946849
 20
98.2606367882
 30
0.0
 10
87.7943674535
 20
98.2113503334
 30
0.0
 10
88.0289694649
 20
98.1400732141
 30
0.0
 10
88.3472086304
 20
98.1054723494
 30
0.0
 10
88.6654475308
 20
98.1400746492
 30
0.0
 10
88.900048726
 20
98.2113529437
 30
0.0
 10
89.0059208998
 20
98.2606399331
 30
0.0
 10
89.0543143909
 20
98.2885797615
 30
0.0
  0
SPLINE
  5
4C0
100
AcDbEntity
  8
0
100
AcDbSpline
 62
7
  6
CONTINUOUS
 70
0
 71
3
 72
11
 73
7
 74
0
 42
0.0000001
 43
0.0000001
 44
0.0000000001
 40
0.0
 40
0.0
 40
0.0
 40
0.0
 40
0.2897048043
 40
0.5490913404
 40
0.7822177947
 40
1.0
 40
1.0
 40
1.0
 40
1.0
 10
93.4873464858
 20
107.4208169823
 30
0.0
 10
93.4566314571
 20
107.4030837581
 30
0.0
 10
93.4009066524
 20
107.3647022319
 30
0.0
 10
93.3343077469
 20
107.2947098168
 30
0.0
 10
93.2921794628
 20
107.2172812479
 30
0.0
 10
93.2823267814
 20
107.1617100622
 30
0.0
 10
93.2823267863
 20
107.1350484542
 30
0.0
  0
SPLINE
  5
4C1
100
AcDbEntity
  8
0
100
AcDbSpline
 62
7
  6
CONTINUOUS
 70
0
 71
3
 72
9
 73
5
 74
0
 42
0.0000001
 43
0.0000001
 44
0.0000000001
 40
0.0
 40
0.0
 40
0.0
 40
0.0
 40
0.5062648456
 40
1.0
 40
1.0
 40
1.0
 40
1.0
 10
55.3635562219
 20
48.9122942678
 30
0.0
 10
56.1239069481
 20
48.9006819722
 30
0.0
 10
57.6287090433
 20
48.9642774707
 30
0.0
 10
59.114227543
 20
49.2174372038
 30
0.0
 10
59.8352344977
 20
49.3910684504
 30
0.0
  0
SPLINE
  5
4C2
100
AcDbEntity
  8
0
100
AcDbSpline
 62
7
  6
CONTINUOUS
 70
0
 71
3
 72
11
 73
7
 74
0
 42
0.0000001
 43
0.0000001
 44
0.0000000001
 40
0.0
 40
0.0
 40
0.0
 40
0.0
 40
0.2177627393
 40
0.4514393834
 40
0.7110014494
 40
1.0
 40
1.0
 40
1.0
 40
1.0
 10
36.4192963066
 20
49.4748629399
 30
0.0
 10
36.4219430201
 20
49.4004324453
 30
0.0
 10
36.4542056123
 20
49.2461466039
 30
0.0
 10
36.5758155619
 20
49.0320322959
 30
0.0
 10
36.7633887037
 20
48.8381664232
 30
0.0
 10
36.9190599428
 20
48.7313722043
 30
0.0
 10
37.0046592976
 20
48.6819525118
 30
0.0
  0
SPLINE
  5
4C3
100
AcDbEntity
  8
0
100
AcDbSpline
 62
7
  6
CONTINUOUS
 70
0
 71
3
 72
11
 73
7
 74
0
 42
0.0000001
 43
0.0000001
 44
0.0000000001
 40
0.0
 40
0.0
 40
0.0
 40
0.0
 40
0.2174287816
 40
0.4511766205
 40
0.7108242573
 40
1.0
 40
1.0
 40
1.0
 40
1.0
 10
36.4188127794
 20
63.1341512565
 30
0.0
 10
36.4188130958
 20
63.2104298229
 30
0.0
 10
36.4473015365
 20
63.3696869352
 30
0.0
 10
36.5673136195
 20
63.592053902
 30
0.0
 10
36.757329131
 20
63.7936319501
 30
0.0
 10
36.9167900603
 20
63.9038713881
 30
0.0
 10
37.0046475175
 20
63.9545956119
 30
0.0
  0
SPLINE
  5
4C4
100
AcDbEntity
  8
0
100
AcDbSpline
 62
7
  6
CONTINUOUS
 70
0
 71
3
 72
23
 73
19
 74
0
 42
0.0000001
 43
0.0000001
 44
0.0000000001
 40
0.0
 40
0.0
 40
0.0
 40
0.0
 40
0.0752976549
 40
0.1519822124
 40
0.229288269
 40
0.3064386574
 40
0.3826588746
 40
0.4571921833
 40
0.5293154956
 40
0.5983553673
 40
0.6637068442
 40
0.7248594001
 40
0.7814288683
 40
0.8332159384
 40
0.8802763429
 40
0.9230182508
 40
0.9624928789
 40
1.0
 40
1.0
 40
1.0
 40
1.0
 10
58.264874265
 20
86.5863308274
 30
0.0
 10
57.9466005794
 20
87.5198124466
 30
0.0
 10
57.2342810796
 20
89.3808176125
 30
0.0
 10
55.9670289032
 20
92.1060312865
 30
0.0
 10
54.5056323114
 20
94.7601287788
 30
0.0
 10
52.8713890563
 20
97.3041699307
 30
0.0
 10
51.0882733777
 20
99.7011718377
 30
0.0
 10
49.182951398
 20
101.9162615155
 30
0.0
 10
47.1844615964
 20
103.9171333512
 30
0.0
 10
45.1241260717
 20
105.6745538617
 30
0.0
 10
43.0353728061
 20
107.1629694218
 30
0.0
 10
40.9535610748
 20
108.3613654015
 30
0.0
 10
38.9154961594
 20
109.2546823793
 30
0.0
 10
36.957823131
 20
109.8346969174
 30
0.0
 10
35.1151383052
 20
110.1012059384
 30
0.0
 10
33.4132513405
 20
110.0637914572
 30
0.0
 10
31.8703835662
 20
109.7330195507
 30
0.0
 10
30.9405403952
 20
109.3212063667
 30
0.0
 10
30.515089043
 20
109.0755733802
 30
0.0
  0
SPLINE
  5
4C5
100
AcDbEntity
  8
0
100
AcDbSpline
 62
7
  6
CONTINUOUS
 70
0
 71
3
 72
11
 73
7
 74
0
 42
0.0000001
 43
0.0000001
 44
0.0000000001
 40
0.0
 40
0.0
 40
0.0
 40
0.0
 40
0.2532311365
 40
0.5047809498
 40
0.7576207914
 40
1.0
 40
1.0
 40
1.0
 40
1.0
 10
56.2190385305
 20
66.2456423462
 30
0.0
 10
56.0671169585
 20
66.1506333786
 30
0.0
 10
55.7649596526
 20
65.9601683908
 30
0.0
 10
55.309787979
 20
65.67694294
 30
0.0
 10
54.8576306354
 20
65.403486853
 30
0.0
 10
54.5558424469
 20
65.2253785931
 30
0.0
 10
54.4073143991
 20
65.1396263674
 30
0.0
  0
SPLINE
  5
4C6
100
AcDbEntity
  8
0
100
AcDbSpline
 62
7
  6
CONTINUOUS
 70
0
 71
3
 72
10
 73
6
 74
0
 42
0.0000001
 43
0.0000001
 44
0.0000000001
 40
0.0
 40
0.0
 40
0.0
 40
0.0
 40
0.2821380498
 40
0.5421028169
 40
1.0
 40
1.0
 40
1.0
 40
1.0
 10
77.7391983579
 20
105.3444543892
 30
0.0
 10
77.6723868809
 20
105.3830271408
 30
0.0
 10
77.5390597116
 20
105.4494029931
 30
0.0
 10
77.2790037284
 20
105.5344844922
 30
0.0
 10
77.0757515081
 20
105.5467098409
 30
0.0
 10
76.9528631133
 20
105.5227322697
 30
0.0
  0
SPLINE
  5
4C7
100
AcDbEntity
  8
0
100
AcDbSpline
 62
7
  6
CONTINUOUS
 70
0
 71
3
 72
11
 73
7
 74
0
 42
0.0000001
 43
0.0000001
 44
0.0000000001
 40
0.0
 40
0.0
 40
0.0
 40
0.0
 40
0.217766569
 40
0.4508976191
 40
0.7103704889
 40
1.0
 40
1.0
 40
1.0
 40
1.0
 10
71.71730515
 20
62.0211150164
 30
0.0
 10
71.6430768117
 20
62.0639304974
 30
0.0
 10
71.4726123629
 20
62.1259363848
 30
0.0
 10
71.1893152717
 20
62.1330498141
 30
0.0
 10
70.8874672435
 20
62.0601005506
 30
0.0
 10
70.6910483352
 20
61.9667027052
 30
0.0
 10
70.5923476903
 20
61.9097182015
 30
0.0
  0
SPLINE
  5
4C8
100
AcDbEntity
  8
0
100
AcDbSpline
 62
7
  6
CONTINUOUS
 70
0
 71
3
 72
15
 73
11
 74
0
 42
0.0000001
 43
0.0000001
 44
0.0000000001
 40
0.0
 40
0.0
 40
0.0
 40
0.0
 40
0.1502251534
 40
0.3006630962
 40
0.4462793791
 40
0.5825726837
 40
0.7061328838
 40
0.8154246121
 40
0.9117297916
 40
1.0
 40
1.0
 40
1.0
 40
1.0
 10
69.7600244014
 20
74.2217614822
 30
0.0
 10
69.6568626059
 20
74.0890716999
 30
0.0
 10
69.468229002
 20
73.8091715374
 30
0.0
 10
69.2439186661
 20
73.3616122002
 30
0.0
 10
69.0856887351
 20
72.9028629833
 30
0.0
 10
69.0013064592
 20
72.4552490877
 30
0.0
 10
68.9951323021
 20
72.0398221272
 30
0.0
 10
69.0689651653
 20
71.6752981785
 30
0.0
 10
69.2230574985
 20
71.3787621438
 30
0.0
 10
69.3818431563
 20
71.2374433992
 30
0.0
 10
69.4673902306
 20
71.1880991835
 30
0.0
  0
SPLINE
  5
4C9
100
AcDbEntity
  8
0
100
AcDbSpline
 62
7
  6
CONTINUOUS
 70
0
 71
3
 72
17
 73
13
 74
0
 42
0.0000001
 43
0.0000001
 44
0.0000000001
 40
0.0
 40
0.0
 40
0.0
 40
0.0
 40
0.1286878892
 40
0.2702784801
 40
0.4174307831
 40
0.5617728703
 40
0.6954456377
 40
0.8127101002
 40
0.8646754474
 40
0.9125090257
 40
0.9571392405
 40
1.0
 40
1.0
 40
1.0
 40
1.0
 10
70.5923476903
 20
61.9097182015
 30
0.0
 10
70.4257948014
 20
61.8135594202
 30
0.0
 10
70.1024939147
 20
61.5647730987
 30
0.0
 10
69.6887019698
 20
61.0939962964
 30
0.0
 10
69.3480940755
 20
60.5400285067
 30
0.0
 10
69.1088377489
 20
59.9478721295
 30
0.0
 10
68.9900769774
 20
59.3656725594
 30
0.0
 10
69.0007301544
 20
58.90691496
 30
0.0
 10
69.0856552643
 20
58.5922732444
 30
0.0
 10
69.1802145089
 20
58.3965710553
 30
0.0
 10
69.3067545066
 20
58.2365627383
 30
0.0
 10
69.4119052158
 20
58.1560646962
 30
0.0
 10
69.4673902306
 20
58.1240605095
 30
0.0
  0
SPLINE
  5
4CA
100
AcDbEntity
  8
0
100
AcDbSpline
 62
7
  6
CONTINUOUS
 70
0
 71
3
 72
11
 73
7
 74
0
 42
0.0000001
 43
0.0000001
 44
0.0000000001
 40
0.0
 40
0.0
 40
0.0
 40
0.0
 40
0.2372542275
 40
0.5000017852
 40
0.7627483734
 40
1.0
 40
1.0
 40
1.0
 40
1.0
 10
54.9651939137
 20
34.6382206421
 30
0.0
 10
54.9651939137
 20
34.4991095079
 30
0.0
 10
54.9130372242
 20
34.2057417473
 30
0.0
 10
54.7311119567
 20
33.7935694892
 30
0.0
 10
54.4651256574
 20
33.4299313699
 30
0.0
 10
54.2371419444
 20
33.2380792502
 30
0.0
 10
54.116669309
 20
33.1685247569
 30
0.0
  0
SPLINE
  5
4CB
100
AcDbEntity
  8
0
100
AcDbSpline
 62
7
  6
CONTINUOUS
 70
0
 71
3
 72
11
 73
7
 74
0
 42
0.0000001
 43
0.0000001
 44
0.0000000001
 40
0.0
 40
0.0
 40
0.0
 40
0.0
 40
0.2895396729
 40
0.5491163863
 40
0.7822545095
 40
1.0
 40
1.0
 40
1.0
 40
1.0
 10
54.116669309
 20
33.1685247569
 30
0.0
 10
54.0640461468
 20
33.1381429414
 30
0.0
 10
53.9592743776
 20
33.0883665962
 30
0.0
 10
53.798303488
 20
33.0494028028
 30
0.0
 10
53.6471876269
 20
33.0531976141
 30
0.0
 10
53.556287953
 20
33.0863013646
 30
0.0
 10
53.5167130609
 20
33.1091494435
 30
0.0
  0
SPLINE
  5
4CC
100
AcDbEntity
  8
0
100
AcDbSpline
 62
7
  6
CONTINUOUS
 70
0
 71
3
 72
9
 73
5
 74
0
 42
0.0000001
 43
0.0000001
 44
0.0000000001
 40
0.0
 40
0.0
 40
0.0
 40
0.0
 40
0.2286054972
 40
1.0
 40
1.0
 40
1.0
 40
1.0
 10
50.0861781475
 20
62.6448320813
 30
0.0
 10
50.0099611505
 20
62.6008284402
 30
0.0
 10
49.6770704186
 20
62.4074608907
 30
0.0
 10
49.3452869674
 20
62.2121893546
 30
0.0
 10
49.0881049363
 20
62.063704647
 30
0.0
  0
SPLINE
  5
4CD
100
AcDbEntity
  8
0
100
AcDbSpline
 62
7
  6
CONTINUOUS
 70
0
 71
3
 72
9
 73
5
 74
0
 42
0.0000001
 43
0.0000001
 44
0.0000000001
 40
0.0
 40
0.0
 40
0.0
 40
0.0
 40
0.519958863
 40
1.0
 40
1.0
 40
1.0
 40
1.0
 10
41.5868299187
 20
66.6001040632
 30
0.0
 10
41.6525090739
 20
66.6380230248
 30
0.0
 10
41.7724238106
 20
66.7226423321
 30
0.0
 10
41.876637938
 20
66.825456395
 30
0.0
 10
41.9231611476
 20
66.8777820813
 30
0.0
  0
SPLINE
  5
4CE
100
AcDbEntity
  8
0
100
AcDbSpline
 62
7
  6
CONTINUOUS
 70
0
 71
3
 72
13
 73
9
 74
0
 42
0.0000001
 43
0.0000001
 44
0.0000000001
 40
0.0
 40
0.0
 40
0.0
 40
0.0
 40
0.1142253587
 40
0.237559206
 40
0.5000004539
 40
0.7624414493
 40
0.885775028
 40
1.0
 40
1.0
 40
1.0
 40
1.0
 10
47.2577503122
 20
42.7624615713
 30
0.0
 10
47.3545380249
 20
42.7065824234
 30
0.0
 10
47.5662835623
 20
42.6080095138
 30
0.0
 10
48.035487585
 20
42.4654552753
 30
0.0
 10
48.671965916
 20
42.3962535459
 30
0.0
 10
49.3084437168
 20
42.4654581454
 30
0.0
 10
49.7776461072
 20
42.6080147344
 30
0.0
 10
49.9893904548
 20
42.7065887133
 30
0.0
 10
50.0861774369
 20
42.76246837
 30
0.0
  0
SPLINE
  5
4CF
100
AcDbEntity
  8
0
100
AcDbSpline
 62
7
  6
CONTINUOUS
 70
0
 71
3
 72
9
 73
5
 74
0
 42
0.0000001
 43
0.0000001
 44
0.0000000001
 40
0.0
 40
0.0
 40
0.0
 40
0.0
 40
0.5085220225
 40
1.0
 40
1.0
 40
1.0
 40
1.0
 10
41.9231611476
 20
66.8777820813
 30
0.0
 10
41.9996626938
 20
66.9638250681
 30
0.0
 10
42.1308651759
 20
67.1500761392
 30
0.0
 10
42.2394441627
 20
67.3486607735
 30
0.0
 10
42.2934925464
 20
67.4459282166
 30
0.0
  0
SPLINE
  5
4D0
100
AcDbEntity
  8
0
100
AcDbSpline
 62
7
  6
CONTINUOUS
 70
0
 71
3
 72
9
 73
5
 74
0
 42
0.0000001
 43
0.0000001
 44
0.0000000001
 40
0.0
 40
0.0
 40
0.0
 40
0.0
 40
0.5223153964
 40
1.0
 40
1.0
 40
1.0
 40
1.0
 10
62.617094483
 20
98.9627605785
 30
0.0
 10
62.861054761
 20
99.0605546895
 30
0.0
 10
63.3222379552
 20
99.2626039345
 30
0.0
 10
63.7704609587
 20
99.4926022604
 30
0.0
 10
63.978630325
 20
99.6127881827
 30
0.0
  0
SPLINE
  5
4D1
100
AcDbEntity
  8
0
100
AcDbSpline
 62
7
  6
CONTINUOUS
 70
0
 71
3
 72
15
 73
11
 74
0
 42
0.0000001
 43
0.0000001
 44
0.0000000001
 40
0.0
 40
0.0
 40
0.0
 40
0.0
 40
0.1080571628
 40
0.2181439414
 40
0.332106482
 40
0.4514740693
 40
0.5773882672
 40
0.7105801174
 40
0.8514547667
 40
1.0
 40
1.0
 40
1.0
 40
1.0
 10
22.0151271048
 20
123.7980272002
 30
0.0
 10
22.7024205914
 20
124.194832246
 30
0.0
 10
24.1614799725
 20
124.8783603995
 30
0.0
 10
26.5220615523
 20
125.5322981687
 30
0.0
 10
29.0383334786
 20
125.8148600707
 30
0.0
 10
31.6836483499
 20
125.7253501611
 30
0.0
 10
34.4325207935
 20
125.2671679066
 30
0.0
 10
37.2595221277
 20
124.446665857
 30
0.0
 10
40.1380436137
 20
123.2726820987
 30
0.0
 10
42.025381168
 20
122.2877101403
 30
0.0
 10
42.9709021484
 20
121.7434480651
 30
0.0
  0
SPLINE
  5
4D2
100
AcDbEntity
  8
0
100
AcDbSpline
 62
7
  6
CONTINUOUS
 70
0
 71
3
 72
9
 73
5
 74
0
 42
0.0000001
 43
0.0000001
 44
0.0000000001
 40
0.0
 40
0.0
 40
0.0
 40
0.0
 40
0.2378047471
 40
1.0
 40
1.0
 40
1.0
 40
1.0
 10
55.7579124607
 20
48.9423803688
 30
0.0
 10
55.7554349738
 20
48.9341623432
 30
0.0
 10
55.7464642141
 20
48.8991739236
 30
0.0
 10
55.743008083
 20
48.8628611103
 30
0.0
 10
55.7430080822
 20
48.8353503551
 30
0.0
  0
SPLINE
  5
4D3
100
AcDbEntity
  8
0
100
AcDbSpline
 62
7
  6
CONTINUOUS
 70
0
 71
3
 72
11
 73
7
 74
0
 42
0.0000001
 43
0.0000001
 44
0.0000000001
 40
0.0
 40
0.0
 40
0.0
 40
0.0
 40
0.2177442246
 40
0.4508817658
 40
0.7104588047
 40
1.0
 40
1.0
 40
1.0
 40
1.0
 10
53.5167130609
 20
33.1091494435
 30
0.0
 10
53.4771368304
 20
33.1319982951
 30
0.0
 10
53.4030146974
 20
33.1941690977
 30
0.0
 10
53.3241668856
 20
33.3231464987
 30
0.0
 10
53.2774230817
 20
33.4820398395
 30
0.0
 10
53.2681447044
 20
33.5976680421
 30
0.0
 10
53.2681447044
 20
33.6584346728
 30
0.0
  0
SPLINE
  5
4D4
100
AcDbEntity
  8
0
100
AcDbSpline
 62
7
  6
CONTINUOUS
 70
0
 71
3
 72
11
 73
7
 74
0
 42
0.0000001
 43
0.0000001
 44
0.0000000001
 40
0.0
 40
0.0
 40
0.0
 40
0.0
 40
0.243185937
 40
0.4893660019
 40
0.7409298241
 40
1.0
 40
1.0
 40
1.0
 40
1.0
 10
61.3644508344
 20
51.8341172855
 30
0.0
 10
60.8697401195
 20
51.5617612043
 30
0.0
 10
59.8381112269
 20
51.0766775165
 30
0.0
 10
58.1976638235
 20
50.5438943188
 30
0.0
 10
56.4688302166
 20
50.206381299
 30
0.0
 10
55.2837806563
 20
50.1139325141
 30
0.0
 10
54.6823553228
 20
50.098892261
 30
0.0
  0
SPLINE
  5
4D5
100
AcDbEntity
  8
0
100
AcDbSpline
 62
7
  6
CONTINUOUS
 70
0
 71
3
 72
17
 73
13
 74
0
 42
0.0000001
 43
0.0000001
 44
0.0000000001
 40
0.0
 40
0.0
 40
0.0
 40
0.0
 40
0.0498417364
 40
0.0999960525
 40
0.1509025481
 40
0.2030003949
 40
0.312166224
 40
0.4300145054
 40
0.5578022108
 40
0.6958247609
 40
0.8435907499
 40
1.0
 40
1.0
 40
1.0
 40
1.0
 10
54.6823553228
 20
62.9986594759
 30
0.0
 10
55.0084319621
 20
63.1646019627
 30
0.0
 10
55.6429112614
 20
63.5380025992
 30
0.0
 10
56.5242758164
 20
64.2132358885
 30
0.0
 10
57.3306013053
 20
65.000576847
 30
0.0
 10
58.3147984088
 20
66.2114678733
 30
0.0
 10
59.3345205331
 20
68.0068231851
 30
0.0
 10
60.1764074408
 20
70.4847001731
 30
0.0
 10
60.6482155859
 20
73.2716466094
 30
0.0
 10
60.7442922324
 20
76.3141062368
 30
0.0
 10
60.4650750986
 20
79.5544524914
 30
0.0
 10
60.0432129276
 20
81.7513993105
 30
0.0
 10
59.7752142828
 20
82.8678354126
 30
0.0
  0
SPLINE
  5
4D6
100
AcDbEntity
  8
0
100
AcDbSpline
 62
7
  6
CONTINUOUS
 70
0
 71
3
 72
11
 73
7
 74
0
 42
0.0000001
 43
0.0000001
 44
0.0000000001
 40
0.0
 40
0.0
 40
0.0
 40
0.0
 40
0.217766569
 40
0.4508976191
 40
0.7103704889
 40
1.0
 40
1.0
 40
1.0
 40
1.0
 10
69.4673902306
 20
58.1240605095
 30
0.0
 10
69.5416185689
 20
58.0812450285
 30
0.0
 10
69.7120830177
 20
58.019239141
 30
0.0
 10
69.9953801089
 20
58.0121257117
 30
0.0
 10
70.2972281371
 20
58.0850749752
 30
0.0
 10
70.4936470455
 20
58.1784728207
 30
0.0
 10
70.5923476903
 20
58.2354573244
 30
0.0
  0
SPLINE
  5
4D7
100
AcDbEntity
  8
0
100
AcDbSpline
 62
7
  6
CONTINUOUS
 70
0
 71
3
 72
38
 73
34
 74
0
 42
0.0000001
 43
0.0000001
 44
0.0000000001
 40
0.0
 40
0.0
 40
0.0
 40
0.0
 40
0.0776218823
 40
0.1158740909
 40
0.1534316971
 40
0.1900724011
 40
0.2255943119
 40
0.2598223766
 40
0.2926123099
 40
0.3238594431
 40
0.353505946
 40
0.3815506505
 40
0.4080594193
 40
0.4331733879
 40
0.4571158997
 40
0.4801925074
 40
0.5027781032
 40
0.5252911848
 40
0.5481569943
 40
0.5717688127
 40
0.5964577402
 40
0.6092946067
 40
0.6224882777
 40
0.6500028762
 40
0.6791051279
 40
0.7098150381
 40
0.7420929604
 40
0.7758493631
 40
0.810952145
 40
0.8472362247
 40
0.8845080364
 40
0.9225504702
 40
1.0
 40
1.0
 40
1.0
 40
1.0
 10
21.8371999807
 20
74.6546699363
 30
0.0
 10
20.522191792
 20
76.8970356584
 30
0.0
 10
18.7441984593
 20
80.3587898125
 30
0.0
 10
16.7997526593
 20
85.1171943808
 30
0.0
 10
15.5839759477
 20
88.6840674675
 30
0.0
 10
14.6156475355
 20
92.2311686681
 30
0.0
 10
13.9039252584
 20
95.7251083302
 30
0.0
 10
13.4556907497
 20
99.1327928319
 30
0.0
 10
13.2753038232
 20
102.4221456925
 30
0.0
 10
13.364637516
 20
105.5622730068
 30
0.0
 10
13.7234117945
 20
108.5237927556
 30
0.0
 10
14.349059943
 20
111.2789932997
 30
0.0
 10
15.2367761073
 20
113.8019692815
 30
0.0
 10
16.3799195498
 20
116.0684242363
 30
0.0
 10
17.7695905103
 20
118.0554339273
 30
0.0
 10
19.393758709
 20
119.7416403871
 30
0.0
 10
21.2368435396
 20
121.1075933185
 30
0.0
 10
23.2791259295
 20
122.1371601809
 30
0.0
 10
25.4975336767
 20
122.8195019374
 30
0.0
 10
27.8673790855
 20
123.1491194482
 30
0.0
 10
29.9219497551
 20
123.1291414222
 30
0.0
 10
31.611417047
 20
122.944974423
 30
0.0
 10
33.379238066
 20
122.6379440124
 30
0.0
 10
35.6421880954
 20
122.0290335812
 30
0.0
 10
38.3736238907
 20
120.9707631844
 30
0.0
 10
41.1338742949
 20
119.5856229307
 30
0.0
 10
43.8971120942
 20
117.887123878
 30
0.0
 10
46.637615591
 20
115.8913684821
 30
0.0
 10
49.3297089844
 20
113.6173189786
 30
0.0
 10
51.9480055189
 20
111.0866096496
 30
0.0
 10
54.4678485133
 20
108.323064297
 30
0.0
 10
57.6824978019
 20
104.3405428727
 30
0.0
 10
59.8460042272
 20
101.1210130745
 30
0.0
 10
61.1704381948
 20
98.8909122
 30
0.0
  0
SPLINE
  5
4D8
100
AcDbEntity
  8
0
100
AcDbSpline
 62
7
  6
CONTINUOUS
 70
0
 71
3
 72
17
 73
13
 74
0
 42
0.0000001
 43
0.0000001
 44
0.0000000001
 40
0.0
 40
0.0
 40
0.0
 40
0.0
 40
0.1286878892
 40
0.2702784801
 40
0.4174307831
 40
0.5617728703
 40
0.6954456377
 40
0.8127101002
 40
0.8646754474
 40
0.9125090257
 40
0.9571392405
 40
1.0
 40
1.0
 40
1.0
 40
1.0
 10
70.5923476903
 20
58.2354573244
 30
0.0
 10
70.7589005792
 20
58.3316161056
 30
0.0
 10
71.0822014659
 20
58.5804024271
 30
0.0
 10
71.4959934109
 20
59.0511792294
 30
0.0
 10
71.8366013051
 20
59.6051470191
 30
0.0
 10
72.0758576317
 20
60.1973033964
 30
0.0
 10
72.1946184032
 20
60.7795029665
 30
0.0
 10
72.1839652262
 20
61.2382605659
 30
0.0
 10
72.0990401163
 20
61.5529022815
 30
0.0
 10
72.0044808717
 20
61.7486044705
 30
0.0
 10
71.877940874
 20
61.9086127876
 30
0.0
 10
71.7727901648
 20
61.9891108297
 30
0.0
 10
71.71730515
 20
62.0211150164
 30
0.0
  0
SPLINE
  5
4D9
100
AcDbEntity
  8
0
100
AcDbSpline
 62
7
  6
CONTINUOUS
 70
0
 71
3
 72
10
 73
6
 74
0
 42
0.0000001
 43
0.0000001
 44
0.0000000001
 40
0.0
 40
0.0
 40
0.0
 40
0.0
 40
0.5638022006
 40
0.8009535567
 40
1.0
 40
1.0
 40
1.0
 40
1.0
 10
49.0881049363
 20
62.063704647
 30
0.0
 10
48.7531291675
 20
61.8703055247
 30
0.0
 10
48.2744550379
 20
61.5997871311
 30
0.0
 10
47.6598141409
 20
61.2947164714
 30
0.0
 10
47.3852114796
 20
61.1751151276
 30
0.0
 10
47.2577503122
 20
61.1261131144
 30
0.0
  0
SPLINE
  5
4DA
100
AcDbEntity
  8
0
100
AcDbSpline
 62
7
  6
CONTINUOUS
 70
0
 71
3
 72
11
 73
7
 74
0
 42
0.0000001
 43
0.0000001
 44
0.0000000001
 40
0.0
 40
0.0
 40
0.0
 40
0.0
 40
0.2314552691
 40
0.4871529412
 40
0.7496967331
 40
1.0
 40
1.0
 40
1.0
 40
1.0
 10
70.5923476903
 20
71.2994959985
 30
0.0
 10
70.7822474444
 20
71.4091340181
 30
0.0
 10
71.1475053629
 20
71.7004850871
 30
0.0
 10
71.5992703288
 20
72.2538236975
 30
0.0
 10
71.9483695179
 20
72.8974020522
 30
0.0
 10
72.0952880132
 20
73.3650393279
 30
0.0
 10
72.138822215
 20
73.5981422692
 30
0.0
  0
SPLINE
  5
4DB
100
AcDbEntity
  8
0
100
AcDbSpline
 62
7
  6
CONTINUOUS
 70
0
 71
3
 72
11
 73
7
 74
0
 42
0.0000001
 43
0.0000001
 44
0.0000000001
 40
0.0
 40
0.0
 40
0.0
 40
0.0
 40
0.2271213863
 40
0.4999991074
 40
0.7728773727
 40
1.0
 40
1.0
 40
1.0
 40
1.0
 10
53.9752485416
 20
50.0988905599
 30
0.0
 10
54.0233033289
 20
50.1266348387
 30
0.0
 10
54.1395927467
 20
50.1696734025
 30
0.0
 10
54.328801166
 20
50.1909547843
 30
0.0
 10
54.5180099965
 20
50.1696743505
 30
0.0
 10
54.6343000728
 20
50.1266363434
 30
0.0
 10
54.6823553228
 20
50.0988922595
 30
0.0
  0
SPLINE
  5
4DC
100
AcDbEntity
  8
0
100
AcDbSpline
 62
7
  6
CONTINUOUS
 70
0
 71
3
 72
10
 73
6
 74
0
 42
0.0000001
 43
0.0000001
 44
0.0000000001
 40
0.0
 40
0.0
 40
0.0
 40
0.0
 40
0.2662338649
 40
0.5229829091
 40
1.0
 40
1.0
 40
1.0
 40
1.0
 10
54.4073149171
 20
65.1396267011
 30
0.0
 10
54.3355866597
 20
64.95857049
 30
0.0
 10
54.2115440937
 20
64.5959022865
 30
0.0
 10
54.0363840145
 20
63.8853756462
 30
0.0
 10
53.9752511965
 20
63.3475898164
 30
0.0
 10
53.9752485416
 20
62.9986577767
 30
0.0
  0
SPLINE
  5
4DD
100
AcDbEntity
  8
0
100
AcDbSpline
 62
7
  6
CONTINUOUS
 70
0
 71
3
 72
15
 73
11
 74
0
 42
0.0000001
 43
0.0000001
 44
0.0000000001
 40
0.0
 40
0.0
 40
0.0
 40
0.0
 40
0.1490807631
 40
0.2877528322
 40
0.4142196081
 40
0.5309533871
 40
0.6417308808
 40
0.7524318742
 40
0.8698764443
 40
1.0
 40
1.0
 40
1.0
 40
1.0
 10
53.9752485416
 20
50.0988905599
 30
0.0
 10
53.9787825819
 20
49.9794025662
 30
0.0
 10
53.9932431307
 20
49.7488179374
 30
0.0
 10
54.0552247566
 20
49.4209169701
 30
0.0
 10
54.1722556013
 20
49.1353908944
 30
0.0
 10
54.337241389
 20
48.9010379304
 30
0.0
 10
54.5495846183
 20
48.7261799515
 30
0.0
 10
54.8066152227
 20
48.6244867661
 30
0.0
 10
55.09734965
 20
48.6060428938
 30
0.0
 10
55.2938957065
 20
48.6467215144
 30
0.0
 10
55.3934302835
 20
48.6780198274
 30
0.0
  0
SPLINE
  5
4DE
100
AcDbEntity
  8
0
100
AcDbSpline
 62
7
  6
CONTINUOUS
 70
0
 71
3
 72
9
 73
5
 74
0
 42
0.0000001
 43
0.0000001
 44
0.0000000001
 40
0.0
 40
0.0
 40
0.0
 40
0.0
 40
0.2387909403
 40
1.0
 40
1.0
 40
1.0
 40
1.0
 10
55.3934302835
 20
48.6780198274
 30
0.0
 10
55.422574345
 20
48.6871840795
 30
0.0
 10
55.5434411907
 20
48.7292683074
 30
0.0
 10
55.6591291239
 20
48.7858634019
 30
0.0
 10
55.7430081352
 20
48.8353503857
 30
0.0
  0
SPLINE
  5
4DF
100
AcDbEntity
  8
0
100
AcDbSpline
 62
7
  6
CONTINUOUS
 70
0
 71
3
 72
11
 73
7
 74
0
 42
0.0000001
 43
0.0000001
 44
0.0000000001
 40
0.0
 40
0.0
 40
0.0
 40
0.0
 40
0.2079973527
 40
0.4709347905
 40
0.7524458901
 40
1.0
 40
1.0
 40
1.0
 40
1.0
 10
54.6823553228
 20
62.9986600679
 30
0.0
 10
54.6383478775
 20
63.0240672035
 30
0.0
 10
54.5295957713
 20
63.065967224
 30
0.0
 10
54.3458694593
 20
63.0905368863
 30
0.0
 10
54.1515847995
 20
63.0728180321
 30
0.0
 10
54.0276250713
 20
63.0288978511
 30
0.0
 10
53.9752485416
 20
62.9986584385
 30
0.0
  0
SPLINE
  5
4E0
100
AcDbEntity
  8
0
100
AcDbSpline
 62
7
  6
CONTINUOUS
 70
0
 71
3
 72
9
 73
5
 74
0
 42
0.0000001
 43
0.0000001
 44
0.0000000001
 40
0.0
 40
0.0
 40
0.0
 40
0.0
 40
0.2364791462
 40
1.0
 40
1.0
 40
1.0
 40
1.0
 10
42.2935443442
 20
67.4458790085
 30
0.0
 10
42.2495835066
 20
67.4204916391
 30
0.0
 10
42.068147906
 20
67.3054541591
 30
0.0
 10
41.9043946686
 20
67.1636426065
 30
0.0
 10
41.7899569084
 20
67.0463022527
 30
0.0
  0
SPLINE
  5
4E1
100
AcDbEntity
  8
0
100
AcDbSpline
 62
7
  6
CONTINUOUS
 70
0
 71
3
 72
9
 73
5
 74
0
 42
0.0000001
 43
0.0000001
 44
0.0000000001
 40
0.0
 40
0.0
 40
0.0
 40
0.0
 40
0.2464994975
 40
1.0
 40
1.0
 40
1.0
 40
1.0
 10
41.7899569084
 20
67.0463022527
 30
0.0
 10
41.7724895886
 20
67.0283918927
 30
0.0
 10
41.7025931617
 20
66.9547959387
 30
0.0
 10
41.6365321063
 20
66.8775749539
 30
0.0
 10
41.5889159405
 20
66.8177332454
 30
0.0
  0
SPLINE
  5
4E2
100
AcDbEntity
  8
0
100
AcDbSpline
 62
7
  6
CONTINUOUS
 70
0
 71
3
 72
13
 73
9
 74
0
 42
0.0000001
 43
0.0000001
 44
0.0000000001
 40
0.0
 40
0.0
 40
0.0
 40
0.0
 40
0.2263391327
 40
0.4753065743
 40
0.6063239768
 40
0.7399155002
 40
0.8731683331
 40
1.0
 40
1.0
 40
1.0
 40
1.0
 10
54.6823537945
 20
62.9986605549
 30
0.0
 10
54.7092727435
 20
63.2614765619
 30
0.0
 10
54.8161994483
 20
63.8084476504
 30
0.0
 10
55.0446067275
 20
64.4804751461
 30
0.0
 10
55.2946425648
 20
65.0258020973
 30
0.0
 10
55.5206832263
 20
65.432195051
 30
0.0
 10
55.7819595081
 20
65.8110335228
 30
0.0
 10
55.9861576793
 20
66.0379770156
 30
0.0
 10
56.0961335303
 20
66.1370823103
 30
0.0
  0
SPLINE
  5
4E3
100
AcDbEntity
  8
0
100
AcDbSpline
 62
7
  6
CONTINUOUS
 70
0
 71
3
 72
9
 73
5
 74
0
 42
0.0000001
 43
0.0000001
 44
0.0000000001
 40
0.0
 40
0.0
 40
0.0
 40
0.0
 40
0.2555280178
 40
1.0
 40
1.0
 40
1.0
 40
1.0
 10
56.0961335303
 20
66.1370823103
 30
0.0
 10
56.106415622
 20
66.1463480693
 30
0.0
 10
56.1470138889
 20
66.182206311
 30
0.0
 10
56.1890857335
 20
66.2164109196
 30
0.0
 10
56.2212808991
 20
66.2406929987
 30
0.0
  0
SPLINE
  5
4E4
100
AcDbEntity
  8
0
100
AcDbSpline
 62
7
  6
CONTINUOUS
 70
0
 71
3
 72
15
 73
11
 74
0
 42
0.0000001
 43
0.0000001
 44
0.0000000001
 40
0.0
 40
0.0
 40
0.0
 40
0.0
 40
0.1136723725
 40
0.236147773
 40
0.3650639665
 40
0.497503995
 40
0.6302890348
 40
0.7602147029
 40
0.884285194
 40
1.0
 40
1.0
 40
1.0
 40
1.0
 10
25.3372899533
 20
97.6309248396
 30
0.0
 10
25.3372899533
 20
96.271249721
 30
0.0
 10
25.5795149677
 20
93.4440285731
 30
0.0
 10
26.5485411849
 20
89.1750202247
 30
0.0
 10
28.1032875879
 20
84.8438214203
 30
0.0
 10
30.1887597671
 20
80.6050928045
 30
0.0
 10
32.7306566774
 20
76.6090452944
 30
0.0
 10
35.639005669
 20
72.99772499
 30
0.0
 10
38.8095625684
 20
69.8997486842
 30
0.0
 10
41.1195137202
 20
68.1790867415
 30
0.0
 10
42.2934925464
 20
67.4459282166
 30
0.0
  0
SPLINE
  5
4E5
100
AcDbEntity
  8
0
100
AcDbSpline
 62
7
  6
CONTINUOUS
 70
0
 71
3
 72
15
 73
11
 74
0
 42
0.0000001
 43
0.0000001
 44
0.0000000001
 40
0.0
 40
0.0
 40
0.0
 40
0.0
 40
0.1080132828
 40
0.2180617301
 40
0.3319995392
 40
0.4513614712
 40
0.5772752573
 40
0.7104914663
 40
0.8514275613
 40
1.0
 40
1.0
 40
1.0
 40
1.0
 10
30.5150890457
 20
109.0755733755
 30
0.0
 10
30.1051980582
 20
108.8389232103
 30
0.0
 10
29.3171612394
 20
108.2889709363
 30
0.0
 10
28.2758543308
 20
107.2642112503
 30
0.0
 10
27.3802614089
 20
106.0479316656
 30
0.0
 10
26.638854952
 20
104.653766606
 30
0.0
 10
26.0570832847
 20
103.0961013717
 30
0.0
 10
25.6396383917
 20
101.3897608414
 30
0.0
 10
25.3898365524
 20
99.5514136353
 30
0.0
 10
25.3372899533
 20
98.2819512268
 30
0.0
 10
25.3372899533
 20
97.6309248396
 30
0.0
  0
SPLINE
  5
4E6
100
AcDbEntity
  8
0
100
AcDbSpline
 62
7
  6
CONTINUOUS
 70
0
 71
3
 72
11
 73
7
 74
0
 42
0.0000001
 43
0.0000001
 44
0.0000000001
 40
0.0
 40
0.0
 40
0.0
 40
0.0
 40
0.2876182946
 40
0.5454218091
 40
0.778971533
 40
1.0
 40
1.0
 40
1.0
 40
1.0
 10
37.0046592976
 20
62.3543186146
 30
0.0
 10
36.9171313184
 20
62.3987766944
 30
0.0
 10
36.7577589292
 20
62.4977661623
 30
0.0
 10
36.5669304872
 20
62.6868692672
 30
0.0
 10
36.4465345229
 20
62.9023805891
 30
0.0
 10
36.4188124665
 20
63.0587084762
 30
0.0
 10
36.4188127794
 20
63.1341512565
 30
0.0
  0
SPLINE
  5
4E7
100
AcDbEntity
  8
0
100
AcDbSpline
 62
7
  6
CONTINUOUS
 70
0
 71
3
 72
14
 73
10
 74
0
 42
0.0000001
 43
0.0000001
 44
0.0000000001
 40
0.0
 40
0.0
 40
0.0
 40
0.0
 40
0.1144658927
 40
0.222495829
 40
0.3302488394
 40
0.4432250121
 40
0.5653518166
 40
0.6986122626
 40
1.0
 40
1.0
 40
1.0
 40
1.0
 10
55.3635477145
 20
48.9122754137
 30
0.0
 10
55.3045558172
 20
48.9131276277
 30
0.0
 10
55.189305072
 20
48.9289237786
 30
0.0
 10
55.0318666365
 20
48.999492489
 30
0.0
 10
54.9017218575
 20
49.1114456225
 30
0.0
 10
54.8012258209
 20
49.2588058012
 30
0.0
 10
54.7293718562
 20
49.4358048641
 30
0.0
 10
54.6684962477
 20
49.7172832076
 30
0.0
 10
54.6686512138
 20
49.9441583077
 30
0.0
 10
54.6823523914
 20
50.0988942821
 30
0.0
  0
SPLINE
  5
4E8
100
AcDbEntity
  8
0
100
AcDbSpline
 62
7
  6
CONTINUOUS
 70
0
 71
3
 72
11
 73
7
 74
0
 42
0.0000001
 43
0.0000001
 44
0.0000000001
 40
0.0
 40
0.0
 40
0.0
 40
0.0
 40
0.217766569
 40
0.4508976191
 40
0.7103704889
 40
1.0
 40
1.0
 40
1.0
 40
1.0
 10
69.4673902306
 20
71.1880991835
 30
0.0
 10
69.5416185689
 20
71.1452837025
 30
0.0
 10
69.7120830177
 20
71.0832778151
 30
0.0
 10
69.9953801089
 20
71.0761643858
 30
0.0
 10
70.2972281371
 20
71.1491136493
 30
0.0
 10
70.4936470455
 20
71.2425114947
 30
0.0
 10
70.5923476903
 20
71.2994959985
 30
0.0
  0
SPLINE
  5
4E9
100
AcDbEntity
  8
0
100
AcDbSpline
 62
7
  6
CONTINUOUS
 70
0
 71
3
 72
14
 73
10
 74
0
 42
0.0000001
 43
0.0000001
 44
0.0000000001
 40
0.0
 40
0.0
 40
0.0
 40
0.0
 40
0.1116446115
 40
0.2283232659
 40
0.3495177747
 40
0.4746636587
 40
0.6030726537
 40
0.7339835764
 40
1.0
 40
1.0
 40
1.0
 40
1.0
 10
42.9709021484
 20
121.7434480651
 30
0.0
 10
43.9655542795
 20
121.17090505
 30
0.0
 10
45.9495206982
 20
119.911096763
 30
0.0
 10
48.8274604768
 20
117.7550603946
 30
0.0
 10
51.649562896
 20
115.3088853703
 30
0.0
 10
54.3887189171
 20
112.5964776043
 30
0.0
 10
57.0190873839
 20
109.6432072315
 30
0.0
 10
60.3643637318
 20
105.4011059213
 30
0.0
 10
62.6089749243
 20
101.979605776
 30
0.0
 10
63.978630325
 20
99.6127881827
 30
0.0
  0
SPLINE
  5
4EA
100
AcDbEntity
  8
0
100
AcDbSpline
 62
7
  6
CONTINUOUS
 70
0
 71
3
 72
13
 73
9
 74
0
 42
0.0000001
 43
0.0000001
 44
0.0000000001
 40
0.0
 40
0.0
 40
0.0
 40
0.0
 40
0.2828059679
 40
0.415052049
 40
0.5413838659
 40
0.7781088771
 40
0.8904738027
 40
1.0
 40
1.0
 40
1.0
 40
1.0
 10
37.0046592976
 20
62.3543186146
 30
0.0
 10
37.8973298707
 20
61.900904519
 30
0.0
 10
39.2579170262
 20
61.3243336425
 30
0.0
 10
41.1086746667
 20
60.8164464313
 30
0.0
 10
42.8377580141
 20
60.5147053914
 30
0.0
 10
44.5380960863
 20
60.4821600826
 30
0.0
 10
46.142285562
 20
60.7551347516
 30
0.0
 10
46.8958184815
 20
60.9869696505
 30
0.0
 10
47.2577503122
 20
61.1261131144
 30
0.0
  0
SPLINE
  5
4EB
100
AcDbEntity
  8
0
100
AcDbSpline
 62
7
  6
CONTINUOUS
 70
0
 71
3
 72
25
 73
21
 74
0
 42
0.0000001
 43
0.0000001
 44
0.0000000001
 40
0.0
 40
0.0
 40
0.0
 40
0.0
 40
0.0213913686
 40
0.0428989229
 40
0.0647376699
 40
0.0871060074
 40
0.1340380579
 40
0.1848051315
 40
0.2399484152
 40
0.2995715117
 40
0.3634257257
 40
0.430991303
 40
0.5015462129
 40
0.5742237602
 40
0.6480625658
 40
0.7220517782
 40
0.7951741929
 40
0.8664500277
 40
0.9349753648
 40
1.0
 40
1.0
 40
1.0
 40
1.0
 10
28.5686339562
 20
110.2430804943
 30
0.0
 10
28.234309156
 20
110.0755084305
 30
0.0
 10
27.5841090952
 20
109.6971403022
 30
0.0
 10
26.6821259029
 20
109.0090100352
 30
0.0
 10
25.8586076883
 20
108.2038890353
 30
0.0
 10
24.8552930602
 20
106.9621009908
 30
0.0
 10
23.8218533867
 20
105.115746388
 30
0.0
 10
22.981368046
 20
102.5655010278
 30
0.0
 10
22.5277751484
 20
99.6964530768
 30
0.0
 10
22.4666136246
 20
96.5660208286
 30
0.0
 10
22.7967650436
 20
93.2356433581
 30
0.0
 10
23.51080331
 20
89.771722799
 30
0.0
 10
24.5939578868
 20
86.2439493838
 30
0.0
 10
26.0241482832
 20
82.7238354945
 30
0.0
 10
27.7722242707
 20
79.2830393648
 30
0.0
 10
29.8025393422
 20
75.9917443392
 30
0.0
 10
32.0736185289
 20
72.9171088117
 30
0.0
 10
34.5393799056
 20
70.1217984818
 30
0.0
 10
37.149288304
 20
67.6626334135
 30
0.0
 10
39.006099574
 20
66.2383247501
 30
0.0
 10
39.9470951463
 20
65.6005211575
 30
0.0
  0
ELLIPSE
  5
4EC
100
AcDbEntity
  8
0
100
AcDbEllipse
 62
7
  6
CONTINUOUS
 10
72.4308312093
 20
74.8513034409
 30
0.0
 11
2.889245234
 21
0.5408678591
 31
0.0
 40
0.4107576527
 41
-2.1715656454
 42
-1.6963967843
  0
ELLIPSE
  5
4ED
100
AcDbEntity
  8
0
100
AcDbEllipse
 62
7
  6
CONTINUOUS
 10
72.4308312093
 20
56.7249497806
 30
0.0
 11
2.889245234
 21
0.5408678591
 31
0.0
 40
0.4107576527
 41
1.5429108196
 42
2.0180796822
  0
ELLIPSE
  5
4EE
100
AcDbEntity
  8
0
100
AcDbEllipse
 62
7
  6
CONTINUOUS
 10
67.2689537675
 20
96.2844856109
 30
0.0
 11
-0.9762287913
 21
2.7725978188
 31
0.0
 40
0.4107516514
 41
-1.4451920918
 42
-0.9700305778
  0
ELLIPSE
  5
4EF
100
AcDbEntity
  8
0
100
AcDbEllipse
 62
7
  6
CONTINUOUS
 10
82.9666589536
 20
105.3475058269
 30
0.0
 11
-0.9762287913
 21
2.7725978188
 31
0.0
 40
0.4107516514
 41
1.1235094018
 42
1.5986709143
  0
ELLIPSE
  5
4F0
100
AcDbEntity
  8
0
100
AcDbEllipse
 62
7
  6
CONTINUOUS
 10
54.682246396
 20
94.1609345155
 30
0.0
 11
21.2504709273
 21
59.2912567033
 31
0.0
 40
0.2139378181
 41
1.0326511681
 42
1.1016714231
  0
ENDSEC
  0
SECTION
  2
OBJECTS
  0
DICTIONARY
  5
C
100
AcDbDictionary
280
0
281
1
  3
ACAD_GROUP
350
D
  3
ACAD_MLINESTYLE
350
17
  3
ACAD_LAYOUT
350
1A
  3
ACAD_PLOTSETTINGS
350
19
  3
ACAD_PLOTSTYLENAME
350
E
  0
DICTIONARY
  5
D
102
{ACAD_REACTORS
330
C
102
}
100
AcDbDictionary
280
0
281
1
  0
ACDBDICTIONARYWDFLT
  5
E
102
{ACAD_REACTORS
330
C
102
}
100
AcDbDictionary
281
1
  3
Normal
350
F
100
AcDbDictionaryWithDefault
340
F
  0
DICTIONARY
  5
17
102
{ACAD_REACTORS
330
C
102
}
100
AcDbDictionary
280
0
281
1
  3
Standard
350
18
  0
DICTIONARY
  5
19
102
{ACAD_REACTORS
330
C
102
}
100
AcDbDictionary
281
1
  0
DICTIONARY
  5
1A
102
{ACAD_REACTORS
330
C
102
}
100
AcDbDictionary
281
1
  3
Model
350
4F1
  3
Layout1
350
4F2
  0
ACDBPLACEHOLDER
  5
F
102
{ACAD_REACTORS
330
E
102
}
  0
MLINESTYLE
  5
18
102
{ACAD_REACTORS
330
17
102
}
100
AcDbMlineStyle
  2
STANDARD
 70
0
  3

 62
256
 51
90.0
 52
90.0
 71
2
 49
0.5
 62
256
  6
BYLAYER
 49
-0.5
 62
256
  6
BYLAYER
  0
LAYOUT
  5
4F1
102
{ACAD_REACTORS
330
1A
102
}
100
AcDbPlotSettings
  1

  2
none_device
  4

  6

 40
0.0
 41
0.0
 42
0.0
 43
0.0
 44
210.0
 45
297.0
 46
0.0
 47
0.0
 48
0.0
 49
0.0
140
0.0
141
0.0
142
1.0
143
1.0
 70
1024
 72
1
 73
0
 74
0
  7

 75
0
147
1.0
148
0.0
149
0.0
100
AcDbLayout
  1
Model
 70
0
 71
0
 10
0.0
 20
0.0
 11
210.0
 21
297.0
 12
0.0
 22
0.0
 32
0.0
 14
0.0
 24
0.0
 34
0.0
 15
0.0
 25
0.0
 35
0.0
146
0.0
 13
0.0
 23
0.0
 33
0.0
 16
1.0
 26
0.0
 36
0.0
 17
0.0
 27
1.0
 37
0.0
 76
0
330
210
345
0
346
0
  0
LAYOUT
  5
4F2
102
{ACAD_REACTORS
330
1A
102
}
100
AcDbPlotSettings
  1

  2
none_device
  4

  6

 40
0.0
 41
0.0
 42
0.0
 43
0.0
 44
210.0
 45
297.0
 46
0.0
 47
0.0
 48
0.0
 49
0.0
140
0.0
141
0.0
142
1.0
143
1.0
 70
0
 72
1
 73
0
 74
0
  7

 75
0
147
1.0
148
0.0
149
0.0
100
AcDbLayout
  1
Layout1
 70
0
 71
1
 10
0.0
 20
0.0
 11
210.0
 21
297.0
 12
0.0
 22
0.0
 32
0.0
 14
0.0
 24
0.0
 34
0.0
 15
0.0
 25
0.0
 35
0.0
146
0.0
 13
0.0
 23
0.0
 33
0.0
 16
1.0
 26
0.0
 36
0.0
 17
0.0
 27
1.0
 37
0.0
 76
0
330
211
345
0
346
0
  0
ENDSEC
  0
EOF
