999
DXF file: C:\Users\sesa63760\Dev\_Creo\CAD\MCADUE0002482_3D-CAD\drw0001_4.dxf
999
Pro/ENGINEER 2019471 by Parametric Technology Corporation
  0
SECTION
  2
HEADER
  9
$ACADVER
  1
AC1024
  9
$DWGCODEPAGE
  3
ANSI_1252
  9
$EXTMAX
 10
373.4979101358
 20
528.2327586207
 30
0.0
  9
$EXTMIN
 10
0.0
 20
0.0
 30
0.0
  9
$LIMMIN
 10
0.0
 20
0.0
  9
$LIMMAX
 10
373.4979101358
 20
528.2327586207
  9
$VIEWCTR
 10
186.7489550679
 20
264.1163793103
  9
$VIEWSIZE
 40
528.2327586207
  9
$CLAYER
  8
0
  9
$LTSCALE
 40
34.4329501916
  9
$CELTYPE
  6
BYLAYER
  9
$DIMSCALE
 40
1.0
  9
$DIMASZ
 40
4.4464036921
  9
$DIMEXO
 40
1.0
  9
$DIMDLI
 40
23.7900383142
  9
$DIMEXE
 40
1.0
  9
$DIMCEN
 40
5.6344827586
  9
$DIMLFAC
 40
1.0
  9
$DIMBLK
  1
_FILLED
  9
$DIMALT
 70
0
  9
$DIMALTF
 40
0.0393700787
  9
$DIMTXT
 40
6.2249651689
  9
$DIMTOL
 70
1
  9
$DIMLIM
 70
0
  9
$DIMTFAC
 40
1.0
  9
$DIMTP
 40
0.01
  9
$DIMTM
 40
0.01
  9
$DIMGAP
 40
0.625
  9
$DIMDSEP
 70
46
  9
$AUNITS
 70
0
  9
$PDMODE
 70
3
  9
$PDSIZE
 40
0.3125
  9
$HANDSEED
  5
2C7
  9
$TILEMODE
 70
1
  9
$MEASUREMENT
 70
1
  9
$INSUNITS
 70
4
  0
ENDSEC
  0
SECTION
  2
CLASSES
  0
CLASS
  1
ACDBDICTIONARYWDFLT
  2
AcDbDictionaryWithDefault
  3
AutoCAD 2000
 90
0
 91
1
280
0
281
0
  0
CLASS
  1
ACDBPLACEHOLDER
  2
AcDbPlaceHolder
  3
AutoCAD 2000
 90
0
 91
1
280
0
281
0
  0
CLASS
  1
LAYOUT
  2
AcDbLayout
  3
AutoCAD 2000
 90
0
 91
0
280
0
281
0
  0
ENDSEC
  0
SECTION
  2
TABLES
  0
TABLE
  2
VPORT
  5
8
100
AcDbSymbolTable
 70
2
  0
VPORT
  5
1F4
100
AcDbSymbolTableRecord
100
AcDbViewportTableRecord
  2
*ACTIVE
 70
0
 10
0.0
 20
0.0
 11
1.0
 21
1.0
 12
186.7489550679
 22
264.1163793103
 13
0.0
 23
0.0
 14
1.0
 24
1.0
 15
0.0
 25
0.0
 16
0.0
 26
0.0
 36
1.0
 17
0.0
 27
0.0
 37
0.0
 40
528.2327586207
 41
0.7070707071
 42
50.0
 43
0.0
 44
0.0
 50
0.0
 51
0.0
 71
0
 72
100
 73
1
 74
1
 75
0
 76
0
 77
0
 78
0
  0
ENDTAB
  0
TABLE
  2
LTYPE
  5
5
100
AcDbSymbolTable
 70
6
  0
LTYPE
  5
14
100
AcDbSymbolTableRecord
100
AcDbLinetypeTableRecord
  2
BYBLOCK
 70
0
  3

 72
65
 73
0
 40
0.0
  0
LTYPE
  5
15
100
AcDbSymbolTableRecord
100
AcDbLinetypeTableRecord
  2
BYLAYER
 70
0
  3

 72
65
 73
0
 40
0.0
  0
LTYPE
  5
16
100
AcDbSymbolTableRecord
100
AcDbLinetypeTableRecord
  2
CONTINUOUS
 70
64
  3
Solid line
 72
65
 73
0
 40
0.0
  0
LTYPE
  5
1F5
100
AcDbSymbolTableRecord
100
AcDbLinetypeTableRecord
  2
CENTER
 70
64
  3
____ _ ____ _ ____ _ ____ _ ____ _ ____ _ ____
 72
65
 73
4
 40
0.6
 49
0.375
 74
0
 49
-0.075
 74
0
 49
0.075
 74
0
 49
-0.075
 74
0
  0
LTYPE
  5
1F6
100
AcDbSymbolTableRecord
100
AcDbLinetypeTableRecord
  2
HIDDEN
 70
64
  3
- - - - - - - - - - - - - - - - - - - -
 72
65
 73
2
 40
0.2
 49
0.1
 74
0
 49
-0.1
 74
0
  0
LTYPE
  5
1F7
100
AcDbSymbolTableRecord
100
AcDbLinetypeTableRecord
  2
PHANTOM
 70
64
  3
_____ _ _ _____ _ _ _____ _ _ _____
 72
65
 73
6
 40
0.8
 49
0.45
 74
0
 49
-0.05
 74
0
 49
0.1
 74
0
 49
-0.05
 74
0
 49
0.1
 74
0
 49
-0.05
 74
0
  0
LTYPE
  5
1F8
100
AcDbSymbolTableRecord
100
AcDbLinetypeTableRecord
  2
DOT
 70
64
  3
. . . . . . . . . . . . . . . . . . . .
 72
65
 73
2
 40
0.2
 49
0.1
 74
0
 49
-0.1
 74
0
  0
LTYPE
  5
1F9
100
AcDbSymbolTableRecord
100
AcDbLinetypeTableRecord
  2
DASHED
 70
64
  3
- - - - - - - - - - - - - - - - - - - -
 72
65
 73
2
 40
0.2
 49
0.1
 74
0
 49
-0.1
 74
0
  0
ENDTAB
  0
TABLE
  2
LAYER
  5
2
100
AcDbSymbolTable
 70
36
  0
LAYER
  5
10
100
AcDbSymbolTableRecord
100
AcDbLayerTableRecord
  2
0
 70
0
 62
7
  6
CONTINUOUS
370
-3
390
F
  0
LAYER
  5
1FA
100
AcDbSymbolTableRecord
100
AcDbLayerTableRecord
  2
DEFAULT_1
 70
0
 62
7
  6
CENTER
370
-3
390
F
  0
LAYER
  5
1FB
100
AcDbSymbolTableRecord
100
AcDbLayerTableRecord
  2
DEFAULT_2
 70
0
 62
8
  6
HIDDEN
370
-3
390
F
  0
LAYER
  5
1FC
100
AcDbSymbolTableRecord
100
AcDbLayerTableRecord
  2
DEFAULT_3
 70
0
 62
7
  6
PHANTOM
370
-3
390
F
  0
LAYER
  5
1FD
100
AcDbSymbolTableRecord
100
AcDbLayerTableRecord
  2
00_COMPONENTS
 70
0
 62
7
  6
CONTINUOUS
370
-3
390
F
  0
LAYER
  5
1FE
100
AcDbSymbolTableRecord
100
AcDbLayerTableRecord
  2
01_1_DEFAULT_DATUMS
 70
0
 62
7
  6
CONTINUOUS
370
-3
390
F
  0
LAYER
  5
1FF
100
AcDbSymbolTableRecord
100
AcDbLayerTableRecord
  2
01_PLANES
 70
0
 62
7
  6
CONTINUOUS
370
-3
390
F
  0
LAYER
  5
200
100
AcDbSymbolTableRecord
100
AcDbLayerTableRecord
  2
02_COORD_SYS
 70
0
 62
7
  6
CONTINUOUS
370
-3
390
F
  0
LAYER
  5
201
100
AcDbSymbolTableRecord
100
AcDbLayerTableRecord
  2
03_AXES
 70
0
 62
7
  6
CONTINUOUS
370
-3
390
F
  0
LAYER
  5
202
100
AcDbSymbolTableRecord
100
AcDbLayerTableRecord
  2
04_POINTS
 70
0
 62
7
  6
CONTINUOUS
370
-3
390
F
  0
LAYER
  5
203
100
AcDbSymbolTableRecord
100
AcDbLayerTableRecord
  2
05_CURVES
 70
0
 62
7
  6
CONTINUOUS
370
-3
390
F
  0
LAYER
  5
204
100
AcDbSymbolTableRecord
100
AcDbLayerTableRecord
  2
06_SURFS
 70
0
 62
7
  6
CONTINUOUS
370
-3
390
F
  0
LAYER
  5
205
100
AcDbSymbolTableRecord
100
AcDbLayerTableRecord
  2
07_COSMETICS
 70
0
 62
7
  6
CONTINUOUS
370
-3
390
F
  0
LAYER
  5
206
100
AcDbSymbolTableRecord
100
AcDbLayerTableRecord
  2
10_NOTES
 70
0
 62
7
  6
CONTINUOUS
370
-3
390
F
  0
LAYER
  5
207
100
AcDbSymbolTableRecord
100
AcDbLayerTableRecord
  2
11_NOTES_PUB
 70
0
 62
7
  6
CONTINUOUS
370
-3
390
F
  0
LAYER
  5
208
100
AcDbSymbolTableRecord
100
AcDbLayerTableRecord
  2
13_REF_GTOL
 70
0
 62
7
  6
CONTINUOUS
370
-3
390
F
  0
LAYER
  5
209
100
AcDbSymbolTableRecord
100
AcDbLayerTableRecord
  2
16_MISC
 70
0
 62
7
  6
CONTINUOUS
370
-3
390
F
  0
LAYER
  5
20A
100
AcDbSymbolTableRecord
100
AcDbLayerTableRecord
  2
17_NO_PRINT
 70
0
 62
7
  6
CONTINUOUS
370
-3
390
F
  0
LAYER
  5
20B
100
AcDbSymbolTableRecord
100
AcDbLayerTableRecord
  2
18_DATUM_CAMS_JOINTS
 70
0
 62
7
  6
CONTINUOUS
370
-3
390
F
  0
LAYER
  5
20C
100
AcDbSymbolTableRecord
100
AcDbLayerTableRecord
  2
19_DATUM_FUNCTIONAL
 70
0
 62
7
  6
CONTINUOUS
370
-3
390
F
  0
LAYER
  5
20D
100
AcDbSymbolTableRecord
100
AcDbLayerTableRecord
  2
20_DATUM_KINEMATIC_SCHEME
 70
0
 62
7
  6
CONTINUOUS
370
-3
390
F
  0
ENDTAB
  0
TABLE
  2
STYLE
  5
3
100
AcDbSymbolTable
 70
1
  0
STYLE
  5
11
100
AcDbSymbolTableRecord
100
AcDbTextStyleTableRecord
  2
STANDARD
 70
0
 40
0.0
 41
0.8
 50
0.0
 71
0
 42
0.2
  3
txt
  4

  0
STYLE
  5
20E
100
AcDbSymbolTableRecord
100
AcDbTextStyleTableRecord
  2
TEXTSTYLE_1
 70
0
 40
0.0
 41
0.8
 50
0.0
 71
0
 42
0.2
  3
gdt
  4

  0
ENDTAB
  0
TABLE
  2
VIEW
  5
6
100
AcDbSymbolTable
 70
0
  0
ENDTAB
  0
TABLE
  2
UCS
  5
7
100
AcDbSymbolTable
 70
0
  0
ENDTAB
  0
TABLE
  2
APPID
  5
9
100
AcDbSymbolTable
 70
1
  0
APPID
  5
20F
100
AcDbSymbolTableRecord
100
AcDbRegAppTableRecord
  2
ACAD
 70
0
  0
ENDTAB
  0
TABLE
  2
BLOCK_RECORD
  5
1
100
AcDbSymbolTable
 70
0
  0
BLOCK_RECORD
  5
210
100
AcDbSymbolTableRecord
100
AcDbBlockTableRecord
  2
*Model_Space
  0
BLOCK_RECORD
  5
211
100
AcDbSymbolTableRecord
100
AcDbBlockTableRecord
  2
*Paper_Space
  0
BLOCK_RECORD
  5
212
100
AcDbSymbolTableRecord
100
AcDbBlockTableRecord
  2
_FILLED
  0
ENDTAB
  0
TABLE
  2
DIMSTYLE
  5
A
100
AcDbSymbolTable
 70
1
100
AcDbDimStyleTable
 71
0
  0
DIMSTYLE
105
213
100
AcDbSymbolTableRecord
100
AcDbDimStyleTableRecord
  2
STANDARD
 70
0
  3

  4

 40
1.0
 41
4.4464036921
 42
1.0
 43
0.38
 44
1.0
 45
0.0
 46
0.0
 47
0.01
 48
0.01
140
6.2249651689
141
0.09
142
0.0
143
25.4
144
1.0
145
0.0
146
1.0
147
0.625
 71
1
 72
0
 73
0
 74
0
 75
0
 76
0
 77
1
 78
8
 79
2
170
0
171
1
172
0
173
0
174
0
175
0
176
0
177
0
178
0
270
2
179
2
271
2
272
2
273
2
274
2
275
0
280
0
281
0
282
0
283
1
284
8
285
0
286
0
287
3
288
0
340
11
278
46
341
212
342
212
343
212
344
212
  0
ENDTAB
  0
ENDSEC
  0
SECTION
  2
BLOCKS
  0
BLOCK
  5
20
100
AcDbEntity
  8
0
100
AcDbBlockBegin
  2
*Model_Space
 70
0
 10
0.0
 20
0.0
 30
0.0
  3
*Model_Space
  1

  0
ENDBLK
  5
21
100
AcDbEntity
  8
0
100
AcDbBlockEnd
  0
BLOCK
  5
1C
100
AcDbEntity
  8
0
100
AcDbBlockBegin
  2
*Paper_Space
 70
0
 10
0.0
 20
0.0
 30
0.0
  3
*Paper_Space
  1

  0
ENDBLK
  5
1D
100
AcDbEntity
  8
0
100
AcDbBlockEnd
  0
BLOCK
  5
214
100
AcDbEntity
  8
0
100
AcDbBlockBegin
  2
_FILLED
 70
64
 10
0.0
 20
0.0
  3
_FILLED
  1

  0
SOLID
  5
215
100
AcDbEntity
  8
0
  6
BYBLOCK
 62
0
100
AcDbTrace
 10
0.0
 20
0.0
 11
-1.0
 21
0.25
 12
-1.0
 22
-0.25
 13
-1.0
 23
-0.25
  0
ENDBLK
  5
216
100
AcDbEntity
  8
0
  6
BYBLOCK
 62
0
100
AcDbBlockEnd
  0
ENDSEC
  0
SECTION
  2
ENTITIES
  0
LINE
  5
217
100
AcDbEntity
  8
0
100
AcDbLine
 62
7
  6
CONTINUOUS
 10
62.398092999
 20
62.8993539666
 11
49.398092999
 21
62.8993539666
  0
LINE
  5
218
100
AcDbEntity
  8
0
100
AcDbLine
 62
7
  6
CONTINUOUS
 10
42.798092999
 20
63.0993539666
 11
339.398092999
 21
63.0993539666
  0
LINE
  5
219
100
AcDbEntity
  8
0
100
AcDbLine
 62
7
  6
CONTINUOUS
 10
41.598092999
 20
64.2993539666
 11
42.798092999
 21
64.2993539666
  0
LINE
  5
21A
100
AcDbEntity
  8
0
100
AcDbLine
 62
7
  6
CONTINUOUS
 10
341.598092999
 20
65.2993539666
 11
43.798092999
 21
65.2993539666
  0
LINE
  5
21B
100
AcDbEntity
  8
0
100
AcDbLine
 62
7
  6
CONTINUOUS
 10
61.9221391444
 20
78.4993539667
 11
321.2740468539
 21
78.4993539667
  0
LINE
  5
21C
100
AcDbEntity
  8
0
100
AcDbLine
 62
7
  6
CONTINUOUS
 10
321.2740468553
 20
79.0995104164
 11
61.9221391424
 21
79.0995104164
  0
LINE
  5
21D
100
AcDbEntity
  8
0
100
AcDbLine
 62
7
  6
CONTINUOUS
 10
58.9472638954
 20
81.0486813127
 11
59.5474203437
 21
81.0486813114
  0
LINE
  5
21E
100
AcDbEntity
  8
0
100
AcDbLine
 62
7
  6
CONTINUOUS
 10
323.6487656542
 20
81.0486813114
 11
324.2489221025
 21
81.0486813127
  0
LINE
  5
21F
100
AcDbEntity
  8
0
100
AcDbLine
 62
7
  6
CONTINUOUS
 10
42.9504724656
 20
64.4513931458
 11
42.9498743002
 21
64.4513258098
  0
LINE
  5
220
100
AcDbEntity
  8
0
100
AcDbLine
 62
7
  6
CONTINUOUS
 10
326.1980929989
 20
83.4234001117
 11
325.5979365492
 21
83.4234001104
  0
LINE
  5
221
100
AcDbEntity
  8
0
100
AcDbLine
 62
7
  6
CONTINUOUS
 10
57.5982494487
 20
83.4234001103
 11
56.998092999
 21
83.4234001117
  0
LINE
  5
222
100
AcDbEntity
  8
0
100
AcDbLine
 62
7
  6
CONTINUOUS
 10
61.9983798233
 20
83.499640791
 11
321.1978061746
 21
83.499640791
  0
LINE
  5
223
100
AcDbEntity
  8
0
100
AcDbLine
 62
7
  6
CONTINUOUS
 10
320.098092999
 20
84.5993539666
 11
63.098092999
 21
84.5993539666
  0
LINE
  5
224
100
AcDbEntity
  8
0
100
AcDbLine
 62
7
  6
CONTINUOUS
 10
41.598092999
 20
460.8993539666
 11
41.598092999
 21
64.2993539666
  0
LINE
  5
225
100
AcDbEntity
  8
0
100
AcDbLine
 62
7
  6
CONTINUOUS
 10
42.798092999
 20
64.2993539666
 11
42.798092999
 21
63.0993539666
  0
LINE
  5
226
100
AcDbEntity
  8
0
100
AcDbLine
 62
7
  6
CONTINUOUS
 10
337.1980929989
 20
108.0993539666
 11
326.1980929989
 21
108.0993539666
  0
LINE
  5
227
100
AcDbEntity
  8
0
100
AcDbLine
 62
7
  6
CONTINUOUS
 10
43.798092999
 20
65.2993539666
 11
43.798092999
 21
463.0993539666
  0
LINE
  5
228
100
AcDbEntity
  8
0
100
AcDbLine
 62
7
  6
CONTINUOUS
 10
49.398092999
 20
62.8993539666
 11
49.398092999
 21
63.0993539666
  0
LINE
  5
229
100
AcDbEntity
  8
0
100
AcDbLine
 62
7
  6
CONTINUOUS
 10
56.998092999
 20
442.7753078215
 11
56.998092999
 21
83.4234001117
  0
LINE
  5
22A
100
AcDbEntity
  8
0
100
AcDbLine
 62
7
  6
CONTINUOUS
 10
57.5982494487
 20
83.4234001103
 11
57.5982494487
 21
442.7753078229
  0
LINE
  5
22B
100
AcDbEntity
  8
0
100
AcDbLine
 62
7
  6
CONTINUOUS
 10
59.5474203454
 20
80.4485248634
 11
59.5474203433
 21
81.048681311
  0
LINE
  5
22C
100
AcDbEntity
  8
0
100
AcDbLine
 62
7
  6
CONTINUOUS
 10
59.5474203433
 20
445.1500266223
 11
59.5474203454
 21
445.7501830698
  0
LINE
  5
22D
100
AcDbEntity
  8
0
100
AcDbLine
 62
7
  6
CONTINUOUS
 10
326.2961446727
 20
119.3993539666
 11
337.1980929989
 21
119.3993539666
  0
LINE
  5
22E
100
AcDbEntity
  8
0
100
AcDbLine
 62
7
  6
CONTINUOUS
 10
61.9221391444
 20
447.6993539666
 11
61.9221391424
 21
447.0991975169
  0
LINE
  5
22F
100
AcDbEntity
  8
0
100
AcDbLine
 62
7
  6
CONTINUOUS
 10
61.9221391444
 20
78.4993539667
 11
61.9221391424
 21
79.0995104164
  0
LINE
  5
230
100
AcDbEntity
  8
0
100
AcDbLine
 62
7
  6
CONTINUOUS
 10
61.9983798233
 20
442.6990671423
 11
61.9983798233
 21
83.499640791
  0
LINE
  5
231
100
AcDbEntity
  8
0
100
AcDbLine
 62
7
  6
CONTINUOUS
 10
62.398092999
 20
63.0993539666
 11
62.398092999
 21
62.8993539666
  0
LINE
  5
232
100
AcDbEntity
  8
0
100
AcDbLine
 62
7
  6
CONTINUOUS
 10
63.098092999
 20
84.5993539666
 11
63.098092999
 21
441.5993539666
  0
LINE
  5
233
100
AcDbEntity
  8
0
100
AcDbLine
 62
7
  6
CONTINUOUS
 10
42.9314263323
 20
64.2993539666
 11
42.9480267298
 21
64.4491145248
  0
LINE
  5
234
100
AcDbEntity
  8
0
100
AcDbLine
 62
7
  6
CONTINUOUS
 10
337.1980929989
 20
144.7993539666
 11
326.2961804704
 21
144.7993539666
  0
LINE
  5
235
100
AcDbEntity
  8
0
100
AcDbLine
 62
7
  6
CONTINUOUS
 10
326.1980929989
 20
156.0993539666
 11
337.1980929989
 21
156.0993539666
  0
LINE
  5
236
100
AcDbEntity
  8
0
100
AcDbLine
 62
7
  6
CONTINUOUS
 10
339.398092999
 20
460.8993539666
 11
321.1978061746
 21
442.6990671423
  0
LINE
  5
237
100
AcDbEntity
  8
0
100
AcDbLine
 62
7
  6
CONTINUOUS
 10
339.398092999
 20
65.2993539666
 11
321.1978061746
 21
83.499640791
  0
LINE
  5
238
100
AcDbEntity
  8
0
100
AcDbLine
 62
7
  6
CONTINUOUS
 10
43.410671962
 20
64.9118825005
 11
43.5681181075
 21
65.069372402
  0
LINE
  5
239
100
AcDbEntity
  8
0
100
AcDbLine
 62
7
  6
CONTINUOUS
 10
337.1980929989
 20
374.1993539666
 11
338.0980929989
 21
375.0993539666
  0
LINE
  5
23A
100
AcDbEntity
  8
0
100
AcDbLine
 62
7
  6
CONTINUOUS
 10
61.9983798233
 20
83.499640791
 11
43.798092999
 21
65.2993539666
  0
LINE
  5
23B
100
AcDbEntity
  8
0
100
AcDbLine
 62
7
  6
CONTINUOUS
 10
338.0980929989
 20
151.0993539666
 11
337.1980929989
 21
151.9993539666
  0
LINE
  5
23C
100
AcDbEntity
  8
0
100
AcDbLine
 62
7
  6
CONTINUOUS
 10
43.798092999
 20
460.8993539666
 11
61.9983798233
 21
442.6990671423
  0
LINE
  5
23D
100
AcDbEntity
  8
0
100
AcDbLine
 62
7
  6
CONTINUOUS
 10
337.1980929989
 20
370.0993539666
 11
326.1980929989
 21
370.0993539666
  0
LINE
  5
23E
100
AcDbEntity
  8
0
100
AcDbLine
 62
7
  6
CONTINUOUS
 10
326.2961446727
 20
381.3993539666
 11
337.1980929989
 21
381.3993539666
  0
LINE
  5
23F
100
AcDbEntity
  8
0
100
AcDbLine
 62
7
  6
CONTINUOUS
 10
320.098092999
 20
441.5993539666
 11
320.098092999
 21
84.5993539666
  0
LINE
  5
240
100
AcDbEntity
  8
0
100
AcDbLine
 62
7
  6
CONTINUOUS
 10
321.1978061746
 20
83.499640791
 11
321.1978061746
 21
442.6990671422
  0
LINE
  5
241
100
AcDbEntity
  8
0
100
AcDbLine
 62
7
  6
CONTINUOUS
 10
321.2740468553
 20
79.0995104164
 11
321.2740468539
 21
78.4993539667
  0
LINE
  5
242
100
AcDbEntity
  8
0
100
AcDbLine
 62
7
  6
CONTINUOUS
 10
321.2740468556
 20
447.0991975169
 11
321.2740468536
 21
447.6993539666
  0
LINE
  5
243
100
AcDbEntity
  8
0
100
AcDbLine
 62
7
  6
CONTINUOUS
 10
323.6487656529
 20
80.4485248631
 11
323.6487656542
 21
81.0486813113
  0
LINE
  5
244
100
AcDbEntity
  8
0
100
AcDbLine
 62
7
  6
CONTINUOUS
 10
323.6487656546
 20
445.1500266223
 11
323.6487656525
 21
445.7501830699
  0
LINE
  5
245
100
AcDbEntity
  8
0
100
AcDbLine
 62
7
  6
CONTINUOUS
 10
325.5979376508
 20
83.4233950705
 11
325.5979376508
 21
442.7753128627
  0
LINE
  5
246
100
AcDbEntity
  8
0
100
AcDbLine
 62
7
  6
CONTINUOUS
 10
326.1980929989
 20
83.4234001117
 11
326.1980929989
 21
442.7753078216
  0
LINE
  5
247
100
AcDbEntity
  8
0
100
AcDbLine
 62
7
  6
CONTINUOUS
 10
326.2961804704
 20
119.3993539666
 11
326.2961804704
 21
144.7993539666
  0
LINE
  5
248
100
AcDbEntity
  8
0
100
AcDbLine
 62
7
  6
CONTINUOUS
 10
326.2961804704
 20
381.3993539666
 11
326.2961804704
 21
406.7993539666
  0
LINE
  5
249
100
AcDbEntity
  8
0
100
AcDbLine
 62
7
  6
CONTINUOUS
 10
327.5980929988
 20
108.0993539666
 11
327.5980929988
 21
119.3993539666
  0
LINE
  5
24A
100
AcDbEntity
  8
0
100
AcDbLine
 62
7
  6
CONTINUOUS
 10
327.5980929987
 20
144.7993539666
 11
327.5980929987
 21
156.0993539666
  0
LINE
  5
24B
100
AcDbEntity
  8
0
100
AcDbLine
 62
7
  6
CONTINUOUS
 10
327.5980929988
 20
370.0993539666
 11
327.5980929988
 21
381.3993539666
  0
LINE
  5
24C
100
AcDbEntity
  8
0
100
AcDbLine
 62
7
  6
CONTINUOUS
 10
327.5980929987
 20
406.7993539666
 11
327.5980929987
 21
418.0993539666
  0
LINE
  5
24D
100
AcDbEntity
  8
0
100
AcDbLine
 62
7
  6
CONTINUOUS
 10
328.9980929989
 20
418.0993539666
 11
328.9980929989
 21
406.7993539666
  0
LINE
  5
24E
100
AcDbEntity
  8
0
100
AcDbLine
 62
7
  6
CONTINUOUS
 10
328.9980929989
 20
381.3993539666
 11
328.9980929989
 21
370.0993539666
  0
LINE
  5
24F
100
AcDbEntity
  8
0
100
AcDbLine
 62
7
  6
CONTINUOUS
 10
328.9980929989
 20
156.0993539666
 11
328.9980929989
 21
144.7993539666
  0
LINE
  5
250
100
AcDbEntity
  8
0
100
AcDbLine
 62
7
  6
CONTINUOUS
 10
328.9980929989
 20
119.3993539666
 11
328.9980929989
 21
108.0993539666
  0
LINE
  5
251
100
AcDbEntity
  8
0
100
AcDbLine
 62
7
  6
CONTINUOUS
 10
337.1980929989
 20
108.0993539666
 11
337.1980929989
 21
119.3993539666
  0
LINE
  5
252
100
AcDbEntity
  8
0
100
AcDbLine
 62
7
  6
CONTINUOUS
 10
337.1980929989
 20
144.7993539666
 11
337.1980929989
 21
156.0993539666
  0
LINE
  5
253
100
AcDbEntity
  8
0
100
AcDbLine
 62
7
  6
CONTINUOUS
 10
337.1980929989
 20
370.0993539666
 11
337.1980929989
 21
381.3993539666
  0
LINE
  5
254
100
AcDbEntity
  8
0
100
AcDbLine
 62
7
  6
CONTINUOUS
 10
337.1980929989
 20
406.7993539666
 11
337.1980929989
 21
418.0993539666
  0
LINE
  5
255
100
AcDbEntity
  8
0
100
AcDbLine
 62
7
  6
CONTINUOUS
 10
338.0980929989
 20
413.0993539666
 11
338.0980929989
 21
375.0993539666
  0
LINE
  5
256
100
AcDbEntity
  8
0
100
AcDbLine
 62
7
  6
CONTINUOUS
 10
338.0980929989
 20
151.0993539666
 11
338.0980929989
 21
113.0993539666
  0
LINE
  5
257
100
AcDbEntity
  8
0
100
AcDbLine
 62
7
  6
CONTINUOUS
 10
339.398092999
 20
463.0993539666
 11
339.398092999
 21
63.0993539666
  0
LINE
  5
258
100
AcDbEntity
  8
0
100
AcDbLine
 62
7
  6
CONTINUOUS
 10
341.598092999
 20
65.2993539666
 11
341.598092999
 21
460.8993539666
  0
LINE
  5
259
100
AcDbEntity
  8
0
100
AcDbLine
 62
7
  6
CONTINUOUS
 10
337.1980929989
 20
406.7993539666
 11
326.2961804704
 21
406.7993539666
  0
LINE
  5
25A
100
AcDbEntity
  8
0
100
AcDbLine
 62
7
  6
CONTINUOUS
 10
326.1980929989
 20
418.0993539666
 11
337.1980929989
 21
418.0993539666
  0
LINE
  5
25B
100
AcDbEntity
  8
0
100
AcDbLine
 62
7
  6
CONTINUOUS
 10
63.098092999
 20
441.5993539666
 11
320.098092999
 21
441.5993539666
  0
LINE
  5
25C
100
AcDbEntity
  8
0
100
AcDbLine
 62
7
  6
CONTINUOUS
 10
321.1978061746
 20
442.6990671423
 11
61.9983798234
 21
442.6990671423
  0
LINE
  5
25D
100
AcDbEntity
  8
0
100
AcDbLine
 62
7
  6
CONTINUOUS
 10
56.998092999
 20
442.7753078215
 11
57.5982494487
 21
442.7753078229
  0
LINE
  5
25E
100
AcDbEntity
  8
0
100
AcDbLine
 62
7
  6
CONTINUOUS
 10
325.5979365492
 20
442.7753078229
 11
326.1980929989
 21
442.7753078216
  0
LINE
  5
25F
100
AcDbEntity
  8
0
100
AcDbLine
 62
7
  6
CONTINUOUS
 10
58.9472638954
 20
445.1500266206
 11
59.5474203437
 21
445.1500266219
  0
LINE
  5
260
100
AcDbEntity
  8
0
100
AcDbLine
 62
7
  6
CONTINUOUS
 10
323.6487656542
 20
445.1500266219
 11
324.2489221025
 21
445.1500266205
  0
LINE
  5
261
100
AcDbEntity
  8
0
100
AcDbLine
 62
7
  6
CONTINUOUS
 10
321.2740518972
 20
447.0991986188
 11
61.9221341007
 21
447.0991986188
  0
LINE
  5
262
100
AcDbEntity
  8
0
100
AcDbLine
 62
7
  6
CONTINUOUS
 10
321.2740468536
 20
447.6993539666
 11
61.9221391444
 21
447.6993539666
  0
LINE
  5
263
100
AcDbEntity
  8
0
100
AcDbLine
 62
7
  6
CONTINUOUS
 10
41.598092999
 20
460.8993539666
 11
341.598092999
 21
460.8993539666
  0
LINE
  5
264
100
AcDbEntity
  8
0
100
AcDbLine
 62
7
  6
CONTINUOUS
 10
339.398092999
 20
463.0993539666
 11
43.798092999
 21
463.0993539666
  0
LINE
  5
265
100
AcDbEntity
  8
0
100
AcDbLine
 62
7
  6
CONTINUOUS
 10
337.1980929989
 20
112.1993539666
 11
338.0980929989
 21
113.0993539666
  0
LINE
  5
266
100
AcDbEntity
  8
0
100
AcDbLine
 62
7
  6
CONTINUOUS
 10
338.0980929989
 20
413.0993539666
 11
337.1980929989
 21
413.9993539666
  0
ARC
  5
267
100
AcDbEntity
  8
0
100
AcDbCircle
 62
7
  6
CONTINUOUS
 10
55.898092999
 20
83.5243539666
 40
21.625
100
AcDbArc
 50
252.5076754749
 51
287.4923245251
  0
ARC
  5
268
100
AcDbEntity
  8
0
100
AcDbCircle
 62
7
  6
CONTINUOUS
 10
73.534504865
 20
95.680658437
 40
20.2430645157
100
AcDbArc
 50
229.1708705286
 51
234.9950727814
  0
ARC
  5
269
100
AcDbEntity
  8
0
100
AcDbCircle
 62
7
  6
CONTINUOUS
 10
74.1793964122
 20
95.0357650112
 40
20.2430631771
100
AcDbArc
 50
215.0049270258
 51
220.829130284
  0
ARC
  5
26A
100
AcDbEntity
  8
0
100
AcDbCircle
 62
7
  6
CONTINUOUS
 10
73.4627704712
 20
94.9807296509
 40
20.120190562
100
AcDbArc
 50
226.242202024
 51
234.9994119447
  0
ARC
  5
26B
100
AcDbEntity
  8
0
100
AcDbCircle
 62
7
  6
CONTINUOUS
 10
73.3081086251
 20
94.8233788853
 40
19.8991526556
100
AcDbArc
 50
214.9518544305
 51
223.8065316034
  0
ARC
  5
26C
100
AcDbEntity
  8
0
100
AcDbCircle
 62
7
  6
CONTINUOUS
 10
73.6681568026
 20
94.6020590689
 40
19.5726688722
100
AcDbArc
 50
220.8469345861
 51
223.8255202944
  0
ARC
  5
26D
100
AcDbEntity
  8
0
100
AcDbCircle
 62
7
  6
CONTINUOUS
 10
73.1007963435
 20
95.1694160823
 40
19.5726664473
100
AcDbArc
 50
226.1744799952
 51
229.1530667113
  0
ARC
  5
26E
100
AcDbEntity
  8
0
100
AcDbCircle
 62
7
  6
CONTINUOUS
 10
66.598092999
 20
88.0993539666
 40
9.2125175291
100
AcDbArc
 50
340.9404084525
 51
113.3948000263
  0
ARC
  5
26F
100
AcDbEntity
  8
0
100
AcDbCircle
 62
7
  6
CONTINUOUS
 10
66.598092999
 20
88.0993539666
 40
7.4814954576
100
AcDbArc
 50
324.2892663271
 51
119.2819450448
  0
ARC
  5
270
100
AcDbEntity
  8
0
100
AcDbCircle
 62
7
  6
CONTINUOUS
 10
66.598092999
 20
88.0993539666
 40
6.7886751346
100
AcDbArc
 50
328.4520376897
 51
122.8408004956
  0
ARC
  5
271
100
AcDbEntity
  8
0
100
AcDbCircle
 62
7
  6
CONTINUOUS
 10
66.598092999
 20
88.0993539666
 40
5.9226497308
100
AcDbArc
 50
323.7030774611
 51
128.20783898
  0
ARC
  5
272
100
AcDbEntity
  8
0
100
AcDbCircle
 62
7
  6
CONTINUOUS
 10
52.8980929991
 20
132.0993539666
 40
5.5
100
AcDbArc
 50
38.3750521552
 51
321.6249478448
  0
ARC
  5
273
100
AcDbEntity
  8
0
100
AcDbCircle
 62
7
  6
CONTINUOUS
 10
66.598092999
 20
88.0993539666
 40
5.15
100
AcDbArc
 50
314.9762368979
 51
134.6344795468
  0
CIRCLE
  5
274
100
AcDbEntity
  8
0
100
AcDbCircle
 62
7
  6
CONTINUOUS
 10
52.8980929991
 20
132.0993539666
 40
4.0305566978
  0
CIRCLE
  5
275
100
AcDbEntity
  8
0
100
AcDbCircle
 62
7
  6
CONTINUOUS
 10
52.8980929991
 20
132.0993539666
 40
1.8030312623
  0
CIRCLE
  5
276
100
AcDbEntity
  8
0
100
AcDbCircle
 62
7
  6
CONTINUOUS
 10
52.8980929991
 20
132.0993539666
 40
0.9924038765
  0
CIRCLE
  5
277
100
AcDbEntity
  8
0
100
AcDbCircle
 62
7
  6
CONTINUOUS
 10
52.8980929991
 20
132.0993539666
 40
0.5
  0
ARC
  5
278
100
AcDbEntity
  8
0
100
AcDbCircle
 62
7
  6
CONTINUOUS
 10
74.1793964128
 20
431.1629429216
 40
20.2430631778
100
AcDbArc
 50
139.1708697161
 51
144.9950729742
  0
ARC
  5
279
100
AcDbEntity
  8
0
100
AcDbCircle
 62
7
  6
CONTINUOUS
 10
73.5345040328
 20
430.5180505662
 40
20.243063162
100
AcDbArc
 50
125.0049270261
 51
130.8291302852
  0
ARC
  5
27A
100
AcDbEntity
  8
0
100
AcDbCircle
 62
7
  6
CONTINUOUS
 10
73.4794686766
 20
431.2346765003
 40
20.1201905548
100
AcDbArc
 50
136.2422020229
 51
144.9994119436
  0
ARC
  5
27B
100
AcDbEntity
  8
0
100
AcDbCircle
 62
7
  6
CONTINUOUS
 10
73.3221179205
 20
431.3893383375
 40
19.8991526582
100
AcDbArc
 50
124.9518544283
 51
133.8065316031
  0
ARC
  5
27C
100
AcDbEntity
  8
0
100
AcDbCircle
 62
7
  6
CONTINUOUS
 10
73.1007981005
 20
431.0292901639
 40
19.5726688727
100
AcDbArc
 50
130.8469345867
 51
133.8255202949
  0
ARC
  5
27D
100
AcDbEntity
  8
0
100
AcDbCircle
 62
7
  6
CONTINUOUS
 10
73.6681568022
 20
431.5966488647
 40
19.5726688716
100
AcDbArc
 50
136.1744797055
 51
139.153065414
  0
ARC
  5
27E
100
AcDbEntity
  8
0
100
AcDbCircle
 62
7
  6
CONTINUOUS
 10
66.598092999
 20
438.0993539666
 40
9.2125402301
100
AcDbArc
 50
246.5666151186
 51
25.8741963277
  0
ARC
  5
27F
100
AcDbEntity
  8
0
100
AcDbCircle
 62
7
  6
CONTINUOUS
 10
66.598092999
 20
438.0993539666
 40
7.4814954576
100
AcDbArc
 50
241.0328057921
 51
35.9498277023
  0
ARC
  5
280
100
AcDbEntity
  8
0
100
AcDbCircle
 62
7
  6
CONTINUOUS
 10
66.598092999
 20
438.0993539666
 40
6.7886751346
100
AcDbArc
 50
237.154351108
 51
31.680893612
  0
ARC
  5
281
100
AcDbEntity
  8
0
100
AcDbCircle
 62
7
  6
CONTINUOUS
 10
66.598092999
 20
438.0993539666
 40
5.9226497308
100
AcDbArc
 50
231.875987196
 51
36.3834080531
  0
ARC
  5
282
100
AcDbEntity
  8
0
100
AcDbCircle
 62
7
  6
CONTINUOUS
 10
52.8980929991
 20
394.0993539666
 40
5.5
100
AcDbArc
 50
38.3750521552
 51
321.6249478448
  0
ARC
  5
283
100
AcDbEntity
  8
0
100
AcDbCircle
 62
7
  6
CONTINUOUS
 10
66.598092999
 20
438.0993539666
 40
5.15
100
AcDbArc
 50
225.4283565438
 51
45.0293600617
  0
CIRCLE
  5
284
100
AcDbEntity
  8
0
100
AcDbCircle
 62
7
  6
CONTINUOUS
 10
52.8980929991
 20
394.0993539666
 40
4.0305566978
  0
ARC
  5
285
100
AcDbEntity
  8
0
100
AcDbCircle
 62
7
  6
CONTINUOUS
 10
43.798092999
 20
460.8993539666
 40
2.2
100
AcDbArc
 50
90.0
 51
180.0
  0
CIRCLE
  5
286
100
AcDbEntity
  8
0
100
AcDbCircle
 62
7
  6
CONTINUOUS
 10
52.8980929991
 20
394.0993539666
 40
1.8030312623
  0
ARC
  5
287
100
AcDbEntity
  8
0
100
AcDbCircle
 62
7
  6
CONTINUOUS
 10
43.798092999
 20
460.8993539666
 40
1.0
100
AcDbArc
 50
90.0
 51
180.0
  0
CIRCLE
  5
288
100
AcDbEntity
  8
0
100
AcDbCircle
 62
7
  6
CONTINUOUS
 10
52.8980929991
 20
394.0993539666
 40
0.9924038765
  0
CIRCLE
  5
289
100
AcDbEntity
  8
0
100
AcDbCircle
 62
7
  6
CONTINUOUS
 10
52.8980929991
 20
394.0993539666
 40
0.5
  0
ARC
  5
28A
100
AcDbEntity
  8
0
100
AcDbCircle
 62
7
  6
CONTINUOUS
 10
309.0167885166
 20
95.0357658429
 40
20.24306453
100
AcDbArc
 50
319.1708705296
 51
324.9950727817
  0
ARC
  5
28B
100
AcDbEntity
  8
0
100
AcDbCircle
 62
7
  6
CONTINUOUS
 10
309.6616819556
 20
95.6806573784
 40
20.2430631753
100
AcDbArc
 50
305.004927026
 51
310.8291302842
  0
ARC
  5
28C
100
AcDbEntity
  8
0
100
AcDbCircle
 62
7
  6
CONTINUOUS
 10
309.716717321
 20
94.9640314333
 40
20.1201905551
100
AcDbArc
 50
316.2422020228
 51
324.9994119435
  0
ARC
  5
28D
100
AcDbEntity
  8
0
100
AcDbCircle
 62
7
  6
CONTINUOUS
 10
309.8740680804
 20
94.8093695926
 40
19.8991526554
100
AcDbArc
 50
304.9518544306
 51
313.8065316034
  0
ARC
  5
28E
100
AcDbEntity
  8
0
100
AcDbCircle
 62
7
  6
CONTINUOUS
 10
310.0953878965
 20
95.1694177704
 40
19.5726688724
100
AcDbArc
 50
310.8469345862
 51
313.8255202945
  0
ARC
  5
28F
100
AcDbEntity
  8
0
100
AcDbCircle
 62
7
  6
CONTINUOUS
 10
309.5280308813
 20
94.6020573131
 40
19.5726664486
100
AcDbArc
 50
316.1744799957
 51
319.1530667117
  0
ARC
  5
290
100
AcDbEntity
  8
0
100
AcDbCircle
 62
7
  6
CONTINUOUS
 10
316.598092999
 20
88.0993539666
 40
9.2125175291
100
AcDbArc
 50
70.9404084525
 51
203.3948000263
  0
ARC
  5
291
100
AcDbEntity
  8
0
100
AcDbCircle
 62
7
  6
CONTINUOUS
 10
316.598092999
 20
88.0993539666
 40
7.4814954576
100
AcDbArc
 50
54.2892663271
 51
209.2819450448
  0
ARC
  5
292
100
AcDbEntity
  8
0
100
AcDbCircle
 62
7
  6
CONTINUOUS
 10
316.598092999
 20
88.0993539666
 40
6.7886751346
100
AcDbArc
 50
58.4520376897
 51
212.8408004956
  0
ARC
  5
293
100
AcDbEntity
  8
0
100
AcDbCircle
 62
7
  6
CONTINUOUS
 10
316.598092999
 20
88.0993539666
 40
5.9226497308
100
AcDbArc
 50
53.7030774611
 51
218.20783898
  0
ARC
  5
294
100
AcDbEntity
  8
0
100
AcDbCircle
 62
7
  6
CONTINUOUS
 10
316.598092999
 20
88.0993539666
 40
5.15
100
AcDbArc
 50
44.9779358428
 51
224.6344795468
  0
ARC
  5
295
100
AcDbEntity
  8
0
100
AcDbCircle
 62
7
  6
CONTINUOUS
 10
339.398092999
 20
65.2993539666
 40
2.2
100
AcDbArc
 50
270.0
 51
360.0
  0
ARC
  5
296
100
AcDbEntity
  8
0
100
AcDbCircle
 62
7
  6
CONTINUOUS
 10
339.398092999
 20
65.2993539666
 40
1.0
100
AcDbArc
 50
270.0
 51
360.0
  0
ARC
  5
297
100
AcDbEntity
  8
0
100
AcDbCircle
 62
7
  6
CONTINUOUS
 10
327.5980929989
 20
120.0993539666
 40
2.3682206767
100
AcDbArc
 50
341.1273366822
 51
125.1075372688
  0
ARC
  5
298
100
AcDbEntity
  8
0
100
AcDbCircle
 62
7
  6
CONTINUOUS
 10
327.5980929989
 20
120.0993539666
 40
0.8566550758
100
AcDbArc
 50
291.9441985756
 51
248.0558014244
  0
ARC
  5
299
100
AcDbEntity
  8
0
100
AcDbCircle
 62
7
  6
CONTINUOUS
 10
327.5980929989
 20
144.0993539666
 40
2.3682206767
100
AcDbArc
 50
234.926815442
 51
18.9387294078
  0
ARC
  5
29A
100
AcDbEntity
  8
0
100
AcDbCircle
 62
7
  6
CONTINUOUS
 10
327.5980929989
 20
144.0993539666
 40
0.8566550758
100
AcDbArc
 50
111.9441985756
 51
68.0558014244
  0
ARC
  5
29B
100
AcDbEntity
  8
0
100
AcDbCircle
 62
7
  6
CONTINUOUS
 10
330.2980929989
 20
132.0993539666
 40
5.05
100
AcDbArc
 50
217.2988048319
 51
142.7648338602
  0
ARC
  5
29C
100
AcDbEntity
  8
0
100
AcDbCircle
 62
7
  6
CONTINUOUS
 10
330.2980929989
 20
132.0993539666
 40
4.0
100
AcDbArc
 50
188.1067963477
 51
172.0725493927
  0
CIRCLE
  5
29D
100
AcDbEntity
  8
0
100
AcDbCircle
 62
7
  6
CONTINUOUS
 10
330.2980929989
 20
132.0993539666
 40
3.85
  0
ARC
  5
29E
100
AcDbEntity
  8
0
100
AcDbCircle
 62
7
  6
CONTINUOUS
 10
309.016789586
 20
431.1629429223
 40
20.2430631768
100
AcDbArc
 50
35.004927026
 51
40.8291302841
  0
ARC
  5
29F
100
AcDbEntity
  8
0
100
AcDbCircle
 62
7
  6
CONTINUOUS
 10
309.661681965
 20
430.518050566
 40
20.2430631622
100
AcDbArc
 50
49.1708697148
 51
54.995072974
  0
ARC
  5
2A0
100
AcDbEntity
  8
0
100
AcDbCircle
 62
7
  6
CONTINUOUS
 10
309.7334155267
 20
431.2179782825
 40
20.120190562
100
AcDbArc
 50
46.2422020237
 51
54.9994119444
  0
ARC
  5
2A1
100
AcDbEntity
  8
0
100
AcDbCircle
 62
7
  6
CONTINUOUS
 10
309.8880773728
 20
431.375329048
 40
19.8991526556
100
AcDbArc
 50
34.9518544307
 51
43.8065316033
  0
ARC
  5
2A2
100
AcDbEntity
  8
0
100
AcDbCircle
 62
7
  6
CONTINUOUS
 10
309.5280291944
 20
431.5966488635
 40
19.5726688735
100
AcDbArc
 50
40.8469345862
 51
43.8255202944
  0
ARC
  5
2A3
100
AcDbEntity
  8
0
100
AcDbCircle
 62
7
  6
CONTINUOUS
 10
310.0953878975
 20
431.0292901639
 40
19.5726688726
100
AcDbArc
 50
46.1744797051
 51
49.1530654133
  0
ARC
  5
2A4
100
AcDbEntity
  8
0
100
AcDbCircle
 62
7
  6
CONTINUOUS
 10
316.598092999
 20
438.0993539666
 40
9.2125402301
100
AcDbArc
 50
156.5666151186
 51
295.8741963277
  0
ARC
  5
2A5
100
AcDbEntity
  8
0
100
AcDbCircle
 62
7
  6
CONTINUOUS
 10
316.598092999
 20
438.0993539666
 40
7.4814954576
100
AcDbArc
 50
151.0328057921
 51
305.9498277023
  0
ARC
  5
2A6
100
AcDbEntity
  8
0
100
AcDbCircle
 62
7
  6
CONTINUOUS
 10
316.598092999
 20
438.0993539666
 40
6.7886751346
100
AcDbArc
 50
147.154351108
 51
301.680893612
  0
ARC
  5
2A7
100
AcDbEntity
  8
0
100
AcDbCircle
 62
7
  6
CONTINUOUS
 10
316.598092999
 20
438.0993539666
 40
5.9226497308
100
AcDbArc
 50
141.875987196
 51
306.3834080531
  0
ARC
  5
2A8
100
AcDbEntity
  8
0
100
AcDbCircle
 62
7
  6
CONTINUOUS
 10
316.598092999
 20
438.0993539666
 40
5.15
100
AcDbArc
 50
135.4283565438
 51
315.1517356142
  0
ARC
  5
2A9
100
AcDbEntity
  8
0
100
AcDbCircle
 62
7
  6
CONTINUOUS
 10
327.5980929989
 20
382.0993539666
 40
2.3682206767
100
AcDbArc
 50
341.1273366822
 51
125.1075372688
  0
ARC
  5
2AA
100
AcDbEntity
  8
0
100
AcDbCircle
 62
7
  6
CONTINUOUS
 10
327.5980929989
 20
382.0993539666
 40
0.8566550758
100
AcDbArc
 50
291.9441985756
 51
248.0558014244
  0
ARC
  5
2AB
100
AcDbEntity
  8
0
100
AcDbCircle
 62
7
  6
CONTINUOUS
 10
327.5980929989
 20
406.0993539666
 40
2.3682206767
100
AcDbArc
 50
234.926815442
 51
18.9387294078
  0
ARC
  5
2AC
100
AcDbEntity
  8
0
100
AcDbCircle
 62
7
  6
CONTINUOUS
 10
327.5980929989
 20
406.0993539666
 40
0.8566550758
100
AcDbArc
 50
111.9441985756
 51
68.0558014244
  0
ARC
  5
2AD
100
AcDbEntity
  8
0
100
AcDbCircle
 62
7
  6
CONTINUOUS
 10
330.2980929989
 20
394.0993539666
 40
5.05
100
AcDbArc
 50
217.3382969601
 51
142.7693955836
  0
ARC
  5
2AE
100
AcDbEntity
  8
0
100
AcDbCircle
 62
7
  6
CONTINUOUS
 10
330.2980929989
 20
394.0993539666
 40
4.0
100
AcDbArc
 50
188.1067963477
 51
172.0725493927
  0
CIRCLE
  5
2AF
100
AcDbEntity
  8
0
100
AcDbCircle
 62
7
  6
CONTINUOUS
 10
330.2980929989
 20
394.0993539666
 40
3.85
  0
ARC
  5
2B0
100
AcDbEntity
  8
0
100
AcDbCircle
 62
7
  6
CONTINUOUS
 10
339.398092999
 20
460.8993539666
 40
2.2
100
AcDbArc
 50
0.0
 51
90.0
  0
ARC
  5
2B1
100
AcDbEntity
  8
0
100
AcDbCircle
 62
7
  6
CONTINUOUS
 10
339.398092999
 20
460.8993539666
 40
1.0
100
AcDbArc
 50
0.0
 51
90.0
  0
LINE
  5
2B2
100
AcDbEntity
  8
0
100
AcDbLine
 62
7
  6
CONTINUOUS
 10
42.9505591103
 20
64.4516459047
 11
43.4159193033
 21
64.9171450021
  0
SPLINE
  5
2B3
100
AcDbEntity
  8
0
100
AcDbSpline
 62
7
  6
CONTINUOUS
 70
0
 71
3
 72
10
 73
6
 74
0
 42
0.0000001
 43
0.0000001
 44
0.0000000001
 40
0.0
 40
0.0
 40
0.0
 40
0.0
 40
0.315802189
 40
0.5993073573
 40
1.0
 40
1.0
 40
1.0
 40
1.0
 10
43.798092999
 20
65.2993539666
 30
0.0
 10
43.6696748976
 20
65.2176004642
 30
0.0
 10
43.4240261245
 20
65.0600837627
 30
0.0
 10
43.0440211479
 20
64.7850394088
 30
0.0
 10
42.798092999
 20
64.4925083824
 30
0.0
 10
42.798092999
 20
64.2993539666
 30
0.0
  0
LINE
  5
2B4
100
AcDbEntity
  8
0
100
AcDbLine
 62
7
  6
CONTINUOUS
 10
43.7109326804
 20
65.2121244032
 11
43.4109361104
 21
64.9121269053
  0
LINE
  5
2B5
100
AcDbEntity
  8
0
100
AcDbLine
 62
7
  6
CONTINUOUS
 10
43.4109361104
 20
64.9121269053
 11
42.9482509542
 21
64.449847733
  0
SPLINE
  5
2B6
100
AcDbEntity
  8
0
100
AcDbSpline
 62
7
  6
CONTINUOUS
 70
0
 71
3
 72
9
 73
5
 74
0
 42
0.0000001
 43
0.0000001
 44
0.0000000001
 40
0.0
 40
0.0
 40
0.0
 40
0.0
 40
0.2707342791
 40
1.0
 40
1.0
 40
1.0
 40
1.0
 10
61.9983798234
 20
83.499640791
 30
0.0
 10
62.0572561308
 20
83.5321000244
 30
0.0
 10
62.2731862458
 20
83.6545672306
 30
0.0
 10
62.483502203
 20
83.7883685104
 30
0.0
 10
62.6268740442
 20
83.8990069826
 30
0.0
  0
SPLINE
  5
2B7
100
AcDbEntity
  8
0
100
AcDbSpline
 62
7
  6
CONTINUOUS
 70
0
 71
3
 72
9
 73
5
 74
0
 42
0.0000001
 43
0.0000001
 44
0.0000000001
 40
0.0
 40
0.0
 40
0.0
 40
0.0
 40
0.2302018365
 40
1.0
 40
1.0
 40
1.0
 40
1.0
 10
62.5835349679
 20
442.3324960849
 30
0.0
 10
62.540973448
 20
442.364093978
 30
0.0
 10
62.3525080894
 20
442.4965437409
 30
0.0
 10
62.1536130184
 20
442.61348517
 30
0.0
 10
61.9983798234
 20
442.6990671422
 30
0.0
  0
SPLINE
  5
2B8
100
AcDbEntity
  8
0
100
AcDbSpline
 62
7
  6
CONTINUOUS
 70
0
 71
3
 72
9
 73
5
 74
0
 42
0.0000001
 43
0.0000001
 44
0.0000000001
 40
0.0
 40
0.0
 40
0.0
 40
0.0
 40
0.2707342791
 40
1.0
 40
1.0
 40
1.0
 40
1.0
 10
61.9983798234
 20
442.6990671422
 30
0.0
 10
62.0308390567
 20
442.6401908348
 30
0.0
 10
62.1533062629
 20
442.4242607198
 30
0.0
 10
62.2871075427
 20
442.2139447626
 30
0.0
 10
62.3977460149
 20
442.0705729213
 30
0.0
  0
SPLINE
  5
2B9
100
AcDbEntity
  8
0
100
AcDbSpline
 62
7
  6
CONTINUOUS
 70
0
 71
3
 72
9
 73
5
 74
0
 42
0.0000001
 43
0.0000001
 44
0.0000000001
 40
0.0
 40
0.0
 40
0.0
 40
0.0
 40
0.2302018365
 40
1.0
 40
1.0
 40
1.0
 40
1.0
 10
320.8312351172
 20
442.1139119977
 30
0.0
 10
320.8628330103
 20
442.1564735176
 30
0.0
 10
320.9952827733
 20
442.3449388762
 30
0.0
 10
321.1122242024
 20
442.5438339472
 30
0.0
 10
321.1978061746
 20
442.6990671422
 30
0.0
  0
SPLINE
  5
2BA
100
AcDbEntity
  8
0
100
AcDbSpline
 62
7
  6
CONTINUOUS
 70
0
 71
3
 72
9
 73
5
 74
0
 42
0.0000001
 43
0.0000001
 44
0.0000000001
 40
0.0
 40
0.0
 40
0.0
 40
0.0
 40
0.2302018365
 40
1.0
 40
1.0
 40
1.0
 40
1.0
 10
320.61265103
 20
83.8662118484
 30
0.0
 10
320.6552125499
 20
83.8346139553
 30
0.0
 10
320.8436779085
 20
83.7021641923
 30
0.0
 10
321.0425729795
 20
83.5852227632
 30
0.0
 10
321.1978061746
 20
83.499640791
 30
0.0
  0
SPLINE
  5
2BB
100
AcDbEntity
  8
0
100
AcDbSpline
 62
7
  6
CONTINUOUS
 70
0
 71
3
 72
9
 73
5
 74
0
 42
0.0000001
 43
0.0000001
 44
0.0000000001
 40
0.0
 40
0.0
 40
0.0
 40
0.0
 40
0.2707342791
 40
1.0
 40
1.0
 40
1.0
 40
1.0
 10
321.1978061746
 20
442.6990671422
 30
0.0
 10
321.1389298671
 20
442.6666079089
 30
0.0
 10
320.9229997521
 20
442.5441407027
 30
0.0
 10
320.7126837949
 20
442.4103394229
 30
0.0
 10
320.5693119537
 20
442.2997009507
 30
0.0
  0
SPLINE
  5
2BC
100
AcDbEntity
  8
0
100
AcDbSpline
 62
7
  6
CONTINUOUS
 70
0
 71
3
 72
9
 73
5
 74
0
 42
0.0000001
 43
0.0000001
 44
0.0000000001
 40
0.0
 40
0.0
 40
0.0
 40
0.0
 40
0.2707342791
 40
1.0
 40
1.0
 40
1.0
 40
1.0
 10
321.1978061746
 20
83.499640791
 30
0.0
 10
321.1653469412
 20
83.5585170985
 30
0.0
 10
321.042879735
 20
83.7744472135
 30
0.0
 10
320.9090784552
 20
83.9847631707
 30
0.0
 10
320.798439983
 20
84.1281350119
 30
0.0
  0
SPLINE
  5
2BD
100
AcDbEntity
  8
0
100
AcDbSpline
 62
7
  6
CONTINUOUS
 70
0
 71
3
 72
9
 73
5
 74
0
 42
0.0000001
 43
0.0000001
 44
0.0000000001
 40
0.0
 40
0.0
 40
0.0
 40
0.0
 40
0.2302018365
 40
1.0
 40
1.0
 40
1.0
 40
1.0
 10
62.3649508807
 20
84.0847959356
 30
0.0
 10
62.3333529876
 20
84.0422344157
 30
0.0
 10
62.2009032247
 20
83.8537690571
 30
0.0
 10
62.0839617956
 20
83.6548739861
 30
0.0
 10
61.9983798234
 20
83.499640791
 30
0.0
  0
SPLINE
  5
2BE
100
AcDbEntity
  8
0
100
AcDbSpline
 62
7
  6
CONTINUOUS
 70
0
 71
3
 72
10
 73
6
 74
0
 42
0.0000001
 43
0.0000001
 44
0.0000000001
 40
0.0
 40
0.0
 40
0.0
 40
0.0
 40
0.4006895374
 40
0.6841962047
 40
1.0
 40
1.0
 40
1.0
 40
1.0
 10
42.798092999
 20
64.2993539666
 30
0.0
 10
42.9912459681
 20
64.2993539666
 30
0.0
 10
43.2837772041
 20
64.5452797341
 30
0.0
 10
43.5588217554
 20
64.9252849507
 30
0.0
 10
43.7163390594
 20
65.1709351787
 30
0.0
 10
43.798092999
 20
65.2993539666
 30
0.0
  0
LINE
  5
2BF
100
AcDbEntity
  8
0
100
AcDbLine
 62
7
  6
CONTINUOUS
 10
43.170408281
 20
64.4761640725
 11
42.9504724656
 21
64.4513931458
  0
SPLINE
  5
2C0
100
AcDbEntity
  8
0
100
AcDbSpline
 62
7
  6
CONTINUOUS
 70
0
 71
3
 72
10
 73
6
 74
0
 42
0.0000001
 43
0.0000001
 44
0.0000000001
 40
0.0
 40
0.0
 40
0.0
 40
0.0
 40
0.3429794495
 40
0.633921498
 40
1.0
 40
1.0
 40
1.0
 40
1.0
 10
41.598092999
 20
64.2993539666
 30
0.0
 10
41.598092999
 20
64.4304940462
 30
0.0
 10
41.8354921271
 20
64.6141969075
 30
0.0
 10
42.162854137
 20
64.7712737898
 30
0.0
 10
42.4023107642
 20
64.8630959721
 30
0.0
 10
42.5342799337
 20
64.909747181
 30
0.0
  0
SPLINE
  5
2C1
100
AcDbEntity
  8
0
100
AcDbSpline
 62
7
  6
CONTINUOUS
 70
0
 71
3
 72
9
 73
5
 74
0
 42
0.0000001
 43
0.0000001
 44
0.0000000001
 40
0.0
 40
0.0
 40
0.0
 40
0.0
 40
0.2306832929
 40
1.0
 40
1.0
 40
1.0
 40
1.0
 10
42.5342799337
 20
64.909747181
 30
0.0
 10
42.6301684182
 20
64.9436438383
 30
0.0
 10
43.0483936443
 20
65.0833715027
 30
0.0
 10
43.4722842748
 20
65.2050738413
 30
0.0
 10
43.798092999
 20
65.2993539666
 30
0.0
  0
LINE
  5
2C2
100
AcDbEntity
  8
0
100
AcDbLine
 62
7
  6
CONTINUOUS
 10
42.9480288208
 20
64.4491142922
 11
42.9842452781
 21
64.7747597815
  0
SPLINE
  5
2C3
100
AcDbEntity
  8
0
100
AcDbSpline
 62
7
  6
CONTINUOUS
 70
0
 71
3
 72
9
 73
5
 74
0
 42
0.0000001
 43
0.0000001
 44
0.0000000001
 40
0.0
 40
0.0
 40
0.0
 40
0.0
 40
0.2632541862
 40
1.0
 40
1.0
 40
1.0
 40
1.0
 10
43.798092999
 20
65.2993539666
 30
0.0
 10
43.7658276646
 20
65.1878529754
 30
0.0
 10
43.643078673
 20
64.7644116966
 30
0.0
 10
43.5166929958
 20
64.3416168291
 30
0.0
 10
43.4084154953
 20
64.0353431694
 30
0.0
  0
SPLINE
  5
2C4
100
AcDbEntity
  8
0
100
AcDbSpline
 62
7
  6
CONTINUOUS
 70
0
 71
3
 72
10
 73
6
 74
0
 42
0.0000001
 43
0.0000001
 44
0.0000000001
 40
0.0
 40
0.0
 40
0.0
 40
0.0
 40
0.3660823663
 40
0.657012926
 40
1.0
 40
1.0
 40
1.0
 40
1.0
 10
43.4084154953
 20
64.0353431694
 30
0.0
 10
43.3617685194
 20
63.903397567
 30
0.0
 10
43.2699582073
 20
63.6639899893
 30
0.0
 10
43.112897649
 20
63.3366869235
 30
0.0
 10
42.9292124698
 20
63.0993539666
 30
0.0
 10
42.798092999
 20
63.0993539666
 30
0.0
  0
ENDSEC
  0
SECTION
  2
OBJECTS
  0
DICTIONARY
  5
C
100
AcDbDictionary
280
0
281
1
  3
ACAD_GROUP
350
D
  3
ACAD_MLINESTYLE
350
17
  3
ACAD_LAYOUT
350
1A
  3
ACAD_PLOTSETTINGS
350
19
  3
ACAD_PLOTSTYLENAME
350
E
  0
DICTIONARY
  5
D
102
{ACAD_REACTORS
330
C
102
}
100
AcDbDictionary
280
0
281
1
  0
ACDBDICTIONARYWDFLT
  5
E
102
{ACAD_REACTORS
330
C
102
}
100
AcDbDictionary
281
1
  3
Normal
350
F
100
AcDbDictionaryWithDefault
340
F
  0
DICTIONARY
  5
17
102
{ACAD_REACTORS
330
C
102
}
100
AcDbDictionary
280
0
281
1
  3
Standard
350
18
  0
DICTIONARY
  5
19
102
{ACAD_REACTORS
330
C
102
}
100
AcDbDictionary
281
1
  0
DICTIONARY
  5
1A
102
{ACAD_REACTORS
330
C
102
}
100
AcDbDictionary
281
1
  3
Model
350
2C5
  3
Layout1
350
2C6
  0
ACDBPLACEHOLDER
  5
F
102
{ACAD_REACTORS
330
E
102
}
  0
MLINESTYLE
  5
18
102
{ACAD_REACTORS
330
17
102
}
100
AcDbMlineStyle
  2
STANDARD
 70
0
  3

 62
256
 51
90.0
 52
90.0
 71
2
 49
0.5
 62
256
  6
BYLAYER
 49
-0.5
 62
256
  6
BYLAYER
  0
LAYOUT
  5
2C5
102
{ACAD_REACTORS
330
1A
102
}
100
AcDbPlotSettings
  1

  2
none_device
  4

  6

 40
0.0
 41
0.0
 42
0.0
 43
0.0
 44
210.0
 45
297.0
 46
0.0
 47
0.0
 48
0.0
 49
0.0
140
0.0
141
0.0
142
1.0
143
1.0
 70
1024
 72
1
 73
0
 74
0
  7

 75
0
147
1.0
148
0.0
149
0.0
100
AcDbLayout
  1
Model
 70
0
 71
0
 10
0.0
 20
0.0
 11
210.0
 21
297.0
 12
0.0
 22
0.0
 32
0.0
 14
0.0
 24
0.0
 34
0.0
 15
0.0
 25
0.0
 35
0.0
146
0.0
 13
0.0
 23
0.0
 33
0.0
 16
1.0
 26
0.0
 36
0.0
 17
0.0
 27
1.0
 37
0.0
 76
0
330
210
345
0
346
0
  0
LAYOUT
  5
2C6
102
{ACAD_REACTORS
330
1A
102
}
100
AcDbPlotSettings
  1

  2
none_device
  4

  6

 40
0.0
 41
0.0
 42
0.0
 43
0.0
 44
210.0
 45
297.0
 46
0.0
 47
0.0
 48
0.0
 49
0.0
140
0.0
141
0.0
142
1.0
143
1.0
 70
0
 72
1
 73
0
 74
0
  7

 75
0
147
1.0
148
0.0
149
0.0
100
AcDbLayout
  1
Layout1
 70
0
 71
1
 10
0.0
 20
0.0
 11
210.0
 21
297.0
 12
0.0
 22
0.0
 32
0.0
 14
0.0
 24
0.0
 34
0.0
 15
0.0
 25
0.0
 35
0.0
146
0.0
 13
0.0
 23
0.0
 33
0.0
 16
1.0
 26
0.0
 36
0.0
 17
0.0
 27
1.0
 37
0.0
 76
0
330
211
345
0
346
0
  0
ENDSEC
  0
EOF
