  0
SECTION
  2
HEADER
  9
$ACADVER
  1
AC1009
  9
$DWGCODEPAGE
  3
ansi_1250
  9
$INSBASE
 10
0.0
 20
0.0
 30
0.0
  9
$EXTMIN
 10
-7.34252
 20
0.0
 30
0.0
  9
$EXTMAX
 10
7.34252
 20
4.082677
 30
0.0
  9
$LIMMIN
 10
0.0
 20
0.0
  9
$LIMMAX
 10
0.0
 20
0.0
  9
$ORTHOMODE
 70
     0
  9
$REGENMODE
 70
     1
  9
$FILLMODE
 70
     1
  9
$QTEXTMODE
 70
     0
  9
$MIRRTEXT
 70
     1
  9
$DRAGMODE
 70
     2
  9
$LTSCALE
 40
1.0
  9
$OSMODE
 70
     0
  9
$ATTMODE
 70
     1
  9
$TEXTSIZE
 40
0.2
  9
$TRACEWID
 40
0.05
  9
$TEXTSTYLE
  7
STANDARD
  9
$CLAYER
  8
0
  9
$CELTYPE
  6
CONTINUOUS
  9
$CECOLOR
 62
   256
  9
$DIMSCALE
 40
1.0
  9
$DIMASZ
 40
0.18
  9
$DIMEXO
 40
0.0625
  9
$DIMDLI
 40
0.38
  9
$DIMRND
 40
0.0
  9
$DIMDLE
 40
0.0
  9
$DIMEXE
 40
0.18
  9
$DIMTP
 40
0.0
  9
$DIMTM
 40
0.0
  9
$DIMTXT
 40
0.18
  9
$DIMCEN
 40
0.09
  9
$DIMTSZ
 40
0.0
  9
$DIMTOL
 70
     0
  9
$DIMLIM
 70
     0
  9
$DIMTIH
 70
     1
  9
$DIMTOH
 70
     1
  9
$DIMSE1
 70
     0
  9
$DIMSE2
 70
     0
  9
$DIMTAD
 70
     0
  9
$DIMZIN
 70
     0
  9
$DIMBLK
  1

  9
$DIMASO
 70
     1
  9
$DIMSHO
 70
     1
  9
$DIMPOST
  1

  9
$DIMAPOST
  1

  9
$DIMALT
 70
     0
  9
$DIMALTD
 70
     2
  9
$DIMALTF
 40
25.4
  9
$DIMLFAC
 40
1.0
  9
$DIMTOFL
 70
     0
  9
$DIMTVP
 40
0.0
  9
$DIMTIX
 70
     0
  9
$DIMSOXD
 70
     0
  9
$DIMSAH
 70
     0
  9
$DIMBLK1
  1

  9
$DIMBLK2
  1

  9
$DIMSTYLE
  2
STANDARD
  9
$DIMCLRD
 70
     0
  9
$DIMCLRE
 70
     0
  9
$DIMCLRT
 70
     0
  9
$DIMTFAC
 40
1.0
  9
$DIMGAP
 40
0.09
  9
$LUNITS
 70
     2
  9
$LUPREC
 70
     4
  9
$AXISMODE
 70
     0
  9
$AXISUNIT
 10
0.0
 20
0.0
  9
$SKETCHINC
 40
0.1
  9
$FILLETRAD
 40
0.0
  9
$AUNITS
 70
     0
  9
$AUPREC
 70
     0
  9
$MENU
  1
acad
  9
$ELEVATION
 40
0.0
  9
$PELEVATION
 40
0.0
  9
$THICKNESS
 40
0.0
  9
$LIMCHECK
 70
     0
  9
$BLIPMODE
 70
     1
  9
$CHAMFERA
 40
0.0
  9
$CHAMFERB
 40
0.0
  9
$SKPOLY
 70
     0
  9
$TDCREATE
 40
0.000000000
  9
$TDUPDATE
 40
0.000000000
  9
$TDINDWG
 40
0.0000000000
  9
$TDUSRTIMER
 40
0.0000000000
  9
$USRTIMER
 70
     1
  9
$ANGBASE
 50
0.0
  9
$ANGDIR
 70
     0
  9
$PDMODE
 70
     0
  9
$PDSIZE
 40
0.0
  9
$PLINEWID
 40
0.0
  9
$COORDS
 70
     0
  9
$SPLFRAME
 70
     0
  9
$SPLINETYPE
 70
     6
  9
$SPLINESEGS
 70
     8
  9
$ATTDIA
 70
     0
  9
$ATTREQ
 70
     1
  9
$HANDLING
 70
     1
  9
$HANDSEED
  5
48B
  9
$SURFTAB1
 70
     6
  9
$SURFTAB2
 70
     6
  9
$SURFTYPE
 70
     6
  9
$SURFU
 70
     6
  9
$SURFV
 70
     6
  9
$UCSNAME
  2

  9
$UCSORG
 10
0.0
 20
0.0
 30
0.0
  9
$UCSXDIR
 10
1.0
 20
0.0
 30
0.0
  9
$UCSYDIR
 10
0.0
 20
1.0
 30
0.0
  9
$PUCSNAME
  2

  9
$PUCSORG
 10
0.0
 20
0.0
 30
0.0
  9
$PUCSXDIR
 10
1.0
 20
0.0
 30
0.0
  9
$PUCSYDIR
 10
0.0
 20
1.0
 30
0.0
  9
$USERI1
 70
     0
  9
$USERI2
 70
     0
  9
$USERI3
 70
     0
  9
$USERI4
 70
     0
  9
$USERI5
 70
     0
  9
$USERR1
 40
0.0
  9
$USERR2
 40
0.0
  9
$USERR3
 40
0.0
  9
$USERR4
 40
0.0
  9
$USERR5
 40
0.0
  9
$WORLDVIEW
 70
     1
  9
$SHADEDGE
 70
     3
  9
$SHADEDIF
 70
    70
  9
$TILEMODE
 70
     1
  9
$MAXACTVP
 70
    16
  9
$PINSBASE
 10
0.0
 20
0.0
 30
0.0
  9
$PLIMCHECK
 70
     0
  9
$PEXTMIN
 10
1.000000E+20
 20
1.000000E+20
 30
1.000000E+20
  9
$PEXTMAX
 10
-1.000000E+20
 20
-1.000000E+20
 30
-1.000000E+20
  9
$PLIMMIN
 10
0.0
 20
0.0
  9
$PLIMMAX
 10
12.0
 20
9.0
  9
$UNITMODE
 70
     0
  9
$VISRETAIN
 70
     0
  9
$PLINEGEN
 70
     1
  9
$PSLTSCALE
 70
     0
  9
$TREEDEPTH
 70
  3020
  0
ENDSEC
  0
SECTION
  2
TABLES
  0
TABLE
  2
VPORT
 70
     1
  0
VPORT
  2
*ACTIVE
 70
     0
 10
0.0
 20
0.0
 11
1.0
 21
1.0
 12
6.591288
 22
4.579184
 13
0.0
 23
0.0
 14
1.0
 24
1.0
 15
0.0
 25
0.0
 16
0.0
 26
0.0
 36
1.0
 17
0.0
 27
0.0
 37
0.0
 40
9.158369
 41
0.688564
 42
50.0
 43
0.0
 44
0.0
 50
0.0
 51
0.0
 71
     0
 72
   100
 73
     1
 74
     1
 75
     0
 76
     0
 77
     0
 78
     0
  0
ENDTAB
  0
TABLE
  2
LTYPE
 70
     5
  0
LTYPE
  2
CONTINUOUS
 70
    64
  3
Solid line
 72
    65
 73
     0
 40
0.0
  0
LTYPE
  2
CENTER
 70
    64
  3
Center ____ _ ____ _ ____ _ ____ _ ____ _ ____
 72
    65
 73
     4
 40
50.8
 49
31.75
 49
-6.35
 49
6.35
 49
-6.35
  0
LTYPE
  2
HIDDEN
 70
    64
  3
Hidden __ __ __ __ __ __ __ __ __ __ __ __ __ __
 72
    65
 73
     2
 40
9.525
 49
6.35
 49
-3.175
  0
LTYPE
  2
CENTER2
 70
    64
  3
Center (.5x) ___ _ ___ _ ___ _ ___ _ ___ _ ___
 72
    65
 73
     4
 40
28.575
 49
19.05
 49
-3.175
 49
3.175
 49
-3.175
  0
LTYPE
  2
HIDDEN2
 70
    64
  3
Hidden (.5x) _ _ _ _ _ _ _ _ _ _ _ _ _ _ _ _ _
 72
    65
 73
     2
 40
4.7625
 49
3.175
 49
-1.5875
  0
ENDTAB
  0
TABLE
  2
LAYER
 70
     1
  0
LAYER
  2
0
 70
     0
 62
     7
  6
CONTINUOUS
  0
ENDTAB
  0
TABLE
  2
STYLE
 70
     1
  0
STYLE
  2
STANDARD
 70
     0
 40
0.0
 41
1.0
 50
0.0
 71
     0
 42
0.0
  3
txt
  4

  0
ENDTAB
  0
TABLE
  2
VIEW
 70
     0
  0
ENDTAB
  0
TABLE
  2
UCS
 70
     0
  0
ENDTAB
  0
TABLE
  2
APPID
 70
     1
  0
APPID
  2
ACAD
 70
     0
  0
ENDTAB
  0
TABLE
  2
DIMSTYLE
 70
     1
  0
DIMSTYLE
  2
STANDARD
 70
     0
  3

  4

  5

  6

  7

 40
1.0
 41
0.18
 42
0.0625
 43
0.38
 44
0.18
 45
0.0
 46
0.0
 47
0.0
 48
0.0
 71
     0
 72
     0
 73
     1
 74
     1
 75
     0
 76
     0
 77
     0
 78
     0
140
0.18
141
0.09
142
0.0
143
25.4
144
1.0
145
0.0
146
1.0
147
0.09
170
     0
171
     2
172
     0
173
     0
174
     0
175
     0
176
     0
177
     0
178
     0
  0
ENDTAB
  0
ENDSEC
  0
SECTION
  2
BLOCKS
  0
ENDSEC
  0
SECTION
  2
ENTITIES
  0
LINE
  8
0
  6
CONTINUOUS
 62
     7
  5
275
 10
-5.378051
 20
3.148819
 30
0.0
 11
-5.299311
 21
3.148819
 31
0.0
  0
LINE
  8
0
  6
CONTINUOUS
 62
     7
  5
276
 10
-5.299311
 20
2.114567
 30
0.0
 11
-5.378051
 21
2.114567
 31
0.0
  0
LINE
  8
0
  6
CONTINUOUS
 62
     7
  5
277
 10
-5.378051
 20
2.114567
 30
0.0
 11
-5.378051
 21
3.148819
 31
0.0
  0
LINE
  8
0
  6
CONTINUOUS
 62
     7
  5
278
 10
-5.299311
 20
3.148819
 30
0.0
 11
-5.299311
 21
2.114567
 31
0.0
  0
ARC
  8
0
  6
CONTINUOUS
 62
     7
  5
279
 10
-5.269783
 20
2.122076
 30
0.0
 40
0.035433
 50
285.0
 51
0.0
  0
LINE
  8
0
  6
CONTINUOUS
 62
     7
  5
27A
 10
-5.260613
 20
2.08785
 30
0.0
 11
-5.398408
 21
2.050928
 31
0.0
  0
ARC
  8
0
  6
CONTINUOUS
 62
     7
  5
27B
 10
-5.407579
 20
2.085154
 30
0.0
 40
0.035433
 50
180.0
 51
285.0
  0
LINE
  8
0
  6
CONTINUOUS
 62
     7
  5
27C
 10
-5.443012
 20
2.085154
 30
0.0
 11
-5.443012
 21
3.178232
 31
0.0
  0
ARC
  8
0
  6
CONTINUOUS
 62
     7
  5
27D
 10
-5.407579
 20
3.178232
 30
0.0
 40
0.035433
 50
75.0
 51
180.0
  0
LINE
  8
0
  6
CONTINUOUS
 62
     7
  5
27E
 10
-5.398408
 20
3.212458
 30
0.0
 11
-5.260613
 21
3.175536
 31
0.0
  0
ARC
  8
0
  6
CONTINUOUS
 62
     7
  5
27F
 10
-5.269783
 20
3.14131
 30
0.0
 40
0.035433
 50
0.0
 51
75.0
  0
LINE
  8
0
  6
CONTINUOUS
 62
     7
  5
280
 10
-5.23435
 20
3.14131
 30
0.0
 11
-5.23435
 21
2.122076
 31
0.0
  0
LINE
  8
0
  6
CONTINUOUS
 62
     7
  5
281
 10
6.897539
 20
2.646063
 30
0.0
 11
6.97628
 21
2.646063
 31
0.0
  0
LINE
  8
0
  6
CONTINUOUS
 62
     7
  5
282
 10
6.97628
 20
1.611811
 30
0.0
 11
6.897539
 21
1.611811
 31
0.0
  0
LINE
  8
0
  6
CONTINUOUS
 62
     7
  5
283
 10
6.897539
 20
1.611811
 30
0.0
 11
6.897539
 21
2.646063
 31
0.0
  0
LINE
  8
0
  6
CONTINUOUS
 62
     7
  5
284
 10
6.97628
 20
2.646063
 30
0.0
 11
6.97628
 21
1.611811
 31
0.0
  0
ARC
  8
0
  6
CONTINUOUS
 62
     7
  5
285
 10
7.005807
 20
1.61932
 30
0.0
 40
0.035433
 50
285.0
 51
0.0
  0
LINE
  8
0
  6
CONTINUOUS
 62
     7
  5
286
 10
7.014978
 20
1.585094
 30
0.0
 11
6.877183
 21
1.548172
 31
0.0
  0
ARC
  8
0
  6
CONTINUOUS
 62
     7
  5
287
 10
6.868012
 20
1.582398
 30
0.0
 40
0.035433
 50
180.0
 51
285.0
  0
LINE
  8
0
  6
CONTINUOUS
 62
     7
  5
288
 10
6.832579
 20
1.582398
 30
0.0
 11
6.832579
 21
2.675476
 31
0.0
  0
ARC
  8
0
  6
CONTINUOUS
 62
     7
  5
289
 10
6.868012
 20
2.675476
 30
0.0
 40
0.035433
 50
75.0
 51
180.0
  0
LINE
  8
0
  6
CONTINUOUS
 62
     7
  5
28A
 10
6.877183
 20
2.709702
 30
0.0
 11
7.014978
 21
2.67278
 31
0.0
  0
ARC
  8
0
  6
CONTINUOUS
 62
     7
  5
28B
 10
7.005807
 20
2.638554
 30
0.0
 40
0.035433
 50
0.0
 51
75.0
  0
LINE
  8
0
  6
CONTINUOUS
 62
     7
  5
28C
 10
7.04124
 20
2.638554
 30
0.0
 11
7.04124
 21
1.61932
 31
0.0
  0
LINE
  8
0
  6
CONTINUOUS
 62
     7
  5
28D
 10
-4.661502
 20
3.148819
 30
0.0
 11
-4.582762
 21
3.148819
 31
0.0
  0
LINE
  8
0
  6
CONTINUOUS
 62
     7
  5
28E
 10
-4.582762
 20
2.114567
 30
0.0
 11
-4.661502
 21
2.114567
 31
0.0
  0
LINE
  8
0
  6
CONTINUOUS
 62
     7
  5
28F
 10
-4.661502
 20
2.114567
 30
0.0
 11
-4.661502
 21
3.148819
 31
0.0
  0
LINE
  8
0
  6
CONTINUOUS
 62
     7
  5
290
 10
-4.582762
 20
3.148819
 30
0.0
 11
-4.582762
 21
2.114567
 31
0.0
  0
ARC
  8
0
  6
CONTINUOUS
 62
     7
  5
291
 10
-4.553234
 20
2.122076
 30
0.0
 40
0.035433
 50
285.0
 51
0.0
  0
LINE
  8
0
  6
CONTINUOUS
 62
     7
  5
292
 10
-4.544063
 20
2.08785
 30
0.0
 11
-4.681859
 21
2.050928
 31
0.0
  0
ARC
  8
0
  6
CONTINUOUS
 62
     7
  5
293
 10
-4.69103
 20
2.085154
 30
0.0
 40
0.035433
 50
180.0
 51
285.0
  0
LINE
  8
0
  6
CONTINUOUS
 62
     7
  5
294
 10
-4.726463
 20
2.085154
 30
0.0
 11
-4.726463
 21
3.178232
 31
0.0
  0
ARC
  8
0
  6
CONTINUOUS
 62
     7
  5
295
 10
-4.69103
 20
3.178232
 30
0.0
 40
0.035433
 50
75.0
 51
180.0
  0
LINE
  8
0
  6
CONTINUOUS
 62
     7
  5
296
 10
-4.681859
 20
3.212458
 30
0.0
 11
-4.544063
 21
3.175536
 31
0.0
  0
ARC
  8
0
  6
CONTINUOUS
 62
     7
  5
297
 10
-4.553234
 20
3.14131
 30
0.0
 40
0.035433
 50
0.0
 51
75.0
  0
LINE
  8
0
  6
CONTINUOUS
 62
     7
  5
298
 10
-4.517801
 20
3.14131
 30
0.0
 11
-4.517801
 21
2.122076
 31
0.0
  0
LINE
  8
0
  6
CONTINUOUS
 62
     7
  5
299
 10
-3.378037
 20
3.148819
 30
0.0
 11
-3.299297
 21
3.148819
 31
0.0
  0
LINE
  8
0
  6
CONTINUOUS
 62
     7
  5
29A
 10
-3.299297
 20
2.114567
 30
0.0
 11
-3.378037
 21
2.114567
 31
0.0
  0
LINE
  8
0
  6
CONTINUOUS
 62
     7
  5
29B
 10
-3.378037
 20
2.114567
 30
0.0
 11
-3.378037
 21
3.148819
 31
0.0
  0
LINE
  8
0
  6
CONTINUOUS
 62
     7
  5
29C
 10
-3.299297
 20
3.148819
 30
0.0
 11
-3.299297
 21
2.114567
 31
0.0
  0
ARC
  8
0
  6
CONTINUOUS
 62
     7
  5
29D
 10
-3.26977
 20
2.122076
 30
0.0
 40
0.035433
 50
285.0
 51
0.0
  0
LINE
  8
0
  6
CONTINUOUS
 62
     7
  5
29E
 10
-3.260599
 20
2.08785
 30
0.0
 11
-3.398394
 21
2.050928
 31
0.0
  0
ARC
  8
0
  6
CONTINUOUS
 62
     7
  5
29F
 10
-3.407565
 20
2.085154
 30
0.0
 40
0.035433
 50
180.0
 51
285.0
  0
LINE
  8
0
  6
CONTINUOUS
 62
     7
  5
2A0
 10
-3.442998
 20
2.085154
 30
0.0
 11
-3.442998
 21
3.178232
 31
0.0
  0
ARC
  8
0
  6
CONTINUOUS
 62
     7
  5
2A1
 10
-3.407565
 20
3.178232
 30
0.0
 40
0.035433
 50
75.0
 51
180.0
  0
LINE
  8
0
  6
CONTINUOUS
 62
     7
  5
2A2
 10
-3.398394
 20
3.212458
 30
0.0
 11
-3.260599
 21
3.175536
 31
0.0
  0
ARC
  8
0
  6
CONTINUOUS
 62
     7
  5
2A3
 10
-3.26977
 20
3.14131
 30
0.0
 40
0.035433
 50
0.0
 51
75.0
  0
LINE
  8
0
  6
CONTINUOUS
 62
     7
  5
2A4
 10
-3.234337
 20
3.14131
 30
0.0
 11
-3.234337
 21
2.122076
 31
0.0
  0
LINE
  8
0
  6
CONTINUOUS
 62
     7
  5
2A5
 10
-2.094573
 20
3.148819
 30
0.0
 11
-2.015833
 21
3.148819
 31
0.0
  0
LINE
  8
0
  6
CONTINUOUS
 62
     7
  5
2A6
 10
-2.015833
 20
2.114567
 30
0.0
 11
-2.094573
 21
2.114567
 31
0.0
  0
LINE
  8
0
  6
CONTINUOUS
 62
     7
  5
2A7
 10
-2.094573
 20
2.114567
 30
0.0
 11
-2.094573
 21
3.148819
 31
0.0
  0
LINE
  8
0
  6
CONTINUOUS
 62
     7
  5
2A8
 10
-2.015833
 20
3.148819
 30
0.0
 11
-2.015833
 21
2.114567
 31
0.0
  0
ARC
  8
0
  6
CONTINUOUS
 62
     7
  5
2A9
 10
-1.986305
 20
2.122076
 30
0.0
 40
0.035433
 50
285.0
 51
0.0
  0
LINE
  8
0
  6
CONTINUOUS
 62
     7
  5
2AA
 10
-1.977134
 20
2.08785
 30
0.0
 11
-2.11493
 21
2.050928
 31
0.0
  0
ARC
  8
0
  6
CONTINUOUS
 62
     7
  5
2AB
 10
-2.1241
 20
2.085154
 30
0.0
 40
0.035433
 50
180.0
 51
285.0
  0
LINE
  8
0
  6
CONTINUOUS
 62
     7
  5
2AC
 10
-2.159533
 20
2.085154
 30
0.0
 11
-2.159533
 21
3.178232
 31
0.0
  0
ARC
  8
0
  6
CONTINUOUS
 62
     7
  5
2AD
 10
-2.1241
 20
3.178232
 30
0.0
 40
0.035433
 50
75.0
 51
180.0
  0
LINE
  8
0
  6
CONTINUOUS
 62
     7
  5
2AE
 10
-2.11493
 20
3.212458
 30
0.0
 11
-1.977134
 21
3.175536
 31
0.0
  0
ARC
  8
0
  6
CONTINUOUS
 62
     7
  5
2AF
 10
-1.986305
 20
3.14131
 30
0.0
 40
0.035433
 50
0.0
 51
75.0
  0
LINE
  8
0
  6
CONTINUOUS
 62
     7
  5
2B0
 10
-1.950872
 20
3.14131
 30
0.0
 11
-1.950872
 21
2.122076
 31
0.0
  0
LINE
  8
0
  6
CONTINUOUS
 62
     7
  5
2B1
 10
-0.811108
 20
3.148819
 30
0.0
 11
-0.732368
 21
3.148819
 31
0.0
  0
LINE
  8
0
  6
CONTINUOUS
 62
     7
  5
2B2
 10
-0.732368
 20
2.114567
 30
0.0
 11
-0.811108
 21
2.114567
 31
0.0
  0
LINE
  8
0
  6
CONTINUOUS
 62
     7
  5
2B3
 10
-0.811108
 20
2.114567
 30
0.0
 11
-0.811108
 21
3.148819
 31
0.0
  0
LINE
  8
0
  6
CONTINUOUS
 62
     7
  5
2B4
 10
-0.732368
 20
3.148819
 30
0.0
 11
-0.732368
 21
2.114567
 31
0.0
  0
ARC
  8
0
  6
CONTINUOUS
 62
     7
  5
2B5
 10
-0.702841
 20
2.122076
 30
0.0
 40
0.035433
 50
285.0
 51
0.0
  0
LINE
  8
0
  6
CONTINUOUS
 62
     7
  5
2B6
 10
-0.69367
 20
2.08785
 30
0.0
 11
-0.831465
 21
2.050928
 31
0.0
  0
ARC
  8
0
  6
CONTINUOUS
 62
     7
  5
2B7
 10
-0.840636
 20
2.085154
 30
0.0
 40
0.035433
 50
180.0
 51
285.0
  0
LINE
  8
0
  6
CONTINUOUS
 62
     7
  5
2B8
 10
-0.876069
 20
2.085154
 30
0.0
 11
-0.876069
 21
3.178232
 31
0.0
  0
ARC
  8
0
  6
CONTINUOUS
 62
     7
  5
2B9
 10
-0.840636
 20
3.178232
 30
0.0
 40
0.035433
 50
75.0
 51
180.0
  0
LINE
  8
0
  6
CONTINUOUS
 62
     7
  5
2BA
 10
-0.831465
 20
3.212458
 30
0.0
 11
-0.69367
 21
3.175536
 31
0.0
  0
ARC
  8
0
  6
CONTINUOUS
 62
     7
  5
2BB
 10
-0.702841
 20
3.14131
 30
0.0
 40
0.035433
 50
0.0
 51
75.0
  0
LINE
  8
0
  6
CONTINUOUS
 62
     7
  5
2BC
 10
-0.667407
 20
3.14131
 30
0.0
 11
-0.667407
 21
2.122076
 31
0.0
  0
LINE
  8
0
  6
CONTINUOUS
 62
     7
  5
2BD
 10
0.472356
 20
3.148819
 30
0.0
 11
0.551096
 21
3.148819
 31
0.0
  0
LINE
  8
0
  6
CONTINUOUS
 62
     7
  5
2BE
 10
0.551096
 20
2.114567
 30
0.0
 11
0.472356
 21
2.114567
 31
0.0
  0
LINE
  8
0
  6
CONTINUOUS
 62
     7
  5
2BF
 10
0.472356
 20
2.114567
 30
0.0
 11
0.472356
 21
3.148819
 31
0.0
  0
LINE
  8
0
  6
CONTINUOUS
 62
     7
  5
2C0
 10
0.551096
 20
3.148819
 30
0.0
 11
0.551096
 21
2.114567
 31
0.0
  0
ARC
  8
0
  6
CONTINUOUS
 62
     7
  5
2C1
 10
0.580624
 20
2.122076
 30
0.0
 40
0.035433
 50
285.0
 51
0.0
  0
LINE
  8
0
  6
CONTINUOUS
 62
     7
  5
2C2
 10
0.589795
 20
2.08785
 30
0.0
 11
0.451999
 21
2.050928
 31
0.0
  0
ARC
  8
0
  6
CONTINUOUS
 62
     7
  5
2C3
 10
0.442829
 20
2.085154
 30
0.0
 40
0.035433
 50
180.0
 51
285.0
  0
LINE
  8
0
  6
CONTINUOUS
 62
     7
  5
2C4
 10
0.407396
 20
2.085154
 30
0.0
 11
0.407396
 21
3.178232
 31
0.0
  0
ARC
  8
0
  6
CONTINUOUS
 62
     7
  5
2C5
 10
0.442829
 20
3.178232
 30
0.0
 40
0.035433
 50
75.0
 51
180.0
  0
LINE
  8
0
  6
CONTINUOUS
 62
     7
  5
2C6
 10
0.451999
 20
3.212458
 30
0.0
 11
0.589795
 21
3.175536
 31
0.0
  0
ARC
  8
0
  6
CONTINUOUS
 62
     7
  5
2C7
 10
0.580624
 20
3.14131
 30
0.0
 40
0.035433
 50
0.0
 51
75.0
  0
LINE
  8
0
  6
CONTINUOUS
 62
     7
  5
2C8
 10
0.616057
 20
3.14131
 30
0.0
 11
0.616057
 21
2.122076
 31
0.0
  0
LINE
  8
0
  6
CONTINUOUS
 62
     7
  5
2C9
 10
1.755821
 20
3.148819
 30
0.0
 11
1.834561
 21
3.148819
 31
0.0
  0
LINE
  8
0
  6
CONTINUOUS
 62
     7
  5
2CA
 10
1.834561
 20
2.114567
 30
0.0
 11
1.755821
 21
2.114567
 31
0.0
  0
LINE
  8
0
  6
CONTINUOUS
 62
     7
  5
2CB
 10
1.755821
 20
2.114567
 30
0.0
 11
1.755821
 21
3.148819
 31
0.0
  0
LINE
  8
0
  6
CONTINUOUS
 62
     7
  5
2CC
 10
1.834561
 20
3.148819
 30
0.0
 11
1.834561
 21
2.114567
 31
0.0
  0
ARC
  8
0
  6
CONTINUOUS
 62
     7
  5
2CD
 10
1.864089
 20
2.122076
 30
0.0
 40
0.035433
 50
285.0
 51
0.0
  0
LINE
  8
0
  6
CONTINUOUS
 62
     7
  5
2CE
 10
1.873259
 20
2.08785
 30
0.0
 11
1.735464
 21
2.050928
 31
0.0
  0
ARC
  8
0
  6
CONTINUOUS
 62
     7
  5
2CF
 10
1.726293
 20
2.085154
 30
0.0
 40
0.035433
 50
180.0
 51
285.0
  0
LINE
  8
0
  6
CONTINUOUS
 62
     7
  5
2D0
 10
1.69086
 20
2.085154
 30
0.0
 11
1.69086
 21
3.178232
 31
0.0
  0
ARC
  8
0
  6
CONTINUOUS
 62
     7
  5
2D1
 10
1.726293
 20
3.178232
 30
0.0
 40
0.035433
 50
75.0
 51
180.0
  0
LINE
  8
0
  6
CONTINUOUS
 62
     7
  5
2D2
 10
1.735464
 20
3.212458
 30
0.0
 11
1.873259
 21
3.175536
 31
0.0
  0
ARC
  8
0
  6
CONTINUOUS
 62
     7
  5
2D3
 10
1.864089
 20
3.14131
 30
0.0
 40
0.035433
 50
0.0
 51
75.0
  0
LINE
  8
0
  6
CONTINUOUS
 62
     7
  5
2D4
 10
1.899522
 20
3.14131
 30
0.0
 11
1.899522
 21
2.122076
 31
0.0
  0
LINE
  8
0
  6
CONTINUOUS
 62
     7
  5
2D5
 10
3.039285
 20
3.148819
 30
0.0
 11
3.118026
 21
3.148819
 31
0.0
  0
LINE
  8
0
  6
CONTINUOUS
 62
     7
  5
2D6
 10
3.118026
 20
2.114567
 30
0.0
 11
3.039285
 21
2.114567
 31
0.0
  0
LINE
  8
0
  6
CONTINUOUS
 62
     7
  5
2D7
 10
3.039285
 20
2.114567
 30
0.0
 11
3.039285
 21
3.148819
 31
0.0
  0
LINE
  8
0
  6
CONTINUOUS
 62
     7
  5
2D8
 10
3.118026
 20
3.148819
 30
0.0
 11
3.118026
 21
2.114567
 31
0.0
  0
ARC
  8
0
  6
CONTINUOUS
 62
     7
  5
2D9
 10
3.147553
 20
2.122076
 30
0.0
 40
0.035433
 50
285.0
 51
0.0
  0
LINE
  8
0
  6
CONTINUOUS
 62
     7
  5
2DA
 10
3.156724
 20
2.08785
 30
0.0
 11
3.018929
 21
2.050928
 31
0.0
  0
ARC
  8
0
  6
CONTINUOUS
 62
     7
  5
2DB
 10
3.009758
 20
2.085154
 30
0.0
 40
0.035433
 50
180.0
 51
285.0
  0
LINE
  8
0
  6
CONTINUOUS
 62
     7
  5
2DC
 10
2.974325
 20
2.085154
 30
0.0
 11
2.974325
 21
3.178232
 31
0.0
  0
ARC
  8
0
  6
CONTINUOUS
 62
     7
  5
2DD
 10
3.009758
 20
3.178232
 30
0.0
 40
0.035433
 50
75.0
 51
180.0
  0
LINE
  8
0
  6
CONTINUOUS
 62
     7
  5
2DE
 10
3.018929
 20
3.212458
 30
0.0
 11
3.156724
 21
3.175536
 31
0.0
  0
ARC
  8
0
  6
CONTINUOUS
 62
     7
  5
2DF
 10
3.147553
 20
3.14131
 30
0.0
 40
0.035433
 50
0.0
 51
75.0
  0
LINE
  8
0
  6
CONTINUOUS
 62
     7
  5
2E0
 10
3.182986
 20
3.14131
 30
0.0
 11
3.182986
 21
2.122076
 31
0.0
  0
LINE
  8
0
  6
CONTINUOUS
 62
     7
  5
2E1
 10
4.32275
 20
3.148819
 30
0.0
 11
4.40149
 21
3.148819
 31
0.0
  0
LINE
  8
0
  6
CONTINUOUS
 62
     7
  5
2E2
 10
4.40149
 20
2.114567
 30
0.0
 11
4.32275
 21
2.114567
 31
0.0
  0
LINE
  8
0
  6
CONTINUOUS
 62
     7
  5
2E3
 10
4.32275
 20
2.114567
 30
0.0
 11
4.32275
 21
3.148819
 31
0.0
  0
LINE
  8
0
  6
CONTINUOUS
 62
     7
  5
2E4
 10
4.40149
 20
3.148819
 30
0.0
 11
4.40149
 21
2.114567
 31
0.0
  0
ARC
  8
0
  6
CONTINUOUS
 62
     7
  5
2E5
 10
4.431018
 20
2.122076
 30
0.0
 40
0.035433
 50
285.0
 51
0.0
  0
LINE
  8
0
  6
CONTINUOUS
 62
     7
  5
2E6
 10
4.440188
 20
2.08785
 30
0.0
 11
4.302393
 21
2.050928
 31
0.0
  0
ARC
  8
0
  6
CONTINUOUS
 62
     7
  5
2E7
 10
4.293222
 20
2.085154
 30
0.0
 40
0.035433
 50
180.0
 51
285.0
  0
LINE
  8
0
  6
CONTINUOUS
 62
     7
  5
2E8
 10
4.257789
 20
2.085154
 30
0.0
 11
4.257789
 21
3.178232
 31
0.0
  0
ARC
  8
0
  6
CONTINUOUS
 62
     7
  5
2E9
 10
4.293222
 20
3.178232
 30
0.0
 40
0.035433
 50
75.0
 51
180.0
  0
LINE
  8
0
  6
CONTINUOUS
 62
     7
  5
2EA
 10
4.302393
 20
3.212458
 30
0.0
 11
4.440188
 21
3.175536
 31
0.0
  0
ARC
  8
0
  6
CONTINUOUS
 62
     7
  5
2EB
 10
4.431018
 20
3.14131
 30
0.0
 40
0.035433
 50
0.0
 51
75.0
  0
LINE
  8
0
  6
CONTINUOUS
 62
     7
  5
2EC
 10
4.466451
 20
3.14131
 30
0.0
 11
4.466451
 21
2.122076
 31
0.0
  0
LINE
  8
0
  6
CONTINUOUS
 62
     7
  5
2ED
 10
5.606215
 20
3.148819
 30
0.0
 11
5.684955
 21
3.148819
 31
0.0
  0
LINE
  8
0
  6
CONTINUOUS
 62
     7
  5
2EE
 10
5.684955
 20
2.114567
 30
0.0
 11
5.606215
 21
2.114567
 31
0.0
  0
LINE
  8
0
  6
CONTINUOUS
 62
     7
  5
2EF
 10
5.606215
 20
2.114567
 30
0.0
 11
5.606215
 21
3.148819
 31
0.0
  0
LINE
  8
0
  6
CONTINUOUS
 62
     7
  5
2F0
 10
5.684955
 20
3.148819
 30
0.0
 11
5.684955
 21
2.114567
 31
0.0
  0
ARC
  8
0
  6
CONTINUOUS
 62
     7
  5
2F1
 10
5.714482
 20
2.122076
 30
0.0
 40
0.035433
 50
285.0
 51
0.0
  0
LINE
  8
0
  6
CONTINUOUS
 62
     7
  5
2F2
 10
5.723653
 20
2.08785
 30
0.0
 11
5.585858
 21
2.050928
 31
0.0
  0
ARC
  8
0
  6
CONTINUOUS
 62
     7
  5
2F3
 10
5.576687
 20
2.085154
 30
0.0
 40
0.035433
 50
180.0
 51
285.0
  0
LINE
  8
0
  6
CONTINUOUS
 62
     7
  5
2F4
 10
5.541254
 20
2.085154
 30
0.0
 11
5.541254
 21
3.178232
 31
0.0
  0
ARC
  8
0
  6
CONTINUOUS
 62
     7
  5
2F5
 10
5.576687
 20
3.178232
 30
0.0
 40
0.035433
 50
75.0
 51
180.0
  0
LINE
  8
0
  6
CONTINUOUS
 62
     7
  5
2F6
 10
5.585858
 20
3.212458
 30
0.0
 11
5.723653
 21
3.175536
 31
0.0
  0
ARC
  8
0
  6
CONTINUOUS
 62
     7
  5
2F7
 10
5.714482
 20
3.14131
 30
0.0
 40
0.035433
 50
0.0
 51
75.0
  0
LINE
  8
0
  6
CONTINUOUS
 62
     7
  5
2F8
 10
5.749915
 20
3.14131
 30
0.0
 11
5.749915
 21
2.122076
 31
0.0
  0
LINE
  8
0
  6
CONTINUOUS
 62
     7
  5
2F9
 10
5.80315
 20
3.403543
 30
0.0
 11
5.80315
 21
1.866929
 31
0.0
  0
LINE
  8
0
  6
CONTINUOUS
 62
     7
  5
2FA
 10
5.80315
 20
1.866929
 30
0.0
 11
5.488189
 21
1.866929
 31
0.0
  0
LINE
  8
0
  6
CONTINUOUS
 62
     7
  5
2FB
 10
5.488189
 20
1.866929
 30
0.0
 11
5.488189
 21
3.403543
 31
0.0
  0
LINE
  8
0
  6
CONTINUOUS
 62
     7
  5
2FC
 10
5.488189
 20
3.403543
 30
0.0
 11
5.80315
 21
3.403543
 31
0.0
  0
LINE
  8
0
  6
CONTINUOUS
 62
     7
  5
2FD
 10
5.80315
 20
3.403543
 30
0.0
 11
5.911417
 21
3.403543
 31
0.0
  0
LINE
  8
0
  6
CONTINUOUS
 62
     7
  5
2FE
 10
-6.147638
 20
3.403543
 30
0.0
 11
-5.496063
 21
3.403543
 31
0.0
  0
LINE
  8
0
  6
CONTINUOUS
 62
     7
  5
2FF
 10
-5.496063
 20
3.403543
 30
0.0
 11
-5.181102
 21
3.403543
 31
0.0
  0
LINE
  8
0
  6
CONTINUOUS
 62
     7
  5
300
 10
-5.181102
 20
3.403543
 30
0.0
 11
-4.779528
 21
3.403543
 31
0.0
  0
LINE
  8
0
  6
CONTINUOUS
 62
     7
  5
301
 10
-4.779528
 20
3.403543
 30
0.0
 11
-4.464567
 21
3.403543
 31
0.0
  0
LINE
  8
0
  6
CONTINUOUS
 62
     7
  5
302
 10
-4.464567
 20
3.403543
 30
0.0
 11
-3.496063
 21
3.403543
 31
0.0
  0
LINE
  8
0
  6
CONTINUOUS
 62
     7
  5
303
 10
-3.496063
 20
3.403543
 30
0.0
 11
-3.181102
 21
3.403543
 31
0.0
  0
LINE
  8
0
  6
CONTINUOUS
 62
     7
  5
304
 10
-3.181102
 20
3.403543
 30
0.0
 11
-2.212598
 21
3.403543
 31
0.0
  0
LINE
  8
0
  6
CONTINUOUS
 62
     7
  5
305
 10
-2.212598
 20
3.403543
 30
0.0
 11
-1.897638
 21
3.403543
 31
0.0
  0
LINE
  8
0
  6
CONTINUOUS
 62
     7
  5
306
 10
-1.897638
 20
3.403543
 30
0.0
 11
-0.929134
 21
3.403543
 31
0.0
  0
LINE
  8
0
  6
CONTINUOUS
 62
     7
  5
307
 10
-0.929134
 20
3.403543
 30
0.0
 11
-0.614173
 21
3.403543
 31
0.0
  0
LINE
  8
0
  6
CONTINUOUS
 62
     7
  5
308
 10
-0.614173
 20
3.403543
 30
0.0
 11
0.354331
 21
3.403543
 31
0.0
  0
LINE
  8
0
  6
CONTINUOUS
 62
     7
  5
309
 10
0.354331
 20
3.403543
 30
0.0
 11
0.669291
 21
3.403543
 31
0.0
  0
LINE
  8
0
  6
CONTINUOUS
 62
     7
  5
30A
 10
0.669291
 20
3.403543
 30
0.0
 11
1.637795
 21
3.403543
 31
0.0
  0
LINE
  8
0
  6
CONTINUOUS
 62
     7
  5
30B
 10
1.637795
 20
3.403543
 30
0.0
 11
1.952756
 21
3.403543
 31
0.0
  0
LINE
  8
0
  6
CONTINUOUS
 62
     7
  5
30C
 10
1.952756
 20
3.403543
 30
0.0
 11
2.92126
 21
3.403543
 31
0.0
  0
LINE
  8
0
  6
CONTINUOUS
 62
     7
  5
30D
 10
2.92126
 20
3.403543
 30
0.0
 11
3.23622
 21
3.403543
 31
0.0
  0
LINE
  8
0
  6
CONTINUOUS
 62
     7
  5
30E
 10
3.23622
 20
3.403543
 30
0.0
 11
4.204724
 21
3.403543
 31
0.0
  0
LINE
  8
0
  6
CONTINUOUS
 62
     7
  5
30F
 10
4.204724
 20
3.403543
 30
0.0
 11
4.519685
 21
3.403543
 31
0.0
  0
LINE
  8
0
  6
CONTINUOUS
 62
     7
  5
310
 10
4.519685
 20
3.403543
 30
0.0
 11
5.488189
 21
3.403543
 31
0.0
  0
LINE
  8
0
  6
CONTINUOUS
 62
     7
  5
311
 10
4.519685
 20
3.403543
 30
0.0
 11
4.519685
 21
1.866929
 31
0.0
  0
LINE
  8
0
  6
CONTINUOUS
 62
     7
  5
312
 10
4.519685
 20
1.866929
 30
0.0
 11
4.204724
 21
1.866929
 31
0.0
  0
LINE
  8
0
  6
CONTINUOUS
 62
     7
  5
313
 10
4.204724
 20
1.866929
 30
0.0
 11
4.204724
 21
3.403543
 31
0.0
  0
LINE
  8
0
  6
CONTINUOUS
 62
     7
  5
314
 10
3.23622
 20
3.403543
 30
0.0
 11
3.23622
 21
1.866929
 31
0.0
  0
LINE
  8
0
  6
CONTINUOUS
 62
     7
  5
315
 10
3.23622
 20
1.866929
 30
0.0
 11
2.92126
 21
1.866929
 31
0.0
  0
LINE
  8
0
  6
CONTINUOUS
 62
     7
  5
316
 10
2.92126
 20
1.866929
 30
0.0
 11
2.92126
 21
3.403543
 31
0.0
  0
LINE
  8
0
  6
CONTINUOUS
 62
     7
  5
317
 10
1.952756
 20
3.403543
 30
0.0
 11
1.952756
 21
1.866929
 31
0.0
  0
LINE
  8
0
  6
CONTINUOUS
 62
     7
  5
318
 10
1.952756
 20
1.866929
 30
0.0
 11
1.637795
 21
1.866929
 31
0.0
  0
LINE
  8
0
  6
CONTINUOUS
 62
     7
  5
319
 10
1.637795
 20
1.866929
 30
0.0
 11
1.637795
 21
3.403543
 31
0.0
  0
LINE
  8
0
  6
CONTINUOUS
 62
     7
  5
31A
 10
0.669291
 20
3.403543
 30
0.0
 11
0.669291
 21
1.866929
 31
0.0
  0
LINE
  8
0
  6
CONTINUOUS
 62
     7
  5
31B
 10
0.669291
 20
1.866929
 30
0.0
 11
0.354331
 21
1.866929
 31
0.0
  0
LINE
  8
0
  6
CONTINUOUS
 62
     7
  5
31C
 10
0.354331
 20
1.866929
 30
0.0
 11
0.354331
 21
3.403543
 31
0.0
  0
LINE
  8
0
  6
CONTINUOUS
 62
     7
  5
31D
 10
-0.614173
 20
3.403543
 30
0.0
 11
-0.614173
 21
1.866929
 31
0.0
  0
LINE
  8
0
  6
CONTINUOUS
 62
     7
  5
31E
 10
-0.614173
 20
1.866929
 30
0.0
 11
-0.929134
 21
1.866929
 31
0.0
  0
LINE
  8
0
  6
CONTINUOUS
 62
     7
  5
31F
 10
-0.929134
 20
1.866929
 30
0.0
 11
-0.929134
 21
3.403543
 31
0.0
  0
LINE
  8
0
  6
CONTINUOUS
 62
     7
  5
320
 10
-1.897638
 20
3.403543
 30
0.0
 11
-1.897638
 21
1.866929
 31
0.0
  0
LINE
  8
0
  6
CONTINUOUS
 62
     7
  5
321
 10
-1.897638
 20
1.866929
 30
0.0
 11
-2.212598
 21
1.866929
 31
0.0
  0
LINE
  8
0
  6
CONTINUOUS
 62
     7
  5
322
 10
-2.212598
 20
1.866929
 30
0.0
 11
-2.212598
 21
3.403543
 31
0.0
  0
LINE
  8
0
  6
CONTINUOUS
 62
     7
  5
323
 10
-3.181102
 20
3.403543
 30
0.0
 11
-3.181102
 21
1.866929
 31
0.0
  0
LINE
  8
0
  6
CONTINUOUS
 62
     7
  5
324
 10
-3.181102
 20
1.866929
 30
0.0
 11
-3.496063
 21
1.866929
 31
0.0
  0
LINE
  8
0
  6
CONTINUOUS
 62
     7
  5
325
 10
-3.496063
 20
1.866929
 30
0.0
 11
-3.496063
 21
3.403543
 31
0.0
  0
LINE
  8
0
  6
CONTINUOUS
 62
     7
  5
326
 10
-4.464567
 20
3.403543
 30
0.0
 11
-4.464567
 21
1.866929
 31
0.0
  0
LINE
  8
0
  6
CONTINUOUS
 62
     7
  5
327
 10
-4.464567
 20
1.866929
 30
0.0
 11
-4.779528
 21
1.866929
 31
0.0
  0
LINE
  8
0
  6
CONTINUOUS
 62
     7
  5
328
 10
-4.779528
 20
1.866929
 30
0.0
 11
-4.779528
 21
3.403543
 31
0.0
  0
LINE
  8
0
  6
CONTINUOUS
 62
     7
  5
329
 10
-5.181102
 20
3.403543
 30
0.0
 11
-5.181102
 21
1.866929
 31
0.0
  0
LINE
  8
0
  6
CONTINUOUS
 62
     7
  5
32A
 10
-5.181102
 20
1.866929
 30
0.0
 11
-5.496063
 21
1.866929
 31
0.0
  0
LINE
  8
0
  6
CONTINUOUS
 62
     7
  5
32B
 10
-5.496063
 20
1.866929
 30
0.0
 11
-5.496063
 21
3.403543
 31
0.0
  0
ARC
  8
0
  6
CONTINUOUS
 62
     7
  5
32C
 10
7.096457
 20
2.910236
 30
0.0
 40
0.059055
 50
0.0
 51
90.0
  0
LINE
  8
0
  6
CONTINUOUS
 62
     7
  5
32D
 10
6.75
 20
2.969291
 30
0.0
 11
7.096457
 21
2.969291
 31
0.0
  0
LINE
  8
0
  6
CONTINUOUS
 62
     7
  5
32E
 10
7.096457
 20
1.276378
 30
0.0
 11
6.75
 21
1.276378
 31
0.0
  0
ARC
  8
0
  6
CONTINUOUS
 62
     7
  5
32F
 10
7.096457
 20
1.335433
 30
0.0
 40
0.059055
 50
270.0
 51
360.0
  0
LINE
  8
0
  6
CONTINUOUS
 62
     7
  5
330
 10
7.155512
 20
2.910236
 30
0.0
 11
7.155512
 21
1.335433
 31
0.0
  0
LINE
  8
0
  6
CONTINUOUS
 62
     7
  5
331
 10
6.75
 20
1.276378
 30
0.0
 11
6.75
 21
2.969291
 31
0.0
  0
LINE
  8
0
  6
CONTINUOUS
 62
     7
  5
332
 10
6.75
 20
1.276378
 30
0.0
 11
5.970472
 21
1.276378
 31
0.0
  0
LINE
  8
0
  6
CONTINUOUS
 62
     7
  5
333
 10
5.970472
 20
2.969291
 30
0.0
 11
6.75
 21
2.969291
 31
0.0
  0
LINE
  8
0
  6
CONTINUOUS
 62
     7
  5
334
 10
5.911417
 20
0.751969
 30
0.0
 11
-6.147638
 21
0.751969
 31
0.0
  0
ARC
  8
0
  6
CONTINUOUS
 62
     7
  5
335
 10
-6.147638
 20
0.811024
 30
0.0
 40
0.059055
 50
180.0
 51
270.0
  0
LINE
  8
0
  6
CONTINUOUS
 62
     7
  5
336
 10
-6.206693
 20
0.811024
 30
0.0
 11
-6.206693
 21
3.344488
 31
0.0
  0
ARC
  8
0
  6
CONTINUOUS
 62
     7
  5
337
 10
-6.147638
 20
3.344488
 30
0.0
 40
0.059055
 50
90.0
 51
180.0
  0
ARC
  8
0
  6
CONTINUOUS
 62
     7
  5
338
 10
5.911417
 20
3.344488
 30
0.0
 40
0.059055
 50
0.0
 51
90.0
  0
LINE
  8
0
  6
CONTINUOUS
 62
     7
  5
339
 10
5.970472
 20
3.344488
 30
0.0
 11
5.970472
 21
0.811024
 31
0.0
  0
ARC
  8
0
  6
CONTINUOUS
 62
     7
  5
33A
 10
5.911417
 20
0.811024
 30
0.0
 40
0.059055
 50
270.0
 51
360.0
  0
LINE
  8
0
  6
CONTINUOUS
 62
     7
  5
33B
 10
6.261417
 20
0.020866
 30
0.0
 11
6.261417
 21
0.11811
 31
0.0
  0
LINE
  8
0
  6
CONTINUOUS
 62
     7
  5
33C
 10
6.261417
 20
0.0
 30
0.0
 11
6.261417
 21
0.020866
 31
0.0
  0
LINE
  8
0
  6
CONTINUOUS
 62
     7
  5
33D
 10
6.261417
 20
0.11811
 30
0.0
 11
6.556693
 21
0.11811
 31
0.0
  0
LINE
  8
0
  6
CONTINUOUS
 62
     7
  5
33E
 10
6.556693
 20
0.020866
 30
0.0
 11
6.556693
 21
0.0
 31
0.0
  0
LINE
  8
0
  6
CONTINUOUS
 62
     7
  5
33F
 10
6.556693
 20
0.11811
 30
0.0
 11
6.556693
 21
0.020866
 31
0.0
  0
LINE
  8
0
  6
CONTINUOUS
 62
     7
  5
340
 10
0.0
 20
0.0
 30
0.0
 11
6.261417
 21
0.0
 31
0.0
  0
LINE
  8
0
  6
CONTINUOUS
 62
     7
  5
341
 10
6.261417
 20
0.020866
 30
0.0
 11
-7.30315
 21
0.020866
 31
0.0
  0
LINE
  8
0
  6
CONTINUOUS
 62
     7
  5
342
 10
-7.30315
 20
0.0
 30
0.0
 11
0.0
 21
0.0
 31
0.0
  0
LINE
  8
0
  6
CONTINUOUS
 62
     7
  5
343
 10
-7.34252
 20
0.629921
 30
0.0
 11
-7.34252
 21
0.03937
 31
0.0
  0
LINE
  8
0
  6
CONTINUOUS
 62
     7
  5
344
 10
-7.34252
 20
1.259843
 30
0.0
 11
-7.34252
 21
0.629921
 31
0.0
  0
LINE
  8
0
  6
CONTINUOUS
 62
     7
  5
345
 10
-7.34252
 20
2.992126
 30
0.0
 11
-7.34252
 21
1.259843
 31
0.0
  0
LINE
  8
0
  6
CONTINUOUS
 62
     7
  5
346
 10
-7.34252
 20
3.622047
 30
0.0
 11
-7.34252
 21
2.992126
 31
0.0
  0
LINE
  8
0
  6
CONTINUOUS
 62
     7
  5
347
 10
-7.34252
 20
3.897638
 30
0.0
 11
-7.34252
 21
3.622047
 31
0.0
  0
CIRCLE
  8
0
  6
CONTINUOUS
 62
     7
  5
348
 10
6.405512
 20
3.307087
 30
0.0
 40
0.227303
  0
CIRCLE
  8
0
  6
CONTINUOUS
 62
     7
  5
349
 10
6.405512
 20
0.944882
 30
0.0
 40
0.227303
  0
CIRCLE
  8
0
  6
CONTINUOUS
 62
     7
  5
34A
 10
-6.901575
 20
3.307087
 30
0.0
 40
0.227303
  0
CIRCLE
  8
0
  6
CONTINUOUS
 62
     7
  5
34B
 10
-6.901575
 20
0.944882
 30
0.0
 40
0.227303
  0
ARC
  8
0
  6
CONTINUOUS
 62
     7
  5
34C
 10
6.805118
 20
1.28622
 30
0.0
 40
0.059055
 50
219.944505
 51
270.0
  0
LINE
  8
0
  6
CONTINUOUS
 62
     7
  5
34D
 10
7.176378
 20
1.227165
 30
0.0
 11
6.805118
 21
1.227165
 31
0.0
  0
ARC
  8
0
  6
CONTINUOUS
 62
     7
  5
34E
 10
6.805118
 20
2.97126
 30
0.0
 40
0.059055
 50
90.0
 51
140.055495
  0
LINE
  8
0
  6
CONTINUOUS
 62
     7
  5
34F
 10
6.805118
 20
3.030315
 30
0.0
 11
7.176378
 21
3.030315
 31
0.0
  0
ARC
  8
0
  6
CONTINUOUS
 62
     7
  5
350
 10
7.176378
 20
2.97126
 30
0.0
 40
0.059055
 50
0.0
 51
90.0
  0
LINE
  8
0
  6
CONTINUOUS
 62
     7
  5
351
 10
7.235433
 20
2.97126
 30
0.0
 11
7.235433
 21
1.28622
 31
0.0
  0
ARC
  8
0
  6
CONTINUOUS
 62
     7
  5
352
 10
7.176378
 20
1.28622
 30
0.0
 40
0.059055
 50
270.0
 51
360.0
  0
LINE
  8
0
  6
CONTINUOUS
 62
     7
  5
353
 10
7.30315
 20
0.020866
 30
0.0
 11
6.556693
 21
0.020866
 31
0.0
  0
ARC
  8
0
  6
CONTINUOUS
 62
     7
  5
354
 10
7.30315
 20
0.03937
 30
0.0
 40
0.018504
 50
270.0
 51
360.0
  0
LINE
  8
0
  6
CONTINUOUS
 62
     7
  5
355
 10
7.321653
 20
3.897638
 30
0.0
 11
7.321653
 21
0.03937
 31
0.0
  0
ARC
  8
0
  6
CONTINUOUS
 62
     7
  5
356
 10
7.30315
 20
3.897638
 30
0.0
 40
0.018504
 50
0.0
 51
90.0
  0
LINE
  8
0
  6
CONTINUOUS
 62
     7
  5
357
 10
6.978758
 20
3.916141
 30
0.0
 11
7.30315
 21
3.916141
 31
0.0
  0
LINE
  8
0
  6
CONTINUOUS
 62
     7
  5
358
 10
6.85004
 20
4.04486
 30
0.0
 11
6.978758
 21
3.916141
 31
0.0
  0
ARC
  8
0
  6
CONTINUOUS
 62
     7
  5
359
 10
6.809117
 20
4.003937
 30
0.0
 40
0.057874
 50
45.0
 51
90.0
  0
LINE
  8
0
  6
CONTINUOUS
 62
     7
  5
35A
 10
6.693245
 20
4.061811
 30
0.0
 11
6.809117
 21
4.061811
 31
0.0
  0
ARC
  8
0
  6
CONTINUOUS
 62
     7
  5
35B
 10
6.693245
 20
4.003937
 30
0.0
 40
0.057874
 50
90.0
 51
135.0
  0
LINE
  8
0
  6
CONTINUOUS
 62
     7
  5
35C
 10
6.523604
 20
3.916141
 30
0.0
 11
6.652322
 21
4.04486
 31
0.0
  0
LINE
  8
0
  6
CONTINUOUS
 62
     7
  5
35D
 10
5.695294
 20
3.916141
 30
0.0
 11
6.523604
 21
3.916141
 31
0.0
  0
LINE
  8
0
  6
CONTINUOUS
 62
     7
  5
35E
 10
5.566575
 20
4.04486
 30
0.0
 11
5.695294
 21
3.916141
 31
0.0
  0
ARC
  8
0
  6
CONTINUOUS
 62
     7
  5
35F
 10
5.525652
 20
4.003937
 30
0.0
 40
0.057874
 50
45.0
 51
90.0
  0
LINE
  8
0
  6
CONTINUOUS
 62
     7
  5
360
 10
5.409781
 20
4.061811
 30
0.0
 11
5.525652
 21
4.061811
 31
0.0
  0
ARC
  8
0
  6
CONTINUOUS
 62
     7
  5
361
 10
5.409781
 20
4.003937
 30
0.0
 40
0.057874
 50
90.0
 51
135.0
  0
LINE
  8
0
  6
CONTINUOUS
 62
     7
  5
362
 10
5.240139
 20
3.916141
 30
0.0
 11
5.368858
 21
4.04486
 31
0.0
  0
LINE
  8
0
  6
CONTINUOUS
 62
     7
  5
363
 10
4.411829
 20
3.916141
 30
0.0
 11
5.240139
 21
3.916141
 31
0.0
  0
LINE
  8
0
  6
CONTINUOUS
 62
     7
  5
364
 10
4.283111
 20
4.04486
 30
0.0
 11
4.411829
 21
3.916141
 31
0.0
  0
ARC
  8
0
  6
CONTINUOUS
 62
     7
  5
365
 10
4.242188
 20
4.003937
 30
0.0
 40
0.057874
 50
45.0
 51
90.0
  0
LINE
  8
0
  6
CONTINUOUS
 62
     7
  5
366
 10
4.126316
 20
4.061811
 30
0.0
 11
4.242188
 21
4.061811
 31
0.0
  0
ARC
  8
0
  6
CONTINUOUS
 62
     7
  5
367
 10
4.126316
 20
4.003937
 30
0.0
 40
0.057874
 50
90.0
 51
135.0
  0
LINE
  8
0
  6
CONTINUOUS
 62
     7
  5
368
 10
3.956675
 20
3.916141
 30
0.0
 11
4.085393
 21
4.04486
 31
0.0
  0
LINE
  8
0
  6
CONTINUOUS
 62
     7
  5
369
 10
3.128365
 20
3.916141
 30
0.0
 11
3.956675
 21
3.916141
 31
0.0
  0
LINE
  8
0
  6
CONTINUOUS
 62
     7
  5
36A
 10
2.999646
 20
4.04486
 30
0.0
 11
3.128365
 21
3.916141
 31
0.0
  0
ARC
  8
0
  6
CONTINUOUS
 62
     7
  5
36B
 10
2.958723
 20
4.003937
 30
0.0
 40
0.057874
 50
45.0
 51
90.0
  0
LINE
  8
0
  6
CONTINUOUS
 62
     7
  5
36C
 10
2.842851
 20
4.061811
 30
0.0
 11
2.958723
 21
4.061811
 31
0.0
  0
ARC
  8
0
  6
CONTINUOUS
 62
     7
  5
36D
 10
2.842851
 20
4.003937
 30
0.0
 40
0.057874
 50
90.0
 51
135.0
  0
LINE
  8
0
  6
CONTINUOUS
 62
     7
  5
36E
 10
2.67321
 20
3.916141
 30
0.0
 11
2.801929
 21
4.04486
 31
0.0
  0
LINE
  8
0
  6
CONTINUOUS
 62
     7
  5
36F
 10
1.8449
 20
3.916141
 30
0.0
 11
2.67321
 21
3.916141
 31
0.0
  0
LINE
  8
0
  6
CONTINUOUS
 62
     7
  5
370
 10
1.716182
 20
4.04486
 30
0.0
 11
1.8449
 21
3.916141
 31
0.0
  0
ARC
  8
0
  6
CONTINUOUS
 62
     7
  5
371
 10
1.675259
 20
4.003937
 30
0.0
 40
0.057874
 50
45.0
 51
90.0
  0
LINE
  8
0
  6
CONTINUOUS
 62
     7
  5
372
 10
1.559387
 20
4.061811
 30
0.0
 11
1.675259
 21
4.061811
 31
0.0
  0
ARC
  8
0
  6
CONTINUOUS
 62
     7
  5
373
 10
1.559387
 20
4.003937
 30
0.0
 40
0.057874
 50
90.0
 51
135.0
  0
LINE
  8
0
  6
CONTINUOUS
 62
     7
  5
374
 10
1.389746
 20
3.916141
 30
0.0
 11
1.518464
 21
4.04486
 31
0.0
  0
LINE
  8
0
  6
CONTINUOUS
 62
     7
  5
375
 10
0.561436
 20
3.916141
 30
0.0
 11
1.389746
 21
3.916141
 31
0.0
  0
LINE
  8
0
  6
CONTINUOUS
 62
     7
  5
376
 10
0.432717
 20
4.04486
 30
0.0
 11
0.561436
 21
3.916141
 31
0.0
  0
ARC
  8
0
  6
CONTINUOUS
 62
     7
  5
377
 10
0.391794
 20
4.003937
 30
0.0
 40
0.057874
 50
45.0
 51
90.0
  0
LINE
  8
0
  6
CONTINUOUS
 62
     7
  5
378
 10
0.275922
 20
4.061811
 30
0.0
 11
0.391794
 21
4.061811
 31
0.0
  0
ARC
  8
0
  6
CONTINUOUS
 62
     7
  5
379
 10
0.275922
 20
4.003937
 30
0.0
 40
0.057874
 50
90.0
 51
135.0
  0
LINE
  8
0
  6
CONTINUOUS
 62
     7
  5
37A
 10
0.106281
 20
3.916141
 30
0.0
 11
0.234999
 21
4.04486
 31
0.0
  0
LINE
  8
0
  6
CONTINUOUS
 62
     7
  5
37B
 10
-0.722029
 20
3.916141
 30
0.0
 11
0.106281
 21
3.916141
 31
0.0
  0
LINE
  8
0
  6
CONTINUOUS
 62
     7
  5
37C
 10
-0.850747
 20
4.04486
 30
0.0
 11
-0.722029
 21
3.916141
 31
0.0
  0
ARC
  8
0
  6
CONTINUOUS
 62
     7
  5
37D
 10
-0.89167
 20
4.003937
 30
0.0
 40
0.057874
 50
45.0
 51
90.0
  0
LINE
  8
0
  6
CONTINUOUS
 62
     7
  5
37E
 10
-1.007542
 20
4.061811
 30
0.0
 11
-0.89167
 21
4.061811
 31
0.0
  0
ARC
  8
0
  6
CONTINUOUS
 62
     7
  5
37F
 10
-1.007542
 20
4.003937
 30
0.0
 40
0.057874
 50
90.0
 51
135.0
  0
LINE
  8
0
  6
CONTINUOUS
 62
     7
  5
380
 10
-1.177184
 20
3.916141
 30
0.0
 11
-1.048465
 21
4.04486
 31
0.0
  0
LINE
  8
0
  6
CONTINUOUS
 62
     7
  5
381
 10
-2.005494
 20
3.916141
 30
0.0
 11
-1.177184
 21
3.916141
 31
0.0
  0
LINE
  8
0
  6
CONTINUOUS
 62
     7
  5
382
 10
-2.134212
 20
4.04486
 30
0.0
 11
-2.005494
 21
3.916141
 31
0.0
  0
ARC
  8
0
  6
CONTINUOUS
 62
     7
  5
383
 10
-2.175135
 20
4.003937
 30
0.0
 40
0.057874
 50
45.0
 51
90.0
  0
LINE
  8
0
  6
CONTINUOUS
 62
     7
  5
384
 10
-2.291007
 20
4.061811
 30
0.0
 11
-2.175135
 21
4.061811
 31
0.0
  0
ARC
  8
0
  6
CONTINUOUS
 62
     7
  5
385
 10
-2.291007
 20
4.003937
 30
0.0
 40
0.057874
 50
90.0
 51
135.0
  0
LINE
  8
0
  6
CONTINUOUS
 62
     7
  5
386
 10
-2.460648
 20
3.916141
 30
0.0
 11
-2.33193
 21
4.04486
 31
0.0
  0
LINE
  8
0
  6
CONTINUOUS
 62
     7
  5
387
 10
-3.288958
 20
3.916141
 30
0.0
 11
-2.460648
 21
3.916141
 31
0.0
  0
LINE
  8
0
  6
CONTINUOUS
 62
     7
  5
388
 10
-3.417677
 20
4.04486
 30
0.0
 11
-3.288958
 21
3.916141
 31
0.0
  0
ARC
  8
0
  6
CONTINUOUS
 62
     7
  5
389
 10
-3.458599
 20
4.003937
 30
0.0
 40
0.057874
 50
45.0
 51
90.0
  0
LINE
  8
0
  6
CONTINUOUS
 62
     7
  5
38A
 10
-3.574471
 20
4.061811
 30
0.0
 11
-3.458599
 21
4.061811
 31
0.0
  0
ARC
  8
0
  6
CONTINUOUS
 62
     7
  5
38B
 10
-3.574471
 20
4.003937
 30
0.0
 40
0.057874
 50
90.0
 51
135.0
  0
LINE
  8
0
  6
CONTINUOUS
 62
     7
  5
38C
 10
-3.744113
 20
3.916141
 30
0.0
 11
-3.615394
 21
4.04486
 31
0.0
  0
LINE
  8
0
  6
CONTINUOUS
 62
     7
  5
38D
 10
-4.572423
 20
3.916141
 30
0.0
 11
-3.744113
 21
3.916141
 31
0.0
  0
LINE
  8
0
  6
CONTINUOUS
 62
     7
  5
38E
 10
-4.701141
 20
4.04486
 30
0.0
 11
-4.572423
 21
3.916141
 31
0.0
  0
ARC
  8
0
  6
CONTINUOUS
 62
     7
  5
38F
 10
-4.742064
 20
4.003937
 30
0.0
 40
0.057874
 50
45.0
 51
90.0
  0
LINE
  8
0
  6
CONTINUOUS
 62
     7
  5
390
 10
-4.857936
 20
4.061811
 30
0.0
 11
-4.742064
 21
4.061811
 31
0.0
  0
ARC
  8
0
  6
CONTINUOUS
 62
     7
  5
391
 10
-4.857936
 20
4.003937
 30
0.0
 40
0.057874
 50
90.0
 51
135.0
  0
LINE
  8
0
  6
CONTINUOUS
 62
     7
  5
392
 10
-5.027577
 20
3.916141
 30
0.0
 11
-4.898859
 21
4.04486
 31
0.0
  0
LINE
  8
0
  6
CONTINUOUS
 62
     7
  5
393
 10
-7.30315
 20
3.916141
 30
0.0
 11
-5.027577
 21
3.916141
 31
0.0
  0
ARC
  8
0
  6
CONTINUOUS
 62
     7
  5
394
 10
-7.30315
 20
3.897638
 30
0.0
 40
0.018504
 50
90.0
 51
180.0
  0
LINE
  8
0
  6
CONTINUOUS
 62
     7
  5
395
 10
-7.321653
 20
3.622047
 30
0.0
 11
-7.321653
 21
3.897638
 31
0.0
  0
LINE
  8
0
  6
CONTINUOUS
 62
     7
  5
396
 10
-7.321653
 20
3.622047
 30
0.0
 11
-6.901575
 21
3.622047
 31
0.0
  0
ARC
  8
0
  6
CONTINUOUS
 62
     7
  5
397
 10
-6.901575
 20
3.307087
 30
0.0
 40
0.314961
 50
270.0
 51
90.0
  0
LINE
  8
0
  6
CONTINUOUS
 62
     7
  5
398
 10
-6.901575
 20
2.992126
 30
0.0
 11
-7.321653
 21
2.992126
 31
0.0
  0
LINE
  8
0
  6
CONTINUOUS
 62
     7
  5
399
 10
-7.321653
 20
1.259843
 30
0.0
 11
-7.321653
 21
2.992126
 31
0.0
  0
LINE
  8
0
  6
CONTINUOUS
 62
     7
  5
39A
 10
-7.321653
 20
1.259843
 30
0.0
 11
-6.901575
 21
1.259843
 31
0.0
  0
ARC
  8
0
  6
CONTINUOUS
 62
     7
  5
39B
 10
-6.901575
 20
0.944882
 30
0.0
 40
0.314961
 50
270.0
 51
90.0
  0
LINE
  8
0
  6
CONTINUOUS
 62
     7
  5
39C
 10
-6.901575
 20
0.629921
 30
0.0
 11
-7.321653
 21
0.629921
 31
0.0
  0
LINE
  8
0
  6
CONTINUOUS
 62
     7
  5
39D
 10
-7.321653
 20
0.03937
 30
0.0
 11
-7.321653
 21
0.629921
 31
0.0
  0
ARC
  8
0
  6
CONTINUOUS
 62
     7
  5
39E
 10
-7.30315
 20
0.03937
 30
0.0
 40
0.018504
 50
180.0
 51
270.0
  0
CIRCLE
  8
0
  6
CONTINUOUS
 62
     7
  5
39F
 10
6.751181
 20
3.889764
 30
0.0
 40
0.145669
  0
CIRCLE
  8
0
  6
CONTINUOUS
 62
     7
  5
3A0
 10
5.467717
 20
3.889764
 30
0.0
 40
0.145669
  0
CIRCLE
  8
0
  6
CONTINUOUS
 62
     7
  5
3A1
 10
4.184252
 20
3.889764
 30
0.0
 40
0.145669
  0
CIRCLE
  8
0
  6
CONTINUOUS
 62
     7
  5
3A2
 10
2.900787
 20
3.889764
 30
0.0
 40
0.145669
  0
CIRCLE
  8
0
  6
CONTINUOUS
 62
     7
  5
3A3
 10
1.617323
 20
3.889764
 30
0.0
 40
0.145669
  0
CIRCLE
  8
0
  6
CONTINUOUS
 62
     7
  5
3A4
 10
0.333858
 20
3.889764
 30
0.0
 40
0.145669
  0
CIRCLE
  8
0
  6
CONTINUOUS
 62
     7
  5
3A5
 10
-0.949606
 20
3.889764
 30
0.0
 40
0.145669
  0
CIRCLE
  8
0
  6
CONTINUOUS
 62
     7
  5
3A6
 10
-2.233071
 20
3.889764
 30
0.0
 40
0.145669
  0
CIRCLE
  8
0
  6
CONTINUOUS
 62
     7
  5
3A7
 10
-3.516535
 20
3.889764
 30
0.0
 40
0.145669
  0
CIRCLE
  8
0
  6
CONTINUOUS
 62
     7
  5
3A8
 10
-4.8
 20
3.889764
 30
0.0
 40
0.145669
  0
LINE
  8
0
  6
CONTINUOUS
 62
     7
  5
3A9
 10
-6.37874
 20
0.173228
 30
0.0
 11
-6.614961
 21
0.173228
 31
0.0
  0
ARC
  8
0
  6
CONTINUOUS
 62
     7
  5
3AA
 10
-6.614961
 20
0.177165
 30
0.0
 40
0.003937
 50
180.0
 51
269.999999
  0
LINE
  8
0
  6
CONTINUOUS
 62
     7
  5
3AB
 10
-6.618898
 20
0.177165
 30
0.0
 11
-6.618898
 21
0.586614
 31
0.0
  0
ARC
  8
0
  6
CONTINUOUS
 62
     7
  5
3AC
 10
-6.579528
 20
0.586614
 30
0.0
 40
0.03937
 50
90.0
 51
180.0
  0
LINE
  8
0
  6
CONTINUOUS
 62
     7
  5
3AD
 10
-6.579528
 20
0.625984
 30
0.0
 11
-6.414173
 21
0.625984
 31
0.0
  0
ARC
  8
0
  6
CONTINUOUS
 62
     7
  5
3AE
 10
-6.414173
 20
0.586614
 30
0.0
 40
0.03937
 50
0.0
 51
90.0
  0
LINE
  8
0
  6
CONTINUOUS
 62
     7
  5
3AF
 10
-6.374803
 20
0.586614
 30
0.0
 11
-6.374803
 21
0.177165
 31
0.0
  0
ARC
  8
0
  6
CONTINUOUS
 62
     7
  5
3B0
 10
-6.37874
 20
0.177165
 30
0.0
 40
0.003937
 50
270.0
 51
359.999999
  0
LINE
  8
0
  6
CONTINUOUS
 62
     7
  5
3B1
 10
6.125197
 20
0.173228
 30
0.0
 11
5.888976
 21
0.173228
 31
0.0
  0
ARC
  8
0
  6
CONTINUOUS
 62
     7
  5
3B2
 10
5.888976
 20
0.177165
 30
0.0
 40
0.003937
 50
180.0
 51
269.999999
  0
LINE
  8
0
  6
CONTINUOUS
 62
     7
  5
3B3
 10
5.885039
 20
0.177165
 30
0.0
 11
5.885039
 21
0.586614
 31
0.0
  0
ARC
  8
0
  6
CONTINUOUS
 62
     7
  5
3B4
 10
5.924409
 20
0.586614
 30
0.0
 40
0.03937
 50
90.0
 51
180.0
  0
LINE
  8
0
  6
CONTINUOUS
 62
     7
  5
3B5
 10
5.924409
 20
0.625984
 30
0.0
 11
6.089764
 21
0.625984
 31
0.0
  0
ARC
  8
0
  6
CONTINUOUS
 62
     7
  5
3B6
 10
6.089764
 20
0.586614
 30
0.0
 40
0.03937
 50
0.0
 51
90.0
  0
LINE
  8
0
  6
CONTINUOUS
 62
     7
  5
3B7
 10
6.129134
 20
0.586614
 30
0.0
 11
6.129134
 21
0.177165
 31
0.0
  0
ARC
  8
0
  6
CONTINUOUS
 62
     7
  5
3B8
 10
6.125197
 20
0.177165
 30
0.0
 40
0.003937
 50
270.0
 51
359.999999
  0
LINE
  8
0
  6
CONTINUOUS
 62
     7
  5
3B9
 10
-5.213386
 20
0.173228
 30
0.0
 11
-5.449606
 21
0.173228
 31
0.0
  0
ARC
  8
0
  6
CONTINUOUS
 62
     7
  5
3BA
 10
-5.449606
 20
0.177165
 30
0.0
 40
0.003937
 50
180.0
 51
269.999999
  0
LINE
  8
0
  6
CONTINUOUS
 62
     7
  5
3BB
 10
-5.453543
 20
0.177165
 30
0.0
 11
-5.453543
 21
0.523543
 31
0.0
  0
ARC
  8
0
  6
CONTINUOUS
 62
     7
  5
3BC
 10
-5.414173
 20
0.523543
 30
0.0
 40
0.03937
 50
90.0
 51
180.0
  0
LINE
  8
0
  6
CONTINUOUS
 62
     7
  5
3BD
 10
-5.414173
 20
0.562913
 30
0.0
 11
-5.248819
 21
0.562913
 31
0.0
  0
ARC
  8
0
  6
CONTINUOUS
 62
     7
  5
3BE
 10
-5.248819
 20
0.523543
 30
0.0
 40
0.03937
 50
0.0
 51
90.0
  0
LINE
  8
0
  6
CONTINUOUS
 62
     7
  5
3BF
 10
-5.209449
 20
0.523543
 30
0.0
 11
-5.209449
 21
0.177165
 31
0.0
  0
ARC
  8
0
  6
CONTINUOUS
 62
     7
  5
3C0
 10
-5.213386
 20
0.177165
 30
0.0
 40
0.003937
 50
270.0
 51
359.999999
  0
LINE
  8
0
  6
CONTINUOUS
 62
     7
  5
3C1
 10
7.047244
 20
0.173228
 30
0.0
 11
6.692913
 21
0.173228
 31
0.0
  0
ARC
  8
0
  6
CONTINUOUS
 62
     7
  5
3C2
 10
6.692913
 20
0.177165
 30
0.0
 40
0.003937
 50
180.0
 51
269.999999
  0
LINE
  8
0
  6
CONTINUOUS
 62
     7
  5
3C3
 10
6.688976
 20
0.177165
 30
0.0
 11
6.688976
 21
0.586614
 31
0.0
  0
ARC
  8
0
  6
CONTINUOUS
 62
     7
  5
3C4
 10
6.728346
 20
0.586614
 30
0.0
 40
0.03937
 50
90.0
 51
180.0
  0
LINE
  8
0
  6
CONTINUOUS
 62
     7
  5
3C5
 10
6.728346
 20
0.625984
 30
0.0
 11
7.011811
 21
0.625984
 31
0.0
  0
ARC
  8
0
  6
CONTINUOUS
 62
     7
  5
3C6
 10
7.011811
 20
0.586614
 30
0.0
 40
0.03937
 50
0.0
 51
90.0
  0
LINE
  8
0
  6
CONTINUOUS
 62
     7
  5
3C7
 10
7.051181
 20
0.586614
 30
0.0
 11
7.051181
 21
0.177165
 31
0.0
  0
ARC
  8
0
  6
CONTINUOUS
 62
     7
  5
3C8
 10
7.047244
 20
0.177165
 30
0.0
 40
0.003937
 50
270.0
 51
359.999999
  0
LINE
  8
0
  6
CONTINUOUS
 62
     7
  5
3C9
 10
-3.929921
 20
0.173228
 30
0.0
 11
-4.386614
 21
0.173228
 31
0.0
  0
ARC
  8
0
  6
CONTINUOUS
 62
     7
  5
3CA
 10
-4.386614
 20
0.177165
 30
0.0
 40
0.003937
 50
180.0
 51
269.999999
  0
LINE
  8
0
  6
CONTINUOUS
 62
     7
  5
3CB
 10
-4.390551
 20
0.177165
 30
0.0
 11
-4.390551
 21
0.586614
 31
0.0
  0
ARC
  8
0
  6
CONTINUOUS
 62
     7
  5
3CC
 10
-4.351181
 20
0.586614
 30
0.0
 40
0.03937
 50
90.0
 51
180.0
  0
LINE
  8
0
  6
CONTINUOUS
 62
     7
  5
3CD
 10
-4.351181
 20
0.625984
 30
0.0
 11
-3.965354
 21
0.625984
 31
0.0
  0
ARC
  8
0
  6
CONTINUOUS
 62
     7
  5
3CE
 10
-3.965354
 20
0.586614
 30
0.0
 40
0.03937
 50
0.0
 51
90.0
  0
LINE
  8
0
  6
CONTINUOUS
 62
     7
  5
3CF
 10
-3.925984
 20
0.586614
 30
0.0
 11
-3.925984
 21
0.177165
 31
0.0
  0
ARC
  8
0
  6
CONTINUOUS
 62
     7
  5
3D0
 10
-3.929921
 20
0.177165
 30
0.0
 40
0.003937
 50
270.0
 51
359.999999
  0
LINE
  8
0
  6
CONTINUOUS
 62
     7
  5
3D1
 10
-2.646457
 20
0.173228
 30
0.0
 11
-3.10315
 21
0.173228
 31
0.0
  0
ARC
  8
0
  6
CONTINUOUS
 62
     7
  5
3D2
 10
-3.10315
 20
0.177165
 30
0.0
 40
0.003937
 50
180.0
 51
269.999999
  0
LINE
  8
0
  6
CONTINUOUS
 62
     7
  5
3D3
 10
-3.107087
 20
0.177165
 30
0.0
 11
-3.107087
 21
0.586614
 31
0.0
  0
ARC
  8
0
  6
CONTINUOUS
 62
     7
  5
3D4
 10
-3.067717
 20
0.586614
 30
0.0
 40
0.03937
 50
90.0
 51
180.0
  0
LINE
  8
0
  6
CONTINUOUS
 62
     7
  5
3D5
 10
-3.067717
 20
0.625984
 30
0.0
 11
-2.68189
 21
0.625984
 31
0.0
  0
ARC
  8
0
  6
CONTINUOUS
 62
     7
  5
3D6
 10
-2.68189
 20
0.586614
 30
0.0
 40
0.03937
 50
0.0
 51
90.0
  0
LINE
  8
0
  6
CONTINUOUS
 62
     7
  5
3D7
 10
-2.64252
 20
0.586614
 30
0.0
 11
-2.64252
 21
0.177165
 31
0.0
  0
ARC
  8
0
  6
CONTINUOUS
 62
     7
  5
3D8
 10
-2.646457
 20
0.177165
 30
0.0
 40
0.003937
 50
270.0
 51
359.999999
  0
LINE
  8
0
  6
CONTINUOUS
 62
     7
  5
3D9
 10
-1.362992
 20
0.173228
 30
0.0
 11
-1.819685
 21
0.173228
 31
0.0
  0
ARC
  8
0
  6
CONTINUOUS
 62
     7
  5
3DA
 10
-1.819685
 20
0.177165
 30
0.0
 40
0.003937
 50
180.0
 51
269.999999
  0
LINE
  8
0
  6
CONTINUOUS
 62
     7
  5
3DB
 10
-1.823622
 20
0.177165
 30
0.0
 11
-1.823622
 21
0.586614
 31
0.0
  0
ARC
  8
0
  6
CONTINUOUS
 62
     7
  5
3DC
 10
-1.784252
 20
0.586614
 30
0.0
 40
0.03937
 50
90.0
 51
180.0
  0
LINE
  8
0
  6
CONTINUOUS
 62
     7
  5
3DD
 10
-1.784252
 20
0.625984
 30
0.0
 11
-1.398425
 21
0.625984
 31
0.0
  0
ARC
  8
0
  6
CONTINUOUS
 62
     7
  5
3DE
 10
-1.398425
 20
0.586614
 30
0.0
 40
0.03937
 50
0.0
 51
90.0
  0
LINE
  8
0
  6
CONTINUOUS
 62
     7
  5
3DF
 10
-1.359055
 20
0.586614
 30
0.0
 11
-1.359055
 21
0.177165
 31
0.0
  0
ARC
  8
0
  6
CONTINUOUS
 62
     7
  5
3E0
 10
-1.362992
 20
0.177165
 30
0.0
 40
0.003937
 50
270.0
 51
359.999999
  0
LINE
  8
0
  6
CONTINUOUS
 62
     7
  5
3E1
 10
-0.079528
 20
0.173228
 30
0.0
 11
-0.53622
 21
0.173228
 31
0.0
  0
ARC
  8
0
  6
CONTINUOUS
 62
     7
  5
3E2
 10
-0.53622
 20
0.177165
 30
0.0
 40
0.003937
 50
180.0
 51
269.999999
  0
LINE
  8
0
  6
CONTINUOUS
 62
     7
  5
3E3
 10
-0.540157
 20
0.177165
 30
0.0
 11
-0.540157
 21
0.586614
 31
0.0
  0
ARC
  8
0
  6
CONTINUOUS
 62
     7
  5
3E4
 10
-0.500787
 20
0.586614
 30
0.0
 40
0.03937
 50
90.0
 51
180.0
  0
LINE
  8
0
  6
CONTINUOUS
 62
     7
  5
3E5
 10
-0.500787
 20
0.625984
 30
0.0
 11
-0.114961
 21
0.625984
 31
0.0
  0
ARC
  8
0
  6
CONTINUOUS
 62
     7
  5
3E6
 10
-0.114961
 20
0.586614
 30
0.0
 40
0.03937
 50
0.0
 51
90.0
  0
LINE
  8
0
  6
CONTINUOUS
 62
     7
  5
3E7
 10
-0.075591
 20
0.586614
 30
0.0
 11
-0.075591
 21
0.177165
 31
0.0
  0
ARC
  8
0
  6
CONTINUOUS
 62
     7
  5
3E8
 10
-0.079528
 20
0.177165
 30
0.0
 40
0.003937
 50
270.0
 51
359.999999
  0
LINE
  8
0
  6
CONTINUOUS
 62
     7
  5
3E9
 10
1.203937
 20
0.173228
 30
0.0
 11
0.747244
 21
0.173228
 31
0.0
  0
ARC
  8
0
  6
CONTINUOUS
 62
     7
  5
3EA
 10
0.747244
 20
0.177165
 30
0.0
 40
0.003937
 50
180.0
 51
269.999999
  0
LINE
  8
0
  6
CONTINUOUS
 62
     7
  5
3EB
 10
0.743307
 20
0.177165
 30
0.0
 11
0.743307
 21
0.586614
 31
0.0
  0
ARC
  8
0
  6
CONTINUOUS
 62
     7
  5
3EC
 10
0.782677
 20
0.586614
 30
0.0
 40
0.03937
 50
90.0
 51
180.0
  0
LINE
  8
0
  6
CONTINUOUS
 62
     7
  5
3ED
 10
0.782677
 20
0.625984
 30
0.0
 11
1.168504
 21
0.625984
 31
0.0
  0
ARC
  8
0
  6
CONTINUOUS
 62
     7
  5
3EE
 10
1.168504
 20
0.586614
 30
0.0
 40
0.03937
 50
0.0
 51
90.0
  0
LINE
  8
0
  6
CONTINUOUS
 62
     7
  5
3EF
 10
1.207874
 20
0.586614
 30
0.0
 11
1.207874
 21
0.177165
 31
0.0
  0
ARC
  8
0
  6
CONTINUOUS
 62
     7
  5
3F0
 10
1.203937
 20
0.177165
 30
0.0
 40
0.003937
 50
270.0
 51
359.999999
  0
LINE
  8
0
  6
CONTINUOUS
 62
     7
  5
3F1
 10
2.487402
 20
0.173228
 30
0.0
 11
2.030709
 21
0.173228
 31
0.0
  0
ARC
  8
0
  6
CONTINUOUS
 62
     7
  5
3F2
 10
2.030709
 20
0.177165
 30
0.0
 40
0.003937
 50
180.0
 51
269.999999
  0
LINE
  8
0
  6
CONTINUOUS
 62
     7
  5
3F3
 10
2.026772
 20
0.177165
 30
0.0
 11
2.026772
 21
0.586614
 31
0.0
  0
ARC
  8
0
  6
CONTINUOUS
 62
     7
  5
3F4
 10
2.066142
 20
0.586614
 30
0.0
 40
0.03937
 50
90.0
 51
180.0
  0
LINE
  8
0
  6
CONTINUOUS
 62
     7
  5
3F5
 10
2.066142
 20
0.625984
 30
0.0
 11
2.451969
 21
0.625984
 31
0.0
  0
ARC
  8
0
  6
CONTINUOUS
 62
     7
  5
3F6
 10
2.451969
 20
0.586614
 30
0.0
 40
0.03937
 50
0.0
 51
90.0
  0
LINE
  8
0
  6
CONTINUOUS
 62
     7
  5
3F7
 10
2.491339
 20
0.586614
 30
0.0
 11
2.491339
 21
0.177165
 31
0.0
  0
ARC
  8
0
  6
CONTINUOUS
 62
     7
  5
3F8
 10
2.487402
 20
0.177165
 30
0.0
 40
0.003937
 50
270.0
 51
359.999999
  0
LINE
  8
0
  6
CONTINUOUS
 62
     7
  5
3F9
 10
3.770866
 20
0.173228
 30
0.0
 11
3.314173
 21
0.173228
 31
0.0
  0
ARC
  8
0
  6
CONTINUOUS
 62
     7
  5
3FA
 10
3.314173
 20
0.177165
 30
0.0
 40
0.003937
 50
180.0
 51
269.999999
  0
LINE
  8
0
  6
CONTINUOUS
 62
     7
  5
3FB
 10
3.310236
 20
0.177165
 30
0.0
 11
3.310236
 21
0.586614
 31
0.0
  0
ARC
  8
0
  6
CONTINUOUS
 62
     7
  5
3FC
 10
3.349606
 20
0.586614
 30
0.0
 40
0.03937
 50
90.0
 51
180.0
  0
LINE
  8
0
  6
CONTINUOUS
 62
     7
  5
3FD
 10
3.349606
 20
0.625984
 30
0.0
 11
3.735433
 21
0.625984
 31
0.0
  0
ARC
  8
0
  6
CONTINUOUS
 62
     7
  5
3FE
 10
3.735433
 20
0.586614
 30
0.0
 40
0.03937
 50
0.0
 51
90.0
  0
LINE
  8
0
  6
CONTINUOUS
 62
     7
  5
3FF
 10
3.774803
 20
0.586614
 30
0.0
 11
3.774803
 21
0.177165
 31
0.0
  0
ARC
  8
0
  6
CONTINUOUS
 62
     7
  5
400
 10
3.770866
 20
0.177165
 30
0.0
 40
0.003937
 50
270.0
 51
359.999999
  0
LINE
  8
0
  6
CONTINUOUS
 62
     7
  5
401
 10
5.054331
 20
0.173228
 30
0.0
 11
4.597638
 21
0.173228
 31
0.0
  0
ARC
  8
0
  6
CONTINUOUS
 62
     7
  5
402
 10
4.597638
 20
0.177165
 30
0.0
 40
0.003937
 50
180.0
 51
269.999999
  0
LINE
  8
0
  6
CONTINUOUS
 62
     7
  5
403
 10
4.593701
 20
0.177165
 30
0.0
 11
4.593701
 21
0.586614
 31
0.0
  0
ARC
  8
0
  6
CONTINUOUS
 62
     7
  5
404
 10
4.633071
 20
0.586614
 30
0.0
 40
0.03937
 50
90.0
 51
180.0
  0
LINE
  8
0
  6
CONTINUOUS
 62
     7
  5
405
 10
4.633071
 20
0.625984
 30
0.0
 11
5.018898
 21
0.625984
 31
0.0
  0
ARC
  8
0
  6
CONTINUOUS
 62
     7
  5
406
 10
5.018898
 20
0.586614
 30
0.0
 40
0.03937
 50
0.0
 51
90.0
  0
LINE
  8
0
  6
CONTINUOUS
 62
     7
  5
407
 10
5.058268
 20
0.586614
 30
0.0
 11
5.058268
 21
0.177165
 31
0.0
  0
ARC
  8
0
  6
CONTINUOUS
 62
     7
  5
408
 10
5.054331
 20
0.177165
 30
0.0
 40
0.003937
 50
270.0
 51
359.999999
  0
LINE
  8
0
  6
CONTINUOUS
 62
     7
  5
409
 10
6.759843
 20
1.248304
 30
0.0
 11
6.759843
 21
0.944882
 31
0.0
  0
ARC
  8
0
  6
CONTINUOUS
 62
     7
  5
40A
 10
6.405512
 20
0.944882
 30
0.0
 40
0.354331
 50
343.968728
 51
360.0
  0
LINE
  8
0
  6
CONTINUOUS
 62
     7
  5
40B
 10
6.746063
 20
0.847029
 30
0.0
 11
6.746063
 21
0.732283
 31
0.0
  0
ARC
  8
0
  6
CONTINUOUS
 62
     7
  5
40C
 10
6.687008
 20
0.732283
 30
0.0
 40
0.059055
 50
270.0
 51
360.0
  0
LINE
  8
0
  6
CONTINUOUS
 62
     7
  5
40D
 10
6.687008
 20
0.673228
 30
0.0
 11
6.633008
 21
0.673228
 31
0.0
  0
ARC
  8
0
  6
CONTINUOUS
 62
     7
  5
40E
 10
6.405512
 20
0.944882
 30
0.0
 40
0.354331
 50
270.0
 51
309.944505
  0
ARC
  8
0
  6
CONTINUOUS
 62
     7
  5
40F
 10
6.405512
 20
0.944882
 30
0.0
 40
0.354331
 50
230.055495
 51
270.0
  0
LINE
  8
0
  6
CONTINUOUS
 62
     7
  5
410
 10
6.178015
 20
0.673228
 30
0.0
 11
-6.226378
 21
0.673228
 31
0.0
  0
ARC
  8
0
  6
CONTINUOUS
 62
     7
  5
411
 10
-6.226378
 20
0.732283
 30
0.0
 40
0.059055
 50
180.0
 51
270.0
  0
LINE
  8
0
  6
CONTINUOUS
 62
     7
  5
412
 10
-6.285433
 20
0.732283
 30
0.0
 11
-6.285433
 21
3.423228
 31
0.0
  0
ARC
  8
0
  6
CONTINUOUS
 62
     7
  5
413
 10
-6.226378
 20
3.423228
 30
0.0
 40
0.059055
 50
90.0
 51
180.0
  0
LINE
  8
0
  6
CONTINUOUS
 62
     7
  5
414
 10
-6.226378
 20
3.482283
 30
0.0
 11
6.158396
 21
3.482283
 31
0.0
  0
ARC
  8
0
  6
CONTINUOUS
 62
     7
  5
415
 10
6.405512
 20
3.228346
 30
0.0
 40
0.354331
 50
90.0
 51
134.220044
  0
ARC
  8
0
  6
CONTINUOUS
 62
     7
  5
416
 10
6.405512
 20
3.228346
 30
0.0
 40
0.354331
 50
45.779956
 51
90.0
  0
LINE
  8
0
  6
CONTINUOUS
 62
     7
  5
417
 10
6.652628
 20
3.482283
 30
0.0
 11
6.687008
 21
3.482283
 31
0.0
  0
ARC
  8
0
  6
CONTINUOUS
 62
     7
  5
418
 10
6.687008
 20
3.423228
 30
0.0
 40
0.059055
 50
0.0
 51
90.0
  0
LINE
  8
0
  6
CONTINUOUS
 62
     7
  5
419
 10
6.746063
 20
3.423228
 30
0.0
 11
6.746063
 21
3.326199
 31
0.0
  0
ARC
  8
0
  6
CONTINUOUS
 62
     7
  5
41A
 10
6.405512
 20
3.228346
 30
0.0
 40
0.354331
 50
0.0
 51
16.031272
  0
LINE
  8
0
  6
CONTINUOUS
 62
     7
  5
41B
 10
6.759843
 20
3.228346
 30
0.0
 11
6.759843
 21
3.009176
 31
0.0
  0
LINE
  8
0
  6
CONTINUOUS
 62
     7
  5
41C
 10
-7.321653
 20
2.992126
 30
0.0
 11
-7.34252
 21
2.992126
 31
0.0
  0
LINE
  8
0
  6
CONTINUOUS
 62
     7
  5
41D
 10
-7.34252
 20
3.622047
 30
0.0
 11
-7.321653
 21
3.622047
 31
0.0
  0
LINE
  8
0
  6
CONTINUOUS
 62
     7
  5
41E
 10
-7.34252
 20
1.259843
 30
0.0
 11
-7.321653
 21
1.259843
 31
0.0
  0
LINE
  8
0
  6
CONTINUOUS
 62
     7
  5
41F
 10
-7.321653
 20
0.629921
 30
0.0
 11
-7.34252
 21
0.629921
 31
0.0
  0
CIRCLE
  8
0
  6
CONTINUOUS
 62
     7
  5
420
 10
6.751181
 20
3.889764
 30
0.0
 40
0.07874
  0
CIRCLE
  8
0
  6
CONTINUOUS
 62
     7
  5
421
 10
5.467717
 20
3.889764
 30
0.0
 40
0.07874
  0
CIRCLE
  8
0
  6
CONTINUOUS
 62
     7
  5
422
 10
4.184252
 20
3.889764
 30
0.0
 40
0.07874
  0
CIRCLE
  8
0
  6
CONTINUOUS
 62
     7
  5
423
 10
2.900787
 20
3.889764
 30
0.0
 40
0.07874
  0
CIRCLE
  8
0
  6
CONTINUOUS
 62
     7
  5
424
 10
1.617323
 20
3.889764
 30
0.0
 40
0.07874
  0
CIRCLE
  8
0
  6
CONTINUOUS
 62
     7
  5
425
 10
0.333858
 20
3.889764
 30
0.0
 40
0.07874
  0
CIRCLE
  8
0
  6
CONTINUOUS
 62
     7
  5
426
 10
-0.949606
 20
3.889764
 30
0.0
 40
0.07874
  0
CIRCLE
  8
0
  6
CONTINUOUS
 62
     7
  5
427
 10
-2.233071
 20
3.889764
 30
0.0
 40
0.07874
  0
CIRCLE
  8
0
  6
CONTINUOUS
 62
     7
  5
428
 10
-3.516535
 20
3.889764
 30
0.0
 40
0.07874
  0
CIRCLE
  8
0
  6
CONTINUOUS
 62
     7
  5
429
 10
-4.8
 20
3.889764
 30
0.0
 40
0.07874
  0
LINE
  8
0
  6
CONTINUOUS
 62
     7
  5
42A
 10
6.514961
 20
3.937008
 30
0.0
 11
5.703937
 21
3.937008
 31
0.0
  0
LINE
  8
0
  6
CONTINUOUS
 62
     7
  5
42B
 10
5.231496
 20
3.937008
 30
0.0
 11
4.420472
 21
3.937008
 31
0.0
  0
LINE
  8
0
  6
CONTINUOUS
 62
     7
  5
42C
 10
3.948031
 20
3.937008
 30
0.0
 11
3.137008
 21
3.937008
 31
0.0
  0
LINE
  8
0
  6
CONTINUOUS
 62
     7
  5
42D
 10
2.664567
 20
3.937008
 30
0.0
 11
1.853543
 21
3.937008
 31
0.0
  0
LINE
  8
0
  6
CONTINUOUS
 62
     7
  5
42E
 10
1.381102
 20
3.937008
 30
0.0
 11
0.570079
 21
3.937008
 31
0.0
  0
LINE
  8
0
  6
CONTINUOUS
 62
     7
  5
42F
 10
0.097638
 20
3.937008
 30
0.0
 11
-0.713386
 21
3.937008
 31
0.0
  0
LINE
  8
0
  6
CONTINUOUS
 62
     7
  5
430
 10
-1.185827
 20
3.937008
 30
0.0
 11
-1.99685
 21
3.937008
 31
0.0
  0
LINE
  8
0
  6
CONTINUOUS
 62
     7
  5
431
 10
-2.469291
 20
3.937008
 30
0.0
 11
-3.280315
 21
3.937008
 31
0.0
  0
LINE
  8
0
  6
CONTINUOUS
 62
     7
  5
432
 10
-3.752756
 20
3.937008
 30
0.0
 11
-4.56378
 21
3.937008
 31
0.0
  0
LINE
  8
0
  6
CONTINUOUS
 62
     7
  5
433
 10
7.30315
 20
3.937008
 30
0.0
 11
6.987402
 21
3.937008
 31
0.0
  0
LINE
  8
0
  6
CONTINUOUS
 62
     7
  5
434
 10
6.864795
 20
4.059615
 30
0.0
 11
6.987402
 21
3.937008
 31
0.0
  0
LINE
  8
0
  6
CONTINUOUS
 62
     7
  5
435
 10
6.693245
 20
4.082677
 30
0.0
 11
6.809117
 21
4.082677
 31
0.0
  0
ARC
  8
0
  6
CONTINUOUS
 62
     7
  5
436
 10
6.693245
 20
4.003937
 30
0.0
 40
0.07874
 50
90.0
 51
135.0
  0
LINE
  8
0
  6
CONTINUOUS
 62
     7
  5
437
 10
6.514961
 20
3.937008
 30
0.0
 11
6.637567
 21
4.059615
 31
0.0
  0
ARC
  8
0
  6
CONTINUOUS
 62
     7
  5
438
 10
6.809117
 20
4.003937
 30
0.0
 40
0.07874
 50
45.0
 51
90.0
  0
LINE
  8
0
  6
CONTINUOUS
 62
     7
  5
439
 10
-5.03622
 20
3.937008
 30
0.0
 11
-7.30315
 21
3.937008
 31
0.0
  0
LINE
  8
0
  6
CONTINUOUS
 62
     7
  5
43A
 10
5.58133
 20
4.059615
 30
0.0
 11
5.703937
 21
3.937008
 31
0.0
  0
LINE
  8
0
  6
CONTINUOUS
 62
     7
  5
43B
 10
5.409781
 20
4.082677
 30
0.0
 11
5.525652
 21
4.082677
 31
0.0
  0
ARC
  8
0
  6
CONTINUOUS
 62
     7
  5
43C
 10
5.409781
 20
4.003937
 30
0.0
 40
0.07874
 50
90.0
 51
135.0
  0
LINE
  8
0
  6
CONTINUOUS
 62
     7
  5
43D
 10
5.231496
 20
3.937008
 30
0.0
 11
5.354103
 21
4.059615
 31
0.0
  0
ARC
  8
0
  6
CONTINUOUS
 62
     7
  5
43E
 10
5.525652
 20
4.003937
 30
0.0
 40
0.07874
 50
45.0
 51
90.0
  0
LINE
  8
0
  6
CONTINUOUS
 62
     7
  5
43F
 10
4.297866
 20
4.059615
 30
0.0
 11
4.420472
 21
3.937008
 31
0.0
  0
LINE
  8
0
  6
CONTINUOUS
 62
     7
  5
440
 10
4.126316
 20
4.082677
 30
0.0
 11
4.242188
 21
4.082677
 31
0.0
  0
ARC
  8
0
  6
CONTINUOUS
 62
     7
  5
441
 10
4.126316
 20
4.003937
 30
0.0
 40
0.07874
 50
90.0
 51
135.0
  0
LINE
  8
0
  6
CONTINUOUS
 62
     7
  5
442
 10
3.948031
 20
3.937008
 30
0.0
 11
4.070638
 21
4.059615
 31
0.0
  0
ARC
  8
0
  6
CONTINUOUS
 62
     7
  5
443
 10
4.242188
 20
4.003937
 30
0.0
 40
0.07874
 50
45.0
 51
90.0
  0
LINE
  8
0
  6
CONTINUOUS
 62
     7
  5
444
 10
3.014401
 20
4.059615
 30
0.0
 11
3.137008
 21
3.937008
 31
0.0
  0
LINE
  8
0
  6
CONTINUOUS
 62
     7
  5
445
 10
2.842851
 20
4.082677
 30
0.0
 11
2.958723
 21
4.082677
 31
0.0
  0
ARC
  8
0
  6
CONTINUOUS
 62
     7
  5
446
 10
2.842851
 20
4.003937
 30
0.0
 40
0.07874
 50
90.0
 51
135.0
  0
LINE
  8
0
  6
CONTINUOUS
 62
     7
  5
447
 10
2.664567
 20
3.937008
 30
0.0
 11
2.787174
 21
4.059615
 31
0.0
  0
ARC
  8
0
  6
CONTINUOUS
 62
     7
  5
448
 10
2.958723
 20
4.003937
 30
0.0
 40
0.07874
 50
45.0
 51
90.0
  0
LINE
  8
0
  6
CONTINUOUS
 62
     7
  5
449
 10
1.730936
 20
4.059615
 30
0.0
 11
1.853543
 21
3.937008
 31
0.0
  0
LINE
  8
0
  6
CONTINUOUS
 62
     7
  5
44A
 10
1.559387
 20
4.082677
 30
0.0
 11
1.675259
 21
4.082677
 31
0.0
  0
ARC
  8
0
  6
CONTINUOUS
 62
     7
  5
44B
 10
1.559387
 20
4.003937
 30
0.0
 40
0.07874
 50
90.0
 51
135.0
  0
LINE
  8
0
  6
CONTINUOUS
 62
     7
  5
44C
 10
1.381102
 20
3.937008
 30
0.0
 11
1.503709
 21
4.059615
 31
0.0
  0
ARC
  8
0
  6
CONTINUOUS
 62
     7
  5
44D
 10
1.675259
 20
4.003937
 30
0.0
 40
0.07874
 50
45.0
 51
90.0
  0
LINE
  8
0
  6
CONTINUOUS
 62
     7
  5
44E
 10
0.447472
 20
4.059615
 30
0.0
 11
0.570079
 21
3.937008
 31
0.0
  0
LINE
  8
0
  6
CONTINUOUS
 62
     7
  5
44F
 10
0.275922
 20
4.082677
 30
0.0
 11
0.391794
 21
4.082677
 31
0.0
  0
ARC
  8
0
  6
CONTINUOUS
 62
     7
  5
450
 10
0.275922
 20
4.003937
 30
0.0
 40
0.07874
 50
90.0
 51
135.0
  0
LINE
  8
0
  6
CONTINUOUS
 62
     7
  5
451
 10
0.097638
 20
3.937008
 30
0.0
 11
0.220245
 21
4.059615
 31
0.0
  0
ARC
  8
0
  6
CONTINUOUS
 62
     7
  5
452
 10
0.391794
 20
4.003937
 30
0.0
 40
0.07874
 50
45.0
 51
90.0
  0
LINE
  8
0
  6
CONTINUOUS
 62
     7
  5
453
 10
-0.835993
 20
4.059615
 30
0.0
 11
-0.713386
 21
3.937008
 31
0.0
  0
LINE
  8
0
  6
CONTINUOUS
 62
     7
  5
454
 10
-1.007542
 20
4.082677
 30
0.0
 11
-0.89167
 21
4.082677
 31
0.0
  0
ARC
  8
0
  6
CONTINUOUS
 62
     7
  5
455
 10
-1.007542
 20
4.003937
 30
0.0
 40
0.07874
 50
90.0
 51
135.0
  0
LINE
  8
0
  6
CONTINUOUS
 62
     7
  5
456
 10
-1.185827
 20
3.937008
 30
0.0
 11
-1.06322
 21
4.059615
 31
0.0
  0
ARC
  8
0
  6
CONTINUOUS
 62
     7
  5
457
 10
-0.89167
 20
4.003937
 30
0.0
 40
0.07874
 50
45.0
 51
90.0
  0
LINE
  8
0
  6
CONTINUOUS
 62
     7
  5
458
 10
-2.119457
 20
4.059615
 30
0.0
 11
-1.99685
 21
3.937008
 31
0.0
  0
LINE
  8
0
  6
CONTINUOUS
 62
     7
  5
459
 10
-2.291007
 20
4.082677
 30
0.0
 11
-2.175135
 21
4.082677
 31
0.0
  0
ARC
  8
0
  6
CONTINUOUS
 62
     7
  5
45A
 10
-2.291007
 20
4.003937
 30
0.0
 40
0.07874
 50
90.0
 51
135.0
  0
LINE
  8
0
  6
CONTINUOUS
 62
     7
  5
45B
 10
-2.469291
 20
3.937008
 30
0.0
 11
-2.346685
 21
4.059615
 31
0.0
  0
ARC
  8
0
  6
CONTINUOUS
 62
     7
  5
45C
 10
-2.175135
 20
4.003937
 30
0.0
 40
0.07874
 50
45.0
 51
90.0
  0
LINE
  8
0
  6
CONTINUOUS
 62
     7
  5
45D
 10
-3.402922
 20
4.059615
 30
0.0
 11
-3.280315
 21
3.937008
 31
0.0
  0
LINE
  8
0
  6
CONTINUOUS
 62
     7
  5
45E
 10
-3.574471
 20
4.082677
 30
0.0
 11
-3.458599
 21
4.082677
 31
0.0
  0
ARC
  8
0
  6
CONTINUOUS
 62
     7
  5
45F
 10
-3.574471
 20
4.003937
 30
0.0
 40
0.07874
 50
90.0
 51
135.0
  0
LINE
  8
0
  6
CONTINUOUS
 62
     7
  5
460
 10
-3.752756
 20
3.937008
 30
0.0
 11
-3.630149
 21
4.059615
 31
0.0
  0
ARC
  8
0
  6
CONTINUOUS
 62
     7
  5
461
 10
-3.458599
 20
4.003937
 30
0.0
 40
0.07874
 50
45.0
 51
90.0
  0
LINE
  8
0
  6
CONTINUOUS
 62
     7
  5
462
 10
-5.03622
 20
3.937008
 30
0.0
 11
-4.913614
 21
4.059615
 31
0.0
  0
LINE
  8
0
  6
CONTINUOUS
 62
     7
  5
463
 10
-4.857936
 20
4.082677
 30
0.0
 11
-4.742064
 21
4.082677
 31
0.0
  0
ARC
  8
0
  6
CONTINUOUS
 62
     7
  5
464
 10
-4.857936
 20
4.003937
 30
0.0
 40
0.07874
 50
90.0
 51
135.0
  0
LINE
  8
0
  6
CONTINUOUS
 62
     7
  5
465
 10
-4.686386
 20
4.059615
 30
0.0
 11
-4.56378
 21
3.937008
 31
0.0
  0
ARC
  8
0
  6
CONTINUOUS
 62
     7
  5
466
 10
-4.742064
 20
4.003937
 30
0.0
 40
0.07874
 50
45.0
 51
90.0
  0
LINE
  8
0
  6
CONTINUOUS
 62
     7
  5
467
 10
6.523604
 20
3.916141
 30
0.0
 11
6.514961
 21
3.937008
 31
0.0
  0
LINE
  8
0
  6
CONTINUOUS
 62
     7
  5
468
 10
6.987402
 20
3.937008
 30
0.0
 11
6.978758
 21
3.916141
 31
0.0
  0
LINE
  8
0
  6
CONTINUOUS
 62
     7
  5
469
 10
5.703937
 20
3.937008
 30
0.0
 11
5.695294
 21
3.916141
 31
0.0
  0
LINE
  8
0
  6
CONTINUOUS
 62
     7
  5
46A
 10
5.240139
 20
3.916141
 30
0.0
 11
5.231496
 21
3.937008
 31
0.0
  0
LINE
  8
0
  6
CONTINUOUS
 62
     7
  5
46B
 10
4.420472
 20
3.937008
 30
0.0
 11
4.411829
 21
3.916141
 31
0.0
  0
LINE
  8
0
  6
CONTINUOUS
 62
     7
  5
46C
 10
3.956675
 20
3.916141
 30
0.0
 11
3.948031
 21
3.937008
 31
0.0
  0
LINE
  8
0
  6
CONTINUOUS
 62
     7
  5
46D
 10
3.137008
 20
3.937008
 30
0.0
 11
3.128365
 21
3.916141
 31
0.0
  0
LINE
  8
0
  6
CONTINUOUS
 62
     7
  5
46E
 10
2.67321
 20
3.916141
 30
0.0
 11
2.664567
 21
3.937008
 31
0.0
  0
LINE
  8
0
  6
CONTINUOUS
 62
     7
  5
46F
 10
1.853543
 20
3.937008
 30
0.0
 11
1.8449
 21
3.916141
 31
0.0
  0
LINE
  8
0
  6
CONTINUOUS
 62
     7
  5
470
 10
1.389746
 20
3.916141
 30
0.0
 11
1.381102
 21
3.937008
 31
0.0
  0
LINE
  8
0
  6
CONTINUOUS
 62
     7
  5
471
 10
0.570079
 20
3.937008
 30
0.0
 11
0.561436
 21
3.916141
 31
0.0
  0
LINE
  8
0
  6
CONTINUOUS
 62
     7
  5
472
 10
0.106281
 20
3.916141
 30
0.0
 11
0.097638
 21
3.937008
 31
0.0
  0
LINE
  8
0
  6
CONTINUOUS
 62
     7
  5
473
 10
-0.713386
 20
3.937008
 30
0.0
 11
-0.722029
 21
3.916141
 31
0.0
  0
LINE
  8
0
  6
CONTINUOUS
 62
     7
  5
474
 10
-1.177184
 20
3.916141
 30
0.0
 11
-1.185827
 21
3.937008
 31
0.0
  0
LINE
  8
0
  6
CONTINUOUS
 62
     7
  5
475
 10
-1.99685
 20
3.937008
 30
0.0
 11
-2.005494
 21
3.916141
 31
0.0
  0
LINE
  8
0
  6
CONTINUOUS
 62
     7
  5
476
 10
-2.460648
 20
3.916141
 30
0.0
 11
-2.469291
 21
3.937008
 31
0.0
  0
LINE
  8
0
  6
CONTINUOUS
 62
     7
  5
477
 10
-3.280315
 20
3.937008
 30
0.0
 11
-3.288958
 21
3.916141
 31
0.0
  0
LINE
  8
0
  6
CONTINUOUS
 62
     7
  5
478
 10
-3.744113
 20
3.916141
 30
0.0
 11
-3.752756
 21
3.937008
 31
0.0
  0
LINE
  8
0
  6
CONTINUOUS
 62
     7
  5
479
 10
-4.56378
 20
3.937008
 30
0.0
 11
-4.572423
 21
3.916141
 31
0.0
  0
LINE
  8
0
  6
CONTINUOUS
 62
     7
  5
47A
 10
-5.027577
 20
3.916141
 30
0.0
 11
-5.03622
 21
3.937008
 31
0.0
  0
ARC
  8
0
  6
CONTINUOUS
 62
     7
  5
47B
 10
7.30315
 20
0.03937
 30
0.0
 40
0.03937
 50
270.0
 51
360.0
  0
LINE
  8
0
  6
CONTINUOUS
 62
     7
  5
47C
 10
7.34252
 20
0.03937
 30
0.0
 11
7.34252
 21
3.897638
 31
0.0
  0
ARC
  8
0
  6
CONTINUOUS
 62
     7
  5
47D
 10
7.30315
 20
3.897638
 30
0.0
 40
0.03937
 50
0.0
 51
90.0
  0
ARC
  8
0
  6
CONTINUOUS
 62
     7
  5
47E
 10
-7.30315
 20
3.897638
 30
0.0
 40
0.03937
 50
90.0
 51
180.0
  0
ARC
  8
0
  6
CONTINUOUS
 62
     7
  5
47F
 10
-7.30315
 20
0.03937
 30
0.0
 40
0.03937
 50
180.0
 51
270.0
  0
LINE
  8
0
  6
CONTINUOUS
 62
     7
  5
480
 10
6.556693
 20
0.0
 30
0.0
 11
7.30315
 21
0.0
 31
0.0
  0
LINE
  8
0
  6
CONTINUOUS
 62
     3
  5
481
 10
-7.128878
 20
0.944882
 30
0.0
 11
-6.674272
 21
0.944882
 31
0.0
  0
LINE
  8
0
  6
CONTINUOUS
 62
     3
  5
482
 10
-6.901575
 20
0.717579
 30
0.0
 11
-6.901575
 21
1.172185
 31
0.0
  0
LINE
  8
0
  6
CONTINUOUS
 62
     3
  5
483
 10
-7.128878
 20
3.307087
 30
0.0
 11
-6.674272
 21
3.307087
 31
0.0
  0
LINE
  8
0
  6
CONTINUOUS
 62
     3
  5
484
 10
-6.901575
 20
3.079783
 30
0.0
 11
-6.901575
 21
3.53439
 31
0.0
  0
LINE
  8
0
  6
CONTINUOUS
 62
     3
  5
485
 10
6.178209
 20
0.944882
 30
0.0
 11
6.632815
 21
0.944882
 31
0.0
  0
LINE
  8
0
  6
CONTINUOUS
 62
     3
  5
486
 10
6.405512
 20
0.717579
 30
0.0
 11
6.405512
 21
1.172185
 31
0.0
  0
LINE
  8
0
  6
CONTINUOUS
 62
     3
  5
487
 10
6.178209
 20
3.307087
 30
0.0
 11
6.632815
 21
3.307087
 31
0.0
  0
LINE
  8
0
  6
CONTINUOUS
 62
     3
  5
488
 10
6.405512
 20
3.079783
 30
0.0
 11
6.405512
 21
3.53439
 31
0.0
  0
ENDSEC
  0
EOF
