999
DXF file: C:\Users\sesa63760\Dev\_Creo\CAD\MCADPP0003080_3D-CAD\drw0001_7.dxf
999
Pro/ENGINEER 2019471 by Parametric Technology Corporation
  0
SECTION
  2
HEADER
  9
$ACADVER
  1
AC1024
  9
$DWGCODEPAGE
  3
ANSI_1252
  9
$EXTMAX
 10
111.4119801958
 20
157.5683719912
 30
0.0
  9
$EXTMIN
 10
0.0
 20
0.0
 30
0.0
  9
$LIMMIN
 10
0.0
 20
0.0
  9
$LIMMAX
 10
111.4119801958
 20
157.5683719912
  9
$VIEWCTR
 10
55.7059900979
 20
78.7841859956
  9
$VIEWSIZE
 40
157.5683719912
  9
$CLAYER
  8
0
  9
$LTSCALE
 40
10.2711235076
  9
$CELTYPE
  6
BYLAYER
  9
$DIMSCALE
 40
1.0
  9
$DIMASZ
 40
1.3263330976
  9
$DIMEXO
 40
1.0
  9
$DIMDLI
 40
7.0964126052
  9
$DIMEXE
 40
1.0
  9
$DIMCEN
 40
1.6807293012
  9
$DIMLFAC
 40
1.0
  9
$DIMBLK
  1
_FILLED
  9
$DIMALT
 70
0
  9
$DIMALTF
 40
0.0393700787
  9
$DIMTXT
 40
1.8568663366
  9
$DIMTOL
 70
1
  9
$DIMLIM
 70
0
  9
$DIMTFAC
 40
1.0
  9
$DIMTP
 40
0.01
  9
$DIMTM
 40
0.01
  9
$DIMGAP
 40
0.625
  9
$DIMDSEP
 70
46
  9
$AUNITS
 70
0
  9
$PDMODE
 70
3
  9
$PDSIZE
 40
0.3125
  9
$HANDSEED
  5
289
  9
$TILEMODE
 70
1
  9
$MEASUREMENT
 70
1
  9
$INSUNITS
 70
4
  0
ENDSEC
  0
SECTION
  2
CLASSES
  0
CLASS
  1
ACDBDICTIONARYWDFLT
  2
AcDbDictionaryWithDefault
  3
AutoCAD 2000
 90
0
 91
1
280
0
281
0
  0
CLASS
  1
ACDBPLACEHOLDER
  2
AcDbPlaceHolder
  3
AutoCAD 2000
 90
0
 91
1
280
0
281
0
  0
CLASS
  1
LAYOUT
  2
AcDbLayout
  3
AutoCAD 2000
 90
0
 91
0
280
0
281
0
  0
ENDSEC
  0
SECTION
  2
TABLES
  0
TABLE
  2
VPORT
  5
8
100
AcDbSymbolTable
 70
2
  0
VPORT
  5
1F4
100
AcDbSymbolTableRecord
100
AcDbViewportTableRecord
  2
*ACTIVE
 70
0
 10
0.0
 20
0.0
 11
1.0
 21
1.0
 12
55.7059900979
 22
78.7841859956
 13
0.0
 23
0.0
 14
1.0
 24
1.0
 15
0.0
 25
0.0
 16
0.0
 26
0.0
 36
1.0
 17
0.0
 27
0.0
 37
0.0
 40
157.5683719912
 41
0.7070707071
 42
50.0
 43
0.0
 44
0.0
 50
0.0
 51
0.0
 71
0
 72
100
 73
1
 74
1
 75
0
 76
0
 77
0
 78
0
  0
ENDTAB
  0
TABLE
  2
LTYPE
  5
5
100
AcDbSymbolTable
 70
6
  0
LTYPE
  5
14
100
AcDbSymbolTableRecord
100
AcDbLinetypeTableRecord
  2
BYBLOCK
 70
0
  3

 72
65
 73
0
 40
0.0
  0
LTYPE
  5
15
100
AcDbSymbolTableRecord
100
AcDbLinetypeTableRecord
  2
BYLAYER
 70
0
  3

 72
65
 73
0
 40
0.0
  0
LTYPE
  5
16
100
AcDbSymbolTableRecord
100
AcDbLinetypeTableRecord
  2
CONTINUOUS
 70
64
  3
Solid line
 72
65
 73
0
 40
0.0
  0
LTYPE
  5
1F5
100
AcDbSymbolTableRecord
100
AcDbLinetypeTableRecord
  2
CENTER
 70
64
  3
____ _ ____ _ ____ _ ____ _ ____ _ ____ _ ____
 72
65
 73
4
 40
0.6
 49
0.375
 74
0
 49
-0.075
 74
0
 49
0.075
 74
0
 49
-0.075
 74
0
  0
LTYPE
  5
1F6
100
AcDbSymbolTableRecord
100
AcDbLinetypeTableRecord
  2
HIDDEN
 70
64
  3
- - - - - - - - - - - - - - - - - - - -
 72
65
 73
2
 40
0.2
 49
0.1
 74
0
 49
-0.1
 74
0
  0
LTYPE
  5
1F7
100
AcDbSymbolTableRecord
100
AcDbLinetypeTableRecord
  2
PHANTOM
 70
64
  3
_____ _ _ _____ _ _ _____ _ _ _____
 72
65
 73
6
 40
0.8
 49
0.45
 74
0
 49
-0.05
 74
0
 49
0.1
 74
0
 49
-0.05
 74
0
 49
0.1
 74
0
 49
-0.05
 74
0
  0
LTYPE
  5
1F8
100
AcDbSymbolTableRecord
100
AcDbLinetypeTableRecord
  2
DOT
 70
64
  3
. . . . . . . . . . . . . . . . . . . .
 72
65
 73
2
 40
0.2
 49
0.1
 74
0
 49
-0.1
 74
0
  0
LTYPE
  5
1F9
100
AcDbSymbolTableRecord
100
AcDbLinetypeTableRecord
  2
DASHED
 70
64
  3
- - - - - - - - - - - - - - - - - - - -
 72
65
 73
2
 40
0.2
 49
0.1
 74
0
 49
-0.1
 74
0
  0
ENDTAB
  0
TABLE
  2
LAYER
  5
2
100
AcDbSymbolTable
 70
36
  0
LAYER
  5
10
100
AcDbSymbolTableRecord
100
AcDbLayerTableRecord
  2
0
 70
0
 62
7
  6
CONTINUOUS
370
-3
390
F
  0
LAYER
  5
1FA
100
AcDbSymbolTableRecord
100
AcDbLayerTableRecord
  2
DEFAULT_1
 70
0
 62
7
  6
CENTER
370
-3
390
F
  0
LAYER
  5
1FB
100
AcDbSymbolTableRecord
100
AcDbLayerTableRecord
  2
DEFAULT_2
 70
0
 62
8
  6
HIDDEN
370
-3
390
F
  0
LAYER
  5
1FC
100
AcDbSymbolTableRecord
100
AcDbLayerTableRecord
  2
DEFAULT_3
 70
0
 62
7
  6
PHANTOM
370
-3
390
F
  0
LAYER
  5
1FD
100
AcDbSymbolTableRecord
100
AcDbLayerTableRecord
  2
00_COMPONENTS
 70
0
 62
7
  6
CONTINUOUS
370
-3
390
F
  0
LAYER
  5
1FE
100
AcDbSymbolTableRecord
100
AcDbLayerTableRecord
  2
01_1_DEFAULT_DATUMS
 70
0
 62
7
  6
CONTINUOUS
370
-3
390
F
  0
LAYER
  5
1FF
100
AcDbSymbolTableRecord
100
AcDbLayerTableRecord
  2
01_PLANES
 70
0
 62
7
  6
CONTINUOUS
370
-3
390
F
  0
LAYER
  5
200
100
AcDbSymbolTableRecord
100
AcDbLayerTableRecord
  2
02_COORD_SYS
 70
0
 62
7
  6
CONTINUOUS
370
-3
390
F
  0
LAYER
  5
201
100
AcDbSymbolTableRecord
100
AcDbLayerTableRecord
  2
03_AXES
 70
0
 62
7
  6
CONTINUOUS
370
-3
390
F
  0
LAYER
  5
202
100
AcDbSymbolTableRecord
100
AcDbLayerTableRecord
  2
04_POINTS
 70
0
 62
7
  6
CONTINUOUS
370
-3
390
F
  0
LAYER
  5
203
100
AcDbSymbolTableRecord
100
AcDbLayerTableRecord
  2
05_CURVES
 70
0
 62
7
  6
CONTINUOUS
370
-3
390
F
  0
LAYER
  5
204
100
AcDbSymbolTableRecord
100
AcDbLayerTableRecord
  2
06_SURFS
 70
0
 62
7
  6
CONTINUOUS
370
-3
390
F
  0
LAYER
  5
205
100
AcDbSymbolTableRecord
100
AcDbLayerTableRecord
  2
07_COSMETICS
 70
0
 62
7
  6
CONTINUOUS
370
-3
390
F
  0
LAYER
  5
206
100
AcDbSymbolTableRecord
100
AcDbLayerTableRecord
  2
10_NOTES
 70
0
 62
7
  6
CONTINUOUS
370
-3
390
F
  0
LAYER
  5
207
100
AcDbSymbolTableRecord
100
AcDbLayerTableRecord
  2
11_NOTES_PUB
 70
0
 62
7
  6
CONTINUOUS
370
-3
390
F
  0
LAYER
  5
208
100
AcDbSymbolTableRecord
100
AcDbLayerTableRecord
  2
13_REF_GTOL
 70
0
 62
7
  6
CONTINUOUS
370
-3
390
F
  0
LAYER
  5
209
100
AcDbSymbolTableRecord
100
AcDbLayerTableRecord
  2
16_MISC
 70
0
 62
7
  6
CONTINUOUS
370
-3
390
F
  0
LAYER
  5
20A
100
AcDbSymbolTableRecord
100
AcDbLayerTableRecord
  2
17_NO_PRINT
 70
0
 62
7
  6
CONTINUOUS
370
-3
390
F
  0
LAYER
  5
20B
100
AcDbSymbolTableRecord
100
AcDbLayerTableRecord
  2
18_DATUM_CAMS_JOINTS
 70
0
 62
7
  6
CONTINUOUS
370
-3
390
F
  0
LAYER
  5
20C
100
AcDbSymbolTableRecord
100
AcDbLayerTableRecord
  2
19_DATUM_FUNCTIONAL
 70
0
 62
7
  6
CONTINUOUS
370
-3
390
F
  0
LAYER
  5
20D
100
AcDbSymbolTableRecord
100
AcDbLayerTableRecord
  2
20_DATUM_KINEMATIC_SCHEME
 70
0
 62
7
  6
CONTINUOUS
370
-3
390
F
  0
LAYER
  5
20E
100
AcDbSymbolTableRecord
100
AcDbLayerTableRecord
  2
SHELL23
 70
0
 62
7
  6
CONTINUOUS
370
-3
390
F
  0
ENDTAB
  0
TABLE
  2
STYLE
  5
3
100
AcDbSymbolTable
 70
1
  0
STYLE
  5
11
100
AcDbSymbolTableRecord
100
AcDbTextStyleTableRecord
  2
STANDARD
 70
0
 40
0.0
 41
0.8
 50
0.0
 71
0
 42
0.2
  3
txt
  4

  0
STYLE
  5
20F
100
AcDbSymbolTableRecord
100
AcDbTextStyleTableRecord
  2
TEXTSTYLE_1
 70
0
 40
0.0
 41
0.8
 50
0.0
 71
0
 42
0.2
  3
gdt
  4

  0
ENDTAB
  0
TABLE
  2
VIEW
  5
6
100
AcDbSymbolTable
 70
0
  0
ENDTAB
  0
TABLE
  2
UCS
  5
7
100
AcDbSymbolTable
 70
0
  0
ENDTAB
  0
TABLE
  2
APPID
  5
9
100
AcDbSymbolTable
 70
1
  0
APPID
  5
210
100
AcDbSymbolTableRecord
100
AcDbRegAppTableRecord
  2
ACAD
 70
0
  0
ENDTAB
  0
TABLE
  2
BLOCK_RECORD
  5
1
100
AcDbSymbolTable
 70
0
  0
BLOCK_RECORD
  5
211
100
AcDbSymbolTableRecord
100
AcDbBlockTableRecord
  2
*Model_Space
  0
BLOCK_RECORD
  5
212
100
AcDbSymbolTableRecord
100
AcDbBlockTableRecord
  2
*Paper_Space
  0
BLOCK_RECORD
  5
213
100
AcDbSymbolTableRecord
100
AcDbBlockTableRecord
  2
_FILLED
  0
ENDTAB
  0
TABLE
  2
DIMSTYLE
  5
A
100
AcDbSymbolTable
 70
1
100
AcDbDimStyleTable
 71
0
  0
DIMSTYLE
105
214
100
AcDbSymbolTableRecord
100
AcDbDimStyleTableRecord
  2
STANDARD
 70
0
  3

  4

 40
1.0
 41
1.3263330976
 42
1.0
 43
0.38
 44
1.0
 45
0.0
 46
0.0
 47
0.01
 48
0.01
140
1.8568663366
141
0.09
142
0.0
143
25.4
144
1.0
145
0.0
146
1.0
147
0.625
 71
1
 72
0
 73
0
 74
0
 75
0
 76
0
 77
1
 78
8
 79
2
170
0
171
1
172
0
173
0
174
0
175
0
176
0
177
0
178
0
270
2
179
2
271
2
272
2
273
2
274
2
275
0
280
0
281
0
282
0
283
1
284
8
285
0
286
0
287
3
288
0
340
11
278
46
341
213
342
213
343
213
344
213
  0
ENDTAB
  0
ENDSEC
  0
SECTION
  2
BLOCKS
  0
BLOCK
  5
20
100
AcDbEntity
  8
0
100
AcDbBlockBegin
  2
*Model_Space
 70
0
 10
0.0
 20
0.0
 30
0.0
  3
*Model_Space
  1

  0
ENDBLK
  5
21
100
AcDbEntity
  8
0
100
AcDbBlockEnd
  0
BLOCK
  5
1C
100
AcDbEntity
  8
0
100
AcDbBlockBegin
  2
*Paper_Space
 70
0
 10
0.0
 20
0.0
 30
0.0
  3
*Paper_Space
  1

  0
ENDBLK
  5
1D
100
AcDbEntity
  8
0
100
AcDbBlockEnd
  0
BLOCK
  5
215
100
AcDbEntity
  8
0
100
AcDbBlockBegin
  2
_FILLED
 70
64
 10
0.0
 20
0.0
  3
_FILLED
  1

  0
SOLID
  5
216
100
AcDbEntity
  8
0
  6
BYBLOCK
 62
0
100
AcDbTrace
 10
0.0
 20
0.0
 11
-1.0
 21
0.25
 12
-1.0
 22
-0.25
 13
-1.0
 23
-0.25
  0
ENDBLK
  5
217
100
AcDbEntity
  8
0
  6
BYBLOCK
 62
0
100
AcDbBlockEnd
  0
ENDSEC
  0
SECTION
  2
ENTITIES
  0
LINE
  5
218
100
AcDbEntity
  8
SHELL23
100
AcDbLine
 62
7
  6
CONTINUOUS
 10
99.9678522423
 20
28.369910287
 11
11.8298522423
 21
28.3699102845
  0
LINE
  5
219
100
AcDbEntity
  8
SHELL23
100
AcDbLine
 62
7
  6
CONTINUOUS
 10
11.8298522423
 20
129.9699102819
 11
11.8298522423
 21
28.369910287
  0
LINE
  5
21A
100
AcDbEntity
  8
SHELL23
100
AcDbLine
 62
7
  6
CONTINUOUS
 10
11.8552522423
 20
117.2699102819
 11
11.8552522423
 21
41.069910287
  0
LINE
  5
21B
100
AcDbEntity
  8
SHELL23
100
AcDbLine
 62
7
  6
CONTINUOUS
 10
11.8298522423
 20
38.5299102845
 11
19.0688522423
 21
38.5299102845
  0
LINE
  5
21C
100
AcDbEntity
  8
SHELL23
100
AcDbLine
 62
7
  6
CONTINUOUS
 10
53.8668522423
 20
38.5299102845
 11
57.9308522423
 21
38.5299102845
  0
LINE
  5
21D
100
AcDbEntity
  8
SHELL23
100
AcDbLine
 62
7
  6
CONTINUOUS
 10
92.7288522423
 20
38.5299102845
 11
99.9678522423
 21
38.5299102845
  0
LINE
  5
21E
100
AcDbEntity
  8
SHELL23
100
AcDbLine
 62
7
  6
CONTINUOUS
 10
19.0688522423
 20
129.9699102845
 11
19.0688522423
 21
118.1905372206
  0
LINE
  5
21F
100
AcDbEntity
  8
SHELL23
100
AcDbLine
 62
7
  6
CONTINUOUS
 10
19.0688522423
 20
109.9992833483
 11
19.0688522423
 21
83.2655372206
  0
LINE
  5
220
100
AcDbEntity
  8
SHELL23
100
AcDbLine
 62
7
  6
CONTINUOUS
 10
19.0688522423
 20
75.0742833483
 11
19.0688522423
 21
48.3405372206
  0
LINE
  5
221
100
AcDbEntity
  8
SHELL23
100
AcDbLine
 62
7
  6
CONTINUOUS
 10
19.0688522423
 20
40.1492833483
 11
19.0688522423
 21
28.3699102845
  0
LINE
  5
222
100
AcDbEntity
  8
SHELL23
100
AcDbLine
 62
7
  6
CONTINUOUS
 10
11.8552522423
 20
41.069910287
 11
11.8298522423
 21
41.069910287
  0
LINE
  5
223
100
AcDbEntity
  8
SHELL23
100
AcDbLine
 62
7
  6
CONTINUOUS
 10
21.6088522423
 20
114.0949102845
 11
21.6088522423
 21
44.2449102845
  0
LINE
  5
224
100
AcDbEntity
  8
SHELL23
100
AcDbLine
 62
7
  6
CONTINUOUS
 10
32.801678033
 20
108.6974102845
 11
29.1355038236
 21
102.3474102845
  0
LINE
  5
225
100
AcDbEntity
  8
SHELL23
100
AcDbLine
 62
7
  6
CONTINUOUS
 10
90.1888522423
 20
44.2449102845
 11
60.4708522423
 21
44.2449102845
  0
LINE
  5
226
100
AcDbEntity
  8
SHELL23
100
AcDbLine
 62
7
  6
CONTINUOUS
 10
51.3268522423
 20
44.2449102845
 11
21.6088522423
 21
44.2449102845
  0
LINE
  5
227
100
AcDbEntity
  8
SHELL23
100
AcDbLine
 62
7
  6
CONTINUOUS
 10
11.8552522423
 20
48.1819102845
 11
11.8298522423
 21
48.1819102845
  0
LINE
  5
228
100
AcDbEntity
  8
SHELL23
100
AcDbLine
 62
7
  6
CONTINUOUS
 10
29.1355038236
 20
55.9924102845
 11
32.801678033
 21
49.6424102845
  0
LINE
  5
229
100
AcDbEntity
  8
SHELL23
100
AcDbLine
 62
7
  6
CONTINUOUS
 10
25.2283522423
 20
114.0949102845
 11
25.2283522423
 21
90.6253102845
  0
LINE
  5
22A
100
AcDbEntity
  8
SHELL23
100
AcDbLine
 62
7
  6
CONTINUOUS
 10
25.3426522423
 20
44.2449102845
 11
25.3426522423
 21
67.7145102845
  0
LINE
  5
22B
100
AcDbEntity
  8
SHELL23
100
AcDbLine
 62
7
  6
CONTINUOUS
 10
78.9960264517
 20
49.6424102845
 11
71.663678033
 21
49.6424102845
  0
LINE
  5
22C
100
AcDbEntity
  8
SHELL23
100
AcDbLine
 62
7
  6
CONTINUOUS
 10
40.1340264517
 20
49.6424102845
 11
32.801678033
 21
49.6424102845
  0
LINE
  5
22D
100
AcDbEntity
  8
SHELL23
100
AcDbLine
 62
7
  6
CONTINUOUS
 10
90.1888522423
 20
50.5949102845
 11
60.4708522423
 21
50.5949102845
  0
LINE
  5
22E
100
AcDbEntity
  8
SHELL23
100
AcDbLine
 62
7
  6
CONTINUOUS
 10
51.3268522423
 20
50.5949102845
 11
21.6088522423
 21
50.5949102845
  0
LINE
  5
22F
100
AcDbEntity
  8
SHELL23
100
AcDbLine
 62
7
  6
CONTINUOUS
 10
43.800200661
 20
102.3474102845
 11
40.1340264517
 21
95.9974102845
  0
LINE
  5
230
100
AcDbEntity
  8
SHELL23
100
AcDbLine
 62
7
  6
CONTINUOUS
 10
40.1340264517
 20
62.3424102845
 11
43.800200661
 21
55.9924102845
  0
LINE
  5
231
100
AcDbEntity
  8
SHELL23
100
AcDbLine
 62
7
  6
CONTINUOUS
 10
78.9960264517
 20
62.3424102845
 11
71.663678033
 21
62.3424102845
  0
LINE
  5
232
100
AcDbEntity
  8
SHELL23
100
AcDbLine
 62
7
  6
CONTINUOUS
 10
40.1340264517
 20
62.3424102845
 11
32.801678033
 21
62.3424102845
  0
LINE
  5
233
100
AcDbEntity
  8
SHELL23
100
AcDbLine
 62
7
  6
CONTINUOUS
 10
32.801678033
 20
62.3424102845
 11
29.1355038236
 21
55.9924102845
  0
LINE
  5
234
100
AcDbEntity
  8
SHELL23
100
AcDbLine
 62
7
  6
CONTINUOUS
 10
86.4550522423
 20
67.7145102845
 11
64.2046522423
 21
67.7145102845
  0
LINE
  5
235
100
AcDbEntity
  8
SHELL23
100
AcDbLine
 62
7
  6
CONTINUOUS
 10
47.5930522423
 20
67.7145102845
 11
25.3426522423
 21
67.7145102845
  0
LINE
  5
236
100
AcDbEntity
  8
SHELL23
100
AcDbLine
 62
7
  6
CONTINUOUS
 10
90.1888522423
 20
67.7399102845
 11
60.4708522423
 21
67.7399102845
  0
LINE
  5
237
100
AcDbEntity
  8
SHELL23
100
AcDbLine
 62
7
  6
CONTINUOUS
 10
51.3268522423
 20
67.7399102845
 11
21.6088522423
 21
67.7399102845
  0
LINE
  5
238
100
AcDbEntity
  8
SHELL23
100
AcDbLine
 62
7
  6
CONTINUOUS
 10
29.1355038236
 20
102.3474102845
 11
32.801678033
 21
95.9974102845
  0
LINE
  5
239
100
AcDbEntity
  8
SHELL23
100
AcDbLine
 62
7
  6
CONTINUOUS
 10
47.5930522423
 20
44.2449102845
 11
47.5930522423
 21
67.7145102845
  0
LINE
  5
23A
100
AcDbEntity
  8
SHELL23
100
AcDbLine
 62
7
  6
CONTINUOUS
 10
47.7073522423
 20
114.0949102845
 11
47.7073522423
 21
90.6253102845
  0
LINE
  5
23B
100
AcDbEntity
  8
SHELL23
100
AcDbLine
 62
7
  6
CONTINUOUS
 10
51.3268522423
 20
114.0949102845
 11
51.3268522423
 21
44.2449102845
  0
LINE
  5
23C
100
AcDbEntity
  8
SHELL23
100
AcDbLine
 62
7
  6
CONTINUOUS
 10
53.8668522423
 20
129.9699102819
 11
53.8668522423
 21
118.1905372206
  0
LINE
  5
23D
100
AcDbEntity
  8
SHELL23
100
AcDbLine
 62
7
  6
CONTINUOUS
 10
53.8668522423
 20
109.9992833483
 11
53.8668522423
 21
83.2655372206
  0
LINE
  5
23E
100
AcDbEntity
  8
SHELL23
100
AcDbLine
 62
7
  6
CONTINUOUS
 10
53.8668522423
 20
75.0742833483
 11
53.8668522423
 21
48.3405372206
  0
LINE
  5
23F
100
AcDbEntity
  8
SHELL23
100
AcDbLine
 62
7
  6
CONTINUOUS
 10
53.8668522423
 20
40.1492833483
 11
53.8668522423
 21
28.3699102845
  0
LINE
  5
240
100
AcDbEntity
  8
SHELL23
100
AcDbLine
 62
7
  6
CONTINUOUS
 10
71.663678033
 20
108.6974102845
 11
67.9975038236
 21
102.3474102845
  0
LINE
  5
241
100
AcDbEntity
  8
SHELL23
100
AcDbLine
 62
7
  6
CONTINUOUS
 10
71.663678033
 20
49.6424102845
 11
67.9975038236
 21
55.9924102845
  0
LINE
  5
242
100
AcDbEntity
  8
SHELL23
100
AcDbLine
 62
7
  6
CONTINUOUS
 10
57.9308522423
 20
129.9699102845
 11
57.9308522423
 21
118.1905372206
  0
LINE
  5
243
100
AcDbEntity
  8
SHELL23
100
AcDbLine
 62
7
  6
CONTINUOUS
 10
57.9308522423
 20
109.9992833483
 11
57.9308522423
 21
83.2655372206
  0
LINE
  5
244
100
AcDbEntity
  8
SHELL23
100
AcDbLine
 62
7
  6
CONTINUOUS
 10
57.9308522423
 20
75.0742833483
 11
57.9308522423
 21
48.3405372206
  0
LINE
  5
245
100
AcDbEntity
  8
SHELL23
100
AcDbLine
 62
7
  6
CONTINUOUS
 10
57.9308522423
 20
40.1492833483
 11
57.9308522423
 21
28.3699102845
  0
LINE
  5
246
100
AcDbEntity
  8
SHELL23
100
AcDbLine
 62
7
  6
CONTINUOUS
 10
60.4708522423
 20
114.0949102845
 11
60.4708522423
 21
44.2449102845
  0
LINE
  5
247
100
AcDbEntity
  8
SHELL23
100
AcDbLine
 62
7
  6
CONTINUOUS
 10
43.800200661
 20
55.9924102845
 11
40.1340264517
 21
49.6424102845
  0
LINE
  5
248
100
AcDbEntity
  8
SHELL23
100
AcDbLine
 62
7
  6
CONTINUOUS
 10
40.1340264517
 20
108.6974102845
 11
43.800200661
 21
102.3474102845
  0
LINE
  5
249
100
AcDbEntity
  8
SHELL23
100
AcDbLine
 62
7
  6
CONTINUOUS
 10
64.0903522423
 20
114.0949102845
 11
64.0903522423
 21
90.6253102845
  0
LINE
  5
24A
100
AcDbEntity
  8
SHELL23
100
AcDbLine
 62
7
  6
CONTINUOUS
 10
64.2046522423
 20
44.2449102845
 11
64.2046522423
 21
67.7145102845
  0
LINE
  5
24B
100
AcDbEntity
  8
SHELL23
100
AcDbLine
 62
7
  6
CONTINUOUS
 10
82.662200661
 20
102.3474102845
 11
78.9960264517
 21
95.9974102845
  0
LINE
  5
24C
100
AcDbEntity
  8
SHELL23
100
AcDbLine
 62
7
  6
CONTINUOUS
 10
90.1888522423
 20
90.5999102845
 11
60.4708522423
 21
90.5999102845
  0
LINE
  5
24D
100
AcDbEntity
  8
SHELL23
100
AcDbLine
 62
7
  6
CONTINUOUS
 10
51.3268522423
 20
90.5999102845
 11
21.6088522423
 21
90.5999102845
  0
LINE
  5
24E
100
AcDbEntity
  8
SHELL23
100
AcDbLine
 62
7
  6
CONTINUOUS
 10
86.5693522423
 20
90.6253102845
 11
64.0903522423
 21
90.6253102845
  0
LINE
  5
24F
100
AcDbEntity
  8
SHELL23
100
AcDbLine
 62
7
  6
CONTINUOUS
 10
47.7073522423
 20
90.6253102845
 11
25.2283522423
 21
90.6253102845
  0
LINE
  5
250
100
AcDbEntity
  8
SHELL23
100
AcDbLine
 62
7
  6
CONTINUOUS
 10
82.662200661
 20
55.9924102845
 11
78.9960264517
 21
62.3424102845
  0
LINE
  5
251
100
AcDbEntity
  8
SHELL23
100
AcDbLine
 62
7
  6
CONTINUOUS
 10
78.9960264517
 20
95.9974102845
 11
71.663678033
 21
95.9974102845
  0
LINE
  5
252
100
AcDbEntity
  8
SHELL23
100
AcDbLine
 62
7
  6
CONTINUOUS
 10
40.1340264517
 20
95.9974102845
 11
32.801678033
 21
95.9974102845
  0
LINE
  5
253
100
AcDbEntity
  8
SHELL23
100
AcDbLine
 62
7
  6
CONTINUOUS
 10
71.663678033
 20
62.3424102845
 11
67.9975038236
 21
55.9924102845
  0
LINE
  5
254
100
AcDbEntity
  8
SHELL23
100
AcDbLine
 62
7
  6
CONTINUOUS
 10
67.9975038236
 20
102.3474102845
 11
71.663678033
 21
95.9974102845
  0
LINE
  5
255
100
AcDbEntity
  8
SHELL23
100
AcDbLine
 62
7
  6
CONTINUOUS
 10
86.4550522423
 20
44.2449102845
 11
86.4550522423
 21
67.7145102845
  0
LINE
  5
256
100
AcDbEntity
  8
SHELL23
100
AcDbLine
 62
7
  6
CONTINUOUS
 10
86.5693522423
 20
114.0949102845
 11
86.5693522423
 21
90.6253102845
  0
LINE
  5
257
100
AcDbEntity
  8
SHELL23
100
AcDbLine
 62
7
  6
CONTINUOUS
 10
90.1888522423
 20
107.7449102845
 11
60.4708522423
 21
107.7449102845
  0
LINE
  5
258
100
AcDbEntity
  8
SHELL23
100
AcDbLine
 62
7
  6
CONTINUOUS
 10
51.3268522423
 20
107.7449102845
 11
21.6088522423
 21
107.7449102845
  0
LINE
  5
259
100
AcDbEntity
  8
SHELL23
100
AcDbLine
 62
7
  6
CONTINUOUS
 10
78.9960264517
 20
108.6974102845
 11
71.663678033
 21
108.6974102845
  0
LINE
  5
25A
100
AcDbEntity
  8
SHELL23
100
AcDbLine
 62
7
  6
CONTINUOUS
 10
40.1340264517
 20
108.6974102845
 11
32.801678033
 21
108.6974102845
  0
LINE
  5
25B
100
AcDbEntity
  8
SHELL23
100
AcDbLine
 62
7
  6
CONTINUOUS
 10
11.8552522423
 20
110.1579102845
 11
11.8298522423
 21
110.1579102845
  0
LINE
  5
25C
100
AcDbEntity
  8
SHELL23
100
AcDbLine
 62
7
  6
CONTINUOUS
 10
90.1888522423
 20
114.0949102845
 11
90.1888522423
 21
44.2449102845
  0
LINE
  5
25D
100
AcDbEntity
  8
SHELL23
100
AcDbLine
 62
7
  6
CONTINUOUS
 10
82.662200661
 20
55.9924102845
 11
78.9960264517
 21
49.6424102845
  0
LINE
  5
25E
100
AcDbEntity
  8
SHELL23
100
AcDbLine
 62
7
  6
CONTINUOUS
 10
90.1888522423
 20
114.0949102845
 11
60.4708522423
 21
114.0949102845
  0
LINE
  5
25F
100
AcDbEntity
  8
SHELL23
100
AcDbLine
 62
7
  6
CONTINUOUS
 10
51.3268522423
 20
114.0949102845
 11
21.6088522423
 21
114.0949102845
  0
LINE
  5
260
100
AcDbEntity
  8
SHELL23
100
AcDbLine
 62
7
  6
CONTINUOUS
 10
78.9960264517
 20
108.6974102845
 11
82.662200661
 21
102.3474102845
  0
LINE
  5
261
100
AcDbEntity
  8
SHELL23
100
AcDbLine
 62
7
  6
CONTINUOUS
 10
92.7288522423
 20
129.9699102845
 11
92.7288522423
 21
118.1905372206
  0
LINE
  5
262
100
AcDbEntity
  8
SHELL23
100
AcDbLine
 62
7
  6
CONTINUOUS
 10
92.7288522423
 20
109.9992833483
 11
92.7288522423
 21
83.2655372206
  0
LINE
  5
263
100
AcDbEntity
  8
SHELL23
100
AcDbLine
 62
7
  6
CONTINUOUS
 10
92.7288522423
 20
75.0742833483
 11
92.7288522423
 21
48.3405372206
  0
LINE
  5
264
100
AcDbEntity
  8
SHELL23
100
AcDbLine
 62
7
  6
CONTINUOUS
 10
92.7288522423
 20
40.1492833483
 11
92.7288522423
 21
28.3699102845
  0
LINE
  5
265
100
AcDbEntity
  8
SHELL23
100
AcDbLine
 62
7
  6
CONTINUOUS
 10
11.8552522423
 20
117.2699102819
 11
11.8298522423
 21
117.2699102819
  0
LINE
  5
266
100
AcDbEntity
  8
SHELL23
100
AcDbLine
 62
7
  6
CONTINUOUS
 10
99.9678522423
 20
119.8099102845
 11
92.7288522423
 21
119.8099102845
  0
LINE
  5
267
100
AcDbEntity
  8
SHELL23
100
AcDbLine
 62
7
  6
CONTINUOUS
 10
57.9308522423
 20
119.8099102845
 11
53.8668522423
 21
119.8099102845
  0
LINE
  5
268
100
AcDbEntity
  8
SHELL23
100
AcDbLine
 62
7
  6
CONTINUOUS
 10
19.0688522423
 20
119.8099102845
 11
11.8298522423
 21
119.8099102845
  0
LINE
  5
269
100
AcDbEntity
  8
SHELL23
100
AcDbLine
 62
7
  6
CONTINUOUS
 10
99.9678522423
 20
129.9699102845
 11
99.9678522423
 21
28.3699102845
  0
LINE
  5
26A
100
AcDbEntity
  8
SHELL23
100
AcDbLine
 62
7
  6
CONTINUOUS
 10
99.9678522423
 20
129.9699102845
 11
11.8298522423
 21
129.9699102845
  0
CIRCLE
  5
26B
100
AcDbEntity
  8
SHELL23
100
AcDbCircle
 62
7
  6
CONTINUOUS
 10
36.4678522423
 20
55.9924102845
 40
11.1125
  0
CIRCLE
  5
26C
100
AcDbEntity
  8
SHELL23
100
AcDbCircle
 62
7
  6
CONTINUOUS
 10
36.4678522423
 20
36.2439102845
 40
5.1562
  0
ARC
  5
26D
100
AcDbEntity
  8
SHELL23
100
AcDbCircle
 62
7
  6
CONTINUOUS
 10
17.0368522423
 20
44.2449102845
 40
4.572
100
AcDbArc
 50
296.3877999612
 51
63.6122000388
  0
CIRCLE
  5
26E
100
AcDbEntity
  8
SHELL23
100
AcDbCircle
 62
7
  6
CONTINUOUS
 10
36.4678522423
 20
36.2439102845
 40
2.5781
  0
CIRCLE
  5
26F
100
AcDbEntity
  8
SHELL23
100
AcDbCircle
 62
7
  6
CONTINUOUS
 10
36.4678522423
 20
102.3474102845
 40
11.1125
  0
CIRCLE
  5
270
100
AcDbEntity
  8
SHELL23
100
AcDbCircle
 62
7
  6
CONTINUOUS
 10
36.4678522423
 20
79.1699102845
 40
6.35
  0
CIRCLE
  5
271
100
AcDbEntity
  8
SHELL23
100
AcDbCircle
 62
7
  6
CONTINUOUS
 10
36.4678522423
 20
122.0959102845
 40
5.1562
  0
ARC
  5
272
100
AcDbEntity
  8
SHELL23
100
AcDbCircle
 62
7
  6
CONTINUOUS
 10
17.0368522423
 20
79.1699102845
 40
4.572
100
AcDbArc
 50
296.3877999612
 51
63.6122000388
  0
ARC
  5
273
100
AcDbEntity
  8
SHELL23
100
AcDbCircle
 62
7
  6
CONTINUOUS
 10
17.0368522423
 20
114.0949102845
 40
4.572
100
AcDbArc
 50
296.3877999612
 51
63.6122000388
  0
CIRCLE
  5
274
100
AcDbEntity
  8
SHELL23
100
AcDbCircle
 62
7
  6
CONTINUOUS
 10
36.4678522423
 20
122.0959102845
 40
2.5781
  0
CIRCLE
  5
275
100
AcDbEntity
  8
SHELL23
100
AcDbCircle
 62
7
  6
CONTINUOUS
 10
75.3298522423
 20
55.9924102845
 40
11.1125
  0
CIRCLE
  5
276
100
AcDbEntity
  8
SHELL23
100
AcDbCircle
 62
7
  6
CONTINUOUS
 10
75.3298522423
 20
36.2439102845
 40
5.1562
  0
ARC
  5
277
100
AcDbEntity
  8
SHELL23
100
AcDbCircle
 62
7
  6
CONTINUOUS
 10
94.7608522423
 20
44.2449102845
 40
4.572
100
AcDbArc
 50
116.3877999612
 51
243.6122000388
  0
ARC
  5
278
100
AcDbEntity
  8
SHELL23
100
AcDbCircle
 62
7
  6
CONTINUOUS
 10
55.8988522423
 20
44.2449102845
 40
4.572
100
AcDbArc
 50
116.3877999612
 51
243.6122000388
  0
ARC
  5
279
100
AcDbEntity
  8
SHELL23
100
AcDbCircle
 62
7
  6
CONTINUOUS
 10
55.8988522423
 20
44.2449102845
 40
4.572
100
AcDbArc
 50
296.3877999612
 51
63.6122000388
  0
CIRCLE
  5
27A
100
AcDbEntity
  8
SHELL23
100
AcDbCircle
 62
7
  6
CONTINUOUS
 10
75.3298522423
 20
36.2439102845
 40
2.5781
  0
ARC
  5
27B
100
AcDbEntity
  8
SHELL23
100
AcDbCircle
 62
7
  6
CONTINUOUS
 10
55.8988522423
 20
79.1699102845
 40
4.572
100
AcDbArc
 50
116.3877999612
 51
243.6122000388
  0
ARC
  5
27C
100
AcDbEntity
  8
SHELL23
100
AcDbCircle
 62
7
  6
CONTINUOUS
 10
55.8988522423
 20
79.1699102845
 40
4.572
100
AcDbArc
 50
296.3877999612
 51
63.6122000388
  0
ARC
  5
27D
100
AcDbEntity
  8
SHELL23
100
AcDbCircle
 62
7
  6
CONTINUOUS
 10
55.8988522423
 20
114.0949102845
 40
4.572
100
AcDbArc
 50
296.3877999612
 51
63.6122000388
  0
ARC
  5
27E
100
AcDbEntity
  8
SHELL23
100
AcDbCircle
 62
7
  6
CONTINUOUS
 10
55.8988522423
 20
114.0949102845
 40
4.572
100
AcDbArc
 50
116.3877999612
 51
243.6122000388
  0
CIRCLE
  5
27F
100
AcDbEntity
  8
SHELL23
100
AcDbCircle
 62
7
  6
CONTINUOUS
 10
75.3298522423
 20
79.1699102845
 40
6.35
  0
ARC
  5
280
100
AcDbEntity
  8
SHELL23
100
AcDbCircle
 62
7
  6
CONTINUOUS
 10
94.7608522423
 20
79.1699102845
 40
4.572
100
AcDbArc
 50
116.3877999612
 51
243.6122000388
  0
CIRCLE
  5
281
100
AcDbEntity
  8
SHELL23
100
AcDbCircle
 62
7
  6
CONTINUOUS
 10
75.3298522423
 20
102.3474102845
 40
11.1125
  0
CIRCLE
  5
282
100
AcDbEntity
  8
SHELL23
100
AcDbCircle
 62
7
  6
CONTINUOUS
 10
75.3298522423
 20
122.0959102845
 40
5.1562
  0
ARC
  5
283
100
AcDbEntity
  8
SHELL23
100
AcDbCircle
 62
7
  6
CONTINUOUS
 10
94.7608522423
 20
114.0949102845
 40
4.572
100
AcDbArc
 50
116.3877999612
 51
243.6122000388
  0
CIRCLE
  5
284
100
AcDbEntity
  8
SHELL23
100
AcDbCircle
 62
7
  6
CONTINUOUS
 10
75.3298522423
 20
122.0959102845
 40
2.5781
  0
SPLINE
  5
285
100
AcDbEntity
  8
SHELL23
100
AcDbSpline
 62
7
  6
CONTINUOUS
 70
0
 71
3
 72
12
 73
8
 74
0
 42
0.0000001
 43
0.0000001
 44
0.0000000001
 40
0.0
 40
0.0
 40
0.0
 40
0.0
 40
0.2003310331
 40
0.4001684217
 40
0.5998500309
 40
0.7996812575
 40
1.0
 40
1.0
 40
1.0
 40
1.0
 10
90.1888522423
 20
114.0949102845
 30
0.0
 10
90.1899376519
 20
113.7566464303
 30
0.0
 10
90.2639758878
 20
113.0785497466
 30
0.0
 10
90.5987239959
 20
112.1139409184
 30
0.0
 10
91.1365052611
 20
111.2468140076
 30
0.0
 10
91.8518219937
 20
110.5182657404
 30
0.0
 10
92.426333227
 20
110.1505837739
 30
0.0
 10
92.7288522423
 20
109.9992833483
 30
0.0
  0
SPLINE
  5
286
100
AcDbEntity
  8
SHELL23
100
AcDbSpline
 62
7
  6
CONTINUOUS
 70
0
 71
3
 72
12
 73
8
 74
0
 42
0.0000001
 43
0.0000001
 44
0.0000000001
 40
0.0
 40
0.0
 40
0.0
 40
0.0
 40
0.2003310331
 40
0.4001684217
 40
0.5998500309
 40
0.7996812575
 40
1.0
 40
1.0
 40
1.0
 40
1.0
 10
92.7288522423
 20
118.1905372206
 30
0.0
 10
92.4263157156
 20
118.039225413
 30
0.0
 10
91.851778238
 20
117.6715251824
 30
0.0
 10
91.1364523972
 20
116.9429406445
 30
0.0
 10
90.5986884423
 20
116.0758029983
 30
0.0
 10
90.2639687776
 20
115.1112184495
 30
0.0
 10
90.1899352387
 20
114.4331533931
 30
0.0
 10
90.1888522423
 20
114.0949102845
 30
0.0
  0
ENDSEC
  0
SECTION
  2
OBJECTS
  0
DICTIONARY
  5
C
100
AcDbDictionary
280
0
281
1
  3
ACAD_GROUP
350
D
  3
ACAD_MLINESTYLE
350
17
  3
ACAD_LAYOUT
350
1A
  3
ACAD_PLOTSETTINGS
350
19
  3
ACAD_PLOTSTYLENAME
350
E
  0
DICTIONARY
  5
D
102
{ACAD_REACTORS
330
C
102
}
100
AcDbDictionary
280
0
281
1
  0
ACDBDICTIONARYWDFLT
  5
E
102
{ACAD_REACTORS
330
C
102
}
100
AcDbDictionary
281
1
  3
Normal
350
F
100
AcDbDictionaryWithDefault
340
F
  0
DICTIONARY
  5
17
102
{ACAD_REACTORS
330
C
102
}
100
AcDbDictionary
280
0
281
1
  3
Standard
350
18
  0
DICTIONARY
  5
19
102
{ACAD_REACTORS
330
C
102
}
100
AcDbDictionary
281
1
  0
DICTIONARY
  5
1A
102
{ACAD_REACTORS
330
C
102
}
100
AcDbDictionary
281
1
  3
Model
350
287
  3
Layout1
350
288
  0
ACDBPLACEHOLDER
  5
F
102
{ACAD_REACTORS
330
E
102
}
  0
MLINESTYLE
  5
18
102
{ACAD_REACTORS
330
17
102
}
100
AcDbMlineStyle
  2
STANDARD
 70
0
  3

 62
256
 51
90.0
 52
90.0
 71
2
 49
0.5
 62
256
  6
BYLAYER
 49
-0.5
 62
256
  6
BYLAYER
  0
LAYOUT
  5
287
102
{ACAD_REACTORS
330
1A
102
}
100
AcDbPlotSettings
  1

  2
none_device
  4

  6

 40
0.0
 41
0.0
 42
0.0
 43
0.0
 44
210.0
 45
297.0
 46
0.0
 47
0.0
 48
0.0
 49
0.0
140
0.0
141
0.0
142
1.0
143
1.0
 70
1024
 72
1
 73
0
 74
0
  7

 75
0
147
1.0
148
0.0
149
0.0
100
AcDbLayout
  1
Model
 70
0
 71
0
 10
0.0
 20
0.0
 11
210.0
 21
297.0
 12
0.0
 22
0.0
 32
0.0
 14
0.0
 24
0.0
 34
0.0
 15
0.0
 25
0.0
 35
0.0
146
0.0
 13
0.0
 23
0.0
 33
0.0
 16
1.0
 26
0.0
 36
0.0
 17
0.0
 27
1.0
 37
0.0
 76
0
330
211
345
0
346
0
  0
LAYOUT
  5
288
102
{ACAD_REACTORS
330
1A
102
}
100
AcDbPlotSettings
  1

  2
none_device
  4

  6

 40
0.0
 41
0.0
 42
0.0
 43
0.0
 44
210.0
 45
297.0
 46
0.0
 47
0.0
 48
0.0
 49
0.0
140
0.0
141
0.0
142
1.0
143
1.0
 70
0
 72
1
 73
0
 74
0
  7

 75
0
147
1.0
148
0.0
149
0.0
100
AcDbLayout
  1
Layout1
 70
0
 71
1
 10
0.0
 20
0.0
 11
210.0
 21
297.0
 12
0.0
 22
0.0
 32
0.0
 14
0.0
 24
0.0
 34
0.0
 15
0.0
 25
0.0
 35
0.0
146
0.0
 13
0.0
 23
0.0
 33
0.0
 16
1.0
 26
0.0
 36
0.0
 17
0.0
 27
1.0
 37
0.0
 76
0
330
212
345
0
346
0
  0
ENDSEC
  0
EOF
