999
DXF file: C:\Users\sesa63760\Dev\_Creo\CAD\MCADPD0005320_3D-CAD\drw0001_1.dxf
999
Pro/ENGINEER 2019471 by Parametric Technology Corporation
  0
SECTION
  2
HEADER
  9
$ACADVER
  1
AC1024
  9
$DWGCODEPAGE
  3
ANSI_1252
  9
$EXTMAX
 10
428.1108827655
 20
605.4711056255
 30
0.0
  9
$EXTMIN
 10
0.0
 20
0.0
 30
0.0
  9
$LIMMIN
 10
0.0
 20
0.0
  9
$LIMMAX
 10
428.1108827655
 20
605.4711056255
  9
$VIEWCTR
 10
214.0554413828
 20
302.7355528128
  9
$VIEWSIZE
 40
605.4711056255
  9
$CLAYER
  8
0
  9
$LTSCALE
 40
39.4677461445
  9
$CELTYPE
  6
BYLAYER
  9
$DIMSCALE
 40
1.0
  9
$DIMASZ
 40
5.0965581282
  9
$DIMEXO
 40
1.0
  9
$DIMDLI
 40
27.2686246089
  9
$DIMEXE
 40
1.0
  9
$DIMCEN
 40
6.45835846
  9
$DIMLFAC
 40
1.0
  9
$DIMBLK
  1
_FILLED
  9
$DIMALT
 70
0
  9
$DIMALTF
 40
0.0393700787
  9
$DIMTXT
 40
7.1351813794
  9
$DIMTOL
 70
1
  9
$DIMLIM
 70
0
  9
$DIMTFAC
 40
1.0
  9
$DIMTP
 40
0.01
  9
$DIMTM
 40
0.01
  9
$DIMGAP
 40
0.625
  9
$DIMDSEP
 70
46
  9
$AUNITS
 70
0
  9
$PDMODE
 70
3
  9
$PDSIZE
 40
0.3125
  9
$HANDSEED
  5
39D
  9
$TILEMODE
 70
1
  9
$MEASUREMENT
 70
1
  9
$INSUNITS
 70
4
  0
ENDSEC
  0
SECTION
  2
CLASSES
  0
CLASS
  1
ACDBDICTIONARYWDFLT
  2
AcDbDictionaryWithDefault
  3
AutoCAD 2000
 90
0
 91
1
280
0
281
0
  0
CLASS
  1
ACDBPLACEHOLDER
  2
AcDbPlaceHolder
  3
AutoCAD 2000
 90
0
 91
1
280
0
281
0
  0
CLASS
  1
LAYOUT
  2
AcDbLayout
  3
AutoCAD 2000
 90
0
 91
0
280
0
281
0
  0
ENDSEC
  0
SECTION
  2
TABLES
  0
TABLE
  2
VPORT
  5
8
100
AcDbSymbolTable
 70
2
  0
VPORT
  5
1F4
100
AcDbSymbolTableRecord
100
AcDbViewportTableRecord
  2
*ACTIVE
 70
0
 10
0.0
 20
0.0
 11
1.0
 21
1.0
 12
214.0554413828
 22
302.7355528128
 13
0.0
 23
0.0
 14
1.0
 24
1.0
 15
0.0
 25
0.0
 16
0.0
 26
0.0
 36
1.0
 17
0.0
 27
0.0
 37
0.0
 40
605.4711056255
 41
0.7070707071
 42
50.0
 43
0.0
 44
0.0
 50
0.0
 51
0.0
 71
0
 72
100
 73
1
 74
1
 75
0
 76
0
 77
0
 78
0
  0
ENDTAB
  0
TABLE
  2
LTYPE
  5
5
100
AcDbSymbolTable
 70
6
  0
LTYPE
  5
14
100
AcDbSymbolTableRecord
100
AcDbLinetypeTableRecord
  2
BYBLOCK
 70
0
  3

 72
65
 73
0
 40
0.0
  0
LTYPE
  5
15
100
AcDbSymbolTableRecord
100
AcDbLinetypeTableRecord
  2
BYLAYER
 70
0
  3

 72
65
 73
0
 40
0.0
  0
LTYPE
  5
16
100
AcDbSymbolTableRecord
100
AcDbLinetypeTableRecord
  2
CONTINUOUS
 70
64
  3
Solid line
 72
65
 73
0
 40
0.0
  0
LTYPE
  5
1F5
100
AcDbSymbolTableRecord
100
AcDbLinetypeTableRecord
  2
CENTER
 70
64
  3
____ _ ____ _ ____ _ ____ _ ____ _ ____ _ ____
 72
65
 73
4
 40
0.6
 49
0.375
 74
0
 49
-0.075
 74
0
 49
0.075
 74
0
 49
-0.075
 74
0
  0
LTYPE
  5
1F6
100
AcDbSymbolTableRecord
100
AcDbLinetypeTableRecord
  2
HIDDEN
 70
64
  3
- - - - - - - - - - - - - - - - - - - -
 72
65
 73
2
 40
0.2
 49
0.1
 74
0
 49
-0.1
 74
0
  0
LTYPE
  5
1F7
100
AcDbSymbolTableRecord
100
AcDbLinetypeTableRecord
  2
PHANTOM
 70
64
  3
_____ _ _ _____ _ _ _____ _ _ _____
 72
65
 73
6
 40
0.8
 49
0.45
 74
0
 49
-0.05
 74
0
 49
0.1
 74
0
 49
-0.05
 74
0
 49
0.1
 74
0
 49
-0.05
 74
0
  0
LTYPE
  5
1F8
100
AcDbSymbolTableRecord
100
AcDbLinetypeTableRecord
  2
DOT
 70
64
  3
. . . . . . . . . . . . . . . . . . . .
 72
65
 73
2
 40
0.2
 49
0.1
 74
0
 49
-0.1
 74
0
  0
LTYPE
  5
1F9
100
AcDbSymbolTableRecord
100
AcDbLinetypeTableRecord
  2
DASHED
 70
64
  3
- - - - - - - - - - - - - - - - - - - -
 72
65
 73
2
 40
0.2
 49
0.1
 74
0
 49
-0.1
 74
0
  0
ENDTAB
  0
TABLE
  2
LAYER
  5
2
100
AcDbSymbolTable
 70
36
  0
LAYER
  5
10
100
AcDbSymbolTableRecord
100
AcDbLayerTableRecord
  2
0
 70
0
 62
7
  6
CONTINUOUS
370
-3
390
F
  0
LAYER
  5
1FA
100
AcDbSymbolTableRecord
100
AcDbLayerTableRecord
  2
DEFAULT_1
 70
0
 62
7
  6
CENTER
370
-3
390
F
  0
LAYER
  5
1FB
100
AcDbSymbolTableRecord
100
AcDbLayerTableRecord
  2
DEFAULT_2
 70
0
 62
7
  6
HIDDEN
370
-3
390
F
  0
LAYER
  5
1FC
100
AcDbSymbolTableRecord
100
AcDbLayerTableRecord
  2
DEFAULT_3
 70
0
 62
7
  6
PHANTOM
370
-3
390
F
  0
LAYER
  5
1FD
100
AcDbSymbolTableRecord
100
AcDbLayerTableRecord
  2
00_COMPONENTS
 70
0
 62
7
  6
CONTINUOUS
370
-3
390
F
  0
LAYER
  5
1FE
100
AcDbSymbolTableRecord
100
AcDbLayerTableRecord
  2
01_1_DEFAULT_DATUMS
 70
0
 62
7
  6
CONTINUOUS
370
-3
390
F
  0
LAYER
  5
1FF
100
AcDbSymbolTableRecord
100
AcDbLayerTableRecord
  2
01_PLANES
 70
0
 62
7
  6
CONTINUOUS
370
-3
390
F
  0
LAYER
  5
200
100
AcDbSymbolTableRecord
100
AcDbLayerTableRecord
  2
02_COORD_SYS
 70
0
 62
7
  6
CONTINUOUS
370
-3
390
F
  0
LAYER
  5
201
100
AcDbSymbolTableRecord
100
AcDbLayerTableRecord
  2
03_AXES
 70
0
 62
7
  6
CONTINUOUS
370
-3
390
F
  0
LAYER
  5
202
100
AcDbSymbolTableRecord
100
AcDbLayerTableRecord
  2
04_POINTS
 70
0
 62
7
  6
CONTINUOUS
370
-3
390
F
  0
LAYER
  5
203
100
AcDbSymbolTableRecord
100
AcDbLayerTableRecord
  2
05_CURVES
 70
0
 62
7
  6
CONTINUOUS
370
-3
390
F
  0
LAYER
  5
204
100
AcDbSymbolTableRecord
100
AcDbLayerTableRecord
  2
06_SURFS
 70
0
 62
7
  6
CONTINUOUS
370
-3
390
F
  0
LAYER
  5
205
100
AcDbSymbolTableRecord
100
AcDbLayerTableRecord
  2
07_COSMETICS
 70
0
 62
7
  6
CONTINUOUS
370
-3
390
F
  0
LAYER
  5
206
100
AcDbSymbolTableRecord
100
AcDbLayerTableRecord
  2
10_NOTES
 70
0
 62
7
  6
CONTINUOUS
370
-3
390
F
  0
LAYER
  5
207
100
AcDbSymbolTableRecord
100
AcDbLayerTableRecord
  2
11_NOTES_PUB
 70
0
 62
7
  6
CONTINUOUS
370
-3
390
F
  0
LAYER
  5
208
100
AcDbSymbolTableRecord
100
AcDbLayerTableRecord
  2
13_REF_GTOL
 70
0
 62
7
  6
CONTINUOUS
370
-3
390
F
  0
LAYER
  5
209
100
AcDbSymbolTableRecord
100
AcDbLayerTableRecord
  2
16_MISC
 70
0
 62
7
  6
CONTINUOUS
370
-3
390
F
  0
LAYER
  5
20A
100
AcDbSymbolTableRecord
100
AcDbLayerTableRecord
  2
17_NO_PRINT
 70
0
 62
7
  6
CONTINUOUS
370
-3
390
F
  0
LAYER
  5
20B
100
AcDbSymbolTableRecord
100
AcDbLayerTableRecord
  2
18_DATUM_CAMS_JOINTS
 70
0
 62
7
  6
CONTINUOUS
370
-3
390
F
  0
LAYER
  5
20C
100
AcDbSymbolTableRecord
100
AcDbLayerTableRecord
  2
19_DATUM_FUNCTIONAL
 70
0
 62
7
  6
CONTINUOUS
370
-3
390
F
  0
LAYER
  5
20D
100
AcDbSymbolTableRecord
100
AcDbLayerTableRecord
  2
20_DATUM_KINEMATIC_SCHEME
 70
0
 62
7
  6
CONTINUOUS
370
-3
390
F
  0
ENDTAB
  0
TABLE
  2
STYLE
  5
3
100
AcDbSymbolTable
 70
1
  0
STYLE
  5
11
100
AcDbSymbolTableRecord
100
AcDbTextStyleTableRecord
  2
STANDARD
 70
0
 40
0.0
 41
1.0
 50
0.0
 71
0
 42
0.2
  3
ARIAL.TTF
  4

  0
STYLE
  5
20E
100
AcDbSymbolTableRecord
100
AcDbTextStyleTableRecord
  2
TEXTSTYLE_1
 70
0
 40
0.0
 41
0.8
 50
0.0
 71
0
 42
0.2
  3
gdt
  4

  0
ENDTAB
  0
TABLE
  2
VIEW
  5
6
100
AcDbSymbolTable
 70
0
  0
ENDTAB
  0
TABLE
  2
UCS
  5
7
100
AcDbSymbolTable
 70
0
  0
ENDTAB
  0
TABLE
  2
APPID
  5
9
100
AcDbSymbolTable
 70
1
  0
APPID
  5
20F
100
AcDbSymbolTableRecord
100
AcDbRegAppTableRecord
  2
ACAD
 70
0
  0
ENDTAB
  0
TABLE
  2
BLOCK_RECORD
  5
1
100
AcDbSymbolTable
 70
0
  0
BLOCK_RECORD
  5
210
100
AcDbSymbolTableRecord
100
AcDbBlockTableRecord
  2
*Model_Space
  0
BLOCK_RECORD
  5
211
100
AcDbSymbolTableRecord
100
AcDbBlockTableRecord
  2
*Paper_Space
  0
BLOCK_RECORD
  5
212
100
AcDbSymbolTableRecord
100
AcDbBlockTableRecord
  2
_FILLED
  0
ENDTAB
  0
TABLE
  2
DIMSTYLE
  5
A
100
AcDbSymbolTable
 70
1
100
AcDbDimStyleTable
 71
0
  0
DIMSTYLE
105
213
100
AcDbSymbolTableRecord
100
AcDbDimStyleTableRecord
  2
STANDARD
 70
0
  3

  4

 40
1.0
 41
5.0965581282
 42
1.0
 43
0.38
 44
1.0
 45
0.0
 46
0.0
 47
0.01
 48
0.01
140
7.1351813794
141
0.09
142
0.0
143
25.4
144
1.0
145
0.0
146
1.0
147
0.625
 71
1
 72
0
 73
0
 74
0
 75
0
 76
0
 77
1
 78
8
 79
2
170
0
171
1
172
0
173
0
174
0
175
0
176
0
177
0
178
0
270
2
179
2
271
2
272
2
273
2
274
2
275
0
280
0
281
0
282
0
283
1
284
8
285
0
286
0
287
3
288
0
340
11
278
46
341
212
342
212
343
212
344
212
  0
ENDTAB
  0
ENDSEC
  0
SECTION
  2
BLOCKS
  0
BLOCK
  5
20
100
AcDbEntity
  8
0
100
AcDbBlockBegin
  2
*Model_Space
 70
0
 10
0.0
 20
0.0
 30
0.0
  3
*Model_Space
  1

  0
ENDBLK
  5
21
100
AcDbEntity
  8
0
100
AcDbBlockEnd
  0
BLOCK
  5
1C
100
AcDbEntity
  8
0
100
AcDbBlockBegin
  2
*Paper_Space
 70
0
 10
0.0
 20
0.0
 30
0.0
  3
*Paper_Space
  1

  0
ENDBLK
  5
1D
100
AcDbEntity
  8
0
100
AcDbBlockEnd
  0
BLOCK
  5
214
100
AcDbEntity
  8
0
100
AcDbBlockBegin
  2
_FILLED
 70
64
 10
0.0
 20
0.0
  3
_FILLED
  1

  0
SOLID
  5
215
100
AcDbEntity
  8
0
  6
BYBLOCK
 62
0
100
AcDbTrace
 10
0.0
 20
0.0
 11
-1.0
 21
0.25
 12
-1.0
 22
-0.25
 13
-1.0
 23
-0.25
  0
ENDBLK
  5
216
100
AcDbEntity
  8
0
  6
BYBLOCK
 62
0
100
AcDbBlockEnd
  0
ENDSEC
  0
SECTION
  2
ENTITIES
  0
LINE
  5
217
100
AcDbEntity
  8
0
100
AcDbLine
 62
7
  6
BYLAYER
 10
50.0986952498
 20
197.8614876376
 11
50.3915914126
 21
197.4532434837
  0
LINE
  5
218
100
AcDbEntity
  8
0
100
AcDbLine
 62
7
  6
BYLAYER
 10
53.9099720928
 20
201.0958187134
 11
55.7724811455
 21
196.2954937141
  0
LINE
  5
219
100
AcDbEntity
  8
0
100
AcDbLine
 62
7
  6
BYLAYER
 10
56.1260330641
 20
196.4996157911
 11
54.2635240114
 21
201.2999407903
  0
LINE
  5
21A
100
AcDbEntity
  8
0
100
AcDbLine
 62
7
  6
BYLAYER
 10
49.6658003346
 20
284.4551676389
 11
50.1280553807
 21
231.4157736784
  0
LINE
  5
21B
100
AcDbEntity
  8
0
100
AcDbLine
 62
7
  6
BYLAYER
 10
50.4053195492
 20
231.2324814091
 11
49.9586938952
 21
284.0502029431
  0
LINE
  5
21C
100
AcDbEntity
  8
0
100
AcDbLine
 62
7
  6
BYLAYER
 10
49.6658003346
 20
284.4551676389
 11
49.6657879465
 21
284.4581107218
  0
LINE
  5
21D
100
AcDbEntity
  8
0
100
AcDbLine
 62
7
  6
BYLAYER
 10
50.0986952498
 20
231.4276633487
 11
50.0986952498
 21
204.9642341761
  0
LINE
  5
21E
100
AcDbEntity
  8
0
100
AcDbLine
 62
7
  6
BYLAYER
 10
50.0986952498
 20
204.7192834509
 11
50.0986952498
 21
197.8614876376
  0
LINE
  5
21F
100
AcDbEntity
  8
0
100
AcDbLine
 62
7
  6
BYLAYER
 10
50.3915914126
 20
204.3110392971
 11
50.3915914126
 21
197.4532434837
  0
LINE
  5
220
100
AcDbEntity
  8
0
100
AcDbLine
 62
7
  6
BYLAYER
 10
50.3915914126
 20
204.5559900222
 11
50.4053195492
 21
231.2324814091
  0
LINE
  5
221
100
AcDbEntity
  8
0
100
AcDbLine
 62
7
  6
BYLAYER
 10
54.2161595854
 20
201.5314220941
 11
57.9411776909
 21
199.380830541
  0
LINE
  5
222
100
AcDbEntity
  8
0
100
AcDbLine
 62
7
  6
BYLAYER
 10
53.6037846001
 20
202.4565206503
 11
50.3915914126
 21
204.3110392971
  0
LINE
  5
223
100
AcDbEntity
  8
0
100
AcDbLine
 62
7
  6
BYLAYER
 10
58.5535526762
 20
199.5988353687
 11
61.7657458637
 21
197.744316722
  0
LINE
  5
224
100
AcDbEntity
  8
0
100
AcDbLine
 62
7
  6
BYLAYER
 10
53.4270071689
 20
202.8035315641
 11
50.3915914126
 21
204.5559900222
  0
LINE
  5
225
100
AcDbEntity
  8
0
100
AcDbLine
 62
7
  6
BYLAYER
 10
58.7303301075
 20
199.7417259052
 11
61.7657458637
 21
197.9892674471
  0
LINE
  5
226
100
AcDbEntity
  8
0
100
AcDbLine
 62
7
  6
BYLAYER
 10
63.5496215363
 20
197.9391411852
 11
63.3282227926
 21
198.0669629178
  0
LINE
  5
227
100
AcDbEntity
  8
0
100
AcDbLine
 62
7
  6
BYLAYER
 10
61.7382964374
 20
224.6952995823
 11
61.7657458637
 21
197.9892674471
  0
LINE
  5
228
100
AcDbEntity
  8
0
100
AcDbLine
 62
7
  6
BYLAYER
 10
53.4270071689
 20
202.8035315641
 11
53.4270071689
 21
228.2784069786
  0
LINE
  5
229
100
AcDbEntity
  8
0
100
AcDbLine
 62
7
  6
BYLAYER
 10
53.6037846001
 20
228.1763467899
 11
53.6037846001
 21
202.4565206503
  0
LINE
  5
22A
100
AcDbEntity
  8
0
100
AcDbLine
 62
7
  6
BYLAYER
 10
58.5535526762
 20
199.5988353687
 11
58.5535526762
 21
225.3186615083
  0
LINE
  5
22B
100
AcDbEntity
  8
0
100
AcDbLine
 62
7
  6
BYLAYER
 10
58.7303301075
 20
225.2166013197
 11
58.7303301075
 21
199.7417259052
  0
LINE
  5
22C
100
AcDbEntity
  8
0
100
AcDbLine
 62
7
  6
BYLAYER
 10
61.7657458637
 20
190.8865209086
 11
61.7657458637
 21
197.744316722
  0
LINE
  5
22D
100
AcDbEntity
  8
0
100
AcDbLine
 62
7
  6
BYLAYER
 10
63.1484429781
 20
224.3305094707
 11
63.1484429781
 21
197.9718520413
  0
LINE
  5
22E
100
AcDbEntity
  8
0
100
AcDbLine
 62
7
  6
BYLAYER
 10
63.1484429781
 20
197.7269013162
 11
63.1484429781
 21
190.8690944747
  0
LINE
  5
22F
100
AcDbEntity
  8
0
100
AcDbLine
 62
7
  6
BYLAYER
 10
63.5496215363
 20
197.9391411852
 11
63.5496215363
 21
198.1840919104
  0
LINE
  5
230
100
AcDbEntity
  8
0
100
AcDbLine
 62
7
  6
BYLAYER
 10
62.1986224982
 20
276.9812530084
 11
61.7382964374
 21
224.6952995823
  0
LINE
  5
231
100
AcDbEntity
  8
0
100
AcDbLine
 62
7
  6
BYLAYER
 10
50.3725750391
 20
197.1739198666
 11
50.3915914126
 21
197.4532434837
  0
LINE
  5
232
100
AcDbEntity
  8
0
100
AcDbLine
 62
7
  6
BYLAYER
 10
84.5554086984
 20
202.2106871427
 11
124.5215455993
 21
179.1367492468
  0
LINE
  5
233
100
AcDbEntity
  8
0
100
AcDbLine
 62
7
  6
BYLAYER
 10
84.7679734644
 20
202.426178093
 11
124.3144332785
 21
179.5945353946
  0
LINE
  5
234
100
AcDbEntity
  8
0
100
AcDbLine
 62
7
  6
BYLAYER
 10
77.7160990483
 20
232.7894378507
 11
78.1791952084
 21
285.3906163996
  0
LINE
  5
235
100
AcDbEntity
  8
0
100
AcDbLine
 62
7
  6
BYLAYER
 10
57.3161106572
 20
227.4619620587
 11
54.8412266192
 21
228.8908046995
  0
LINE
  5
236
100
AcDbEntity
  8
0
100
AcDbLine
 62
7
  6
BYLAYER
 10
54.8412266192
 20
229.0949303038
 11
57.3161106572
 21
227.666087663
  0
LINE
  5
237
100
AcDbEntity
  8
0
100
AcDbLine
 62
7
  6
BYLAYER
 10
49.9586478815
 20
284.0556444879
 11
49.6658003346
 21
284.4551676389
  0
LINE
  5
238
100
AcDbEntity
  8
0
100
AcDbLine
 62
7
  6
BYLAYER
 10
84.8394844083
 20
235.3293847531
 11
84.8394844114
 21
202.8207557707
  0
LINE
  5
239
100
AcDbEntity
  8
0
100
AcDbLine
 62
7
  6
BYLAYER
 10
87.9570460351
 20
235.0212442639
 11
87.9570460351
 21
235.7922477993
  0
LINE
  5
23A
100
AcDbEntity
  8
0
100
AcDbLine
 62
7
  6
BYLAYER
 10
88.378257687
 20
235.5929945873
 11
88.3782576876
 21
235.1662472243
  0
LINE
  5
23B
100
AcDbEntity
  8
0
100
AcDbLine
 62
7
  6
BYLAYER
 10
91.7873859217
 20
253.0491320481
 11
91.7873859217
 21
252.8826408783
  0
LINE
  5
23C
100
AcDbEntity
  8
0
100
AcDbLine
 62
7
  6
BYLAYER
 10
124.5215455993
 20
179.1367492468
 11
124.3144332785
 21
179.5945353946
  0
LINE
  5
23D
100
AcDbEntity
  8
0
100
AcDbLine
 62
7
  6
BYLAYER
 10
95.9010613237
 20
226.4301961929
 11
95.9010613235
 21
209.6589096679
  0
LINE
  5
23E
100
AcDbEntity
  8
0
100
AcDbLine
 62
7
  6
BYLAYER
 10
103.0302140869
 20
244.0522550639
 11
103.0302140869
 21
243.6254663907
  0
LINE
  5
23F
100
AcDbEntity
  8
0
100
AcDbLine
 62
7
  6
BYLAYER
 10
53.6037846001
 20
228.1763467899
 11
53.9662495176
 21
228.9774393111
  0
LINE
  5
240
100
AcDbEntity
  8
0
100
AcDbLine
 62
7
  6
BYLAYER
 10
54.2161595854
 20
201.5314220941
 11
53.9664158907
 21
201.55574353
  0
LINE
  5
241
100
AcDbEntity
  8
0
100
AcDbLine
 62
7
  6
BYLAYER
 10
126.0822075914
 20
180.6151895511
 11
126.0822075914
 21
248.3848901729
  0
LINE
  5
242
100
AcDbEntity
  8
0
100
AcDbLine
 62
7
  6
BYLAYER
 10
127.4964211538
 20
248.3848935914
 11
127.4964211538
 21
180.6151929336
  0
LINE
  5
243
100
AcDbEntity
  8
0
100
AcDbLine
 62
7
  6
BYLAYER
 10
133.5068037701
 20
251.8549688801
 11
133.5068037701
 21
184.0852682584
  0
LINE
  5
244
100
AcDbEntity
  8
0
100
AcDbLine
 62
7
  6
BYLAYER
 10
53.9662495176
 20
228.9774393111
 11
54.8412266192
 21
228.8908046995
  0
LINE
  5
245
100
AcDbEntity
  8
0
100
AcDbLine
 62
7
  6
BYLAYER
 10
124.3144332785
 20
251.446748102
 11
78.1151791461
 21
278.1192964981
  0
LINE
  5
246
100
AcDbEntity
  8
0
100
AcDbLine
 62
7
  6
BYLAYER
 10
78.1294830888
 20
279.7440222259
 11
125.0215371304
 21
252.6714946646
  0
LINE
  5
247
100
AcDbEntity
  8
0
100
AcDbLine
 62
7
  6
BYLAYER
 10
77.8850136374
 20
286.8252563635
 11
131.0319197321
 21
256.1415699809
  0
LINE
  5
248
100
AcDbEntity
  8
0
100
AcDbLine
 62
7
  6
BYLAYER
 10
136.1937394722
 20
203.9252418469
 11
136.1937394722
 21
250.4903718519
  0
LINE
  5
249
100
AcDbEntity
  8
0
100
AcDbLine
 62
7
  6
BYLAYER
 10
56.3848561308
 20
195.9419468498
 11
58.2473651836
 21
198.591680296
  0
LINE
  5
24A
100
AcDbEntity
  8
0
100
AcDbLine
 62
7
  6
BYLAYER
 10
246.3599461806
 20
407.2323794959
 11
282.0686899599
 21
427.8487092664
  0
LINE
  5
24B
100
AcDbEntity
  8
0
100
AcDbLine
 62
7
  6
BYLAYER
 10
66.5246760621
 20
297.6935592318
 11
51.9583370155
 21
289.283729662
  0
LINE
  5
24C
100
AcDbEntity
  8
0
100
AcDbLine
 62
7
  6
BYLAYER
 10
131.1936876727
 20
259.1505959835
 11
90.8672844746
 21
282.4325290177
  0
LINE
  5
24D
100
AcDbEntity
  8
0
100
AcDbLine
 62
7
  6
BYLAYER
 10
246.2186696675
 20
387.1468504095
 11
262.2699267722
 21
396.4139927024
  0
LINE
  5
24E
100
AcDbEntity
  8
0
100
AcDbLine
 62
7
  6
BYLAYER
 10
300.8070859004
 20
418.6632990884
 11
309.6458838656
 21
423.7663510118
  0
LINE
  5
24F
100
AcDbEntity
  8
0
100
AcDbLine
 62
7
  6
BYLAYER
 10
246.2186696675
 20
382.8131570429
 11
245.4435682553
 21
382.3656547052
  0
LINE
  5
250
100
AcDbEntity
  8
0
100
AcDbLine
 62
7
  6
BYLAYER
 10
78.1791952084
 20
285.3906163996
 11
63.6128561579
 21
276.9807863908
  0
LINE
  5
251
100
AcDbEntity
  8
0
100
AcDbLine
 62
7
  6
BYLAYER
 10
245.443984648
 20
382.3649313554
 11
246.2186696675
 21
382.6374917423
  0
LINE
  5
252
100
AcDbEntity
  8
0
100
AcDbLine
 62
7
  6
BYLAYER
 10
150.0339742159
 20
266.2354262332
 11
142.1520000151
 21
270.7859832124
  0
LINE
  5
253
100
AcDbEntity
  8
0
100
AcDbLine
 62
7
  6
BYLAYER
 10
80.423412853
 20
285.3597440474
 11
84.9031796292
 21
287.9461231629
  0
LINE
  5
254
100
AcDbEntity
  8
0
100
AcDbLine
 62
7
  6
BYLAYER
 10
310.7065837809
 20
418.2550804297
 11
314.9492068042
 21
420.7045453529
  0
LINE
  5
255
100
AcDbEntity
  8
0
100
AcDbLine
 62
7
  6
BYLAYER
 10
88.1804710858
 20
280.8813057044
 11
90.8672844746
 21
282.4325290177
  0
LINE
  5
256
100
AcDbEntity
  8
0
100
AcDbLine
 62
7
  6
BYLAYER
 10
245.7742090167
 20
406.4158979868
 11
246.3599461806
 21
407.2323794959
  0
LINE
  5
257
100
AcDbEntity
  8
0
100
AcDbLine
 62
7
  6
BYLAYER
 10
56.3286398591
 20
195.8898802971
 11
56.3848561308
 21
195.9419468498
  0
LINE
  5
258
100
AcDbEntity
  8
0
100
AcDbLine
 62
7
  6
BYLAYER
 10
326.2629977341
 20
409.2737838302
 11
327.5357846411
 21
410.0086233072
  0
LINE
  5
259
100
AcDbEntity
  8
0
100
AcDbLine
 62
7
  6
BYLAYER
 10
338.8495402434
 20
403.4767712349
 11
337.5767533365
 21
402.7419317579
  0
LINE
  5
25A
100
AcDbEntity
  8
0
100
AcDbLine
 62
7
  6
BYLAYER
 10
257.1031384808
 20
354.9038724012
 11
254.8404062017
 21
353.5974911088
  0
LINE
  5
25B
100
AcDbEntity
  8
0
100
AcDbLine
 62
7
  6
BYLAYER
 10
257.6031362423
 20
354.8543481222
 11
255.3404039633
 21
353.5479668298
  0
LINE
  5
25C
100
AcDbEntity
  8
0
100
AcDbLine
 62
7
  6
BYLAYER
 10
87.1153501762
 20
253.7729372355
 11
77.8537600996
 21
248.4257876299
  0
LINE
  5
25D
100
AcDbEntity
  8
0
100
AcDbLine
 62
7
  6
BYLAYER
 10
87.2878130067
 20
253.8198076452
 11
77.8532937649
 21
248.3728185952
  0
LINE
  5
25E
100
AcDbEntity
  8
0
100
AcDbLine
 62
7
  6
BYLAYER
 10
257.8629793701
 20
352.0915901872
 11
260.1257116492
 21
353.3979714796
  0
LINE
  5
25F
100
AcDbEntity
  8
0
100
AcDbLine
 62
7
  6
BYLAYER
 10
91.7873859217
 20
253.0491320481
 11
77.8234863628
 21
244.9871190025
  0
LINE
  5
260
100
AcDbEntity
  8
0
100
AcDbLine
 62
7
  6
BYLAYER
 10
262.1374107978
 20
351.284484763
 11
264.4001430769
 21
352.5908660554
  0
LINE
  5
261
100
AcDbEntity
  8
0
100
AcDbLine
 62
7
  6
BYLAYER
 10
77.8220131007
 20
244.8197772495
 11
91.7873859217
 21
252.8826408783
  0
LINE
  5
262
100
AcDbEntity
  8
0
100
AcDbLine
 62
7
  6
BYLAYER
 10
53.5153974119
 20
228.3294388046
 11
53.4270071689
 21
228.2784069786
  0
LINE
  5
263
100
AcDbEntity
  8
0
100
AcDbLine
 62
7
  6
BYLAYER
 10
55.0180071053
 20
228.9928683515
 11
54.8412266192
 21
228.8908046995
  0
LINE
  5
264
100
AcDbEntity
  8
0
100
AcDbLine
 62
7
  6
BYLAYER
 10
57.3161106572
 20
227.4619620587
 11
57.4044993728
 21
227.5129930028
  0
LINE
  5
265
100
AcDbEntity
  8
0
100
AcDbLine
 62
7
  6
BYLAYER
 10
77.7584612231
 20
237.6011821748
 11
98.1513734481
 21
249.3749652574
  0
LINE
  5
266
100
AcDbEntity
  8
0
100
AcDbLine
 62
7
  6
BYLAYER
 10
245.443984648
 20
326.8427669906
 11
246.2186696675
 21
327.1153273775
  0
LINE
  5
267
100
AcDbEntity
  8
0
100
AcDbLine
 62
7
  6
BYLAYER
 10
87.2878193248
 20
253.8198101877
 11
87.1154558499
 21
253.7727533111
  0
LINE
  5
268
100
AcDbEntity
  8
0
100
AcDbLine
 62
7
  6
BYLAYER
 10
335.3143643239
 20
280.3492627646
 11
356.8104104718
 21
280.3493144347
  0
LINE
  5
269
100
AcDbEntity
  8
0
100
AcDbLine
 62
7
  6
BYLAYER
 10
63.0476045049
 20
224.315922929
 11
77.7160990483
 21
232.7894378507
  0
LINE
  5
26A
100
AcDbEntity
  8
0
100
AcDbLine
 62
7
  6
BYLAYER
 10
58.6419429192
 20
225.3696933343
 11
58.5535526762
 21
225.3186615083
  0
LINE
  5
26B
100
AcDbEntity
  8
0
100
AcDbLine
 62
7
  6
BYLAYER
 10
353.1331672897
 20
393.7606351584
 11
357.375790313
 21
396.2101000817
  0
LINE
  5
26C
100
AcDbEntity
  8
0
100
AcDbLine
 62
7
  6
BYLAYER
 10
141.2180089403
 20
270.4224456732
 11
126.4440423091
 21
261.8927429771
  0
LINE
  5
26D
100
AcDbEntity
  8
0
100
AcDbLine
 62
7
  6
BYLAYER
 10
142.1520000151
 20
270.7859832124
 11
126.59620449
 21
261.8048940884
  0
LINE
  5
26E
100
AcDbEntity
  8
0
100
AcDbLine
 62
7
  6
BYLAYER
 10
87.0270927302
 20
235.929737973
 11
102.650934457
 21
244.9501147569
  0
LINE
  5
26F
100
AcDbEntity
  8
0
100
AcDbLine
 62
7
  6
BYLAYER
 10
246.2186696675
 20
327.2909926781
 11
245.4435682553
 21
326.8434903404
  0
LINE
  5
270
100
AcDbEntity
  8
0
100
AcDbLine
 62
7
  6
BYLAYER
 10
103.0302140869
 20
244.0522550639
 11
88.378257687
 21
235.5929945873
  0
LINE
  5
271
100
AcDbEntity
  8
0
100
AcDbLine
 62
7
  6
BYLAYER
 10
146.0930359924
 20
268.5106765043
 11
221.0459703084
 21
311.7845149983
  0
LINE
  5
272
100
AcDbEntity
  8
0
100
AcDbLine
 62
7
  6
BYLAYER
 10
230.7599518216
 20
317.3928513625
 11
267.0077197273
 21
338.3203849999
  0
LINE
  5
273
100
AcDbEntity
  8
0
100
AcDbLine
 62
7
  6
BYLAYER
 10
88.3782576876
 20
235.1662472243
 11
103.0302140869
 21
243.6254663907
  0
LINE
  5
274
100
AcDbEntity
  8
0
100
AcDbLine
 62
7
  6
BYLAYER
 10
299.2518990535
 20
356.5287938205
 11
315.3031561583
 21
365.7959361134
  0
LINE
  5
275
100
AcDbEntity
  8
0
100
AcDbLine
 62
7
  6
BYLAYER
 10
353.9817360539
 20
388.1268913302
 11
362.6791132516
 21
393.1482944228
  0
LINE
  5
276
100
AcDbEntity
  8
0
100
AcDbLine
 62
7
  6
BYLAYER
 10
315.3738671308
 20
365.7551120379
 11
315.0203152122
 21
365.550989961
  0
LINE
  5
277
100
AcDbEntity
  8
0
100
AcDbLine
 62
7
  6
BYLAYER
 10
128.506874163
 20
257.59937274
 11
132.9866409392
 21
260.1857518555
  0
LINE
  5
278
100
AcDbEntity
  8
0
100
AcDbLine
 62
7
  6
BYLAYER
 10
103.3559248776
 20
242.7500790963
 11
89.6816046356
 21
234.8552535575
  0
LINE
  5
279
100
AcDbEntity
  8
0
100
AcDbLine
 62
7
  6
BYLAYER
 10
278.807693365
 20
341.6601103678
 11
281.0704256441
 21
342.9664916602
  0
LINE
  5
27A
100
AcDbEntity
  8
0
100
AcDbLine
 62
7
  6
BYLAYER
 10
125.0215371304
 20
252.6714946646
 11
131.0319197321
 21
256.1415699809
  0
LINE
  5
27B
100
AcDbEntity
  8
0
100
AcDbLine
 62
7
  6
BYLAYER
 10
136.8812693273
 20
258.6417538533
 11
150.0339742159
 21
266.2354262332
  0
LINE
  5
27C
100
AcDbEntity
  8
0
100
AcDbLine
 62
7
  6
BYLAYER
 10
299.2518990535
 20
352.0194351533
 11
302.1510247861
 21
353.6932361841
  0
LINE
  5
27D
100
AcDbEntity
  8
0
100
AcDbLine
 62
7
  6
BYLAYER
 10
150.8372325377
 20
264.7178168448
 11
226.7028481096
 21
308.5185889621
  0
LINE
  5
27E
100
AcDbEntity
  8
0
100
AcDbLine
 62
7
  6
BYLAYER
 10
233.8986151443
 20
312.6730421979
 11
272.6645975285
 21
335.0544589637
  0
LINE
  5
27F
100
AcDbEntity
  8
0
100
AcDbLine
 62
7
  6
BYLAYER
 10
300.026584073
 20
343.3476596977
 11
299.2518990535
 21
343.0750993109
  0
LINE
  5
280
100
AcDbEntity
  8
0
100
AcDbLine
 62
7
  6
BYLAYER
 10
296.7770150155
 20
291.6168150695
 11
297.9019924427
 21
291.5054158502
  0
LINE
  5
281
100
AcDbEntity
  8
0
100
AcDbLine
 62
7
  6
BYLAYER
 10
296.7770150155
 20
295.2910759466
 11
295.6520375883
 21
295.402475166
  0
LINE
  5
282
100
AcDbEntity
  8
0
100
AcDbLine
 62
7
  6
BYLAYER
 10
226.7028481096
 20
308.5185889621
 11
226.7028481096
 21
301.9865696251
  0
LINE
  5
283
100
AcDbEntity
  8
0
100
AcDbLine
 62
7
  6
BYLAYER
 10
254.6332942381
 20
353.1397051672
 11
254.8404170481
 21
353.5974723221
  0
LINE
  5
284
100
AcDbEntity
  8
0
100
AcDbLine
 62
7
  6
BYLAYER
 10
127.4964211538
 20
248.3848935914
 11
133.5068037701
 21
251.8549688801
  0
LINE
  5
285
100
AcDbEntity
  8
0
100
AcDbLine
 62
7
  6
BYLAYER
 10
285.3448570717
 20
338.8380204713
 11
283.0821247927
 21
337.5316391789
  0
LINE
  5
286
100
AcDbEntity
  8
0
100
AcDbLine
 62
7
  6
BYLAYER
 10
53.6037846001
 20
202.9055934524
 11
53.4270071689
 21
202.8035315641
  0
LINE
  5
287
100
AcDbEntity
  8
0
100
AcDbLine
 62
7
  6
BYLAYER
 10
133.5068037701
 20
248.939078061
 11
137.9866185548
 21
251.5254848941
  0
LINE
  5
288
100
AcDbEntity
  8
0
100
AcDbLine
 62
7
  6
BYLAYER
 10
285.6047001995
 20
336.0752625363
 11
287.8674324786
 21
337.3816438287
  0
LINE
  5
289
100
AcDbEntity
  8
0
100
AcDbLine
 62
7
  6
BYLAYER
 10
152.7435400167
 20
259.2863980742
 11
226.7028481096
 21
301.9865696251
  0
LINE
  5
28A
100
AcDbEntity
  8
0
100
AcDbLine
 62
7
  6
BYLAYER
 10
236.2342326204
 20
307.4894841902
 11
272.6645975285
 21
328.5224396267
  0
LINE
  5
28B
100
AcDbEntity
  8
0
100
AcDbLine
 62
7
  6
BYLAYER
 10
302.9261261982
 20
345.0207373788
 11
300.0270004656
 21
343.346936348
  0
LINE
  5
28C
100
AcDbEntity
  8
0
100
AcDbLine
 62
7
  6
BYLAYER
 10
54.2635240114
 20
201.2999407903
 11
53.9099720928
 21
201.0958187134
  0
LINE
  5
28D
100
AcDbEntity
  8
0
100
AcDbLine
 62
7
  6
BYLAYER
 10
288.5745422038
 20
336.156900657
 11
286.3118099247
 21
334.8505193647
  0
LINE
  5
28E
100
AcDbEntity
  8
0
100
AcDbLine
 62
7
  6
BYLAYER
 10
150.9679652907
 20
253.5349250984
 11
136.1937394722
 21
245.0050727613
  0
LINE
  5
28F
100
AcDbEntity
  8
0
100
AcDbLine
 62
7
  6
BYLAYER
 10
58.748009378
 20
199.7111043277
 11
58.5535526762
 21
199.5988353687
  0
LINE
  5
290
100
AcDbEntity
  8
0
100
AcDbLine
 62
7
  6
BYLAYER
 10
55.7724811455
 20
196.2954937141
 11
56.1260330641
 21
196.4996157911
  0
LINE
  5
291
100
AcDbEntity
  8
0
100
AcDbLine
 62
7
  6
BYLAYER
 10
142.1520000151
 20
270.7859832124
 11
141.2181435539
 21
270.4222122735
  0
LINE
  5
292
100
AcDbEntity
  8
0
100
AcDbLine
 62
7
  6
BYLAYER
 10
221.0459703084
 20
311.7845149983
 11
226.7028481096
 21
308.5185889621
  0
LINE
  5
293
100
AcDbEntity
  8
0
100
AcDbLine
 62
7
  6
BYLAYER
 10
245.7741656309
 20
332.9306804452
 11
245.7741656309
 21
374.3935745314
  0
LINE
  5
294
100
AcDbEntity
  8
0
100
AcDbLine
 62
7
  6
BYLAYER
 10
245.7741656309
 20
382.5565240496
 11
245.7741656309
 21
406.4158979869
  0
LINE
  5
295
100
AcDbEntity
  8
0
100
AcDbLine
 62
7
  6
BYLAYER
 10
246.2186696675
 20
327.1153273775
 11
246.2186696675
 21
373.6931558999
  0
LINE
  5
296
100
AcDbEntity
  8
0
100
AcDbLine
 62
7
  6
BYLAYER
 10
246.2186696675
 20
382.6374917423
 11
246.2186696675
 21
387.1468504095
  0
LINE
  5
297
100
AcDbEntity
  8
0
100
AcDbLine
 62
7
  6
BYLAYER
 10
246.3599579564
 20
405.5994096791
 11
246.3599579564
 21
387.2284227543
  0
LINE
  5
298
100
AcDbEntity
  8
0
100
AcDbLine
 62
7
  6
BYLAYER
 10
105.9694016
 20
213.409922491
 11
94.1642352909
 21
206.5942472288
  0
LINE
  5
299
100
AcDbEntity
  8
0
100
AcDbLine
 62
7
  6
BYLAYER
 10
286.3118099247
 20
314.4379589364
 11
288.5745422038
 21
315.7443402288
  0
LINE
  5
29A
100
AcDbEntity
  8
0
100
AcDbLine
 62
7
  6
BYLAYER
 10
288.3674302402
 20
315.2865542872
 11
286.1046979611
 21
313.9801729948
  0
LINE
  5
29B
100
AcDbEntity
  8
0
100
AcDbLine
 62
7
  6
BYLAYER
 10
356.8104104718
 20
353.8345319764
 11
385.0945639603
 21
370.1642981313
  0
LINE
  5
29C
100
AcDbEntity
  8
0
100
AcDbLine
 62
7
  6
BYLAYER
 10
367.41696803
 20
355.8756821988
 11
385.0945639603
 21
366.0817860456
  0
LINE
  5
29D
100
AcDbEntity
  8
0
100
AcDbLine
 62
7
  6
BYLAYER
 10
84.6483448682
 20
202.3716609522
 11
84.6478107172
 21
202.371364853
  0
LINE
  5
29E
100
AcDbEntity
  8
0
100
AcDbLine
 62
7
  6
BYLAYER
 10
84.8394844114
 20
202.8207557707
 11
84.502965853
 21
202.6346842035
  0
LINE
  5
29F
100
AcDbEntity
  8
0
100
AcDbLine
 62
7
  6
BYLAYER
 10
62.9542398466
 20
190.4182586507
 11
62.9541436052
 21
190.4182057792
  0
LINE
  5
2A0
100
AcDbEntity
  8
0
100
AcDbLine
 62
7
  6
BYLAYER
 10
63.5496215363
 20
198.1840919104
 11
63.1484429781
 21
197.9718520413
  0
LINE
  5
2A1
100
AcDbEntity
  8
0
100
AcDbLine
 62
7
  6
BYLAYER
 10
63.5496215363
 20
197.9391411852
 11
63.1484429781
 21
197.7269013162
  0
LINE
  5
2A2
100
AcDbEntity
  8
0
100
AcDbLine
 62
7
  6
BYLAYER
 10
286.1046871147
 20
313.9801917815
 11
285.6047001995
 21
314.0296972738
  0
LINE
  5
2A3
100
AcDbEntity
  8
0
100
AcDbLine
 62
7
  6
BYLAYER
 10
299.2518990535
 20
283.0435762788
 11
246.5717235413
 21
313.45780173
  0
LINE
  5
2A4
100
AcDbEntity
  8
0
100
AcDbLine
 62
7
  6
BYLAYER
 10
254.6332942381
 20
332.7271447389
 11
254.6332942381
 21
353.1397051672
  0
LINE
  5
2A5
100
AcDbEntity
  8
0
100
AcDbLine
 62
7
  6
BYLAYER
 10
367.2754324478
 20
355.3854407391
 11
366.0996797576
 21
354.7066236589
  0
LINE
  5
2A6
100
AcDbEntity
  8
0
100
AcDbLine
 62
7
  6
BYLAYER
 10
361.6429631256
 20
348.8675428024
 11
371.30592432
 21
354.4464227476
  0
LINE
  5
2A7
100
AcDbEntity
  8
0
100
AcDbLine
 62
7
  6
BYLAYER
 10
366.0027485797
 20
340.3621153653
 11
383.68034451
 21
350.5682192121
  0
LWPOLYLINE
  5
2A8
100
AcDbEntity
  8
0
100
AcDbPolyline
 62
7
  6
BYLAYER
 90
4
 70
0
 10
84.648039359
 20
202.3714670596
 10
88.2770383006
 20
204.0269284594
 10
92.8453860329
 20
205.9066931553
 10
94.1657984484
 20
206.5951503713
  0
LINE
  5
2A9
100
AcDbEntity
  8
0
100
AcDbLine
 62
7
  6
BYLAYER
 10
300.026584073
 20
287.8254953329
 11
299.2518990535
 21
287.5529349461
  0
LINE
  5
2AA
100
AcDbEntity
  8
0
100
AcDbLine
 62
7
  6
BYLAYER
 10
315.0203152122
 20
292.0657724193
 11
335.3143643239
 21
280.3492627646
  0
LINE
  5
2AB
100
AcDbEntity
  8
0
100
AcDbLine
 62
7
  6
BYLAYER
 10
285.6047001995
 20
314.0296972738
 11
283.0821247927
 21
315.4860739164
  0
LINE
  5
2AC
100
AcDbEntity
  8
0
100
AcDbLine
 62
7
  6
BYLAYER
 10
272.6645975285
 20
335.0544589637
 11
272.6645975285
 21
328.5224396267
  0
LINE
  5
2AD
100
AcDbEntity
  8
0
100
AcDbLine
 62
7
  6
BYLAYER
 10
367.41696803
 20
339.5456338562
 11
385.0945639603
 21
349.751737703
  0
LINE
  5
2AE
100
AcDbEntity
  8
0
100
AcDbLine
 62
7
  6
BYLAYER
 10
133.5068037701
 20
202.373948159
 11
136.1937394722
 21
203.9252418469
  0
LINE
  5
2AF
100
AcDbEntity
  8
0
100
AcDbLine
 62
7
  6
BYLAYER
 10
299.2518990535
 20
296.4972707885
 11
302.1510247861
 21
298.1710718193
  0
LINE
  5
2B0
100
AcDbEntity
  8
0
100
AcDbLine
 62
7
  6
BYLAYER
 10
367.41696803
 20
331.3806096849
 11
385.0945639603
 21
341.5867135317
  0
LINE
  5
2B1
100
AcDbEntity
  8
0
100
AcDbLine
 62
7
  6
BYLAYER
 10
367.2754324478
 20
330.8903682252
 11
366.0996797576
 21
330.211551145
  0
LINE
  5
2B2
100
AcDbEntity
  8
0
100
AcDbLine
 62
7
  6
BYLAYER
 10
133.5068037701
 20
193.4169136962
 11
137.9866185548
 21
196.0033205293
  0
LINE
  5
2B3
100
AcDbEntity
  8
0
100
AcDbLine
 62
7
  6
BYLAYER
 10
371.7324488416
 20
330.5187189731
 11
375.2679680276
 21
332.5599397424
  0
LINE
  5
2B4
100
AcDbEntity
  8
0
100
AcDbLine
 62
7
  6
BYLAYER
 10
361.6429631256
 20
324.3724702885
 11
371.30592432
 21
329.9513502338
  0
LINE
  5
2B5
100
AcDbEntity
  8
0
100
AcDbLine
 62
7
  6
BYLAYER
 10
302.9261261982
 20
289.498573014
 11
300.0270004656
 21
287.8247719831
  0
LINE
  5
2B6
100
AcDbEntity
  8
0
100
AcDbLine
 62
7
  6
BYLAYER
 10
356.8104104718
 20
353.8345319764
 11
335.3143643239
 21
353.8344803063
  0
LINE
  5
2B7
100
AcDbEntity
  8
0
100
AcDbLine
 62
7
  6
BYLAYER
 10
296.7770150155
 20
347.1389794344
 11
297.9019924427
 21
347.027580215
  0
LINE
  5
2B8
100
AcDbEntity
  8
0
100
AcDbLine
 62
7
  6
BYLAYER
 10
254.8404170481
 20
353.5974723221
 11
255.3404039633
 21
353.5479668298
  0
LINE
  5
2B9
100
AcDbEntity
  8
0
100
AcDbLine
 62
7
  6
BYLAYER
 10
296.7770150155
 20
350.8132403114
 11
295.6520375883
 21
350.9246395308
  0
LINE
  5
2BA
100
AcDbEntity
  8
0
100
AcDbLine
 62
7
  6
BYLAYER
 10
257.6031362423
 20
354.8543481222
 11
257.1031493272
 21
354.9038536145
  0
LINE
  5
2BB
100
AcDbEntity
  8
0
100
AcDbLine
 62
7
  6
BYLAYER
 10
267.0077197273
 20
338.3203849999
 11
272.6645975285
 21
335.0544589637
  0
LINE
  5
2BC
100
AcDbEntity
  8
0
100
AcDbLine
 62
7
  6
BYLAYER
 10
286.3118099247
 20
334.8505193647
 11
286.3118099247
 21
314.4379589364
  0
LINE
  5
2BD
100
AcDbEntity
  8
0
100
AcDbLine
 62
7
  6
BYLAYER
 10
288.5745422038
 20
336.156900657
 11
288.5745422038
 21
315.7443402288
  0
LINE
  5
2BE
100
AcDbEntity
  8
0
100
AcDbLine
 62
7
  6
BYLAYER
 10
286.3118099247
 20
314.4379589364
 11
286.1046871147
 21
313.9801917815
  0
LINE
  5
2BF
100
AcDbEntity
  8
0
100
AcDbLine
 62
7
  6
BYLAYER
 10
288.3674193938
 20
315.2865730738
 11
288.5745422038
 21
315.7443402288
  0
LINE
  5
2C0
100
AcDbEntity
  8
0
100
AcDbLine
 62
7
  6
BYLAYER
 10
299.2518990535
 20
283.0435762788
 11
314.9849603369
 21
292.1270092252
  0
LINE
  5
2C1
100
AcDbEntity
  8
0
100
AcDbLine
 62
7
  6
BYLAYER
 10
127.4964211538
 20
180.6151929336
 11
133.5068037701
 21
184.0852682584
  0
LINE
  5
2C2
100
AcDbEntity
  8
0
100
AcDbLine
 62
7
  6
BYLAYER
 10
132.7819118975
 20
182.4830174627
 11
126.7715292812
 21
179.0129421548
  0
LINE
  5
2C3
100
AcDbEntity
  8
0
100
AcDbLine
 62
7
  6
BYLAYER
 10
366.0027485797
 20
315.8670428514
 11
383.68034451
 21
326.0731466982
  0
LINE
  5
2C4
100
AcDbEntity
  8
0
100
AcDbLine
 62
7
  6
BYLAYER
 10
367.41696803
 20
315.0505613423
 11
385.0945639603
 21
325.2566651891
  0
LINE
  5
2C5
100
AcDbEntity
  8
0
100
AcDbLine
 62
7
  6
BYLAYER
 10
255.3404039633
 20
353.5479668298
 11
257.8629793701
 21
352.0915901872
  0
LINE
  5
2C6
100
AcDbEntity
  8
0
100
AcDbLine
 62
7
  6
BYLAYER
 10
283.0821247927
 20
337.5316391789
 11
285.6047001995
 21
336.0752625363
  0
LINE
  5
2C7
100
AcDbEntity
  8
0
100
AcDbLine
 62
7
  6
BYLAYER
 10
366.0027485797
 20
291.3719703375
 11
367.41696803
 21
290.5554888285
  0
LINE
  5
2C8
100
AcDbEntity
  8
0
100
AcDbLine
 62
7
  6
BYLAYER
 10
257.6031362423
 20
354.8543481222
 11
260.1257116492
 21
353.3979714796
  0
LINE
  5
2C9
100
AcDbEntity
  8
0
100
AcDbLine
 62
7
  6
BYLAYER
 10
285.3448570717
 20
338.8380204713
 11
287.8674324786
 21
337.3816438287
  0
LINE
  5
2CA
100
AcDbEntity
  8
0
100
AcDbLine
 62
7
  6
BYLAYER
 10
299.2518990535
 20
356.5287938205
 11
299.2518990535
 21
352.0194351533
  0
LINE
  5
2CB
100
AcDbEntity
  8
0
100
AcDbLine
 62
7
  6
BYLAYER
 10
299.2518990535
 20
343.0750993109
 11
299.2518990535
 21
296.4972707885
  0
LINE
  5
2CC
100
AcDbEntity
  8
0
100
AcDbLine
 62
7
  6
BYLAYER
 10
299.2518990535
 20
287.5529349461
 11
299.2518990535
 21
283.0435762788
  0
LINE
  5
2CD
100
AcDbEntity
  8
0
100
AcDbLine
 62
7
  6
BYLAYER
 10
367.41696803
 20
306.885537171
 11
385.0945639603
 21
317.0916410178
  0
LINE
  5
2CE
100
AcDbEntity
  8
0
100
AcDbLine
 62
7
  6
BYLAYER
 10
367.2754324478
 20
306.3952957113
 11
366.0996797576
 21
305.7164786311
  0
LINE
  5
2CF
100
AcDbEntity
  8
0
100
AcDbLine
 62
7
  6
BYLAYER
 10
362.3502711164
 20
301.102262213
 11
371.30592432
 21
306.272780137
  0
LINE
  5
2D0
100
AcDbEntity
  8
0
100
AcDbLine
 62
7
  6
BYLAYER
 10
366.0027485797
 20
291.3719703375
 11
383.68034451
 21
301.5780741843
  0
LINE
  5
2D1
100
AcDbEntity
  8
0
100
AcDbLine
 62
7
  6
BYLAYER
 10
248.6935537055
 20
374.8993507417
 11
249.8185311327
 21
374.7879515224
  0
LINE
  5
2D2
100
AcDbEntity
  8
0
100
AcDbLine
 62
7
  6
BYLAYER
 10
248.6935537055
 20
378.5736116188
 11
247.5685762783
 21
378.6850108382
  0
LINE
  5
2D3
100
AcDbEntity
  8
0
100
AcDbLine
 62
7
  6
BYLAYER
 10
367.0265044821
 20
306.5390110881
 11
367.2754324478
 21
306.3952957113
  0
LINE
  5
2D4
100
AcDbEntity
  8
0
100
AcDbLine
 62
7
  6
BYLAYER
 10
371.30592432
 20
306.272780137
 11
381.5589786769
 21
300.3533103603
  0
LINE
  5
2D5
100
AcDbEntity
  8
0
100
AcDbLine
 62
7
  6
BYLAYER
 10
383.68034451
 20
301.5780741843
 11
385.0945639603
 21
300.7615926752
  0
LINE
  5
2D6
100
AcDbEntity
  8
0
100
AcDbLine
 62
7
  6
BYLAYER
 10
366.0027485797
 20
315.8670428514
 11
367.41696803
 21
315.0505613423
  0
LINE
  5
2D7
100
AcDbEntity
  8
0
100
AcDbLine
 62
7
  6
BYLAYER
 10
246.3599579564
 20
405.5994096791
 11
245.7742090167
 21
406.4158979868
  0
LINE
  5
2D8
100
AcDbEntity
  8
0
100
AcDbLine
 62
7
  6
BYLAYER
 10
314.9492068042
 20
420.7045453529
 11
314.9492068042
 21
415.8056562985
  0
LINE
  5
2D9
100
AcDbEntity
  8
0
100
AcDbLine
 62
7
  6
BYLAYER
 10
315.0203152122
 20
365.550989961
 11
315.0203152122
 21
292.0657724193
  0
LINE
  5
2DA
100
AcDbEntity
  8
0
100
AcDbLine
 62
7
  6
BYLAYER
 10
315.3031561583
 20
365.7959361134
 11
315.3031561583
 21
365.7142872826
  0
LINE
  5
2DB
100
AcDbEntity
  8
0
100
AcDbLine
 62
7
  6
BYLAYER
 10
367.41696803
 20
290.5554888285
 11
385.0945639603
 21
300.7615926752
  0
LINE
  5
2DC
100
AcDbEntity
  8
0
100
AcDbLine
 62
7
  6
BYLAYER
 10
356.8104104718
 20
280.3493144347
 11
385.0945639603
 21
296.6790805896
  0
LINE
  5
2DD
100
AcDbEntity
  8
0
100
AcDbLine
 62
7
  6
BYLAYER
 10
246.2186696675
 20
387.1468504095
 11
299.2518990535
 21
356.5287938205
  0
LINE
  5
2DE
100
AcDbEntity
  8
0
100
AcDbLine
 62
7
  6
BYLAYER
 10
367.0265044821
 20
331.034083602
 11
367.2754324478
 21
330.8903682252
  0
LINE
  5
2DF
100
AcDbEntity
  8
0
100
AcDbLine
 62
7
  6
BYLAYER
 10
371.30592432
 20
329.9513502338
 11
380.8518567325
 21
324.4401282662
  0
LINE
  5
2E0
100
AcDbEntity
  8
0
100
AcDbLine
 62
7
  6
BYLAYER
 10
315.0203152122
 20
365.550989961
 11
335.3143643239
 21
353.8344803063
  0
LINE
  5
2E1
100
AcDbEntity
  8
0
100
AcDbLine
 62
7
  6
BYLAYER
 10
383.68034451
 20
326.0731466982
 11
385.0945639603
 21
325.2566651891
  0
LINE
  5
2E2
100
AcDbEntity
  8
0
100
AcDbLine
 62
7
  6
BYLAYER
 10
262.2699267722
 20
396.4139927024
 11
246.3599579564
 21
405.5994096791
  0
LINE
  5
2E3
100
AcDbEntity
  8
0
100
AcDbLine
 62
7
  6
BYLAYER
 10
315.3031561583
 20
365.7959361134
 11
315.3738671308
 21
365.7551120379
  0
LINE
  5
2E4
100
AcDbEntity
  8
0
100
AcDbLine
 62
7
  6
BYLAYER
 10
366.0027485797
 20
340.3621153653
 11
367.41696803
 21
339.5456338562
  0
LINE
  5
2E5
100
AcDbEntity
  8
0
100
AcDbLine
 62
7
  6
BYLAYER
 10
335.3143643239
 20
353.8344803063
 11
335.3143643239
 21
280.3492627646
  0
LINE
  5
2E6
100
AcDbEntity
  8
0
100
AcDbLine
 62
7
  6
BYLAYER
 10
338.8495402434
 20
402.0071045185
 11
338.8495402434
 21
403.4767712349
  0
LINE
  5
2E7
100
AcDbEntity
  8
0
100
AcDbLine
 62
7
  6
BYLAYER
 10
338.9081182984
 20
403.5584193858
 11
338.9081182984
 21
401.9732852278
  0
LINE
  5
2E8
100
AcDbEntity
  8
0
100
AcDbLine
 62
7
  6
BYLAYER
 10
367.0265044821
 20
355.5291561158
 11
367.2754324478
 21
355.3854407391
  0
LINE
  5
2E9
100
AcDbEntity
  8
0
100
AcDbLine
 62
7
  6
BYLAYER
 10
371.30592432
 20
354.4464227476
 11
380.8518567325
 21
348.9352007801
  0
LINE
  5
2EA
100
AcDbEntity
  8
0
100
AcDbLine
 62
7
  6
BYLAYER
 10
383.68034451
 20
350.5682192121
 11
385.0945639603
 21
349.751737703
  0
LINE
  5
2EB
100
AcDbEntity
  8
0
100
AcDbLine
 62
7
  6
BYLAYER
 10
356.8104104718
 20
353.8345319764
 11
356.8104104718
 21
280.3493144347
  0
LINE
  5
2EC
100
AcDbEntity
  8
0
100
AcDbLine
 62
7
  6
BYLAYER
 10
362.6791132516
 20
393.1482944228
 11
362.6791132516
 21
383.1055718612
  0
LINE
  5
2ED
100
AcDbEntity
  8
0
100
AcDbLine
 62
7
  6
BYLAYER
 10
367.2754324478
 20
306.3952957113
 11
367.2754324478
 21
306.7599280812
  0
LINE
  5
2EE
100
AcDbEntity
  8
0
100
AcDbLine
 62
7
  6
BYLAYER
 10
367.2754324478
 20
330.8903682252
 11
367.2754324478
 21
331.2550005951
  0
LINE
  5
2EF
100
AcDbEntity
  8
0
100
AcDbLine
 62
7
  6
BYLAYER
 10
367.2754324478
 20
355.3854407391
 11
367.2754324478
 21
355.7500731089
  0
LINE
  5
2F0
100
AcDbEntity
  8
0
100
AcDbLine
 62
7
  6
BYLAYER
 10
371.30592432
 20
306.272780137
 11
371.30592432
 21
309.1308137294
  0
LINE
  5
2F1
100
AcDbEntity
  8
0
100
AcDbLine
 62
7
  6
BYLAYER
 10
371.30592432
 20
329.9513502338
 11
371.30592432
 21
333.6258862433
  0
LINE
  5
2F2
100
AcDbEntity
  8
0
100
AcDbLine
 62
7
  6
BYLAYER
 10
371.30592432
 20
354.4464227476
 11
371.30592432
 21
358.1209587572
  0
LINE
  5
2F3
100
AcDbEntity
  8
0
100
AcDbLine
 62
7
  6
BYLAYER
 10
284.8971170846
 20
427.8487160651
 11
300.8070859004
 21
418.6632990884
  0
LINE
  5
2F4
100
AcDbEntity
  8
0
100
AcDbLine
 62
7
  6
BYLAYER
 10
353.9817360539
 20
388.1268913302
 11
385.0945639603
 21
370.1642981313
  0
LINE
  5
2F5
100
AcDbEntity
  8
0
100
AcDbLine
 62
7
  6
BYLAYER
 10
310.7065837809
 20
418.2550804297
 11
326.2629977341
 21
409.2737838302
  0
LINE
  5
2F6
100
AcDbEntity
  8
0
100
AcDbLine
 62
7
  6
BYLAYER
 10
337.5767533365
 20
402.7419317579
 11
353.1331672897
 21
393.7606351584
  0
LINE
  5
2F7
100
AcDbEntity
  8
0
100
AcDbLine
 62
7
  6
BYLAYER
 10
327.8186273536
 20
410.0086239871
 11
338.8495390659
 21
403.6400682165
  0
LINE
  5
2F8
100
AcDbEntity
  8
0
100
AcDbLine
 62
7
  6
BYLAYER
 10
309.6458838656
 20
423.7663510118
 11
314.9492068042
 21
420.7045453529
  0
LINE
  5
2F9
100
AcDbEntity
  8
0
100
AcDbLine
 62
7
  6
BYLAYER
 10
357.375790313
 20
396.2101000817
 11
362.6791132516
 21
393.1482944228
  0
LINE
  5
2FA
100
AcDbEntity
  8
0
100
AcDbLine
 62
7
  6
BYLAYER
 10
385.0945639603
 20
370.1642981313
 11
385.0945639603
 21
366.0817860456
  0
LINE
  5
2FB
100
AcDbEntity
  8
0
100
AcDbLine
 62
7
  6
BYLAYER
 10
385.0945639603
 20
349.751737703
 11
385.0945639603
 21
341.5867135317
  0
LINE
  5
2FC
100
AcDbEntity
  8
0
100
AcDbLine
 62
7
  6
BYLAYER
 10
385.0945639603
 20
325.2566651891
 11
385.0945639603
 21
317.0916410178
  0
LINE
  5
2FD
100
AcDbEntity
  8
0
100
AcDbLine
 62
7
  6
BYLAYER
 10
385.0945639603
 20
300.7615926752
 11
385.0945639603
 21
296.6790805896
  0
ARC
  5
2FE
100
AcDbEntity
  8
0
100
AcDbCircle
 62
7
  6
BYLAYER
 10
-3924.7769113075
 20
7454.2079959408
 40
8286.1113092273
100
AcDbArc
 50
298.7689214693
 51
298.9375099021
  0
ARC
  5
2FF
100
AcDbEntity
  8
0
100
AcDbCircle
 62
7
  6
BYLAYER
 10
-3884.1786574472
 20
7379.7224448598
 40
8201.5822900266
100
AcDbArc
 50
298.7680399888
 51
298.9410735102
  0
ARC
  5
300
100
AcDbEntity
  8
0
100
AcDbCircle
 62
7
  6
BYLAYER
 10
72.8359043505
 20
218.7058027072
 40
30.9098440113
100
AcDbArc
 50
223.4377477815
 51
223.7492290408
  0
ARC
  5
301
100
AcDbEntity
  8
0
100
AcDbCircle
 62
7
  6
BYLAYER
 10
214.8715832606
 20
306.8065002591
 40
18.0049902779
100
AcDbArc
 50
59.2099706533
 51
59.9987844308
  0
ARC
  5
302
100
AcDbEntity
  8
0
100
AcDbCircle
 62
7
  6
BYLAYER
 10
57.7730213487
 20
284.0447004447
 40
7.8143293907
100
AcDbArc
 50
177.1220160278
 51
179.9596548927
  0
ARC
  5
303
100
AcDbEntity
  8
0
100
AcDbCircle
 62
7
  6
BYLAYER
 10
230.153363099
 20
295.9995035824
 40
6.4327989449
100
AcDbArc
 50
300.0466420194
 51
311.363150745
  0
ARC
  5
304
100
AcDbEntity
  8
0
100
AcDbCircle
 62
7
  6
BYLAYER
 10
217.5611839031
 20
317.8186002321
 40
6.3749413598
100
AcDbArc
 50
113.1505849372
 51
119.9916086038
  0
ARC
  5
305
100
AcDbEntity
  8
0
100
AcDbCircle
 62
7
  6
BYLAYER
 10
370.4701445715
 20
332.7088924466
 40
2.5278612912
100
AcDbArc
 50
289.9584383058
 51
299.9569539197
  0
ARC
  5
306
100
AcDbEntity
  8
0
100
AcDbCircle
 62
7
  6
BYLAYER
 10
51.0986952498
 20
197.8614876376
 40
1.0
100
AcDbArc
 50
180.0
 51
223.4378839063
  0
ARC
  5
307
100
AcDbEntity
  8
0
100
AcDbCircle
 62
7
  6
BYLAYER
 10
62.472849701
 20
191.2947650625
 40
1.0
100
AcDbArc
 50
264.3686296104
 51
298.774308748
  0
ARC
  5
308
100
AcDbEntity
  8
0
100
AcDbCircle
 62
7
  6
BYLAYER
 10
54.1789913808
 20
228.6101429475
 40
0.6744537489
100
AcDbArc
 50
109.445964144
 51
130.553841612
  0
ARC
  5
309
100
AcDbEntity
  8
0
100
AcDbCircle
 62
7
  6
BYLAYER
 10
50.5001020597
 20
204.9848113522
 40
0.4047378107
100
AcDbArc
 50
201.3059880238
 51
208.7980172884
  0
ARC
  5
30A
100
AcDbEntity
  8
0
100
AcDbCircle
 62
7
  6
BYLAYER
 10
50.4306530893
 20
204.9641667891
 40
0.3319368848
100
AcDbArc
 50
179.9883731761
 51
185.0322006849
  0
SPLINE
  5
30B
100
AcDbEntity
  8
0
100
AcDbSpline
 62
7
  6
BYLAYER
 70
0
 71
3
 72
13
 73
9
 74
0
 42
0.0000001
 43
0.0000001
 44
0.0000000001
 40
0.0
 40
0.0
 40
0.0
 40
0.0
 40
0.0871398598
 40
0.1868487356
 40
0.3045129735
 40
0.4386470586
 40
0.7300507088
 40
1.0
 40
1.0
 40
1.0
 40
1.0
 10
297.9019926896
 20
291.5054154228
 30
0.0
 10
298.0143355926
 20
291.5703618519
 30
0.0
 10
298.2183088647
 20
291.7786073134
 30
0.0
 10
298.366666643
 20
292.2176806216
 30
0.0
 10
298.3793706531
 20
292.746602113
 30
0.0
 10
298.2160959891
 20
293.5442649936
 30
0.0
 10
297.7362085722
 20
294.4820313346
 30
0.0
 10
297.1251567907
 20
295.0900807461
 30
0.0
 10
296.7770150155
 20
295.2910759466
 30
0.0
  0
SPLINE
  5
30C
100
AcDbEntity
  8
0
100
AcDbSpline
 62
7
  6
BYLAYER
 70
0
 71
3
 72
13
 73
9
 74
0
 42
0.0000001
 43
0.0000001
 44
0.0000000001
 40
0.0
 40
0.0
 40
0.0
 40
0.0
 40
0.0871398598
 40
0.1868487356
 40
0.3045129735
 40
0.4386470586
 40
0.7300507088
 40
1.0
 40
1.0
 40
1.0
 40
1.0
 10
297.9019926896
 20
347.0275797876
 30
0.0
 10
298.0143355926
 20
347.0925262168
 30
0.0
 10
298.2183088647
 20
347.3007716782
 30
0.0
 10
298.366666643
 20
347.7398449864
 30
0.0
 10
298.3793706531
 20
348.2687664778
 30
0.0
 10
298.2160959891
 20
349.0664293584
 30
0.0
 10
297.7362085722
 20
350.0041956994
 30
0.0
 10
297.1251567907
 20
350.6122451109
 30
0.0
 10
296.7770150155
 20
350.8132403114
 30
0.0
  0
SPLINE
  5
30D
100
AcDbEntity
  8
0
100
AcDbSpline
 62
7
  6
BYLAYER
 70
0
 71
3
 72
13
 73
9
 74
0
 42
0.0000001
 43
0.0000001
 44
0.0000000001
 40
0.0
 40
0.0
 40
0.0
 40
0.0
 40
0.0871398598
 40
0.1868487356
 40
0.3045129735
 40
0.4386470586
 40
0.7300507088
 40
1.0
 40
1.0
 40
1.0
 40
1.0
 10
249.8185313796
 20
374.7879510949
 30
0.0
 10
249.9308742826
 20
374.8528975241
 30
0.0
 10
250.1348475547
 20
375.0611429856
 30
0.0
 10
250.283205333
 20
375.5002162937
 30
0.0
 10
250.2959093431
 20
376.0291377852
 30
0.0
 10
250.1326346791
 20
376.8268006658
 30
0.0
 10
249.6527472622
 20
377.7645670068
 30
0.0
 10
249.0416954807
 20
378.3726164183
 30
0.0
 10
248.6935537055
 20
378.5736116188
 30
0.0
  0
SPLINE
  5
30E
100
AcDbEntity
  8
0
100
AcDbSpline
 62
7
  6
BYLAYER
 70
0
 71
3
 72
9
 73
5
 74
0
 42
0.0000001
 43
0.0000001
 44
0.0000000001
 40
0.0
 40
0.0
 40
0.0
 40
0.0
 40
0.4999994563
 40
1.0
 40
1.0
 40
1.0
 40
1.0
 10
282.0686899599
 20
427.8487092664
 30
0.0
 10
282.4884481657
 20
428.0910553329
 30
0.0
 10
283.4829021379
 20
428.2827159973
 30
0.0
 10
284.4773562182
 20
428.0910596317
 30
0.0
 10
284.8971170846
 20
427.8487160651
 30
0.0
  0
SPLINE
  5
30F
100
AcDbEntity
  8
0
100
AcDbSpline
 62
7
  6
BYLAYER
 70
0
 71
3
 72
8
 73
4
 74
0
 42
0.0000001
 43
0.0000001
 44
0.0000000001
 40
0.0
 40
0.0
 40
0.0
 40
0.0
 40
1.0
 40
1.0
 40
1.0
 40
1.0
 10
327.5357846411
 20
410.0086233072
 30
0.0
 10
327.617434421
 20
410.0557635482
 30
0.0
 10
327.7369772337
 20
410.0557636393
 30
0.0
 10
327.8186273536
 20
410.0086239871
 30
0.0
  0
SPLINE
  5
310
100
AcDbEntity
  8
0
100
AcDbSpline
 62
7
  6
BYLAYER
 70
0
 71
3
 72
9
 73
5
 74
0
 42
0.0000001
 43
0.0000001
 44
0.0000000001
 40
0.0
 40
0.0
 40
0.0
 40
0.0
 40
0.2940781221
 40
1.0
 40
1.0
 40
1.0
 40
1.0
 10
338.8495390659
 20
403.6400682165
 30
0.0
 10
338.8582706947
 20
403.6350271223
 30
0.0
 10
338.8863699062
 20
403.6160777666
 30
0.0
 10
338.9081565111
 20
403.582622184
 30
0.0
 10
338.90815055
 20
403.5584199147
 30
0.0
  0
SPLINE
  5
311
100
AcDbEntity
  8
0
100
AcDbSpline
 62
7
  6
BYLAYER
 70
0
 71
3
 72
11
 73
7
 74
0
 42
0.0000001
 43
0.0000001
 44
0.0000000001
 40
0.0
 40
0.0
 40
0.0
 40
0.0
 40
0.2178455461
 40
0.4509552768
 40
0.7102727212
 40
1.0
 40
1.0
 40
1.0
 40
1.0
 10
150.9678947403
 20
253.5350475081
 30
0.0
 10
151.2896689202
 20
253.7206794904
 30
0.0
 10
151.8915527712
 20
254.2265981472
 30
0.0
 10
152.5318470729
 20
255.2741686826
 30
0.0
 10
152.9125754594
 20
256.5648099148
 30
0.0
 10
152.9873069357
 20
257.5042812403
 30
0.0
 10
152.9873069357
 20
257.9983380292
 30
0.0
  0
SPLINE
  5
312
100
AcDbEntity
  8
0
100
AcDbSpline
 62
7
  6
BYLAYER
 70
0
 71
3
 72
13
 73
9
 74
0
 42
0.0000001
 43
0.0000001
 44
0.0000000001
 40
0.0
 40
0.0
 40
0.0
 40
0.0
 40
0.0869070914
 40
0.1845930673
 40
0.2984301965
 40
0.4281760525
 40
0.7163931351
 40
1.0
 40
1.0
 40
1.0
 40
1.0
 10
137.9865477442
 20
196.0034439183
 30
0.0
 10
138.21437485
 20
196.1348742407
 30
0.0
 10
138.6316607086
 20
196.5397289742
 30
0.0
 10
138.9736598558
 20
197.3952860758
 30
0.0
 10
139.0612678427
 20
198.4354376968
 30
0.0
 10
138.8378323389
 20
200.0393175208
 30
0.0
 10
137.9864616957
 20
202.0237514308
 30
0.0
 10
136.8597176621
 20
203.3837756715
 30
0.0
 10
136.1937394722
 20
203.9252418469
 30
0.0
  0
SPLINE
  5
313
100
AcDbEntity
  8
0
100
AcDbSpline
 62
7
  6
BYLAYER
 70
0
 71
3
 72
14
 73
10
 74
0
 42
0.0000001
 43
0.0000001
 44
0.0000000001
 40
0.0
 40
0.0
 40
0.0
 40
0.0
 40
0.0870532561
 40
0.1866585787
 40
0.3042061248
 40
0.4381982524
 40
0.5828938305
 40
0.7304095906
 40
1.0
 40
1.0
 40
1.0
 40
1.0
 10
137.9866099955
 20
251.5254998003
 30
0.0
 10
138.2363452279
 20
251.6697462059
 30
0.0
 10
138.6897600046
 20
252.1324899392
 30
0.0
 10
139.019577415
 20
253.1083212729
 30
0.0
 10
139.0473532848
 20
254.2837727036
 30
0.0
 10
138.7835120692
 20
255.5783446614
 30
0.0
 10
138.2511509308
 20
256.8952856044
 30
0.0
 10
137.2752855949
 20
258.4815822833
 30
0.0
 10
136.2601080909
 20
259.4915726329
 30
0.0
 10
135.486629747
 20
259.9381304605
 30
0.0
  0
SPLINE
  5
314
100
AcDbEntity
  8
0
100
AcDbSpline
 62
7
  6
BYLAYER
 70
0
 71
3
 72
8
 73
4
 74
0
 42
0.0000001
 43
0.0000001
 44
0.0000000001
 40
0.0
 40
0.0
 40
0.0
 40
0.0
 40
1.0
 40
1.0
 40
1.0
 40
1.0
 10
50.0999956357
 20
204.9350507466
 30
0.0
 10
50.10291573
 20
204.9018492729
 30
0.0
 10
50.1109551883
 20
204.8688171695
 30
0.0
 10
50.1230267593
 20
204.8377504352
 30
0.0
  0
SPLINE
  5
315
100
AcDbEntity
  8
0
100
AcDbSpline
 62
7
  6
BYLAYER
 70
0
 71
3
 72
9
 73
5
 74
0
 42
0.0000001
 43
0.0000001
 44
0.0000000001
 40
0.0
 40
0.0
 40
0.0
 40
0.0
 40
0.2264760239
 40
1.0
 40
1.0
 40
1.0
 40
1.0
 10
50.1454208653
 20
204.7898396984
 30
0.0
 10
50.1578341342
 20
204.7671989084
 30
0.0
 10
50.2218613316
 20
204.6722363544
 30
0.0
 10
50.3152169601
 20
204.6000838354
 30
0.0
 10
50.3915914126
 20
204.5559900222
 30
0.0
  0
SPLINE
  5
316
100
AcDbEntity
  8
0
100
AcDbSpline
 62
7
  6
BYLAYER
 70
0
 71
3
 72
11
 73
7
 74
0
 42
0.0000001
 43
0.0000001
 44
0.0000000001
 40
0.0
 40
0.0
 40
0.0
 40
0.0
 40
0.2326322696
 40
0.4718513534
 40
0.7263194854
 40
1.0
 40
1.0
 40
1.0
 40
1.0
 10
51.9583370155
 20
289.283729662
 30
0.0
 10
51.5834333751
 20
289.0672802363
 30
0.0
 10
50.8935326165
 20
288.4937610431
 30
0.0
 10
50.1668861285
 20
287.332456109
 30
0.0
 10
49.7474923179
 20
285.9536509869
 30
0.0
 10
49.6659384937
 20
284.9673974849
 30
0.0
 10
49.6657988576
 20
284.4581108473
 30
0.0
  0
SPLINE
  5
317
100
AcDbEntity
  8
0
100
AcDbSpline
 62
7
  6
BYLAYER
 70
0
 71
3
 72
8
 73
4
 74
0
 42
0.0000001
 43
0.0000001
 44
0.0000000001
 40
0.0
 40
0.0
 40
0.0
 40
0.0
 40
1.0
 40
1.0
 40
1.0
 40
1.0
 10
50.0987162113
 20
204.7192834227
 30
0.0
 10
50.0987268049
 20
204.7649718787
 30
0.0
 10
50.108681863
 20
204.8113571981
 30
0.0
 10
50.1261461969
 20
204.8535760584
 30
0.0
  0
SPLINE
  5
318
100
AcDbEntity
  8
0
100
AcDbSpline
 62
7
  6
BYLAYER
 70
0
 71
3
 72
10
 73
6
 74
0
 42
0.0000001
 43
0.0000001
 44
0.0000000001
 40
0.0
 40
0.0
 40
0.0
 40
0.0
 40
0.281242426
 40
0.5434392639
 40
1.0
 40
1.0
 40
1.0
 40
1.0
 10
50.3725750391
 20
197.1739198666
 30
0.0
 10
51.2788025954
 20
196.2168794528
 30
0.0
 10
53.1489988027
 20
194.4699343524
 30
0.0
 10
56.9854960317
 20
191.7828706983
 30
0.0
 10
60.2454142328
 20
190.5095487862
 30
0.0
 10
62.3747219123
 20
190.29959124
 30
0.0
  0
SPLINE
  5
319
100
AcDbEntity
  8
0
100
AcDbSpline
 62
7
  6
BYLAYER
 70
0
 71
3
 72
9
 73
5
 74
0
 42
0.0000001
 43
0.0000001
 44
0.0000000001
 40
0.0
 40
0.0
 40
0.0
 40
0.0
 40
0.5086909563
 40
1.0
 40
1.0
 40
1.0
 40
1.0
 10
124.5215455993
 20
179.1367492468
 30
0.0
 10
124.8644266905
 20
178.9387912349
 30
0.0
 10
125.6216621746
 20
178.6583517569
 30
0.0
 10
126.4403657769
 20
178.8217459577
 30
0.0
 10
126.7715292812
 20
179.0129421548
 30
0.0
  0
SPLINE
  5
31A
100
AcDbEntity
  8
0
100
AcDbSpline
 62
7
  6
BYLAYER
 70
0
 71
3
 72
9
 73
5
 74
0
 42
0.0000001
 43
0.0000001
 44
0.0000000001
 40
0.0
 40
0.0
 40
0.0
 40
0.0
 40
0.4491660543
 40
1.0
 40
1.0
 40
1.0
 40
1.0
 10
132.781813979
 20
182.4831870606
 30
0.0
 10
133.0178768224
 20
182.6194773059
 30
0.0
 10
133.4257889232
 20
183.1298165615
 30
0.0
 10
133.5068037692
 20
183.7509883972
 30
0.0
 10
133.5068037701
 20
184.0852682584
 30
0.0
  0
SPLINE
  5
31B
100
AcDbEntity
  8
0
100
AcDbSpline
 62
7
  6
BYLAYER
 70
0
 71
3
 72
11
 73
7
 74
0
 42
0.0000001
 43
0.0000001
 44
0.0000000001
 40
0.0
 40
0.0
 40
0.0
 40
0.0
 40
0.2177747761
 40
0.4509345089
 40
0.7102302905
 40
1.0
 40
1.0
 40
1.0
 40
1.0
 10
233.3742965891
 20
290.4311564562
 30
0.0
 10
232.7475964217
 20
290.069313109
 30
0.0
 10
231.3075519928
 20
289.5465020939
 30
0.0
 10
228.915913617
 20
289.4861836239
 30
0.0
 10
226.3666212718
 20
290.1012566922
 30
0.0
 10
224.7083073945
 20
290.890555936
 30
0.0
 10
223.874409209
 20
291.3719963862
 30
0.0
  0
SPLINE
  5
31C
100
AcDbEntity
  8
0
100
AcDbSpline
 62
7
  6
BYLAYER
 70
0
 71
3
 72
17
 73
13
 74
0
 42
0.0000001
 43
0.0000001
 44
0.0000000001
 40
0.0
 40
0.0
 40
0.0
 40
0.0
 40
0.0428582549
 40
0.0874879602
 40
0.1353226556
 40
0.1872863705
 40
0.3045520283
 40
0.4382210955
 40
0.5825656228
 40
0.7297213031
 40
0.8713083485
 40
1.0
 40
1.0
 40
1.0
 40
1.0
 10
234.0814053683
 20
290.8393920765
 30
0.0
 10
234.5498093039
 20
291.1098283835
 30
0.0
 10
235.4378017692
 20
291.7893930079
 30
0.0
 10
236.5063549143
 20
293.1406065067
 30
0.0
 10
237.3048959535
 20
294.7931634103
 30
0.0
 10
238.0221124386
 20
297.45015514
 30
0.0
 10
238.1119142218
 20
301.3240831967
 30
0.0
 10
237.1091900301
 20
306.2404714786
 30
0.0
 10
235.0887751906
 20
311.240976647
 30
0.0
 10
232.2123677101
 20
315.9188863388
 30
0.0
 10
228.7181548466
 20
319.8944537167
 30
0.0
 10
225.9880143999
 20
321.9953068263
 30
0.0
 10
224.5815130462
 20
322.807332391
 30
0.0
  0
SPLINE
  5
31D
100
AcDbEntity
  8
0
100
AcDbSpline
 62
7
  6
BYLAYER
 70
0
 71
3
 72
9
 73
5
 74
0
 42
0.0000001
 43
0.0000001
 44
0.0000000001
 40
0.0
 40
0.0
 40
0.0
 40
0.0
 40
0.4638272078
 40
1.0
 40
1.0
 40
1.0
 40
1.0
 10
273.3360699983
 20
327.3593527573
 30
0.0
 10
272.9699828455
 20
327.1481873349
 30
0.0
 10
272.0400559492
 20
326.921307456
 30
0.0
 10
271.1281149731
 20
327.1324227063
 30
0.0
 10
270.6713998367
 20
327.3058727227
 30
0.0
  0
SPLINE
  5
31E
100
AcDbEntity
  8
0
100
AcDbSpline
 62
7
  6
BYLAYER
 70
0
 71
3
 72
9
 73
5
 74
0
 42
0.0000001
 43
0.0000001
 44
0.0000000001
 40
0.0
 40
0.0
 40
0.0
 40
0.0
 40
0.2449257475
 40
1.0
 40
1.0
 40
1.0
 40
1.0
 10
376.8213077545
 20
335.9933343046
 30
0.0
 10
376.8213077545
 20
336.0486559383
 30
0.0
 10
376.818625406
 20
336.2745223996
 30
0.0
 10
376.8055098673
 20
336.5002372784
 30
0.0
 10
376.7903801974
 20
336.6701142739
 30
0.0
  0
SPLINE
  5
31F
100
AcDbEntity
  8
0
100
AcDbSpline
 62
7
  6
BYLAYER
 70
0
 71
3
 72
13
 73
9
 74
0
 42
0.0000001
 43
0.0000001
 44
0.0000000001
 40
0.0
 40
0.0
 40
0.0
 40
0.0
 40
0.0885824523
 40
0.1850245587
 40
0.2943194023
 40
0.4177923326
 40
0.6989026082
 40
1.0
 40
1.0
 40
1.0
 40
1.0
 10
302.9260298998
 20
345.0209060322
 30
0.0
 10
303.1707890658
 20
345.1620078811
 30
0.0
 10
303.6253018943
 20
345.5645627633
 30
0.0
 10
304.0691936459
 20
346.4088571403
 30
0.0
 10
304.2866563393
 20
347.4467193738
 30
0.0
 10
304.2722517166
 20
349.095030449
 30
0.0
 10
303.6655284939
 20
351.2992613409
 30
0.0
 10
302.7322494041
 20
352.9288071267
 30
0.0
 10
302.1510247861
 20
353.6932361841
 30
0.0
  0
SPLINE
  5
320
100
AcDbEntity
  8
0
100
AcDbSpline
 62
7
  6
BYLAYER
 70
0
 71
3
 72
15
 73
11
 74
0
 42
0.0000001
 43
0.0000001
 44
0.0000000001
 40
0.0
 40
0.0
 40
0.0
 40
0.0
 40
0.1288315052
 40
0.2705711646
 40
0.4178888523
 40
0.5623869034
 40
0.6962014956
 40
0.8135922284
 40
0.9130644336
 40
1.0
 40
1.0
 40
1.0
 40
1.0
 10
367.41696803
 20
306.885537171
 30
0.0
 10
366.6767080723
 20
306.4581504364
 30
0.0
 10
365.2397901495
 20
305.3524442566
 30
0.0
 10
363.4007829567
 20
303.2600434257
 30
0.0
 10
361.8869097399
 20
300.7977846259
 30
0.0
 10
360.8236668579
 20
298.1666348193
 30
0.0
 10
360.2955746993
 20
295.5768032987
 30
0.0
 10
360.3511465385
 20
293.2259519356
 30
0.0
 10
361.0107810471
 20
291.2743062478
 30
0.0
 10
361.9175064538
 20
290.3485787578
 30
0.0
 10
362.4170757584
 20
290.0602498646
 30
0.0
  0
SPLINE
  5
321
100
AcDbEntity
  8
0
100
AcDbSpline
 62
7
  6
BYLAYER
 70
0
 71
3
 72
15
 73
11
 74
0
 42
0.0000001
 43
0.0000001
 44
0.0000000001
 40
0.0
 40
0.0
 40
0.0
 40
0.0
 40
0.1288315052
 40
0.2705711646
 40
0.4178888523
 40
0.5623869034
 40
0.6962014956
 40
0.8135922284
 40
0.9130644336
 40
1.0
 40
1.0
 40
1.0
 40
1.0
 10
367.41696803
 20
355.8756821988
 30
0.0
 10
366.6767080723
 20
355.4482954642
 30
0.0
 10
365.2397901495
 20
354.3425892843
 30
0.0
 10
363.4007829567
 20
352.2501884535
 30
0.0
 10
361.8869097399
 20
349.7879296536
 30
0.0
 10
360.8236668579
 20
347.156779847
 30
0.0
 10
360.2955746993
 20
344.5669483265
 30
0.0
 10
360.3511465385
 20
342.2160969633
 30
0.0
 10
361.0107810471
 20
340.2644512756
 30
0.0
 10
361.9175064538
 20
339.3387237856
 30
0.0
 10
362.4170757584
 20
339.0503948924
 30
0.0
  0
SPLINE
  5
322
100
AcDbEntity
  8
0
100
AcDbSpline
 62
7
  6
BYLAYER
 70
0
 71
3
 72
15
 73
11
 74
0
 42
0.0000001
 43
0.0000001
 44
0.0000000001
 40
0.0
 40
0.0
 40
0.0
 40
0.0
 40
0.1288315052
 40
0.2705711646
 40
0.4178888523
 40
0.5623869034
 40
0.6962014956
 40
0.8135922284
 40
0.9130644336
 40
1.0
 40
1.0
 40
1.0
 40
1.0
 10
367.41696803
 20
331.3806096849
 30
0.0
 10
366.6767080723
 20
330.9532229503
 30
0.0
 10
365.2397901495
 20
329.8475167705
 30
0.0
 10
363.4007829567
 20
327.7551159396
 30
0.0
 10
361.8869097399
 20
325.2928571397
 30
0.0
 10
360.8236668579
 20
322.6617073331
 30
0.0
 10
360.2955746993
 20
320.0718758126
 30
0.0
 10
360.3511465385
 20
317.7210244495
 30
0.0
 10
361.0107810471
 20
315.7693787617
 30
0.0
 10
361.9175064538
 20
314.8436512717
 30
0.0
 10
362.4170757584
 20
314.5553223785
 30
0.0
  0
SPLINE
  5
323
100
AcDbEntity
  8
0
100
AcDbSpline
 62
7
  6
BYLAYER
 70
0
 71
3
 72
9
 73
5
 74
0
 42
0.0000001
 43
0.0000001
 44
0.0000000001
 40
0.0
 40
0.0
 40
0.0
 40
0.0
 40
0.2796623671
 40
1.0
 40
1.0
 40
1.0
 40
1.0
 10
366.0027485797
 20
291.3719703375
 30
0.0
 10
365.7043258341
 20
291.1996769135
 30
0.0
 10
364.6094757205
 20
290.6434206497
 30
0.0
 10
363.3440334846
 20
290.3446312411
 30
0.0
 10
362.4601380065
 20
290.4253137096
 30
0.0
  0
SPLINE
  5
324
100
AcDbEntity
  8
0
100
AcDbSpline
 62
7
  6
BYLAYER
 70
0
 71
3
 72
8
 73
4
 74
0
 42
0.0000001
 43
0.0000001
 44
0.0000000001
 40
0.0
 40
0.0
 40
0.0
 40
0.0
 40
1.0
 40
1.0
 40
1.0
 40
1.0
 10
362.4601380065
 20
290.4253137096
 30
0.0
 10
362.230334189
 20
290.4462903293
 30
0.0
 10
362.0012838163
 20
290.4874774671
 30
0.0
 10
361.7792289678
 20
290.5502584948
 30
0.0
  0
SPLINE
  5
325
100
AcDbEntity
  8
0
100
AcDbSpline
 62
7
  6
BYLAYER
 70
0
 71
3
 72
13
 73
9
 74
0
 42
0.0000001
 43
0.0000001
 44
0.0000000001
 40
0.0
 40
0.0
 40
0.0
 40
0.0
 40
0.0885824523
 40
0.1850245587
 40
0.2943194023
 40
0.4177923326
 40
0.6989026082
 40
1.0
 40
1.0
 40
1.0
 40
1.0
 10
302.9260298998
 20
289.4987416674
 30
0.0
 10
303.1707890658
 20
289.6398435163
 30
0.0
 10
303.6253018943
 20
290.0423983985
 30
0.0
 10
304.0691936459
 20
290.8866927755
 30
0.0
 10
304.2866563393
 20
291.924555009
 30
0.0
 10
304.2722517166
 20
293.5728660842
 30
0.0
 10
303.6655284939
 20
295.7770969761
 30
0.0
 10
302.7322494041
 20
297.4066427619
 30
0.0
 10
302.1510247861
 20
298.1710718193
 30
0.0
  0
SPLINE
  5
326
100
AcDbEntity
  8
0
100
AcDbSpline
 62
7
  6
BYLAYER
 70
0
 71
3
 72
11
 73
7
 74
0
 42
0.0000001
 43
0.0000001
 44
0.0000000001
 40
0.0
 40
0.0
 40
0.0
 40
0.0
 40
0.2177833598
 40
0.4509104088
 40
0.7102966711
 40
1.0
 40
1.0
 40
1.0
 40
1.0
 10
375.2679493157
 20
332.5599721526
 30
0.0
 10
375.5153487583
 20
332.702807479
 30
0.0
 10
375.9782229468
 20
333.0919448859
 30
0.0
 10
376.4710073801
 20
333.8976698725
 30
0.0
 10
376.763692354
 20
334.8906226005
 30
0.0
 10
376.8213077545
 20
335.6133232217
 30
0.0
 10
376.8213077545
 20
335.9933343046
 30
0.0
  0
SPLINE
  5
327
100
AcDbEntity
  8
0
100
AcDbSpline
 62
7
  6
BYLAYER
 70
0
 71
3
 72
9
 73
5
 74
0
 42
0.0000001
 43
0.0000001
 44
0.0000000001
 40
0.0
 40
0.0
 40
0.0
 40
0.0
 40
0.5208366439
 40
1.0
 40
1.0
 40
1.0
 40
1.0
 10
244.365699624
 20
325.4994856795
 30
0.0
 10
244.4727412168
 20
325.7836671343
 30
0.0
 10
244.7520957692
 20
326.3077796523
 30
0.0
 10
245.2016288556
 20
326.7037898972
 30
0.0
 10
245.4436645537
 20
326.8433216871
 30
0.0
  0
SPLINE
  5
328
100
AcDbEntity
  8
0
100
AcDbSpline
 62
7
  6
BYLAYER
 70
0
 71
3
 72
13
 73
9
 74
0
 42
0.0000001
 43
0.0000001
 44
0.0000000001
 40
0.0
 40
0.0
 40
0.0
 40
0.0
 40
0.3010973918
 40
0.5822076674
 40
0.7056805977
 40
0.8149754413
 40
0.9114175477
 40
1.0
 40
1.0
 40
1.0
 40
1.0
 10
246.2186696675
 20
373.6931558999
 30
0.0
 10
245.6374450494
 20
374.4575849573
 30
0.0
 10
244.7041659597
 20
376.0871307431
 30
0.0
 10
244.0974427369
 20
378.291361635
 30
0.0
 10
244.0830381143
 20
379.9396727102
 30
0.0
 10
244.3005008077
 20
380.9775349438
 30
0.0
 10
244.7443925592
 20
381.8218293207
 30
0.0
 10
245.1989053877
 20
382.2243842029
 30
0.0
 10
245.4436645537
 20
382.3654860519
 30
0.0
  0
SPLINE
  5
329
100
AcDbEntity
  8
0
100
AcDbSpline
 62
7
  6
BYLAYER
 70
0
 71
3
 72
9
 73
5
 74
0
 42
0.0000001
 43
0.0000001
 44
0.0000000001
 40
0.0
 40
0.0
 40
0.0
 40
0.0
 40
0.5305355894
 40
1.0
 40
1.0
 40
1.0
 40
1.0
 10
254.5096439819
 20
392.0243122819
 30
0.0
 10
254.2609665825
 20
392.1003032888
 30
0.0
 10
253.7652864503
 20
392.1806520724
 30
0.0
 10
253.2732057248
 20
392.0443565208
 30
0.0
 10
253.0739316166
 20
391.9293164763
 30
0.0
  0
SPLINE
  5
32A
100
AcDbEntity
  8
0
100
AcDbSpline
 62
7
  6
BYLAYER
 70
0
 71
3
 72
9
 73
5
 74
0
 42
0.0000001
 43
0.0000001
 44
0.0000000001
 40
0.0
 40
0.0
 40
0.0
 40
0.0
 40
0.4645049732
 40
1.0
 40
1.0
 40
1.0
 40
1.0
 10
245.7742090167
 20
332.9306804452
 30
0.0
 10
245.7742090098
 20
332.8124487595
 30
0.0
 10
245.8474785146
 20
332.555697085
 30
0.0
 10
246.0236281541
 20
332.3626239467
 30
0.0
 10
246.1281169225
 20
332.2751022212
 30
0.0
  0
SPLINE
  5
32B
100
AcDbEntity
  8
0
100
AcDbSpline
 62
7
  6
BYLAYER
 70
0
 71
3
 72
9
 73
5
 74
0
 42
0.0000001
 43
0.0000001
 44
0.0000000001
 40
0.0
 40
0.0
 40
0.0
 40
0.0
 40
0.2796623671
 40
1.0
 40
1.0
 40
1.0
 40
1.0
 10
366.0027485797
 20
315.8670428514
 30
0.0
 10
365.7043258341
 20
315.6947494273
 30
0.0
 10
364.6094757205
 20
315.1384931636
 30
0.0
 10
363.3440334846
 20
314.839703755
 30
0.0
 10
362.4601380065
 20
314.9203862235
 30
0.0
  0
SPLINE
  5
32C
100
AcDbEntity
  8
0
100
AcDbSpline
 62
7
  6
BYLAYER
 70
0
 71
3
 72
8
 73
4
 74
0
 42
0.0000001
 43
0.0000001
 44
0.0000000001
 40
0.0
 40
0.0
 40
0.0
 40
0.0
 40
1.0
 40
1.0
 40
1.0
 40
1.0
 10
362.4601380065
 20
314.9203862235
 30
0.0
 10
362.230334189
 20
314.9413628432
 30
0.0
 10
362.0012838163
 20
314.982549981
 30
0.0
 10
361.7792289678
 20
315.0453310087
 30
0.0
  0
SPLINE
  5
32D
100
AcDbEntity
  8
0
100
AcDbSpline
 62
7
  6
BYLAYER
 70
0
 71
3
 72
9
 73
5
 74
0
 42
0.0000001
 43
0.0000001
 44
0.0000000001
 40
0.0
 40
0.0
 40
0.0
 40
0.0
 40
0.5448630532
 40
1.0
 40
1.0
 40
1.0
 40
1.0
 10
283.0821247927
 20
315.4860739164
 30
0.0
 10
282.3838194244
 20
315.8892315881
 30
0.0
 10
280.9995347527
 20
316.4845365874
 30
0.0
 10
279.4530300349
 20
316.4860635319
 30
0.0
 10
278.8076933714
 20
316.2931793413
 30
0.0
  0
SPLINE
  5
32E
100
AcDbEntity
  8
0
100
AcDbSpline
 62
7
  6
BYLAYER
 70
0
 71
3
 72
13
 73
9
 74
0
 42
0.0000001
 43
0.0000001
 44
0.0000000001
 40
0.0
 40
0.0
 40
0.0
 40
0.0
 40
0.0964042691
 40
0.1992935816
 40
0.369436937
 40
0.5610032881
 40
0.7725519814
 40
1.0
 40
1.0
 40
1.0
 40
1.0
 10
278.8076933714
 20
316.2931793413
 30
0.0
 10
278.277823025
 20
316.1348067915
 30
0.0
 10
277.1391409483
 20
315.9412055511
 30
0.0
 10
275.0092776445
 20
316.0390494132
 30
0.0
 10
272.4192016034
 20
316.7822135333
 30
0.0
 10
269.5056229748
 20
318.3463627706
 30
0.0
 10
266.6431388117
 20
320.5813524323
 30
0.0
 10
264.8949857386
 20
322.4065388052
 30
0.0
 10
264.0534808874
 20
323.4036906595
 30
0.0
  0
SPLINE
  5
32F
100
AcDbEntity
  8
0
100
AcDbSpline
 62
7
  6
BYLAYER
 70
0
 71
3
 72
9
 73
5
 74
0
 42
0.0000001
 43
0.0000001
 44
0.0000000001
 40
0.0
 40
0.0
 40
0.0
 40
0.0
 40
0.5046256221
 40
1.0
 40
1.0
 40
1.0
 40
1.0
 10
255.288855468
 20
331.5343745581
 30
0.0
 10
255.0931806307
 20
331.6640995312
 30
0.0
 10
254.7859039172
 20
332.0361497437
 30
0.0
 10
254.6332942381
 20
332.4966782119
 30
0.0
 10
254.6332942381
 20
332.7271447389
 30
0.0
  0
SPLINE
  5
330
100
AcDbEntity
  8
0
100
AcDbSpline
 62
7
  6
BYLAYER
 70
0
 71
3
 72
9
 73
5
 74
0
 42
0.0000001
 43
0.0000001
 44
0.0000000001
 40
0.0
 40
0.0
 40
0.0
 40
0.0
 40
0.2746936088
 40
1.0
 40
1.0
 40
1.0
 40
1.0
 10
264.9548067964
 20
337.1862360882
 30
0.0
 10
264.9839904361
 20
337.3698526392
 30
0.0
 10
265.1253732934
 20
338.0303739073
 30
0.0
 10
265.4382012265
 20
338.6676899534
 30
0.0
 10
265.7707786668
 20
339.0287786767
 30
0.0
  0
SPLINE
  5
331
100
AcDbEntity
  8
0
100
AcDbSpline
 62
7
  6
BYLAYER
 70
0
 71
3
 72
8
 73
4
 74
0
 42
0.0000001
 43
0.0000001
 44
0.0000000001
 40
0.0
 40
0.0
 40
0.0
 40
0.0
 40
1.0
 40
1.0
 40
1.0
 40
1.0
 10
265.7707786668
 20
339.0287786767
 30
0.0
 10
265.9346371484
 20
339.2066844597
 30
0.0
 10
266.1267352021
 20
339.3626216801
 30
0.0
 10
266.3362472575
 20
339.4834718693
 30
0.0
  0
SPLINE
  5
332
100
AcDbEntity
  8
0
100
AcDbSpline
 62
7
  6
BYLAYER
 70
0
 71
3
 72
9
 73
5
 74
0
 42
0.0000001
 43
0.0000001
 44
0.0000000001
 40
0.0
 40
0.0
 40
0.0
 40
0.0
 40
0.2796623671
 40
1.0
 40
1.0
 40
1.0
 40
1.0
 10
366.0027485797
 20
340.3621153653
 30
0.0
 10
365.7043258341
 20
340.1898219412
 30
0.0
 10
364.6094757205
 20
339.6335656775
 30
0.0
 10
363.3440334846
 20
339.3347762689
 30
0.0
 10
362.4601380065
 20
339.4154587374
 30
0.0
  0
SPLINE
  5
333
100
AcDbEntity
  8
0
100
AcDbSpline
 62
7
  6
BYLAYER
 70
0
 71
3
 72
8
 73
4
 74
0
 42
0.0000001
 43
0.0000001
 44
0.0000000001
 40
0.0
 40
0.0
 40
0.0
 40
0.0
 40
1.0
 40
1.0
 40
1.0
 40
1.0
 10
362.4601380065
 20
339.4154587374
 30
0.0
 10
362.230334189
 20
339.4364353571
 30
0.0
 10
362.0012838163
 20
339.4776224948
 30
0.0
 10
361.7792289678
 20
339.5404035226
 30
0.0
  0
SPLINE
  5
334
100
AcDbEntity
  8
0
100
AcDbSpline
 62
7
  6
BYLAYER
 70
0
 71
3
 72
11
 73
7
 74
0
 42
0.0000001
 43
0.0000001
 44
0.0000000001
 40
0.0
 40
0.0
 40
0.0
 40
0.0
 40
0.2897732686
 40
0.549066193
 40
0.7822256751
 40
1.0
 40
1.0
 40
1.0
 40
1.0
 10
224.5815130462
 20
322.807332391
 30
0.0
 10
223.7476039179
 20
323.2887791589
 30
0.0
 10
222.0892870862
 20
324.0780855844
 30
0.0
 10
219.5399913387
 20
324.6931440399
 30
0.0
 10
217.1483575066
 20
324.6328505315
 30
0.0
 10
215.7083260075
 20
324.1100135581
 30
0.0
 10
215.0816207241
 20
323.7481808545
 30
0.0
  0
SPLINE
  5
335
100
AcDbEntity
  8
0
100
AcDbSpline
 62
7
  6
BYLAYER
 70
0
 71
3
 72
9
 73
5
 74
0
 42
0.0000001
 43
0.0000001
 44
0.0000000001
 40
0.0
 40
0.0
 40
0.0
 40
0.0
 40
0.4784259105
 40
1.0
 40
1.0
 40
1.0
 40
1.0
 10
223.874409209
 20
291.3719963862
 30
0.0
 10
222.7377544953
 20
292.0282294452
 30
0.0
 10
220.5083146429
 20
293.6584370497
 30
0.0
 10
218.5836188886
 20
295.6292350655
 30
0.0
 10
217.658598221
 20
296.7208823239
 30
0.0
  0
SPLINE
  5
336
100
AcDbEntity
  8
0
100
AcDbSpline
 62
7
  6
BYLAYER
 70
0
 71
3
 72
13
 73
9
 74
0
 42
0.0000001
 43
0.0000001
 44
0.0000000001
 40
0.0
 40
0.0
 40
0.0
 40
0.0
 40
0.3064912799
 40
0.5759774938
 40
0.6947837017
 40
0.8033989083
 40
0.9039549622
 40
1.0
 40
1.0
 40
1.0
 40
1.0
 10
211.9276172222
 20
306.6859592037
 30
0.0
 10
211.3102668118
 20
308.4277840543
 30
0.0
 10
210.4445201156
 20
311.8164053706
 30
0.0
 10
210.34654067
 20
316.0625636421
 30
0.0
 10
211.0083752719
 20
318.9997608316
 30
0.0
 10
211.8099409034
 20
320.8238189984
 30
0.0
 10
212.9248384238
 20
322.3104593695
 30
0.0
 10
213.8730087853
 20
323.0503652025
 30
0.0
 10
214.3745218289
 20
323.3399281671
 30
0.0
  0
SPLINE
  5
337
100
AcDbEntity
  8
0
100
AcDbSpline
 62
7
  6
BYLAYER
 70
0
 71
3
 72
9
 73
5
 74
0
 42
0.0000001
 43
0.0000001
 44
0.0000000001
 40
0.0
 40
0.0
 40
0.0
 40
0.0
 40
0.4756945287
 40
1.0
 40
1.0
 40
1.0
 40
1.0
 10
152.9873069357
 20
257.9983380292
 30
0.0
 10
152.9873069357
 20
259.401559433
 30
0.0
 10
152.3464392217
 20
262.3488009298
 30
0.0
 10
150.94072005
 20
264.9824967335
 30
0.0
 10
150.0339742159
 20
266.2354262332
 30
0.0
  0
SPLINE
  5
338
100
AcDbEntity
  8
0
100
AcDbSpline
 62
7
  6
BYLAYER
 70
0
 71
3
 72
10
 73
6
 74
0
 42
0.0000001
 43
0.0000001
 44
0.0000000001
 40
0.0
 40
0.0
 40
0.0
 40
0.0
 40
0.5477222334
 40
0.7815558766
 40
1.0
 40
1.0
 40
1.0
 40
1.0
 10
135.486629747
 20
259.9381304605
 30
0.0
 10
135.0730938017
 20
260.1768801486
 30
0.0
 10
134.4132733611
 20
260.4405366686
 30
0.0
 10
133.5306281966
 20
260.4185758502
 30
0.0
 10
133.1516483112
 20
260.2808322589
 30
0.0
 10
132.9866752027
 20
260.1856923561
 30
0.0
  0
SPLINE
  5
339
100
AcDbEntity
  8
0
100
AcDbSpline
 62
7
  6
BYLAYER
 70
0
 71
3
 72
10
 73
6
 74
0
 42
0.0000001
 43
0.0000001
 44
0.0000000001
 40
0.0
 40
0.0
 40
0.0
 40
0.0
 40
0.5098562634
 40
0.7672102768
 40
1.0
 40
1.0
 40
1.0
 40
1.0
 10
90.8672844746
 20
282.4325290177
 30
0.0
 10
90.693470212
 20
283.5161305512
 30
0.0
 10
90.0210290747
 20
285.0947820748
 30
0.0
 10
88.6707322616
 20
286.7773631316
 30
0.0
 10
87.837113918
 20
287.4479688954
 30
0.0
 10
87.403168437
 20
287.6985017678
 30
0.0
  0
SPLINE
  5
33A
100
AcDbEntity
  8
0
100
AcDbSpline
 62
7
  6
BYLAYER
 70
0
 71
3
 72
11
 73
7
 74
0
 42
0.0000001
 43
0.0000001
 44
0.0000000001
 40
0.0
 40
0.0
 40
0.0
 40
0.0
 40
0.2896101417
 40
0.5491174331
 40
0.7822437751
 40
1.0
 40
1.0
 40
1.0
 40
1.0
 10
87.403168437
 20
287.6985017678
 30
0.0
 10
87.1838454766
 20
287.8251250735
 30
0.0
 10
86.747322538
 20
288.0326323736
 30
0.0
 10
86.0765537356
 20
288.1948085246
 30
0.0
 10
85.4469704841
 20
288.1789934813
 30
0.0
 10
85.0681903302
 20
288.041151327
 30
0.0
 10
84.9032504398
 20
287.9459997739
 30
0.0
  0
SPLINE
  5
33B
100
AcDbEntity
  8
0
100
AcDbSpline
 62
7
  6
BYLAYER
 70
0
 71
3
 72
9
 73
5
 74
0
 42
0.0000001
 43
0.0000001
 44
0.0000000001
 40
0.0
 40
0.0
 40
0.0
 40
0.0
 40
0.4972299122
 40
1.0
 40
1.0
 40
1.0
 40
1.0
 10
61.7657458637
 20
197.9892674471
 30
0.0
 10
61.9694974986
 20
197.8716340471
 30
0.0
 10
62.4536143864
 20
197.7744522334
 30
0.0
 10
62.93816449
 20
197.8606061189
 30
0.0
 10
63.1484429782
 20
197.9718520413
 30
0.0
  0
SPLINE
  5
33C
100
AcDbEntity
  8
0
100
AcDbSpline
 62
7
  6
BYLAYER
 70
0
 71
3
 72
11
 73
7
 74
0
 42
0.0000001
 43
0.0000001
 44
0.0000000001
 40
0.0
 40
0.0
 40
0.0
 40
0.0
 40
0.2372539654
 40
0.5000012591
 40
0.7627478695
 40
1.0
 40
1.0
 40
1.0
 40
1.0
 10
133.5068037701
 20
251.8549688801
 30
0.0
 10
133.5068037689
 20
252.2607094711
 30
0.0
 10
133.3546788411
 20
253.116365057
 30
0.0
 10
132.8240586968
 20
254.3185321015
 30
0.0
 10
132.0482583636
 20
255.3791398995
 30
0.0
 10
131.3833006609
 20
255.9387046965
 30
0.0
 10
131.0319197321
 20
256.1415699809
 30
0.0
  0
SPLINE
  5
33D
100
AcDbEntity
  8
0
100
AcDbSpline
 62
7
  6
BYLAYER
 70
0
 71
3
 72
9
 73
5
 74
0
 42
0.0000001
 43
0.0000001
 44
0.0000000001
 40
0.0
 40
0.0
 40
0.0
 40
0.0
 40
0.4551553734
 40
1.0
 40
1.0
 40
1.0
 40
1.0
 10
58.2473651836
 20
198.591680296
 30
0.0
 10
58.3256205838
 20
198.7030118093
 30
0.0
 10
58.269451319
 20
199.0525632905
 30
0.0
 10
58.0822527757
 20
199.2993826454
 30
0.0
 10
57.9411776909
 20
199.380830541
 30
0.0
  0
SPLINE
  5
33E
100
AcDbEntity
  8
0
100
AcDbSpline
 62
7
  6
BYLAYER
 70
0
 71
3
 72
15
 73
11
 74
0
 42
0.0000001
 43
0.0000001
 44
0.0000000001
 40
0.0
 40
0.0
 40
0.0
 40
0.0
 40
0.1288324788
 40
0.27057245
 40
0.4178898961
 40
0.5623873788
 40
0.6962013569
 40
0.8135917099
 40
0.9130639723
 40
1.0
 40
1.0
 40
1.0
 40
1.0
 10
78.1791952084
 20
285.3906163996
 30
0.0
 10
78.1791952084
 20
286.215897078
 30
0.0
 10
77.948338392
 20
287.9511324785
 30
0.0
 10
77.0865840746
 20
290.4988894231
 30
0.0
 10
75.7586279448
 20
292.9533303189
 30
0.0
 10
74.0719201165
 20
295.1125114608
 30
0.0
 10
72.1614185155
 20
296.8042884726
 30
0.0
 10
70.1689717073
 20
297.8926802907
 30
0.0
 10
68.2187004891
 20
298.2832831434
 30
0.0
 10
67.006949365
 20
297.9720347288
 30
0.0
 10
66.5246983483
 20
297.6935208508
 30
0.0
  0
SPLINE
  5
33F
100
AcDbEntity
  8
0
100
AcDbSpline
 62
7
  6
BYLAYER
 70
0
 71
3
 72
9
 73
5
 74
0
 42
0.0000001
 43
0.0000001
 44
0.0000000001
 40
0.0
 40
0.0
 40
0.0
 40
0.0
 40
0.2743323364
 40
1.0
 40
1.0
 40
1.0
 40
1.0
 10
54.8412266192
 20
229.0949303038
 30
0.0
 10
54.7895761758
 20
229.1247500266
 30
0.0
 10
54.5966527033
 20
229.2240472144
 30
0.0
 10
54.3796202813
 20
229.2852584709
 30
0.0
 10
54.2218754007
 20
229.2875659972
 30
0.0
  0
SPLINE
  5
340
100
AcDbEntity
  8
0
100
AcDbSpline
 62
7
  6
BYLAYER
 70
0
 71
3
 72
8
 73
4
 74
0
 42
0.0000001
 43
0.0000001
 44
0.0000000001
 40
0.0
 40
0.0
 40
0.0
 40
0.0
 40
1.0
 40
1.0
 40
1.0
 40
1.0
 10
54.2218754007
 20
229.2875659972
 30
0.0
 10
54.1313119308
 20
229.2888907793
 30
0.0
 10
54.0388187663
 20
229.275725766
 30
0.0
 10
53.9534271261
 20
229.2455303205
 30
0.0
  0
SPLINE
  5
341
100
AcDbEntity
  8
0
100
AcDbSpline
 62
7
  6
BYLAYER
 70
0
 71
3
 72
9
 73
5
 74
0
 42
0.0000001
 43
0.0000001
 44
0.0000000001
 40
0.0
 40
0.0
 40
0.0
 40
0.0
 40
0.5000011283
 40
1.0
 40
1.0
 40
1.0
 40
1.0
 10
58.7303301075
 20
225.2166013197
 30
0.0
 10
58.7303301075
 20
225.7012979148
 30
0.0
 10
58.3990880949
 20
226.6583538383
 30
0.0
 10
57.7358707012
 20
227.4237445711
 30
0.0
 10
57.3161106572
 20
227.666087663
 30
0.0
  0
SPLINE
  5
342
100
AcDbEntity
  8
0
100
AcDbSpline
 62
7
  6
BYLAYER
 70
0
 71
3
 72
13
 73
9
 74
0
 42
0.0000001
 43
0.0000001
 44
0.0000000001
 40
0.0
 40
0.0
 40
0.0
 40
0.0
 40
0.3010973918
 40
0.5822076674
 40
0.7056805977
 40
0.8149754413
 40
0.9114175477
 40
1.0
 40
1.0
 40
1.0
 40
1.0
 10
299.2518990535
 20
296.4972707885
 30
0.0
 10
299.8331236716
 20
295.732841731
 30
0.0
 10
300.7664027613
 20
294.1032959452
 30
0.0
 10
301.373125984
 20
291.8990650533
 30
0.0
 10
301.3875306067
 20
290.2507539781
 30
0.0
 10
301.1700679133
 20
289.2128917446
 30
0.0
 10
300.7261761618
 20
288.3685973677
 30
0.0
 10
300.2716633332
 20
287.9660424854
 30
0.0
 10
300.0269041673
 20
287.8249406365
 30
0.0
  0
SPLINE
  5
343
100
AcDbEntity
  8
0
100
AcDbSpline
 62
7
  6
BYLAYER
 70
0
 71
3
 72
13
 73
9
 74
0
 42
0.0000001
 43
0.0000001
 44
0.0000000001
 40
0.0
 40
0.0
 40
0.0
 40
0.0
 40
0.3010973918
 40
0.5822076674
 40
0.7056805977
 40
0.8149754413
 40
0.9114175477
 40
1.0
 40
1.0
 40
1.0
 40
1.0
 10
299.2518990535
 20
352.0194351533
 30
0.0
 10
299.8331236716
 20
351.2550060958
 30
0.0
 10
300.7664027613
 20
349.62546031
 30
0.0
 10
301.373125984
 20
347.4212294181
 30
0.0
 10
301.3875306067
 20
345.7729183429
 30
0.0
 10
301.1700679133
 20
344.7350561094
 30
0.0
 10
300.7261761618
 20
343.8907617325
 30
0.0
 10
300.2716633332
 20
343.4882068503
 30
0.0
 10
300.0269041673
 20
343.3471050013
 30
0.0
  0
SPLINE
  5
344
100
AcDbEntity
  8
0
100
AcDbSpline
 62
7
  6
BYLAYER
 70
0
 71
3
 72
13
 73
9
 74
0
 42
0.0000001
 43
0.0000001
 44
0.0000000001
 40
0.0
 40
0.0
 40
0.0
 40
0.0
 40
0.3004667231
 40
0.5725649892
 40
0.694110638
 40
0.8050573288
 40
0.9062971555
 40
1.0
 40
1.0
 40
1.0
 40
1.0
 10
281.0704256491
 20
342.9664916539
 30
0.0
 10
279.9147117462
 20
344.6463953901
 30
0.0
 10
277.4158401423
 20
347.6554123997
 30
0.0
 10
273.6828317414
 20
350.6112040964
 30
0.0
 10
270.599238546
 20
352.1285656218
 30
0.0
 10
268.4176154633
 20
352.7828694019
 30
0.0
 10
266.3348278932
 20
352.9733424319
 30
0.0
 10
265.0094062869
 20
352.7729682792
 30
0.0
 10
264.400143073
 20
352.590866055
 30
0.0
  0
SPLINE
  5
345
100
AcDbEntity
  8
0
100
AcDbSpline
 62
7
  6
BYLAYER
 70
0
 71
3
 72
9
 73
5
 74
0
 42
0.0000001
 43
0.0000001
 44
0.0000000001
 40
0.0
 40
0.0
 40
0.0
 40
0.0
 40
0.4551369468
 40
1.0
 40
1.0
 40
1.0
 40
1.0
 10
264.400143073
 20
352.590866055
 30
0.0
 10
263.7548064091
 20
352.3979818643
 30
0.0
 10
262.2083016906
 20
352.3995088081
 30
0.0
 10
260.8240170179
 20
352.9948138077
 30
0.0
 10
260.1257116492
 20
353.3979714796
 30
0.0
  0
SPLINE
  5
346
100
AcDbEntity
  8
0
100
AcDbSpline
 62
7
  6
BYLAYER
 70
0
 71
3
 72
9
 73
5
 74
0
 42
0.0000001
 43
0.0000001
 44
0.0000000001
 40
0.0
 40
0.0
 40
0.0
 40
0.0
 40
0.7062814946
 40
1.0
 40
1.0
 40
1.0
 40
1.0
 10
338.90815055
 20
403.5584199147
 30
0.0
 10
338.9081445866
 20
403.5342085223
 30
0.0
 10
338.8863253618
 20
403.5007938505
 30
0.0
 10
338.8582600037
 20
403.4818055607
 30
0.0
 10
338.8495402434
 20
403.4767712349
 30
0.0
  0
SPLINE
  5
347
100
AcDbEntity
  8
0
100
AcDbSpline
 62
7
  6
BYLAYER
 70
0
 71
3
 72
9
 73
5
 74
0
 42
0.0000001
 43
0.0000001
 44
0.0000000001
 40
0.0
 40
0.0
 40
0.0
 40
0.0
 40
0.4154069252
 40
1.0
 40
1.0
 40
1.0
 40
1.0
 10
53.9661945979
 20
201.5561265892
 30
0.0
 10
53.9074265594
 20
201.5221350262
 30
0.0
 10
53.8328136662
 20
201.3472414297
 30
0.0
 10
53.8754127826
 20
201.1848899155
 30
0.0
 10
53.9099720928
 20
201.0958187134
 30
0.0
  0
SPLINE
  5
348
100
AcDbEntity
  8
0
100
AcDbSpline
 62
7
  6
BYLAYER
 70
0
 71
3
 72
9
 73
5
 74
0
 42
0.0000001
 43
0.0000001
 44
0.0000000001
 40
0.0
 40
0.0
 40
0.0
 40
0.0
 40
0.5000011283
 40
1.0
 40
1.0
 40
1.0
 40
1.0
 10
288.5745422038
 20
336.156900657
 30
0.0
 10
288.5745422038
 20
336.3992489546
 30
0.0
 10
288.4089211975
 20
336.8777769164
 30
0.0
 10
288.0773125006
 20
337.2604722828
 30
0.0
 10
287.8674324786
 20
337.3816438287
 30
0.0
  0
SPLINE
  5
349
100
AcDbEntity
  8
0
100
AcDbSpline
 62
7
  6
BYLAYER
 70
0
 71
3
 72
9
 73
5
 74
0
 42
0.0000001
 43
0.0000001
 44
0.0000000001
 40
0.0
 40
0.0
 40
0.0
 40
0.0
 40
0.4752542138
 40
1.0
 40
1.0
 40
1.0
 40
1.0
 10
285.3448570717
 20
338.8380204713
 30
0.0
 10
284.5247256017
 20
339.3115128844
 30
0.0
 10
282.9439095068
 20
340.5619417803
 30
0.0
 10
281.6630704274
 20
342.105044738
 30
0.0
 10
281.0704256491
 20
342.9664916539
 30
0.0
  0
SPLINE
  5
34A
100
AcDbEntity
  8
0
100
AcDbSpline
 62
7
  6
BYLAYER
 70
0
 71
3
 72
13
 73
9
 74
0
 42
0.0000001
 43
0.0000001
 44
0.0000000001
 40
0.0
 40
0.0
 40
0.0
 40
0.0
 40
0.0871398598
 40
0.1868487356
 40
0.3045129735
 40
0.4386470586
 40
0.7300507088
 40
1.0
 40
1.0
 40
1.0
 40
1.0
 10
247.5685760314
 20
378.6850112656
 30
0.0
 10
247.4562331283
 20
378.6200648364
 30
0.0
 10
247.2522598563
 20
378.4118193749
 30
0.0
 10
247.1039020779
 20
377.9727460668
 30
0.0
 10
247.0911980679
 20
377.4438245753
 30
0.0
 10
247.2544727319
 20
376.6461616948
 30
0.0
 10
247.7343601487
 20
375.7083953538
 30
0.0
 10
248.3454119303
 20
375.1003459422
 30
0.0
 10
248.6935537055
 20
374.8993507417
 30
0.0
  0
SPLINE
  5
34B
100
AcDbEntity
  8
0
100
AcDbSpline
 62
7
  6
BYLAYER
 70
0
 71
3
 72
15
 73
11
 74
0
 42
0.0000001
 43
0.0000001
 44
0.0000000001
 40
0.0
 40
0.0
 40
0.0
 40
0.0
 40
0.08693032
 40
0.1864002924
 40
0.3037886505
 40
0.4376014476
 40
0.5821005512
 40
0.7294188911
 40
0.8711712459
 40
1.0
 40
1.0
 40
1.0
 40
1.0
 10
273.9724739963
 20
327.7267537355
 30
0.0
 10
274.3222028931
 20
327.9284813273
 30
0.0
 10
274.9568634965
 20
328.5765358405
 30
0.0
 10
275.4186428479
 20
329.942587943
 30
0.0
 10
275.4576024116
 20
331.5881631588
 30
0.0
 10
275.0879722168
 20
333.4010347923
 30
0.0
 10
274.3436938197
 20
335.2428311845
 30
0.0
 10
273.2839918231
 20
336.9664969612
 30
0.0
 10
271.9965886633
 20
338.4311554583
 30
0.0
 10
270.9907243619
 20
339.205188834
 30
0.0
 10
270.4725520814
 20
339.5043489717
 30
0.0
  0
SPLINE
  5
34C
100
AcDbEntity
  8
0
100
AcDbSpline
 62
7
  6
BYLAYER
 70
0
 71
3
 72
9
 73
5
 74
0
 42
0.0000001
 43
0.0000001
 44
0.0000000001
 40
0.0
 40
0.0
 40
0.0
 40
0.0
 40
0.2207192776
 40
1.0
 40
1.0
 40
1.0
 40
1.0
 10
53.7404869632
 20
229.1225897595
 30
0.0
 10
53.6891607516
 20
229.0787133016
 30
0.0
 10
53.4856648658
 20
228.8444715526
 30
0.0
 10
53.4270071689
 20
228.5168109022
 30
0.0
 10
53.4270071689
 20
228.2784069786
 30
0.0
  0
SPLINE
  5
34D
100
AcDbEntity
  8
0
100
AcDbSpline
 62
7
  6
BYLAYER
 70
0
 71
3
 72
9
 73
5
 74
0
 42
0.0000001
 43
0.0000001
 44
0.0000000001
 40
0.0
 40
0.0
 40
0.0
 40
0.0
 40
0.2550375844
 40
1.0
 40
1.0
 40
1.0
 40
1.0
 10
373.2548616968
 20
334.628885386
 30
0.0
 10
373.2599718267
 20
334.571507895
 30
0.0
 10
373.2776581977
 20
334.3463318735
 30
0.0
 10
373.2857885685
 20
334.1203760358
 30
0.0
 10
373.2857885685
 20
333.9521135352
 30
0.0
  0
SPLINE
  5
34E
100
AcDbEntity
  8
0
100
AcDbSpline
 62
7
  6
BYLAYER
 70
0
 71
3
 72
11
 73
7
 74
0
 42
0.0000001
 43
0.0000001
 44
0.0000000001
 40
0.0
 40
0.0
 40
0.0
 40
0.0
 40
0.2897033281
 40
0.5490895198
 40
0.7822165953
 40
1.0
 40
1.0
 40
1.0
 40
1.0
 10
373.2857885685
 20
333.9521135352
 30
0.0
 10
373.2857885685
 20
333.5721024523
 30
0.0
 10
373.2281732973
 20
332.8494019122
 30
0.0
 10
372.9354882493
 20
331.8564492423
 30
0.0
 10
372.4427038328
 20
331.0507243037
 30
0.0
 10
371.9798296905
 20
330.6615866244
 30
0.0
 10
371.7324301297
 20
330.5187513833
 30
0.0
  0
SPLINE
  5
34F
100
AcDbEntity
  8
0
100
AcDbSpline
 62
7
  6
BYLAYER
 70
0
 71
3
 72
8
 73
4
 74
0
 42
0.0000001
 43
0.0000001
 44
0.0000000001
 40
0.0
 40
0.0
 40
0.0
 40
0.0
 40
1.0
 40
1.0
 40
1.0
 40
1.0
 10
253.512150121
 20
391.5670891368
 30
0.0
 10
253.5390441858
 20
391.6600971968
 30
0.0
 10
253.5713879859
 20
391.7517632637
 30
0.0
 10
253.6097781778
 20
391.8406451129
 30
0.0
  0
SPLINE
  5
350
100
AcDbEntity
  8
0
100
AcDbSpline
 62
7
  6
BYLAYER
 70
0
 71
3
 72
8
 73
4
 74
0
 42
0.0000001
 43
0.0000001
 44
0.0000000001
 40
0.0
 40
0.0
 40
0.0
 40
0.0
 40
1.0
 40
1.0
 40
1.0
 40
1.0
 10
253.6097781778
 20
391.8406451129
 30
0.0
 10
253.653505788
 20
391.941884275
 30
0.0
 10
253.705363208
 20
392.040129814
 30
0.0
 10
253.765727354
 20
392.1324208847
 30
0.0
  0
SPLINE
  5
351
100
AcDbEntity
  8
0
100
AcDbSpline
 62
7
  6
BYLAYER
 70
0
 71
3
 72
11
 73
7
 74
0
 42
0.0000001
 43
0.0000001
 44
0.0000000001
 40
0.0
 40
0.0
 40
0.0
 40
0.0
 40
0.2177669599
 40
0.450898211
 40
0.7103709681
 40
1.0
 40
1.0
 40
1.0
 40
1.0
 10
266.3362472575
 20
339.4834718693
 30
0.0
 10
266.5671820193
 20
339.6166790473
 30
0.0
 10
267.0975211849
 20
339.8095928695
 30
0.0
 10
267.9789005969
 20
339.831731337
 30
0.0
 10
268.9179957936
 20
339.6047833941
 30
0.0
 10
269.5290855962
 20
339.31421392
 30
0.0
 10
269.8361586279
 20
339.1369292332
 30
0.0
  0
SPLINE
  5
352
100
AcDbEntity
  8
0
100
AcDbSpline
 62
7
  6
BYLAYER
 70
0
 71
3
 72
9
 73
5
 74
0
 42
0.0000001
 43
0.0000001
 44
0.0000000001
 40
0.0
 40
0.0
 40
0.0
 40
0.0
 40
0.530066891
 40
1.0
 40
1.0
 40
1.0
 40
1.0
 10
94.1657918671
 20
206.5951639523
 30
0.0
 10
94.796023761
 20
206.9591103064
 30
0.0
 10
95.9392021939
 20
207.7388347207
 30
0.0
 10
96.864077717
 20
208.7768971385
 30
0.0
 10
97.224944164
 20
209.3117507122
 30
0.0
  0
SPLINE
  5
353
100
AcDbEntity
  8
0
100
AcDbSpline
 62
7
  6
BYLAYER
 70
0
 71
3
 72
13
 73
9
 74
0
 42
0.0000001
 43
0.0000001
 44
0.0000000001
 40
0.0
 40
0.0
 40
0.0
 40
0.0
 40
0.0871398598
 40
0.1868487356
 40
0.3045129735
 40
0.4386470586
 40
0.7300507088
 40
1.0
 40
1.0
 40
1.0
 40
1.0
 10
295.6520373414
 20
295.4024755934
 30
0.0
 10
295.5396944383
 20
295.3375291642
 30
0.0
 10
295.3357211663
 20
295.1292837027
 30
0.0
 10
295.1873633879
 20
294.6902103946
 30
0.0
 10
295.1746593779
 20
294.1612889031
 30
0.0
 10
295.3379340419
 20
293.3636260226
 30
0.0
 10
295.8178214587
 20
292.4258596816
 30
0.0
 10
296.4288732403
 20
291.81781027
 30
0.0
 10
296.7770150155
 20
291.6168150695
 30
0.0
  0
SPLINE
  5
354
100
AcDbEntity
  8
0
100
AcDbSpline
 62
7
  6
BYLAYER
 70
0
 71
3
 72
11
 73
7
 74
0
 42
0.0000001
 43
0.0000001
 44
0.0000000001
 40
0.0
 40
0.0
 40
0.0
 40
0.0
 40
0.2177735765
 40
0.4509326157
 40
0.7102291527
 40
1.0
 40
1.0
 40
1.0
 40
1.0
 10
105.9693204263
 20
213.4100631323
 30
0.0
 10
106.6950129306
 20
213.8290174244
 30
0.0
 10
108.0530265827
 20
214.970392818
 30
0.0
 10
109.4981729938
 20
217.3338135054
 30
0.0
 10
110.3573164155
 20
220.2463591035
 30
0.0
 10
110.5258942755
 20
222.3663032527
 30
0.0
 10
110.5258942755
 20
223.4812783598
 30
0.0
  0
SPLINE
  5
355
100
AcDbEntity
  8
0
100
AcDbSpline
 62
7
  6
BYLAYER
 70
0
 71
3
 72
13
 73
9
 74
0
 42
0.0000001
 43
0.0000001
 44
0.0000000001
 40
0.0
 40
0.0
 40
0.0
 40
0.0
 40
0.0871398598
 40
0.1868487356
 40
0.3045129735
 40
0.4386470586
 40
0.7300507088
 40
1.0
 40
1.0
 40
1.0
 40
1.0
 10
295.6520373414
 20
350.9246399582
 30
0.0
 10
295.5396944383
 20
350.859693529
 30
0.0
 10
295.3357211663
 20
350.6514480675
 30
0.0
 10
295.1873633879
 20
350.2123747594
 30
0.0
 10
295.1746593779
 20
349.683453268
 30
0.0
 10
295.3379340419
 20
348.8857903874
 30
0.0
 10
295.8178214587
 20
347.9480240464
 30
0.0
 10
296.4288732403
 20
347.3399746348
 30
0.0
 10
296.7770150155
 20
347.1389794344
 30
0.0
  0
SPLINE
  5
356
100
AcDbEntity
  8
0
100
AcDbSpline
 62
7
  6
BYLAYER
 70
0
 71
3
 72
15
 73
11
 74
0
 42
0.0000001
 43
0.0000001
 44
0.0000000001
 40
0.0
 40
0.0
 40
0.0
 40
0.0
 40
0.0869350653
 40
0.1864072581
 40
0.3038004141
 40
0.4376163302
 40
0.5821176779
 40
0.729435985
 40
0.8711712105
 40
1.0
 40
1.0
 40
1.0
 40
1.0
 10
51.95837149
 20
289.2836699645
 30
0.0
 10
52.4405699584
 20
289.5622667302
 30
0.0
 10
53.6523559354
 20
289.8735054445
 30
0.0
 10
55.6026364012
 20
289.4829480147
 30
0.0
 10
57.5951166233
 20
288.3945107246
 30
0.0
 10
59.5056513427
 20
286.7026777173
 30
0.0
 10
61.1923541761
 20
284.5434228646
 30
0.0
 10
62.5202932547
 20
282.0889625766
 30
0.0
 10
63.3820152618
 20
279.5412352159
 30
0.0
 10
63.6128561972
 20
277.8060470202
 30
0.0
 10
63.6128561618
 20
276.9807868298
 30
0.0
  0
SPLINE
  5
357
100
AcDbEntity
  8
0
100
AcDbSpline
 62
7
  6
BYLAYER
 70
0
 71
3
 72
13
 73
9
 74
0
 42
0.0000001
 43
0.0000001
 44
0.0000000001
 40
0.0
 40
0.0
 40
0.0
 40
0.0
 40
0.0937028302
 40
0.1949426308
 40
0.3058893093
 40
0.42743495
 40
0.6995332212
 40
1.0
 40
1.0
 40
1.0
 40
1.0
 10
262.1374107914
 20
351.2844847623
 30
0.0
 10
262.7466739125
 20
351.4665869588
 30
0.0
 10
264.0720952209
 20
351.6669612246
 30
0.0
 10
266.1548824398
 20
351.4764882106
 30
0.0
 10
268.3365052659
 20
350.8221847156
 30
0.0
 10
271.4200984899
 20
349.3048234612
 30
0.0
 10
275.1531073182
 20
346.3490317044
 30
0.0
 10
277.6519792524
 20
343.34001441
 30
0.0
 10
278.8076933705
 20
341.6601103609
 30
0.0
  0
SPLINE
  5
358
100
AcDbEntity
  8
0
100
AcDbSpline
 62
7
  6
BYLAYER
 70
0
 71
3
 72
9
 73
5
 74
0
 42
0.0000001
 43
0.0000001
 44
0.0000000001
 40
0.0
 40
0.0
 40
0.0
 40
0.0
 40
0.5247457862
 40
1.0
 40
1.0
 40
1.0
 40
1.0
 10
278.8076933705
 20
341.6601103609
 30
0.0
 10
279.4003381487
 20
340.798663445
 30
0.0
 10
280.681177228
 20
339.2555604877
 30
0.0
 10
282.2619933227
 20
338.005131592
 30
0.0
 10
283.0821247927
 20
337.5316391789
 30
0.0
  0
SPLINE
  5
359
100
AcDbEntity
  8
0
100
AcDbSpline
 62
7
  6
BYLAYER
 70
0
 71
3
 72
9
 73
5
 74
0
 42
0.0000001
 43
0.0000001
 44
0.0000000001
 40
0.0
 40
0.0
 40
0.0
 40
0.0
 40
0.4999988717
 40
1.0
 40
1.0
 40
1.0
 40
1.0
 10
285.6047001995
 20
336.0752625363
 30
0.0
 10
285.8145802216
 20
335.9540909904
 30
0.0
 10
286.1461889184
 20
335.571395624
 30
0.0
 10
286.3118099247
 20
335.0928676622
 30
0.0
 10
286.3118099247
 20
334.8505193647
 30
0.0
  0
SPLINE
  5
35A
100
AcDbEntity
  8
0
100
AcDbSpline
 62
7
  6
BYLAYER
 70
0
 71
3
 72
11
 73
7
 74
0
 42
0.0000001
 43
0.0000001
 44
0.0000000001
 40
0.0
 40
0.0
 40
0.0
 40
0.0
 40
0.2177845113
 40
0.450917848
 40
0.7103083905
 40
1.0
 40
1.0
 40
1.0
 40
1.0
 10
362.4170757584
 20
314.5553223785
 30
0.0
 10
362.7469586414
 20
314.3649288422
 30
0.0
 10
363.5048233313
 20
314.0898131677
 30
0.0
 10
364.7637107889
 20
314.0579773071
 30
0.0
 10
366.1053333987
 20
314.3819898536
 30
0.0
 10
366.9782023729
 20
314.7972413842
 30
0.0
 10
367.41696803
 20
315.0505613423
 30
0.0
  0
SPLINE
  5
35B
100
AcDbEntity
  8
0
100
AcDbSpline
 62
7
  6
BYLAYER
 70
0
 71
3
 72
11
 73
7
 74
0
 42
0.0000001
 43
0.0000001
 44
0.0000000001
 40
0.0
 40
0.0
 40
0.0
 40
0.0
 40
0.2177845113
 40
0.450917848
 40
0.7103083905
 40
1.0
 40
1.0
 40
1.0
 40
1.0
 10
362.4170757584
 20
339.0503948924
 30
0.0
 10
362.7469586414
 20
338.8600013561
 30
0.0
 10
363.5048233313
 20
338.5848856816
 30
0.0
 10
364.7637107889
 20
338.553049821
 30
0.0
 10
366.1053333987
 20
338.8770623675
 30
0.0
 10
366.9782023729
 20
339.2923138981
 30
0.0
 10
367.41696803
 20
339.5456338562
 30
0.0
  0
SPLINE
  5
35C
100
AcDbEntity
  8
0
100
AcDbSpline
 62
7
  6
BYLAYER
 70
0
 71
3
 72
9
 73
5
 74
0
 42
0.0000001
 43
0.0000001
 44
0.0000000001
 40
0.0
 40
0.0
 40
0.0
 40
0.0
 40
0.7157214441
 40
1.0
 40
1.0
 40
1.0
 40
1.0
 10
50.0993063614
 20
231.4152863437
 30
0.0
 10
50.1024636636
 20
231.3838246063
 30
0.0
 10
50.127472094
 20
231.3415468822
 30
0.0
 10
50.1623960725
 20
231.3148095663
 30
0.0
 10
50.172813222
 20
231.3077942889
 30
0.0
  0
SPLINE
  5
35D
100
AcDbEntity
  8
0
100
AcDbSpline
 62
7
  6
BYLAYER
 70
0
 71
3
 72
9
 73
5
 74
0
 42
0.0000001
 43
0.0000001
 44
0.0000000001
 40
0.0
 40
0.0
 40
0.0
 40
0.0
 40
0.2075054814
 40
1.0
 40
1.0
 40
1.0
 40
1.0
 10
50.172813222
 20
231.3077942889
 30
0.0
 10
50.1869144756
 20
231.2982980056
 30
0.0
 10
50.2592878922
 20
231.2591550682
 30
0.0
 10
50.341085471
 20
231.2408744718
 30
0.0
 10
50.4054500692
 20
231.2323371369
 30
0.0
  0
SPLINE
  5
35E
100
AcDbEntity
  8
0
100
AcDbSpline
 62
7
  6
BYLAYER
 70
0
 71
3
 72
9
 73
5
 74
0
 42
0.0000001
 43
0.0000001
 44
0.0000000001
 40
0.0
 40
0.0
 40
0.0
 40
0.0
 40
0.5448630532
 40
1.0
 40
1.0
 40
1.0
 40
1.0
 10
257.8629793701
 20
352.0915901872
 30
0.0
 10
258.5612847384
 20
351.6884325155
 30
0.0
 10
259.9455694101
 20
351.0931275162
 30
0.0
 10
261.4920741279
 20
351.0916005717
 30
0.0
 10
262.1374107914
 20
351.2844847623
 30
0.0
  0
SPLINE
  5
35F
100
AcDbEntity
  8
0
100
AcDbSpline
 62
7
  6
BYLAYER
 70
0
 71
3
 72
11
 73
7
 74
0
 42
0.0000001
 43
0.0000001
 44
0.0000000001
 40
0.0
 40
0.0
 40
0.0
 40
0.0
 40
0.2896403952
 40
0.5491094116
 40
0.7822346475
 40
1.0
 40
1.0
 40
1.0
 40
1.0
 10
270.4725520814
 20
339.5043489717
 30
0.0
 10
270.1654665645
 20
339.6816408667
 30
0.0
 10
269.5543683001
 20
339.9722153277
 30
0.0
 10
268.6152659071
 20
340.1991620827
 30
0.0
 10
267.7339048752
 20
340.1769973396
 30
0.0
 10
267.2035641542
 20
339.9841157098
 30
0.0
 10
266.9726301665
 20
339.8509103681
 30
0.0
  0
SPLINE
  5
360
100
AcDbEntity
  8
0
100
AcDbSpline
 62
7
  6
BYLAYER
 70
0
 71
3
 72
15
 73
11
 74
0
 42
0.0000001
 43
0.0000001
 44
0.0000000001
 40
0.0
 40
0.0
 40
0.0
 40
0.0
 40
0.1288276911
 40
0.2705718454
 40
0.4178835941
 40
0.5623820368
 40
0.6961996629
 40
0.8135913769
 40
0.9130641192
 40
1.0
 40
1.0
 40
1.0
 40
1.0
 10
269.8361586279
 20
339.1369292332
 30
0.0
 10
270.3543259325
 20
338.8377719682
 30
0.0
 10
271.3601578128
 20
338.0637703496
 30
0.0
 10
272.6475158084
 20
336.5991758599
 30
0.0
 10
273.7072098133
 20
334.8755938015
 30
0.0
 10
274.4515112909
 20
333.0338221937
 30
0.0
 10
274.8211899986
 20
331.2209269961
 30
0.0
 10
274.7822627777
 20
329.5753023731
 30
0.0
 10
274.3205026253
 20
328.2091873664
 30
0.0
 10
273.6858198828
 20
327.5610945598
 30
0.0
 10
273.3360699983
 20
327.3593527573
 30
0.0
  0
SPLINE
  5
361
100
AcDbEntity
  8
0
100
AcDbSpline
 62
7
  6
BYLAYER
 70
0
 71
3
 72
15
 73
11
 74
0
 42
0.0000001
 43
0.0000001
 44
0.0000000001
 40
0.0
 40
0.0
 40
0.0
 40
0.0
 40
0.1271262406
 40
0.2662459309
 40
0.4109814459
 40
0.5539867597
 40
0.6881999041
 40
0.8080767738
 40
0.9111381597
 40
1.0
 40
1.0
 40
1.0
 40
1.0
 10
224.0882185961
 20
322.2736689723
 30
0.0
 10
225.4105605876
 20
321.4857620713
 30
0.0
 10
227.9796037692
 20
319.4918531929
 30
0.0
 10
231.3011150598
 20
315.7576521339
 30
0.0
 10
234.0825591331
 20
311.3749142253
 30
0.0
 10
236.1172146803
 20
306.6643415103
 30
0.0
 10
237.2595275455
 20
301.9663634278
 30
0.0
 10
237.41927846
 20
297.6077580243
 30
0.0
 10
236.5699256491
 20
293.8716348545
 30
0.0
 10
235.2121150285
 20
291.8822344549
 30
0.0
 10
234.4043451327
 20
291.1714549067
 30
0.0
  0
SPLINE
  5
362
100
AcDbEntity
  8
0
100
AcDbSpline
 62
7
  6
BYLAYER
 70
0
 71
3
 72
9
 73
5
 74
0
 42
0.0000001
 43
0.0000001
 44
0.0000000001
 40
0.0
 40
0.0
 40
0.0
 40
0.0
 40
0.4735609656
 40
1.0
 40
1.0
 40
1.0
 40
1.0
 10
253.0739316166
 20
391.9293164763
 30
0.0
 10
252.8928516622
 20
391.8247798349
 30
0.0
 10
252.5591338265
 20
391.5124965081
 30
0.0
 10
252.376057285
 20
391.0999650903
 30
0.0
 10
252.311150965
 20
390.8767763245
 30
0.0
  0
SPLINE
  5
363
100
AcDbEntity
  8
0
100
AcDbSpline
 62
7
  6
BYLAYER
 70
0
 71
3
 72
9
 73
5
 74
0
 42
0.0000001
 43
0.0000001
 44
0.0000000001
 40
0.0
 40
0.0
 40
0.0
 40
0.0
 40
0.2643388559
 40
1.0
 40
1.0
 40
1.0
 40
1.0
 10
54.2635240114
 20
201.2999407903
 30
0.0
 10
54.2559748121
 20
201.3193976676
 30
0.0
 10
54.2304759347
 20
201.3940700553
 30
0.0
 10
54.2162674105
 20
201.4732315972
 30
0.0
 10
54.2161766022
 20
201.5313134573
 30
0.0
  0
SPLINE
  5
364
100
AcDbEntity
  8
0
100
AcDbSpline
 62
7
  6
BYLAYER
 70
0
 71
3
 72
9
 73
5
 74
0
 42
0.0000001
 43
0.0000001
 44
0.0000000001
 40
0.0
 40
0.0
 40
0.0
 40
0.0
 40
0.2295850114
 40
1.0
 40
1.0
 40
1.0
 40
1.0
 10
56.4322205568
 20
196.1187167546
 30
0.0
 10
56.4108333433
 20
196.1310643887
 30
0.0
 10
56.3219888313
 20
196.1922207566
 30
0.0
 10
56.249936348
 20
196.2758314872
 30
0.0
 10
56.2049598718
 20
196.3454354429
 30
0.0
  0
SPLINE
  5
365
100
AcDbEntity
  8
0
100
AcDbSpline
 62
7
  6
BYLAYER
 70
0
 71
3
 72
8
 73
4
 74
0
 42
0.0000001
 43
0.0000001
 44
0.0000000001
 40
0.0
 40
0.0
 40
0.0
 40
0.0
 40
1.0
 40
1.0
 40
1.0
 40
1.0
 10
56.2049598718
 20
196.3454354429
 30
0.0
 10
56.1736248588
 20
196.3939283672
 30
0.0
 10
56.1469175321
 20
196.4457893501
 30
0.0
 10
56.1260330641
 20
196.4996157911
 30
0.0
  0
SPLINE
  5
366
100
AcDbEntity
  8
0
100
AcDbSpline
 62
7
  6
BYLAYER
 70
0
 71
3
 72
11
 73
7
 74
0
 42
0.0000001
 43
0.0000001
 44
0.0000000001
 40
0.0
 40
0.0
 40
0.0
 40
0.0
 40
0.218082978
 40
0.4530852647
 40
0.7127984237
 40
1.0
 40
1.0
 40
1.0
 40
1.0
 10
215.054881765
 20
323.6801978755
 30
0.0
 10
215.6708434908
 20
323.9436154241
 30
0.0
 10
217.044757503
 20
324.2870794106
 30
0.0
 10
219.2553818163
 20
324.2090276937
 30
0.0
 10
221.5898117148
 20
323.5758202534
 30
0.0
 10
223.1103563127
 20
322.8402044031
 30
0.0
 10
223.874409209
 20
322.3990882371
 30
0.0
  0
SPLINE
  5
367
100
AcDbEntity
  8
0
100
AcDbSpline
 62
7
  6
BYLAYER
 70
0
 71
3
 72
10
 73
6
 74
0
 42
0.0000001
 43
0.0000001
 44
0.0000000001
 40
0.0
 40
0.0
 40
0.0
 40
0.0
 40
0.2941140426
 40
0.5630493798
 40
1.0
 40
1.0
 40
1.0
 40
1.0
 10
95.9010613237
 20
226.4301961929
 30
0.0
 10
96.5004178741
 20
224.8498048407
 30
0.0
 10
97.4238276832
 20
221.7204815163
 30
0.0
 10
98.0932877765
 20
216.035041716
 30
0.0
 10
97.3055171795
 20
211.7405083693
 30
0.0
 10
95.9010613235
 20
209.6589096679
 30
0.0
  0
SPLINE
  5
368
100
AcDbEntity
  8
0
100
AcDbSpline
 62
7
  6
BYLAYER
 70
0
 71
3
 72
9
 73
5
 74
0
 42
0.0000001
 43
0.0000001
 44
0.0000000001
 40
0.0
 40
0.0
 40
0.0
 40
0.0
 40
0.5118567386
 40
1.0
 40
1.0
 40
1.0
 40
1.0
 10
61.7388433128
 20
224.6949413075
 30
0.0
 10
61.9050698815
 20
224.5150097608
 30
0.0
 10
62.3351165091
 20
224.2562126614
 30
0.0
 10
62.8433719943
 20
224.2321027903
 30
0.0
 10
63.0665680491
 20
224.3010877997
 30
0.0
  0
SPLINE
  5
369
100
AcDbEntity
  8
0
100
AcDbSpline
 62
7
  6
BYLAYER
 70
0
 71
3
 72
9
 73
5
 74
0
 42
0.0000001
 43
0.0000001
 44
0.0000000001
 40
0.0
 40
0.0
 40
0.0
 40
0.0
 40
0.5000005438
 40
1.0
 40
1.0
 40
1.0
 40
1.0
 10
126.0822075914
 20
180.6151895511
 30
0.0
 10
126.2920888655
 20
180.4940172823
 30
0.0
 10
126.7893150648
 20
180.398165022
 30
0.0
 10
127.28654121
 20
180.4940194317
 30
0.0
 10
127.4964211538
 20
180.6151929505
 30
0.0
  0
SPLINE
  5
36A
100
AcDbEntity
  8
0
100
AcDbSpline
 62
7
  6
BYLAYER
 70
0
 71
3
 72
9
 73
5
 74
0
 42
0.0000001
 43
0.0000001
 44
0.0000000001
 40
0.0
 40
0.0
 40
0.0
 40
0.0
 40
0.5508247479
 40
1.0
 40
1.0
 40
1.0
 40
1.0
 10
127.4964211538
 20
180.615192942
 30
0.0
 10
127.4964211533
 20
180.2809152095
 30
0.0
 10
127.4154193562
 20
179.6597406393
 30
0.0
 10
127.0075181325
 20
179.1493773544
 30
0.0
 10
126.77144798
 20
179.0130829734
 30
0.0
  0
SPLINE
  5
36B
100
AcDbEntity
  8
0
100
AcDbSpline
 62
7
  6
BYLAYER
 70
0
 71
3
 72
11
 73
7
 74
0
 42
0.0000001
 43
0.0000001
 44
0.0000000001
 40
0.0
 40
0.0
 40
0.0
 40
0.0
 40
0.2372523758
 40
0.4999990758
 40
0.7627462798
 40
1.0
 40
1.0
 40
1.0
 40
1.0
 10
124.3144332785
 20
251.446748102
 30
0.0
 10
124.5654199157
 20
251.3018441776
 30
0.0
 10
125.0403899685
 20
250.9021546786
 30
0.0
 10
125.5945330519
 20
250.1445773003
 30
0.0
 10
125.973547105
 20
249.2858867337
 30
0.0
 10
126.0822075914
 20
248.6747045811
 30
0.0
 10
126.0822075914
 20
248.3848901729
 30
0.0
  0
SPLINE
  5
36C
100
AcDbEntity
  8
0
100
AcDbSpline
 62
7
  6
BYLAYER
 70
0
 71
3
 72
11
 73
7
 74
0
 42
0.0000001
 43
0.0000001
 44
0.0000000001
 40
0.0
 40
0.0
 40
0.0
 40
0.0
 40
0.2932503881
 40
0.549992858
 40
0.7789300959
 40
1.0
 40
1.0
 40
1.0
 40
1.0
 10
126.0822075914
 20
180.6151895511
 30
0.0
 10
126.0822075914
 20
180.4650107663
 30
0.0
 10
126.0555645138
 20
180.1818943319
 30
0.0
 10
125.91610402
 20
179.8018822142
 30
0.0
 10
125.6778340204
 20
179.5177636844
 30
0.0
 10
125.4636618179
 20
179.4134646477
 30
0.0
 10
125.3541677324
 20
179.3846822878
 30
0.0
  0
SPLINE
  5
36D
100
AcDbEntity
  8
0
100
AcDbSpline
 62
7
  6
BYLAYER
 70
0
 71
3
 72
9
 73
5
 74
0
 42
0.0000001
 43
0.0000001
 44
0.0000000001
 40
0.0
 40
0.0
 40
0.0
 40
0.0
 40
0.2299239752
 40
1.0
 40
1.0
 40
1.0
 40
1.0
 10
125.3541677324
 20
179.3846822878
 30
0.0
 10
125.298545624
 20
179.3700610821
 30
0.0
 10
125.050235187
 20
179.3299477152
 30
0.0
 10
124.7940231755
 20
179.3830316757
 30
0.0
 10
124.6138948303
 20
179.4512738135
 30
0.0
  0
SPLINE
  5
36E
100
AcDbEntity
  8
0
100
AcDbSpline
 62
7
  6
BYLAYER
 70
0
 71
3
 72
8
 73
4
 74
0
 42
0.0000001
 43
0.0000001
 44
0.0000000001
 40
0.0
 40
0.0
 40
0.0
 40
0.0
 40
1.0
 40
1.0
 40
1.0
 40
1.0
 10
124.6138948303
 20
179.4512738135
 30
0.0
 10
124.5104168295
 20
179.4904767495
 30
0.0
 10
124.4102640096
 20
179.5392087479
 30
0.0
 10
124.3144332785
 20
179.5945353946
 30
0.0
  0
SPLINE
  5
36F
100
AcDbEntity
  8
0
100
AcDbSpline
 62
7
  6
BYLAYER
 70
0
 71
3
 72
10
 73
6
 74
0
 42
0.0000001
 43
0.0000001
 44
0.0000000001
 40
0.0
 40
0.0
 40
0.0
 40
0.0
 40
0.2281151782
 40
0.4772888626
 40
1.0
 40
1.0
 40
1.0
 40
1.0
 10
110.5258942755
 20
223.4812783598
 30
0.0
 10
110.5258942755
 20
225.0664140411
 30
0.0
 10
110.1512539807
 20
228.3879721265
 30
0.0
 10
108.2022072178
 20
235.0762831744
 30
0.0
 10
105.5530408173
 20
239.8577060719
 30
0.0
 10
103.3559252284
 20
242.7500785699
 30
0.0
  0
SPLINE
  5
370
100
AcDbEntity
  8
0
100
AcDbSpline
 62
7
  6
BYLAYER
 70
0
 71
3
 72
9
 73
5
 74
0
 42
0.0000001
 43
0.0000001
 44
0.0000000001
 40
0.0
 40
0.0
 40
0.0
 40
0.0
 40
0.2640517332
 40
1.0
 40
1.0
 40
1.0
 40
1.0
 10
103.3559252284
 20
242.7500785699
 30
0.0
 10
103.3057662851
 20
242.8161120035
 30
0.0
 10
103.1356172054
 20
243.0792734268
 30
0.0
 10
103.0301991291
 20
243.3943468089
 30
0.0
 10
103.0302140869
 20
243.6254663907
 30
0.0
  0
SPLINE
  5
371
100
AcDbEntity
  8
0
100
AcDbSpline
 62
7
  6
BYLAYER
 70
0
 71
3
 72
9
 73
5
 74
0
 42
0.0000001
 43
0.0000001
 44
0.0000000001
 40
0.0
 40
0.0
 40
0.0
 40
0.0
 40
0.2326233901
 40
1.0
 40
1.0
 40
1.0
 40
1.0
 10
103.0302140869
 20
244.0522605635
 30
0.0
 10
103.0264996185
 20
244.1284715409
 30
0.0
 10
102.9743457446
 20
244.4537002246
 30
0.0
 10
102.8134573618
 20
244.7579203386
 30
0.0
 10
102.6509327174
 20
244.9501181708
 30
0.0
  0
SPLINE
  5
372
100
AcDbEntity
  8
0
100
AcDbSpline
 62
7
  6
BYLAYER
 70
0
 71
3
 72
9
 73
5
 74
0
 42
0.0000001
 43
0.0000001
 44
0.0000000001
 40
0.0
 40
0.0
 40
0.0
 40
0.0
 40
0.25780578
 40
1.0
 40
1.0
 40
1.0
 40
1.0
 10
102.6509327174
 20
244.9501181708
 30
0.0
 10
102.3004672757
 20
245.3645719338
 30
0.0
 10
100.9059495425
 20
246.9418432828
 30
0.0
 10
99.3693822322
 20
248.3961481569
 30
0.0
 10
98.1513734481
 20
249.3749652574
 30
0.0
  0
SPLINE
  5
373
100
AcDbEntity
  8
0
100
AcDbSpline
 62
7
  6
BYLAYER
 70
0
 71
3
 72
9
 73
5
 74
0
 42
0.0000001
 43
0.0000001
 44
0.0000000001
 40
0.0
 40
0.0
 40
0.0
 40
0.0
 40
0.26804707
 40
1.0
 40
1.0
 40
1.0
 40
1.0
 10
98.0253364258
 20
249.3094226457
 30
0.0
 10
97.5216003481
 20
249.7105214692
 30
0.0
 10
95.593132474
 20
251.1407869318
 30
0.0
 10
93.4475122551
 20
252.3032130664
 30
0.0
 10
91.7873859217
 20
252.8826408783
 30
0.0
  0
SPLINE
  5
374
100
AcDbEntity
  8
0
100
AcDbSpline
 62
7
  6
BYLAYER
 70
0
 71
3
 72
9
 73
5
 74
0
 42
0.0000001
 43
0.0000001
 44
0.0000000001
 40
0.0
 40
0.0
 40
0.0
 40
0.0
 40
0.2661506446
 40
1.0
 40
1.0
 40
1.0
 40
1.0
 10
91.7873859217
 20
253.0491320481
 30
0.0
 10
91.4041023435
 20
253.1836851635
 30
0.0
 10
89.9466900094
 20
253.6347749572
 30
0.0
 10
88.407428827
 20
253.8510561467
 30
0.0
 10
87.2878193248
 20
253.8198101877
 30
0.0
  0
SPLINE
  5
375
100
AcDbEntity
  8
0
100
AcDbSpline
 62
7
  6
BYLAYER
 70
0
 71
3
 72
9
 73
5
 74
0
 42
0.0000001
 43
0.0000001
 44
0.0000000001
 40
0.0
 40
0.0
 40
0.0
 40
0.0
 40
0.2308337608
 40
1.0
 40
1.0
 40
1.0
 40
1.0
 10
63.1484429781
 20
197.7269013162
 30
0.0
 10
63.0996224154
 20
197.7010732413
 30
0.0
 10
62.8789447945
 20
197.6068547041
 30
0.0
 10
62.635063447
 20
197.5730495607
 30
0.0
 10
62.4510394011
 20
197.5753673882
 30
0.0
  0
SPLINE
  5
376
100
AcDbEntity
  8
0
100
AcDbSpline
 62
7
  6
BYLAYER
 70
0
 71
3
 72
9
 73
5
 74
0
 42
0.0000001
 43
0.0000001
 44
0.0000000001
 40
0.0
 40
0.0
 40
0.0
 40
0.0
 40
0.2671682028
 40
1.0
 40
1.0
 40
1.0
 40
1.0
 10
62.4510394011
 20
197.5753673882
 30
0.0
 10
62.3878410781
 20
197.5761633864
 30
0.0
 10
62.1521626955
 20
197.5921480698
 30
0.0
 10
61.9158845541
 20
197.6576360697
 30
0.0
 10
61.7657458637
 20
197.744316722
 30
0.0
  0
SPLINE
  5
377
100
AcDbEntity
  8
0
100
AcDbSpline
 62
7
  6
BYLAYER
 70
0
 71
3
 72
11
 73
7
 74
0
 42
0.0000001
 43
0.0000001
 44
0.0000000001
 40
0.0
 40
0.0
 40
0.0
 40
0.0
 40
0.24288128
 40
0.4924963749
 40
0.7457257963
 40
1.0
 40
1.0
 40
1.0
 40
1.0
 10
89.4052712747
 20
233.8134883689
 30
0.0
 10
90.1921864543
 20
233.568698697
 30
0.0
 10
91.7095591222
 20
232.7908433784
 30
0.0
 10
93.5497544081
 20
231.0145363232
 30
0.0
 10
94.9497709576
 20
228.8400118913
 30
0.0
 10
95.6193043998
 20
227.2456587486
 30
0.0
 10
95.901062529
 20
226.4301961908
 30
0.0
  0
SPLINE
  5
378
100
AcDbEntity
  8
0
100
AcDbSpline
 62
7
  6
BYLAYER
 70
0
 71
3
 72
9
 73
5
 74
0
 42
0.0000001
 43
0.0000001
 44
0.0000000001
 40
0.0
 40
0.0
 40
0.0
 40
0.0
 40
0.4816971331
 40
1.0
 40
1.0
 40
1.0
 40
1.0
 10
95.9010640219
 20
209.6589065571
 30
0.0
 10
95.6422067075
 20
209.2086058538
 30
0.0
 10
95.0067388516
 20
208.3262235467
 30
0.0
 10
94.198216425
 20
207.6006640315
 30
0.0
 10
93.7523867427
 20
207.2636561986
 30
0.0
  0
SPLINE
  5
379
100
AcDbEntity
  8
0
100
AcDbSpline
 62
7
  6
BYLAYER
 70
0
 71
3
 72
10
 73
6
 74
0
 42
0.0000001
 43
0.0000001
 44
0.0000000001
 40
0.0
 40
0.0
 40
0.0
 40
0.0
 40
0.4786832373
 40
0.7492880004
 40
1.0
 40
1.0
 40
1.0
 40
1.0
 10
93.7523867427
 20
207.2636561986
 30
0.0
 10
92.4839388944
 20
206.3048217436
 30
0.0
 10
90.190475804
 20
205.25094732
 30
0.0
 10
87.1368503929
 20
203.9669026678
 30
0.0
 10
85.5673588726
 20
203.2254660136
 30
0.0
 10
84.8394844865
 20
202.8207899602
 30
0.0
  0
SPLINE
  5
37A
100
AcDbEntity
  8
0
100
AcDbSpline
 62
7
  6
BYLAYER
 70
0
 71
3
 72
9
 73
5
 74
0
 42
0.0000001
 43
0.0000001
 44
0.0000000001
 40
0.0
 40
0.0
 40
0.0
 40
0.0
 40
0.5000016722
 40
1.0
 40
1.0
 40
1.0
 40
1.0
 10
124.3144332785
 20
251.446748102
 30
0.0
 10
124.3144332785
 20
251.689097525
 30
0.0
 10
124.480031368
 20
252.1676365846
 30
0.0
 10
124.8116574494
 20
252.5503213145
 30
0.0
 10
125.0215371157
 20
252.671494673
 30
0.0
  0
SPLINE
  5
37B
100
AcDbEntity
  8
0
100
AcDbSpline
 62
7
  6
BYLAYER
 70
0
 71
3
 72
11
 73
7
 74
0
 42
0.0000001
 43
0.0000001
 44
0.0000000001
 40
0.0
 40
0.0
 40
0.0
 40
0.0
 40
0.2372465044
 40
0.4999989081
 40
0.7627519057
 40
1.0
 40
1.0
 40
1.0
 40
1.0
 10
125.0215371157
 20
252.671494673
 30
0.0
 10
125.3729103928
 20
252.4686338063
 30
0.0
 10
126.0378786813
 20
251.9090811928
 30
0.0
 10
126.8136978382
 20
250.8484685333
 30
0.0
 10
127.3443123133
 20
249.6462830083
 30
0.0
 10
127.4964211532
 20
248.7906249183
 30
0.0
 10
127.4964211538
 20
248.3848935818
 30
0.0
  0
SPLINE
  5
37C
100
AcDbEntity
  8
0
100
AcDbSpline
 62
7
  6
BYLAYER
 70
0
 71
3
 72
9
 73
5
 74
0
 42
0.0000001
 43
0.0000001
 44
0.0000000001
 40
0.0
 40
0.0
 40
0.0
 40
0.0
 40
0.4999994562
 40
1.0
 40
1.0
 40
1.0
 40
1.0
 10
127.4964211538
 20
248.3848935722
 30
0.0
 10
127.28654121
 20
248.2637200535
 30
0.0
 10
126.7893150648
 20
248.1678656438
 30
0.0
 10
126.2920888655
 20
248.2637179041
 30
0.0
 10
126.0822075914
 20
248.3848901729
 30
0.0
  0
SPLINE
  5
37D
100
AcDbEntity
  8
0
100
AcDbSpline
 62
7
  6
BYLAYER
 70
0
 71
3
 72
9
 73
5
 74
0
 42
0.0000001
 43
0.0000001
 44
0.0000000001
 40
0.0
 40
0.0
 40
0.0
 40
0.0
 40
0.5280434385
 40
1.0
 40
1.0
 40
1.0
 40
1.0
 10
95.901061318
 20
209.6589096597
 30
0.0
 10
96.0623920031
 20
209.4613191123
 30
0.0
 10
96.4893435169
 20
209.1734162374
 30
0.0
 10
97.0274961431
 20
209.1977547203
 30
0.0
 10
97.2249441591
 20
209.311750705
 30
0.0
  0
SPLINE
  5
37E
100
AcDbEntity
  8
0
100
AcDbSpline
 62
7
  6
BYLAYER
 70
0
 71
3
 72
9
 73
5
 74
0
 42
0.0000001
 43
0.0000001
 44
0.0000000001
 40
0.0
 40
0.0
 40
0.0
 40
0.0
 40
0.2790296276
 40
1.0
 40
1.0
 40
1.0
 40
1.0
 10
99.21223288
 20
216.9493718978
 30
0.0
 10
99.21223288
 20
216.2098003349
 30
0.0
 10
99.0748040684
 20
213.5708021328
 30
0.0
 10
98.2937379723
 20
210.8958516267
 30
0.0
 10
97.224944164
 20
209.3117507122
 30
0.0
  0
SPLINE
  5
37F
100
AcDbEntity
  8
0
100
AcDbSpline
 62
7
  6
BYLAYER
 70
0
 71
3
 72
11
 73
7
 74
0
 42
0.0000001
 43
0.0000001
 44
0.0000000001
 40
0.0
 40
0.0
 40
0.0
 40
0.0
 40
0.2501327372
 40
0.5016701245
 40
0.7526481992
 40
1.0
 40
1.0
 40
1.0
 40
1.0
 10
97.2249441637
 20
226.881664522
 30
0.0
 10
96.8892751816
 20
227.7667514439
 30
0.0
 10
96.0920313342
 20
229.4993620726
 30
0.0
 10
94.448055211
 20
231.8493518423
 30
0.0
 10
92.3124740268
 20
233.7624864443
 30
0.0
 10
90.5802600321
 20
234.5932283142
 30
0.0
 10
89.6816045443
 20
234.8552536085
 30
0.0
  0
SPLINE
  5
380
100
AcDbEntity
  8
0
100
AcDbSpline
 62
7
  6
BYLAYER
 70
0
 71
3
 72
9
 73
5
 74
0
 42
0.0000001
 43
0.0000001
 44
0.0000000001
 40
0.0
 40
0.0
 40
0.0
 40
0.0
 40
0.5223288854
 40
1.0
 40
1.0
 40
1.0
 40
1.0
 10
97.2249441637
 20
226.881664522
 30
0.0
 10
97.8528117538
 20
225.2260948792
 30
0.0
 10
98.821836156
 20
221.9616564509
 30
0.0
 10
99.21223288
 20
218.5686170779
 30
0.0
 10
99.21223288
 20
216.9493718978
 30
0.0
  0
SPLINE
  5
381
100
AcDbEntity
  8
0
100
AcDbSpline
 62
7
  6
BYLAYER
 70
0
 71
3
 72
9
 73
5
 74
0
 42
0.0000001
 43
0.0000001
 44
0.0000000001
 40
0.0
 40
0.0
 40
0.0
 40
0.0
 40
0.5421061426
 40
1.0
 40
1.0
 40
1.0
 40
1.0
 10
84.8394840873
 20
202.8208097359
 30
0.0
 10
84.8412876845
 20
202.7294594615
 30
0.0
 10
84.8256181028
 20
202.5572752668
 30
0.0
 10
84.7153271158
 20
202.410009258
 30
0.0
 10
84.6478145234
 20
202.3726196216
 30
0.0
  0
SPLINE
  5
382
100
AcDbEntity
  8
0
100
AcDbSpline
 62
7
  6
BYLAYER
 70
0
 71
3
 72
9
 73
5
 74
0
 42
0.0000001
 43
0.0000001
 44
0.0000000001
 40
0.0
 40
0.0
 40
0.0
 40
0.0
 40
0.2289287085
 40
1.0
 40
1.0
 40
1.0
 40
1.0
 10
61.7657458637
 20
190.8865209086
 30
0.0
 10
61.8126748119
 20
190.8594270807
 30
0.0
 10
62.0278471556
 20
190.7589787432
 30
0.0
 10
62.2685370059
 20
190.7198590431
 30
0.0
 10
62.4510389783
 20
190.7175603864
 30
0.0
  0
SPLINE
  5
383
100
AcDbEntity
  8
0
100
AcDbSpline
 62
7
  6
BYLAYER
 70
0
 71
3
 72
8
 73
4
 74
0
 42
0.0000001
 43
0.0000001
 44
0.0000000001
 40
0.0
 40
0.0
 40
0.0
 40
0.0
 40
1.0
 40
1.0
 40
1.0
 40
1.0
 10
62.4510389783
 20
190.7175603864
 30
0.0
 10
62.6013807719
 20
190.715666795
 30
0.0
 10
62.753682227
 20
190.7329230902
 30
0.0
 10
62.8987484576
 20
190.7724456068
 30
0.0
  0
SPLINE
  5
384
100
AcDbEntity
  8
0
100
AcDbSpline
 62
7
  6
BYLAYER
 70
0
 71
3
 72
8
 73
4
 74
0
 42
0.0000001
 43
0.0000001
 44
0.0000000001
 40
0.0
 40
0.0
 40
0.0
 40
0.0
 40
1.0
 40
1.0
 40
1.0
 40
1.0
 10
62.8987484576
 20
190.7724456068
 30
0.0
 10
62.98486006
 20
190.795906251
 30
0.0
 10
63.0695525768
 20
190.8273692538
 30
0.0
 10
63.1484429781
 20
190.8691055028
 30
0.0
  0
SPLINE
  5
385
100
AcDbEntity
  8
0
100
AcDbSpline
 62
7
  6
BYLAYER
 70
0
 71
3
 72
9
 73
5
 74
0
 42
0.0000001
 43
0.0000001
 44
0.0000000001
 40
0.0
 40
0.0
 40
0.0
 40
0.0
 40
0.5595141026
 40
1.0
 40
1.0
 40
1.0
 40
1.0
 10
63.1484429673
 20
190.8691054971
 30
0.0
 10
63.1500016701
 20
190.7741481834
 30
0.0
 10
63.1324633664
 20
190.6002172235
 30
0.0
 10
63.0198378514
 20
190.4541564846
 30
0.0
 10
62.9542439464
 20
190.4182748623
 30
0.0
  0
SPLINE
  5
386
100
AcDbEntity
  8
0
100
AcDbSpline
 62
7
  6
BYLAYER
 70
0
 71
3
 72
9
 73
5
 74
0
 42
0.0000001
 43
0.0000001
 44
0.0000000001
 40
0.0
 40
0.0
 40
0.0
 40
0.0
 40
0.4847588721
 40
1.0
 40
1.0
 40
1.0
 40
1.0
 10
89.4052755111
 20
233.8134853435
 30
0.0
 10
89.4804306578
 20
233.9713080935
 30
0.0
 10
89.5995771544
 20
234.3135863191
 30
0.0
 10
89.6684028329
 20
234.6699264132
 30
0.0
 10
89.6816103811
 20
234.8552519074
 30
0.0
  0
SPLINE
  5
387
100
AcDbEntity
  8
0
100
AcDbSpline
 62
7
  6
BYLAYER
 70
0
 71
3
 72
9
 73
5
 74
0
 42
0.0000001
 43
0.0000001
 44
0.0000000001
 40
0.0
 40
0.0
 40
0.0
 40
0.0
 40
0.5298398137
 40
1.0
 40
1.0
 40
1.0
 40
1.0
 10
97.2249441596
 20
226.8816645329
 30
0.0
 10
97.0100634886
 20
226.7576038601
 30
0.0
 10
96.5763279615
 20
226.5776041041
 30
0.0
 10
96.1206972918
 20
226.4455884024
 30
0.0
 10
95.9010613185
 20
226.4301962068
 30
0.0
  0
SPLINE
  5
388
100
AcDbEntity
  8
0
100
AcDbSpline
 62
7
  6
BYLAYER
 70
0
 71
3
 72
9
 73
5
 74
0
 42
0.0000001
 43
0.0000001
 44
0.0000000001
 40
0.0
 40
0.0
 40
0.0
 40
0.0
 40
0.275842736
 40
1.0
 40
1.0
 40
1.0
 40
1.0
 10
87.9570460349
 20
235.0212442875
 30
0.0
 10
87.9975226672
 20
235.0282164122
 30
0.0
 10
88.1430360049
 20
235.0594634561
 30
0.0
 10
88.2848772065
 20
235.1123343555
 30
0.0
 10
88.3782576861
 20
235.166247268
 30
0.0
  0
SPLINE
  5
389
100
AcDbEntity
  8
0
100
AcDbSpline
 62
7
  6
BYLAYER
 70
0
 71
3
 72
9
 73
5
 74
0
 42
0.0000001
 43
0.0000001
 44
0.0000000001
 40
0.0
 40
0.0
 40
0.0
 40
0.0
 40
0.5351179561
 40
1.0
 40
1.0
 40
1.0
 40
1.0
 10
61.7657458637
 20
190.8865209086
 30
0.0
 10
61.8107120891
 20
190.7353228732
 30
0.0
 10
61.9535347125
 20
190.4606814169
 30
0.0
 10
62.2383508822
 20
190.3131013166
 30
0.0
 10
62.3747221788
 20
190.2995939351
 30
0.0
  0
SPLINE
  5
38A
100
AcDbEntity
  8
0
100
AcDbSpline
 62
7
  6
BYLAYER
 70
0
 71
3
 72
12
 73
8
 74
0
 42
0.0000001
 43
0.0000001
 44
0.0000000001
 40
0.0
 40
0.0
 40
0.0
 40
0.0
 40
0.2723351788
 40
0.5289819526
 40
0.6512301872
 40
0.7692758773
 40
1.0
 40
1.0
 40
1.0
 40
1.0
 10
89.405270493
 20
233.8134869044
 30
0.0
 10
89.2342039589
 20
233.8738542755
 30
0.0
 10
88.9018294495
 20
233.9907687018
 30
0.0
 10
88.5139529113
 20
234.1932438378
 30
0.0
 10
88.2547300609
 20
234.3998115008
 30
0.0
 10
88.0370913276
 20
234.6303900797
 30
0.0
 10
87.9708779319
 20
234.8681799318
 30
0.0
 10
87.9570460351
 20
235.0212441972
 30
0.0
  0
SPLINE
  5
38B
100
AcDbEntity
  8
0
100
AcDbSpline
 62
7
  6
BYLAYER
 70
0
 71
3
 72
9
 73
5
 74
0
 42
0.0000001
 43
0.0000001
 44
0.0000000001
 40
0.0
 40
0.0
 40
0.0
 40
0.0
 40
0.4999988717
 40
1.0
 40
1.0
 40
1.0
 40
1.0
 10
57.3161106572
 20
227.4619620587
 30
0.0
 10
57.6834006957
 20
227.2499118533
 30
0.0
 10
58.2637159152
 20
226.5801949621
 30
0.0
 10
58.5535526762
 20
225.7427710291
 30
0.0
 10
58.5535526762
 20
225.3186615083
 30
0.0
  0
SPLINE
  5
38C
100
AcDbEntity
  8
0
100
AcDbSpline
 62
7
  6
BYLAYER
 70
0
 71
3
 72
10
 73
6
 74
0
 42
0.0000001
 43
0.0000001
 44
0.0000000001
 40
0.0
 40
0.0
 40
0.0
 40
0.0
 40
0.4513586651
 40
0.7152445425
 40
1.0
 40
1.0
 40
1.0
 40
1.0
 10
61.7657458637
 20
190.8865209086
 30
0.0
 10
59.7921270419
 20
191.0811269626
 30
0.0
 10
56.7544895231
 20
192.2748660944
 30
0.0
 10
53.1501939658
 20
194.7821295516
 30
0.0
 10
51.372646321
 20
196.4277363409
 30
0.0
 10
50.5074593545
 20
197.3315424658
 30
0.0
  0
SPLINE
  5
38D
100
AcDbEntity
  8
0
100
AcDbSpline
 62
7
  6
BYLAYER
 70
0
 71
3
 72
11
 73
7
 74
0
 42
0.0000001
 43
0.0000001
 44
0.0000000001
 40
0.0
 40
0.0
 40
0.0
 40
0.0
 40
0.2177845113
 40
0.450917848
 40
0.7103083905
 40
1.0
 40
1.0
 40
1.0
 40
1.0
 10
362.4170757584
 20
290.0602498646
 30
0.0
 10
362.7469586414
 20
289.8698563283
 30
0.0
 10
363.5048233313
 20
289.5947406538
 30
0.0
 10
364.7637107889
 20
289.5629047932
 30
0.0
 10
366.1053333987
 20
289.8869173397
 30
0.0
 10
366.9782023729
 20
290.3021688704
 30
0.0
 10
367.41696803
 20
290.5554888285
 30
0.0
  0
SPLINE
  5
38E
100
AcDbEntity
  8
0
100
AcDbSpline
 62
7
  6
BYLAYER
 70
0
 71
3
 72
9
 73
5
 74
0
 42
0.0000001
 43
0.0000001
 44
0.0000000001
 40
0.0
 40
0.0
 40
0.0
 40
0.0
 40
0.2629621903
 40
1.0
 40
1.0
 40
1.0
 40
1.0
 10
55.7724811455
 20
196.2954937141
 30
0.0
 10
55.7881218889
 20
196.2551821508
 30
0.0
 10
55.8595793868
 20
196.1074820708
 30
0.0
 10
55.9737119101
 20
195.975190102
 30
0.0
 10
56.0786686382
 20
195.9145946777
 30
0.0
  0
SPLINE
  5
38F
100
AcDbEntity
  8
0
100
AcDbSpline
 62
7
  6
BYLAYER
 70
0
 71
3
 72
9
 73
5
 74
0
 42
0.0000001
 43
0.0000001
 44
0.0000000001
 40
0.0
 40
0.0
 40
0.0
 40
0.0
 40
0.2951733807
 40
1.0
 40
1.0
 40
1.0
 40
1.0
 10
56.0786686382
 20
195.9145946777
 30
0.0
 10
56.1005804794
 20
195.9019441565
 30
0.0
 10
56.1766397613
 20
195.8645473951
 30
0.0
 10
56.2763656804
 20
195.8595902405
 30
0.0
 10
56.3286495121
 20
195.8898635936
 30
0.0
  0
SPLINE
  5
390
100
AcDbEntity
  8
0
100
AcDbSpline
 62
7
  6
BYLAYER
 70
0
 71
3
 72
9
 73
5
 74
0
 42
0.0000001
 43
0.0000001
 44
0.0000000001
 40
0.0
 40
0.0
 40
0.0
 40
0.0
 40
0.2654496077
 40
1.0
 40
1.0
 40
1.0
 40
1.0
 10
50.3915914126
 20
204.3110392971
 30
0.0
 10
50.3739383478
 20
204.3212310682
 30
0.0
 10
50.30876987
 20
204.3618009436
 30
0.0
 10
50.2488753668
 20
204.4115028867
 30
0.0
 10
50.2111251729
 20
204.4534144332
 30
0.0
  0
SPLINE
  5
391
100
AcDbEntity
  8
0
100
AcDbSpline
 62
7
  6
BYLAYER
 70
0
 71
3
 72
9
 73
5
 74
0
 42
0.0000001
 43
0.0000001
 44
0.0000000001
 40
0.0
 40
0.0
 40
0.0
 40
0.0
 40
0.2729604391
 40
1.0
 40
1.0
 40
1.0
 40
1.0
 10
50.2111251729
 20
204.4534144332
 30
0.0
 10
50.1933285185
 20
204.473172883
 30
0.0
 10
50.1330999256
 20
204.5495801828
 30
0.0
 10
50.0986997888
 20
204.6484555761
 30
0.0
 10
50.0987162113
 20
204.7192834227
 30
0.0
  0
SPLINE
  5
392
100
AcDbEntity
  8
0
100
AcDbSpline
 62
7
  6
BYLAYER
 70
0
 71
3
 72
10
 73
6
 74
0
 42
0.0000001
 43
0.0000001
 44
0.0000000001
 40
0.0
 40
0.0
 40
0.0
 40
0.0
 40
0.3111020585
 40
0.5983348534
 40
1.0
 40
1.0
 40
1.0
 40
1.0
 10
89.681604109
 20
234.855255543
 30
0.0
 10
89.53838816
 20
234.8501136462
 30
0.0
 10
89.2527422147
 20
234.8493329559
 30
0.0
 10
88.839268037
 20
234.8684123837
 30
0.0
 10
88.3782620804
 20
234.9812223541
 30
0.0
 10
88.3782593609
 20
235.1662481916
 30
0.0
  0
SPLINE
  5
393
100
AcDbEntity
  8
0
100
AcDbSpline
 62
7
  6
BYLAYER
 70
0
 71
3
 72
9
 73
5
 74
0
 42
0.0000001
 43
0.0000001
 44
0.0000000001
 40
0.0
 40
0.0
 40
0.0
 40
0.0
 40
0.4896281561
 40
1.0
 40
1.0
 40
1.0
 40
1.0
 10
87.9570295488
 20
235.7922469681
 30
0.0
 10
87.8225789813
 20
235.8692779889
 30
0.0
 10
87.5047829029
 20
235.9459833202
 30
0.0
 10
87.1880463321
 20
235.9432381746
 30
0.0
 10
87.0270927302
 20
235.929737973
 30
0.0
  0
SPLINE
  5
394
100
AcDbEntity
  8
0
100
AcDbSpline
 62
7
  6
BYLAYER
 70
0
 71
3
 72
9
 73
5
 74
0
 42
0.0000001
 43
0.0000001
 44
0.0000000001
 40
0.0
 40
0.0
 40
0.0
 40
0.0
 40
0.4612624071
 40
1.0
 40
1.0
 40
1.0
 40
1.0
 10
88.3782586592
 20
235.592994091
 30
0.0
 10
88.3160864039
 20
235.6289817285
 30
0.0
 10
88.158375754
 20
235.6585440504
 30
0.0
 10
88.029830158
 20
235.7505371758
 30
0.0
 10
87.9570295488
 20
235.7922469681
 30
0.0
  0
SPLINE
  5
395
100
AcDbEntity
  8
0
100
AcDbSpline
 62
7
  6
BYLAYER
 70
0
 71
3
 72
10
 73
6
 74
0
 42
0.0000001
 43
0.0000001
 44
0.0000000001
 40
0.0
 40
0.0
 40
0.0
 40
0.0
 40
0.4855655683
 40
0.7383792122
 40
1.0
 40
1.0
 40
1.0
 40
1.0
 10
63.148442978
 20
224.3305094707
 30
0.0
 10
63.1308620613
 20
224.3213631783
 30
0.0
 10
63.1041320594
 20
224.3148692475
 30
0.0
 10
63.0647992319
 20
224.2818040461
 30
0.0
 10
63.0494101158
 20
224.3088527445
 30
0.0
 10
63.0487274275
 20
224.3195086236
 30
0.0
  0
SPLINE
  5
396
100
AcDbEntity
  8
0
100
AcDbSpline
 62
7
  6
BYLAYER
 70
0
 71
3
 72
9
 73
5
 74
0
 42
0.0000001
 43
0.0000001
 44
0.0000000001
 40
0.0
 40
0.0
 40
0.0
 40
0.0
 40
0.2590003483
 40
1.0
 40
1.0
 40
1.0
 40
1.0
 10
87.0270899383
 20
235.9297382249
 30
0.0
 10
86.8312665624
 20
235.9133134147
 30
0.0
 10
86.0786181193
 20
235.8169482399
 30
0.0
 10
85.3412812052
 20
235.5829369035
 30
0.0
 10
84.8394844083
 20
235.329384753
 30
0.0
  0
SPLINE
  5
397
100
AcDbEntity
  8
0
100
AcDbSpline
 62
7
  6
BYLAYER
 70
0
 71
3
 72
8
 73
4
 74
0
 42
0.0000001
 43
0.0000001
 44
0.0000000001
 40
0.0
 40
0.0
 40
0.0
 40
0.0
 40
1.0
 40
1.0
 40
1.0
 40
1.0
 10
63.6128561579
 20
276.9807863908
 30
0.0
 10
63.4243610299
 20
259.4258327399
 30
0.0
 10
63.236621345
 20
241.8708709703
 30
0.0
 10
63.0476045049
 20
224.315922929
 30
0.0
  0
SPLINE
  5
398
100
AcDbEntity
  8
0
100
AcDbSpline
 62
7
  6
BYLAYER
 70
0
 71
3
 72
9
 73
5
 74
0
 42
0.0000001
 43
0.0000001
 44
0.0000000001
 40
0.0
 40
0.0
 40
0.0
 40
0.0
 40
0.4999990424
 40
1.0
 40
1.0
 40
1.0
 40
1.0
 10
62.1986064246
 20
276.980803638
 30
0.0
 10
62.4085436398
 20
276.8597173524
 30
0.0
 10
62.9056928159
 20
276.7637318136
 30
0.0
 10
63.402985558
 20
276.8595824822
 30
0.0
 10
63.6128561543
 20
276.9807860534
 30
0.0
  0
SPLINE
  5
399
100
AcDbEntity
  8
0
100
AcDbSpline
 62
7
  6
BYLAYER
 70
0
 71
3
 72
19
 73
15
 74
0
 42
0.0000001
 43
0.0000001
 44
0.0000000001
 40
0.0
 40
0.0
 40
0.0
 40
0.0
 40
0.0586956542
 40
0.1112490649
 40
0.1588510006
 40
0.203980581
 40
0.2498248063
 40
0.2993503744
 40
0.3544744587
 40
0.4158996485
 40
0.5554496698
 40
0.7089502713
 40
0.861894853
 40
1.0
 40
1.0
 40
1.0
 40
1.0
 10
49.9685479848
 20
284.4370514865
 30
0.0
 10
49.9896845518
 20
284.8548582513
 30
0.0
 10
50.0946449389
 20
285.6465230555
 30
0.0
 10
50.4857253681
 20
286.7206286418
 30
0.0
 10
51.0987260279
 20
287.5746961708
 30
0.0
 10
51.9172698642
 20
288.1610262292
 30
0.0
 10
52.8977608692
 20
288.440624794
 30
0.0
 10
53.9835332021
 20
288.4103449706
 30
0.0
 10
55.1319913688
 20
288.0865808264
 30
0.0
 10
56.7657199465
 20
287.2524988514
 30
0.0
 10
58.6990387229
 20
285.5707667859
 30
0.0
 10
60.5657703077
 20
282.9688630311
 30
0.0
 10
61.8358103485
 20
280.0414333018
 30
0.0
 10
62.1986225825
 20
277.965568716
 30
0.0
 10
62.1986224982
 20
276.9812530084
 30
0.0
  0
ELLIPSE
  5
39A
100
AcDbEntity
  8
0
100
AcDbEllipse
 62
7
  6
BYLAYER
 10
-89.6793959169
 20
125.8562491159
 30
0.0
 11
395.4358814137
 21
209.5837279685
 31
0.0
 40
0.0377279958
 41
1.0938176276
 42
1.1540752764
  0
ENDSEC
  0
SECTION
  2
OBJECTS
  0
DICTIONARY
  5
C
100
AcDbDictionary
280
0
281
1
  3
ACAD_GROUP
350
D
  3
ACAD_MLINESTYLE
350
17
  3
ACAD_LAYOUT
350
1A
  3
ACAD_PLOTSETTINGS
350
19
  3
ACAD_PLOTSTYLENAME
350
E
  0
DICTIONARY
  5
D
102
{ACAD_REACTORS
330
C
102
}
100
AcDbDictionary
280
0
281
1
  0
ACDBDICTIONARYWDFLT
  5
E
102
{ACAD_REACTORS
330
C
102
}
100
AcDbDictionary
281
1
  3
Normal
350
F
100
AcDbDictionaryWithDefault
340
F
  0
DICTIONARY
  5
17
102
{ACAD_REACTORS
330
C
102
}
100
AcDbDictionary
280
0
281
1
  3
Standard
350
18
  0
DICTIONARY
  5
19
102
{ACAD_REACTORS
330
C
102
}
100
AcDbDictionary
281
1
  0
DICTIONARY
  5
1A
102
{ACAD_REACTORS
330
C
102
}
100
AcDbDictionary
281
1
  3
Model
350
39B
  3
Layout1
350
39C
  0
ACDBPLACEHOLDER
  5
F
102
{ACAD_REACTORS
330
E
102
}
  0
MLINESTYLE
  5
18
102
{ACAD_REACTORS
330
17
102
}
100
AcDbMlineStyle
  2
STANDARD
 70
0
  3

 62
256
 51
90.0
 52
90.0
 71
2
 49
0.5
 62
256
  6
BYLAYER
 49
-0.5
 62
256
  6
BYLAYER
  0
LAYOUT
  5
39B
102
{ACAD_REACTORS
330
1A
102
}
100
AcDbPlotSettings
  1

  2
none_device
  4

  6

 40
0.0
 41
0.0
 42
0.0
 43
0.0
 44
210.0
 45
297.0
 46
0.0
 47
0.0
 48
0.0
 49
0.0
140
0.0
141
0.0
142
1.0
143
1.0
 70
1024
 72
1
 73
0
 74
0
  7

 75
0
147
1.0
148
0.0
149
0.0
100
AcDbLayout
  1
Model
 70
0
 71
0
 10
0.0
 20
0.0
 11
210.0
 21
297.0
 12
0.0
 22
0.0
 32
0.0
 14
0.0
 24
0.0
 34
0.0
 15
0.0
 25
0.0
 35
0.0
146
0.0
 13
0.0
 23
0.0
 33
0.0
 16
1.0
 26
0.0
 36
0.0
 17
0.0
 27
1.0
 37
0.0
 76
0
330
210
345
0
346
0
  0
LAYOUT
  5
39C
102
{ACAD_REACTORS
330
1A
102
}
100
AcDbPlotSettings
  1

  2
none_device
  4

  6

 40
0.0
 41
0.0
 42
0.0
 43
0.0
 44
210.0
 45
297.0
 46
0.0
 47
0.0
 48
0.0
 49
0.0
140
0.0
141
0.0
142
1.0
143
1.0
 70
0
 72
1
 73
0
 74
0
  7

 75
0
147
1.0
148
0.0
149
0.0
100
AcDbLayout
  1
Layout1
 70
0
 71
1
 10
0.0
 20
0.0
 11
210.0
 21
297.0
 12
0.0
 22
0.0
 32
0.0
 14
0.0
 24
0.0
 34
0.0
 15
0.0
 25
0.0
 35
0.0
146
0.0
 13
0.0
 23
0.0
 33
0.0
 16
1.0
 26
0.0
 36
0.0
 17
0.0
 27
1.0
 37
0.0
 76
0
330
211
345
0
346
0
  0
ENDSEC
  0
EOF
