999
DXF file: C:\Users\sesa63760\Dev\_Creo\CAD\MCADUE0003158_3D-CAD\drw0001_7.dxf
999
Pro/ENGINEER 2019471 by Parametric Technology Corporation
  0
SECTION
  2
HEADER
  9
$ACADVER
  1
AC1024
  9
$DWGCODEPAGE
  3
ANSI_1252
  9
$EXTMAX
 10
1516.8755387574
 20
2145.295404814
 30
0.0
  9
$EXTMIN
 10
0.0
 20
0.0
 30
0.0
  9
$LIMMIN
 10
0.0
 20
0.0
  9
$LIMMAX
 10
1516.8755387574
 20
2145.295404814
  9
$VIEWCTR
 10
758.4377693787
 20
1072.647702407
  9
$VIEWSIZE
 40
2145.295404814
  9
$CLAYER
  8
0
  9
$LTSCALE
 40
139.8414782397
  9
$CELTYPE
  6
BYLAYER
  9
$DIMSCALE
 40
1.0
  9
$DIMASZ
 40
18.0580421281
  9
$DIMEXO
 40
1.0
  9
$DIMDLI
 40
96.617748602
  9
$DIMEXE
 40
1.0
  9
$DIMCEN
 40
22.8831509847
  9
$DIMLFAC
 40
1.0
  9
$DIMBLK
  1
_FILLED
  9
$DIMALT
 70
0
  9
$DIMALTF
 40
0.0393700787
  9
$DIMTXT
 40
25.2812589793
  9
$DIMTOL
 70
1
  9
$DIMLIM
 70
0
  9
$DIMTFAC
 40
1.0
  9
$DIMTP
 40
0.01
  9
$DIMTM
 40
0.01
  9
$DIMGAP
 40
0.625
  9
$DIMDSEP
 70
46
  9
$AUNITS
 70
0
  9
$PDMODE
 70
3
  9
$PDSIZE
 40
0.3125
  9
$HANDSEED
  5
51D
  9
$TILEMODE
 70
1
  9
$MEASUREMENT
 70
1
  9
$INSUNITS
 70
4
  0
ENDSEC
  0
SECTION
  2
CLASSES
  0
CLASS
  1
ACDBDICTIONARYWDFLT
  2
AcDbDictionaryWithDefault
  3
AutoCAD 2000
 90
0
 91
1
280
0
281
0
  0
CLASS
  1
ACDBPLACEHOLDER
  2
AcDbPlaceHolder
  3
AutoCAD 2000
 90
0
 91
1
280
0
281
0
  0
CLASS
  1
LAYOUT
  2
AcDbLayout
  3
AutoCAD 2000
 90
0
 91
0
280
0
281
0
  0
ENDSEC
  0
SECTION
  2
TABLES
  0
TABLE
  2
VPORT
  5
8
100
AcDbSymbolTable
 70
2
  0
VPORT
  5
1F4
100
AcDbSymbolTableRecord
100
AcDbViewportTableRecord
  2
*ACTIVE
 70
0
 10
0.0
 20
0.0
 11
1.0
 21
1.0
 12
758.4377693787
 22
1072.647702407
 13
0.0
 23
0.0
 14
1.0
 24
1.0
 15
0.0
 25
0.0
 16
0.0
 26
0.0
 36
1.0
 17
0.0
 27
0.0
 37
0.0
 40
2145.295404814
 41
0.7070707071
 42
50.0
 43
0.0
 44
0.0
 50
0.0
 51
0.0
 71
0
 72
100
 73
1
 74
1
 75
0
 76
0
 77
0
 78
0
  0
ENDTAB
  0
TABLE
  2
LTYPE
  5
5
100
AcDbSymbolTable
 70
6
  0
LTYPE
  5
14
100
AcDbSymbolTableRecord
100
AcDbLinetypeTableRecord
  2
BYBLOCK
 70
0
  3

 72
65
 73
0
 40
0.0
  0
LTYPE
  5
15
100
AcDbSymbolTableRecord
100
AcDbLinetypeTableRecord
  2
BYLAYER
 70
0
  3

 72
65
 73
0
 40
0.0
  0
LTYPE
  5
16
100
AcDbSymbolTableRecord
100
AcDbLinetypeTableRecord
  2
CONTINUOUS
 70
64
  3
Solid line
 72
65
 73
0
 40
0.0
  0
LTYPE
  5
1F5
100
AcDbSymbolTableRecord
100
AcDbLinetypeTableRecord
  2
CENTER
 70
64
  3
____ _ ____ _ ____ _ ____ _ ____ _ ____ _ ____
 72
65
 73
4
 40
0.6
 49
0.375
 74
0
 49
-0.075
 74
0
 49
0.075
 74
0
 49
-0.075
 74
0
  0
LTYPE
  5
1F6
100
AcDbSymbolTableRecord
100
AcDbLinetypeTableRecord
  2
HIDDEN
 70
64
  3
- - - - - - - - - - - - - - - - - - - -
 72
65
 73
2
 40
0.2
 49
0.1
 74
0
 49
-0.1
 74
0
  0
LTYPE
  5
1F7
100
AcDbSymbolTableRecord
100
AcDbLinetypeTableRecord
  2
PHANTOM
 70
64
  3
_____ _ _ _____ _ _ _____ _ _ _____
 72
65
 73
6
 40
0.8
 49
0.45
 74
0
 49
-0.05
 74
0
 49
0.1
 74
0
 49
-0.05
 74
0
 49
0.1
 74
0
 49
-0.05
 74
0
  0
LTYPE
  5
1F8
100
AcDbSymbolTableRecord
100
AcDbLinetypeTableRecord
  2
DOT
 70
64
  3
. . . . . . . . . . . . . . . . . . . .
 72
65
 73
2
 40
0.2
 49
0.1
 74
0
 49
-0.1
 74
0
  0
LTYPE
  5
1F9
100
AcDbSymbolTableRecord
100
AcDbLinetypeTableRecord
  2
DASHED
 70
64
  3
- - - - - - - - - - - - - - - - - - - -
 72
65
 73
2
 40
0.2
 49
0.1
 74
0
 49
-0.1
 74
0
  0
ENDTAB
  0
TABLE
  2
LAYER
  5
2
100
AcDbSymbolTable
 70
36
  0
LAYER
  5
10
100
AcDbSymbolTableRecord
100
AcDbLayerTableRecord
  2
0
 70
0
 62
7
  6
CONTINUOUS
370
-3
390
F
  0
LAYER
  5
1FA
100
AcDbSymbolTableRecord
100
AcDbLayerTableRecord
  2
DEFAULT_1
 70
0
 62
7
  6
CENTER
370
-3
390
F
  0
LAYER
  5
1FB
100
AcDbSymbolTableRecord
100
AcDbLayerTableRecord
  2
DEFAULT_2
 70
0
 62
8
  6
HIDDEN
370
-3
390
F
  0
LAYER
  5
1FC
100
AcDbSymbolTableRecord
100
AcDbLayerTableRecord
  2
DEFAULT_3
 70
0
 62
7
  6
PHANTOM
370
-3
390
F
  0
LAYER
  5
1FD
100
AcDbSymbolTableRecord
100
AcDbLayerTableRecord
  2
00_COMPONENTS
 70
0
 62
7
  6
CONTINUOUS
370
-3
390
F
  0
LAYER
  5
1FE
100
AcDbSymbolTableRecord
100
AcDbLayerTableRecord
  2
01_1_DEFAULT_DATUMS
 70
0
 62
7
  6
CONTINUOUS
370
-3
390
F
  0
LAYER
  5
1FF
100
AcDbSymbolTableRecord
100
AcDbLayerTableRecord
  2
01_PLANES
 70
0
 62
7
  6
CONTINUOUS
370
-3
390
F
  0
LAYER
  5
200
100
AcDbSymbolTableRecord
100
AcDbLayerTableRecord
  2
02_COORD_SYS
 70
0
 62
7
  6
CONTINUOUS
370
-3
390
F
  0
LAYER
  5
201
100
AcDbSymbolTableRecord
100
AcDbLayerTableRecord
  2
03_AXES
 70
0
 62
7
  6
CONTINUOUS
370
-3
390
F
  0
LAYER
  5
202
100
AcDbSymbolTableRecord
100
AcDbLayerTableRecord
  2
04_POINTS
 70
0
 62
7
  6
CONTINUOUS
370
-3
390
F
  0
LAYER
  5
203
100
AcDbSymbolTableRecord
100
AcDbLayerTableRecord
  2
05_CURVES
 70
0
 62
7
  6
CONTINUOUS
370
-3
390
F
  0
LAYER
  5
204
100
AcDbSymbolTableRecord
100
AcDbLayerTableRecord
  2
06_SURFS
 70
0
 62
7
  6
CONTINUOUS
370
-3
390
F
  0
LAYER
  5
205
100
AcDbSymbolTableRecord
100
AcDbLayerTableRecord
  2
07_COSMETICS
 70
0
 62
7
  6
CONTINUOUS
370
-3
390
F
  0
LAYER
  5
206
100
AcDbSymbolTableRecord
100
AcDbLayerTableRecord
  2
10_NOTES
 70
0
 62
7
  6
CONTINUOUS
370
-3
390
F
  0
LAYER
  5
207
100
AcDbSymbolTableRecord
100
AcDbLayerTableRecord
  2
11_NOTES_PUB
 70
0
 62
7
  6
CONTINUOUS
370
-3
390
F
  0
LAYER
  5
208
100
AcDbSymbolTableRecord
100
AcDbLayerTableRecord
  2
13_REF_GTOL
 70
0
 62
7
  6
CONTINUOUS
370
-3
390
F
  0
LAYER
  5
209
100
AcDbSymbolTableRecord
100
AcDbLayerTableRecord
  2
16_MISC
 70
0
 62
7
  6
CONTINUOUS
370
-3
390
F
  0
LAYER
  5
20A
100
AcDbSymbolTableRecord
100
AcDbLayerTableRecord
  2
17_NO_PRINT
 70
0
 62
7
  6
CONTINUOUS
370
-3
390
F
  0
LAYER
  5
20B
100
AcDbSymbolTableRecord
100
AcDbLayerTableRecord
  2
18_DATUM_CAMS_JOINTS
 70
0
 62
7
  6
CONTINUOUS
370
-3
390
F
  0
LAYER
  5
20C
100
AcDbSymbolTableRecord
100
AcDbLayerTableRecord
  2
19_DATUM_FUNCTIONAL
 70
0
 62
7
  6
CONTINUOUS
370
-3
390
F
  0
LAYER
  5
20D
100
AcDbSymbolTableRecord
100
AcDbLayerTableRecord
  2
20_DATUM_KINEMATIC_SCHEME
 70
0
 62
7
  6
CONTINUOUS
370
-3
390
F
  0
ENDTAB
  0
TABLE
  2
STYLE
  5
3
100
AcDbSymbolTable
 70
1
  0
STYLE
  5
11
100
AcDbSymbolTableRecord
100
AcDbTextStyleTableRecord
  2
STANDARD
 70
0
 40
0.0
 41
0.8
 50
0.0
 71
0
 42
0.2
  3
txt
  4

  0
STYLE
  5
20E
100
AcDbSymbolTableRecord
100
AcDbTextStyleTableRecord
  2
TEXTSTYLE_1
 70
0
 40
0.0
 41
0.8
 50
0.0
 71
0
 42
0.2
  3
gdt
  4

  0
ENDTAB
  0
TABLE
  2
VIEW
  5
6
100
AcDbSymbolTable
 70
0
  0
ENDTAB
  0
TABLE
  2
UCS
  5
7
100
AcDbSymbolTable
 70
0
  0
ENDTAB
  0
TABLE
  2
APPID
  5
9
100
AcDbSymbolTable
 70
1
  0
APPID
  5
20F
100
AcDbSymbolTableRecord
100
AcDbRegAppTableRecord
  2
ACAD
 70
0
  0
ENDTAB
  0
TABLE
  2
BLOCK_RECORD
  5
1
100
AcDbSymbolTable
 70
0
  0
BLOCK_RECORD
  5
210
100
AcDbSymbolTableRecord
100
AcDbBlockTableRecord
  2
*Model_Space
  0
BLOCK_RECORD
  5
211
100
AcDbSymbolTableRecord
100
AcDbBlockTableRecord
  2
*Paper_Space
  0
BLOCK_RECORD
  5
212
100
AcDbSymbolTableRecord
100
AcDbBlockTableRecord
  2
_FILLED
  0
ENDTAB
  0
TABLE
  2
DIMSTYLE
  5
A
100
AcDbSymbolTable
 70
1
100
AcDbDimStyleTable
 71
0
  0
DIMSTYLE
105
213
100
AcDbSymbolTableRecord
100
AcDbDimStyleTableRecord
  2
STANDARD
 70
0
  3

  4

 40
1.0
 41
18.0580421281
 42
1.0
 43
0.38
 44
1.0
 45
0.0
 46
0.0
 47
0.01
 48
0.01
140
25.2812589793
141
0.09
142
0.0
143
25.4
144
1.0
145
0.0
146
1.0
147
0.625
 71
1
 72
0
 73
0
 74
0
 75
0
 76
0
 77
1
 78
8
 79
2
170
0
171
1
172
0
173
0
174
0
175
0
176
0
177
0
178
0
270
2
179
2
271
2
272
2
273
2
274
2
275
0
280
0
281
0
282
0
283
1
284
8
285
0
286
0
287
3
288
0
340
11
278
46
341
212
342
212
343
212
344
212
  0
ENDTAB
  0
ENDSEC
  0
SECTION
  2
BLOCKS
  0
BLOCK
  5
20
100
AcDbEntity
  8
0
100
AcDbBlockBegin
  2
*Model_Space
 70
0
 10
0.0
 20
0.0
 30
0.0
  3
*Model_Space
  1

  0
ENDBLK
  5
21
100
AcDbEntity
  8
0
100
AcDbBlockEnd
  0
BLOCK
  5
1C
100
AcDbEntity
  8
0
100
AcDbBlockBegin
  2
*Paper_Space
 70
0
 10
0.0
 20
0.0
 30
0.0
  3
*Paper_Space
  1

  0
ENDBLK
  5
1D
100
AcDbEntity
  8
0
100
AcDbBlockEnd
  0
BLOCK
  5
214
100
AcDbEntity
  8
0
100
AcDbBlockBegin
  2
_FILLED
 70
64
 10
0.0
 20
0.0
  3
_FILLED
  1

  0
SOLID
  5
215
100
AcDbEntity
  8
0
  6
BYBLOCK
 62
0
100
AcDbTrace
 10
0.0
 20
0.0
 11
-1.0
 21
0.25
 12
-1.0
 22
-0.25
 13
-1.0
 23
-0.25
  0
ENDBLK
  5
216
100
AcDbEntity
  8
0
  6
BYBLOCK
 62
0
100
AcDbBlockEnd
  0
ENDSEC
  0
SECTION
  2
ENTITIES
  0
LINE
  5
217
100
AcDbEntity
  8
0
100
AcDbLine
 62
7
  6
CONTINUOUS
 10
161.0635899476
 20
935.3993435449
 11
161.0635899476
 21
1014.7593435449
  0
LINE
  5
218
100
AcDbEntity
  8
0
100
AcDbLine
 62
7
  6
CONTINUOUS
 10
161.0635899476
 20
1141.0393435449
 11
161.0635899476
 21
1220.3993435449
  0
LINE
  5
219
100
AcDbEntity
  8
0
100
AcDbLine
 62
7
  6
CONTINUOUS
 10
161.3635899476
 20
1220.6739261799
 11
161.3635899476
 21
1220.3993435449
  0
LINE
  5
21A
100
AcDbEntity
  8
0
100
AcDbLine
 62
7
  6
CONTINUOUS
 10
161.3635899476
 20
935.1247609098
 11
161.3635899476
 21
935.3993435449
  0
LINE
  5
21B
100
AcDbEntity
  8
0
100
AcDbLine
 62
7
  6
CONTINUOUS
 10
163.5635899476
 20
1160.3993435449
 11
163.5635899476
 21
1144.8993435449
  0
LINE
  5
21C
100
AcDbEntity
  8
0
100
AcDbLine
 62
7
  6
CONTINUOUS
 10
163.5635899476
 20
960.3993435449
 11
163.5635899476
 21
977.3993435449
  0
LINE
  5
21D
100
AcDbEntity
  8
0
100
AcDbLine
 62
7
  6
CONTINUOUS
 10
163.5635899476
 20
995.3993435449
 11
163.5635899476
 21
1010.8993435449
  0
LINE
  5
21E
100
AcDbEntity
  8
0
100
AcDbLine
 62
7
  6
CONTINUOUS
 10
163.5635899476
 20
1178.3993435449
 11
163.5635899476
 21
1195.3993435449
  0
LINE
  5
21F
100
AcDbEntity
  8
0
100
AcDbLine
 62
7
  6
CONTINUOUS
 10
164.5010899476
 20
965.605907421
 11
164.5010899476
 21
974.1927796688
  0
LINE
  5
220
100
AcDbEntity
  8
0
100
AcDbLine
 62
7
  6
CONTINUOUS
 10
164.5010899476
 20
1181.605907421
 11
164.5010899476
 21
1190.1927796688
  0
LINE
  5
221
100
AcDbEntity
  8
0
100
AcDbLine
 62
7
  6
CONTINUOUS
 10
165.5635899476
 20
935.3993435449
 11
165.5635899476
 21
1015.3993435449
  0
LINE
  5
222
100
AcDbEntity
  8
0
100
AcDbLine
 62
7
  6
CONTINUOUS
 10
165.5635899476
 20
1140.3993435449
 11
165.5635899476
 21
1220.3993435449
  0
LINE
  5
223
100
AcDbEntity
  8
0
100
AcDbLine
 62
7
  6
CONTINUOUS
 10
166.8635899476
 20
933.3993435449
 11
166.8635899476
 21
932.9093814944
  0
LINE
  5
224
100
AcDbEntity
  8
0
100
AcDbLine
 62
7
  6
CONTINUOUS
 10
166.8635899476
 20
1222.3993435449
 11
166.8635899476
 21
1222.8893055953
  0
LINE
  5
225
100
AcDbEntity
  8
0
100
AcDbLine
 62
7
  6
CONTINUOUS
 10
168.1635899476
 20
933.3993435449
 11
168.1635899476
 21
932.8993435449
  0
LINE
  5
226
100
AcDbEntity
  8
0
100
AcDbLine
 62
7
  6
CONTINUOUS
 10
168.1635899476
 20
1222.3993435449
 11
168.1635899476
 21
1222.8993435449
  0
LINE
  5
227
100
AcDbEntity
  8
0
100
AcDbLine
 62
7
  6
CONTINUOUS
 10
168.1996289169
 20
935.3993435449
 11
168.1996289169
 21
942.3993435449
  0
LINE
  5
228
100
AcDbEntity
  8
0
100
AcDbLine
 62
7
  6
CONTINUOUS
 10
168.1996289169
 20
1213.3993435449
 11
168.1996289169
 21
1220.3993435449
  0
LINE
  5
229
100
AcDbEntity
  8
0
100
AcDbLine
 62
7
  6
CONTINUOUS
 10
169.4635899476
 20
933.3993435449
 11
169.4635899476
 21
932.8993435449
  0
LINE
  5
22A
100
AcDbEntity
  8
0
100
AcDbLine
 62
7
  6
CONTINUOUS
 10
169.4635899476
 20
1222.3993435449
 11
169.4635899476
 21
1222.8993435449
  0
LINE
  5
22B
100
AcDbEntity
  8
0
100
AcDbLine
 62
7
  6
CONTINUOUS
 10
170.7635899476
 20
933.3993435449
 11
170.7635899476
 21
932.8993435449
  0
LINE
  5
22C
100
AcDbEntity
  8
0
100
AcDbLine
 62
7
  6
CONTINUOUS
 10
170.7635899476
 20
1222.3993435449
 11
170.7635899476
 21
1222.8993435449
  0
LINE
  5
22D
100
AcDbEntity
  8
0
100
AcDbLine
 62
7
  6
CONTINUOUS
 10
171.3816094323
 20
935.3993435449
 11
171.3816094323
 21
939.3993435449
  0
LINE
  5
22E
100
AcDbEntity
  8
0
100
AcDbLine
 62
7
  6
CONTINUOUS
 10
171.3816094323
 20
1216.3993435449
 11
171.3816094323
 21
1220.3993435449
  0
LINE
  5
22F
100
AcDbEntity
  8
0
100
AcDbLine
 62
7
  6
CONTINUOUS
 10
171.4635899476
 20
1165.7993435449
 11
171.4635899476
 21
1156.9993435449
  0
LINE
  5
230
100
AcDbEntity
  8
0
100
AcDbLine
 62
7
  6
CONTINUOUS
 10
171.4635899476
 20
989.9993435449
 11
171.4635899476
 21
998.7993435449
  0
LINE
  5
231
100
AcDbEntity
  8
0
100
AcDbLine
 62
7
  6
CONTINUOUS
 10
172.0635899476
 20
933.3993435449
 11
172.0635899476
 21
932.8993435449
  0
LINE
  5
232
100
AcDbEntity
  8
0
100
AcDbLine
 62
7
  6
CONTINUOUS
 10
172.0635899476
 20
1222.3993435449
 11
172.0635899476
 21
1222.8993435449
  0
LINE
  5
233
100
AcDbEntity
  8
0
100
AcDbLine
 62
7
  6
CONTINUOUS
 10
173.3635899476
 20
933.3993435449
 11
173.3635899476
 21
932.8993435449
  0
LINE
  5
234
100
AcDbEntity
  8
0
100
AcDbLine
 62
7
  6
CONTINUOUS
 10
173.3635899476
 20
1222.3993435449
 11
173.3635899476
 21
1222.8993435449
  0
LINE
  5
235
100
AcDbEntity
  8
0
100
AcDbLine
 62
7
  6
CONTINUOUS
 10
173.47780351
 20
1220.3993435449
 11
173.47780351
 21
1216.3993435449
  0
LINE
  5
236
100
AcDbEntity
  8
0
100
AcDbLine
 62
7
  6
CONTINUOUS
 10
173.47780351
 20
939.3993435449
 11
173.47780351
 21
935.3993435449
  0
LINE
  5
237
100
AcDbEntity
  8
0
100
AcDbLine
 62
7
  6
CONTINUOUS
 10
174.6635899476
 20
933.3993435449
 11
174.6635899476
 21
932.8993435449
  0
LINE
  5
238
100
AcDbEntity
  8
0
100
AcDbLine
 62
7
  6
CONTINUOUS
 10
174.6635899476
 20
1222.3993435449
 11
174.6635899476
 21
1222.8993435449
  0
LINE
  5
239
100
AcDbEntity
  8
0
100
AcDbLine
 62
7
  6
CONTINUOUS
 10
174.8920170724
 20
935.3993435449
 11
174.8920170724
 21
939.3993435449
  0
LINE
  5
23A
100
AcDbEntity
  8
0
100
AcDbLine
 62
7
  6
CONTINUOUS
 10
174.8920170724
 20
1216.3993435449
 11
174.8920170724
 21
1220.3993435449
  0
LINE
  5
23B
100
AcDbEntity
  8
0
100
AcDbLine
 62
7
  6
CONTINUOUS
 10
175.9635899476
 20
933.3993435449
 11
175.9635899476
 21
932.8993435449
  0
LINE
  5
23C
100
AcDbEntity
  8
0
100
AcDbLine
 62
7
  6
CONTINUOUS
 10
175.9635899476
 20
1222.3993435449
 11
175.9635899476
 21
1222.8993435449
  0
LINE
  5
23D
100
AcDbEntity
  8
0
100
AcDbLine
 62
7
  6
CONTINUOUS
 10
177.0635899476
 20
979.3993435449
 11
177.0635899476
 21
962.8993435449
  0
LINE
  5
23E
100
AcDbEntity
  8
0
100
AcDbLine
 62
7
  6
CONTINUOUS
 10
177.0635899476
 20
939.3993435449
 11
177.0635899476
 21
942.3993435449
  0
LINE
  5
23F
100
AcDbEntity
  8
0
100
AcDbLine
 62
7
  6
CONTINUOUS
 10
177.0635899476
 20
1176.3993435449
 11
177.0635899476
 21
1192.8993435449
  0
LINE
  5
240
100
AcDbEntity
  8
0
100
AcDbLine
 62
7
  6
CONTINUOUS
 10
177.0635899476
 20
1213.3993435449
 11
177.0635899476
 21
1216.3993435449
  0
LINE
  5
241
100
AcDbEntity
  8
0
100
AcDbLine
 62
7
  6
CONTINUOUS
 10
177.2635899476
 20
933.3993435449
 11
177.2635899476
 21
932.8993435449
  0
LINE
  5
242
100
AcDbEntity
  8
0
100
AcDbLine
 62
7
  6
CONTINUOUS
 10
177.2635899476
 20
1222.3993435449
 11
177.2635899476
 21
1222.8993435449
  0
LINE
  5
243
100
AcDbEntity
  8
0
100
AcDbLine
 62
7
  6
CONTINUOUS
 10
178.5635899476
 20
933.3993435449
 11
178.5635899476
 21
932.8993435449
  0
LINE
  5
244
100
AcDbEntity
  8
0
100
AcDbLine
 62
7
  6
CONTINUOUS
 10
178.5635899476
 20
1222.3993435449
 11
178.5635899476
 21
1222.8993435449
  0
LINE
  5
245
100
AcDbEntity
  8
0
100
AcDbLine
 62
7
  6
CONTINUOUS
 10
179.8635899476
 20
933.3993435449
 11
179.8635899476
 21
932.8993435449
  0
LINE
  5
246
100
AcDbEntity
  8
0
100
AcDbLine
 62
7
  6
CONTINUOUS
 10
179.8635899476
 20
1222.3993435449
 11
179.8635899476
 21
1222.8993435449
  0
LINE
  5
247
100
AcDbEntity
  8
0
100
AcDbLine
 62
7
  6
CONTINUOUS
 10
180.6635899476
 20
998.7993435449
 11
180.6635899476
 21
989.9993435449
  0
LINE
  5
248
100
AcDbEntity
  8
0
100
AcDbLine
 62
7
  6
CONTINUOUS
 10
180.6635899476
 20
1156.9993435449
 11
180.6635899476
 21
1165.7993435449
  0
LINE
  5
249
100
AcDbEntity
  8
0
100
AcDbLine
 62
7
  6
CONTINUOUS
 10
181.0635899476
 20
1192.8993435449
 11
181.0635899476
 21
1176.3993435449
  0
LINE
  5
24A
100
AcDbEntity
  8
0
100
AcDbLine
 62
7
  6
CONTINUOUS
 10
181.0635899476
 20
962.8993435449
 11
181.0635899476
 21
979.3993435449
  0
LINE
  5
24B
100
AcDbEntity
  8
0
100
AcDbLine
 62
7
  6
CONTINUOUS
 10
181.1635899476
 20
933.3993435449
 11
181.1635899476
 21
932.8993435449
  0
LINE
  5
24C
100
AcDbEntity
  8
0
100
AcDbLine
 62
7
  6
CONTINUOUS
 10
181.1635899476
 20
1222.3993435449
 11
181.1635899476
 21
1222.8993435449
  0
LINE
  5
24D
100
AcDbEntity
  8
0
100
AcDbLine
 62
7
  6
CONTINUOUS
 10
181.2351628229
 20
1220.3993435449
 11
181.2351628229
 21
1216.3993435449
  0
LINE
  5
24E
100
AcDbEntity
  8
0
100
AcDbLine
 62
7
  6
CONTINUOUS
 10
181.2351628229
 20
939.3993435449
 11
181.2351628229
 21
935.3993435449
  0
LINE
  5
24F
100
AcDbEntity
  8
0
100
AcDbLine
 62
7
  6
CONTINUOUS
 10
182.4635899476
 20
933.3993435449
 11
182.4635899476
 21
932.8993435449
  0
LINE
  5
250
100
AcDbEntity
  8
0
100
AcDbLine
 62
7
  6
CONTINUOUS
 10
182.4635899476
 20
1222.3993435449
 11
182.4635899476
 21
1222.8993435449
  0
LINE
  5
251
100
AcDbEntity
  8
0
100
AcDbLine
 62
7
  6
CONTINUOUS
 10
182.6493763852
 20
935.3993435449
 11
182.6493763852
 21
939.3993435449
  0
LINE
  5
252
100
AcDbEntity
  8
0
100
AcDbLine
 62
7
  6
CONTINUOUS
 10
182.6493763852
 20
1216.3993435449
 11
182.6493763852
 21
1220.3993435449
  0
LINE
  5
253
100
AcDbEntity
  8
0
100
AcDbLine
 62
7
  6
CONTINUOUS
 10
183.7635899476
 20
933.3993435449
 11
183.7635899476
 21
932.8993435449
  0
LINE
  5
254
100
AcDbEntity
  8
0
100
AcDbLine
 62
7
  6
CONTINUOUS
 10
183.7635899476
 20
1222.3993435449
 11
183.7635899476
 21
1222.8993435449
  0
LINE
  5
255
100
AcDbEntity
  8
0
100
AcDbLine
 62
7
  6
CONTINUOUS
 10
184.745570463
 20
1220.3993435449
 11
184.745570463
 21
1216.3993435449
  0
LINE
  5
256
100
AcDbEntity
  8
0
100
AcDbLine
 62
7
  6
CONTINUOUS
 10
184.745570463
 20
939.3993435449
 11
184.745570463
 21
935.3993435449
  0
LINE
  5
257
100
AcDbEntity
  8
0
100
AcDbLine
 62
7
  6
CONTINUOUS
 10
185.0635899476
 20
933.3993435449
 11
185.0635899476
 21
932.8993435449
  0
LINE
  5
258
100
AcDbEntity
  8
0
100
AcDbLine
 62
7
  6
CONTINUOUS
 10
185.0635899476
 20
1222.3993435449
 11
185.0635899476
 21
1222.8993435449
  0
LINE
  5
259
100
AcDbEntity
  8
0
100
AcDbLine
 62
7
  6
CONTINUOUS
 10
186.0635899476
 20
939.3993435449
 11
186.0635899476
 21
939.5993435449
  0
LINE
  5
25A
100
AcDbEntity
  8
0
100
AcDbLine
 62
7
  6
CONTINUOUS
 10
186.0635899476
 20
1015.4993435449
 11
186.0635899476
 21
1025.3993435449
  0
LINE
  5
25B
100
AcDbEntity
  8
0
100
AcDbLine
 62
7
  6
CONTINUOUS
 10
186.0635899476
 20
1130.3993435449
 11
186.0635899476
 21
1140.2993435449
  0
LINE
  5
25C
100
AcDbEntity
  8
0
100
AcDbLine
 62
7
  6
CONTINUOUS
 10
186.0635899476
 20
1216.1993435449
 11
186.0635899476
 21
1216.3993435449
  0
LINE
  5
25D
100
AcDbEntity
  8
0
100
AcDbLine
 62
7
  6
CONTINUOUS
 10
186.3635899476
 20
933.3993435449
 11
186.3635899476
 21
932.8993435449
  0
LINE
  5
25E
100
AcDbEntity
  8
0
100
AcDbLine
 62
7
  6
CONTINUOUS
 10
186.3635899476
 20
1222.3993435449
 11
186.3635899476
 21
1222.8993435449
  0
LINE
  5
25F
100
AcDbEntity
  8
0
100
AcDbLine
 62
7
  6
CONTINUOUS
 10
187.6635899476
 20
933.3993435449
 11
187.6635899476
 21
932.8993435449
  0
LINE
  5
260
100
AcDbEntity
  8
0
100
AcDbLine
 62
7
  6
CONTINUOUS
 10
187.6635899476
 20
1222.3993435449
 11
187.6635899476
 21
1222.8993435449
  0
LINE
  5
261
100
AcDbEntity
  8
0
100
AcDbLine
 62
7
  6
CONTINUOUS
 10
187.9275509783
 20
935.3993435449
 11
187.9275509783
 21
942.3993435449
  0
LINE
  5
262
100
AcDbEntity
  8
0
100
AcDbLine
 62
7
  6
CONTINUOUS
 10
187.9275509783
 20
1213.3993435449
 11
187.9275509783
 21
1220.3993435449
  0
LINE
  5
263
100
AcDbEntity
  8
0
100
AcDbLine
 62
7
  6
CONTINUOUS
 10
188.5635899476
 20
1204.3993435449
 11
188.5635899476
 21
1200.3993435449
  0
LINE
  5
264
100
AcDbEntity
  8
0
100
AcDbLine
 62
7
  6
CONTINUOUS
 10
188.5635899476
 20
1160.3993435449
 11
188.5635899476
 21
1156.3993435449
  0
LINE
  5
265
100
AcDbEntity
  8
0
100
AcDbLine
 62
7
  6
CONTINUOUS
 10
188.5635899476
 20
951.3993435449
 11
188.5635899476
 21
955.3993435449
  0
LINE
  5
266
100
AcDbEntity
  8
0
100
AcDbLine
 62
7
  6
CONTINUOUS
 10
188.5635899476
 20
995.3993435449
 11
188.5635899476
 21
999.3993435449
  0
LINE
  5
267
100
AcDbEntity
  8
0
100
AcDbLine
 62
7
  6
CONTINUOUS
 10
188.5635899476
 20
1015.4993435449
 11
188.5635899476
 21
1025.3993435449
  0
LINE
  5
268
100
AcDbEntity
  8
0
100
AcDbLine
 62
7
  6
CONTINUOUS
 10
188.5635899476
 20
1130.3993435449
 11
188.5635899476
 21
1140.2993435449
  0
LINE
  5
269
100
AcDbEntity
  8
0
100
AcDbLine
 62
7
  6
CONTINUOUS
 10
188.9635899476
 20
933.3993435449
 11
188.9635899476
 21
932.8993435449
  0
LINE
  5
26A
100
AcDbEntity
  8
0
100
AcDbLine
 62
7
  6
CONTINUOUS
 10
188.9635899476
 20
1222.3993435449
 11
188.9635899476
 21
1222.8993435449
  0
LINE
  5
26B
100
AcDbEntity
  8
0
100
AcDbLine
 62
7
  6
CONTINUOUS
 10
190.2635899476
 20
933.3993435449
 11
190.2635899476
 21
932.8993435449
  0
LINE
  5
26C
100
AcDbEntity
  8
0
100
AcDbLine
 62
7
  6
CONTINUOUS
 10
190.2635899476
 20
1222.3993435449
 11
190.2635899476
 21
1222.8993435449
  0
LINE
  5
26D
100
AcDbEntity
  8
0
100
AcDbLine
 62
7
  6
CONTINUOUS
 10
191.5635899476
 20
933.3993435449
 11
191.5635899476
 21
932.8993435449
  0
LINE
  5
26E
100
AcDbEntity
  8
0
100
AcDbLine
 62
7
  6
CONTINUOUS
 10
191.5635899476
 20
1222.3993435449
 11
191.5635899476
 21
1222.8993435449
  0
LINE
  5
26F
100
AcDbEntity
  8
0
100
AcDbLine
 62
7
  6
CONTINUOUS
 10
192.8635899476
 20
933.3993435449
 11
192.8635899476
 21
932.8993435449
  0
LINE
  5
270
100
AcDbEntity
  8
0
100
AcDbLine
 62
7
  6
CONTINUOUS
 10
192.8635899476
 20
1222.3993435449
 11
192.8635899476
 21
1222.8993435449
  0
LINE
  5
271
100
AcDbEntity
  8
0
100
AcDbLine
 62
7
  6
CONTINUOUS
 10
194.1635899476
 20
933.3993435449
 11
194.1635899476
 21
932.8993435449
  0
LINE
  5
272
100
AcDbEntity
  8
0
100
AcDbLine
 62
7
  6
CONTINUOUS
 10
194.1635899476
 20
1222.3993435449
 11
194.1635899476
 21
1222.8993435449
  0
LINE
  5
273
100
AcDbEntity
  8
0
100
AcDbLine
 62
7
  6
CONTINUOUS
 10
195.4635899476
 20
933.3993435449
 11
195.4635899476
 21
932.8993435449
  0
LINE
  5
274
100
AcDbEntity
  8
0
100
AcDbLine
 62
7
  6
CONTINUOUS
 10
195.4635899476
 20
1222.3993435449
 11
195.4635899476
 21
1222.8993435449
  0
LINE
  5
275
100
AcDbEntity
  8
0
100
AcDbLine
 62
7
  6
CONTINUOUS
 10
196.7635899476
 20
933.3993435449
 11
196.7635899476
 21
932.8993435449
  0
LINE
  5
276
100
AcDbEntity
  8
0
100
AcDbLine
 62
7
  6
CONTINUOUS
 10
196.7635899476
 20
1222.3993435449
 11
196.7635899476
 21
1222.8993435449
  0
LINE
  5
277
100
AcDbEntity
  8
0
100
AcDbLine
 62
7
  6
CONTINUOUS
 10
198.0635899476
 20
933.3993435449
 11
198.0635899476
 21
932.8993435449
  0
LINE
  5
278
100
AcDbEntity
  8
0
100
AcDbLine
 62
7
  6
CONTINUOUS
 10
198.0635899476
 20
1222.3993435449
 11
198.0635899476
 21
1222.8993435449
  0
LINE
  5
279
100
AcDbEntity
  8
0
100
AcDbLine
 62
7
  6
CONTINUOUS
 10
199.3635899476
 20
933.3993435449
 11
199.3635899476
 21
932.8993435449
  0
LINE
  5
27A
100
AcDbEntity
  8
0
100
AcDbLine
 62
7
  6
CONTINUOUS
 10
199.3635899476
 20
1222.3993435449
 11
199.3635899476
 21
1222.8993435449
  0
LINE
  5
27B
100
AcDbEntity
  8
0
100
AcDbLine
 62
7
  6
CONTINUOUS
 10
200.6635899476
 20
933.3993435449
 11
200.6635899476
 21
932.8993435449
  0
LINE
  5
27C
100
AcDbEntity
  8
0
100
AcDbLine
 62
7
  6
CONTINUOUS
 10
200.6635899476
 20
1222.3993435449
 11
200.6635899476
 21
1222.8993435449
  0
LINE
  5
27D
100
AcDbEntity
  8
0
100
AcDbLine
 62
7
  6
CONTINUOUS
 10
201.9635899476
 20
933.3993435449
 11
201.9635899476
 21
932.8993435449
  0
LINE
  5
27E
100
AcDbEntity
  8
0
100
AcDbLine
 62
7
  6
CONTINUOUS
 10
201.9635899476
 20
1222.3993435449
 11
201.9635899476
 21
1222.8993435449
  0
LINE
  5
27F
100
AcDbEntity
  8
0
100
AcDbLine
 62
7
  6
CONTINUOUS
 10
203.1996289169
 20
935.3993435449
 11
203.1996289169
 21
942.3993435449
  0
LINE
  5
280
100
AcDbEntity
  8
0
100
AcDbLine
 62
7
  6
CONTINUOUS
 10
203.1996289169
 20
1213.3993435449
 11
203.1996289169
 21
1220.3993435449
  0
LINE
  5
281
100
AcDbEntity
  8
0
100
AcDbLine
 62
7
  6
CONTINUOUS
 10
203.2635899476
 20
933.3993435449
 11
203.2635899476
 21
932.8993435449
  0
LINE
  5
282
100
AcDbEntity
  8
0
100
AcDbLine
 62
7
  6
CONTINUOUS
 10
203.2635899476
 20
1222.3993435449
 11
203.2635899476
 21
1222.8993435449
  0
LINE
  5
283
100
AcDbEntity
  8
0
100
AcDbLine
 62
7
  6
CONTINUOUS
 10
204.5635899476
 20
933.3993435449
 11
204.5635899476
 21
932.8993435449
  0
LINE
  5
284
100
AcDbEntity
  8
0
100
AcDbLine
 62
7
  6
CONTINUOUS
 10
204.5635899476
 20
1222.3993435449
 11
204.5635899476
 21
1222.8993435449
  0
LINE
  5
285
100
AcDbEntity
  8
0
100
AcDbLine
 62
7
  6
CONTINUOUS
 10
205.0635899476
 20
999.3993435449
 11
205.0635899476
 21
995.3993435449
  0
LINE
  5
286
100
AcDbEntity
  8
0
100
AcDbLine
 62
7
  6
CONTINUOUS
 10
205.0635899476
 20
955.3993435449
 11
205.0635899476
 21
951.3993435449
  0
LINE
  5
287
100
AcDbEntity
  8
0
100
AcDbLine
 62
7
  6
CONTINUOUS
 10
205.0635899476
 20
1156.3993435449
 11
205.0635899476
 21
1160.3993435449
  0
LINE
  5
288
100
AcDbEntity
  8
0
100
AcDbLine
 62
7
  6
CONTINUOUS
 10
205.0635899476
 20
1200.3993435449
 11
205.0635899476
 21
1204.3993435449
  0
LINE
  5
289
100
AcDbEntity
  8
0
100
AcDbLine
 62
7
  6
CONTINUOUS
 10
206.0635899476
 20
1146.8993435449
 11
206.0635899476
 21
1140.3993435449
  0
LINE
  5
28A
100
AcDbEntity
  8
0
100
AcDbLine
 62
7
  6
CONTINUOUS
 10
206.0635899476
 20
1008.8993435449
 11
206.0635899476
 21
1015.3993435449
  0
LINE
  5
28B
100
AcDbEntity
  8
0
100
AcDbLine
 62
7
  6
CONTINUOUS
 10
206.3816094323
 20
935.3993435449
 11
206.3816094323
 21
939.3993435449
  0
LINE
  5
28C
100
AcDbEntity
  8
0
100
AcDbLine
 62
7
  6
CONTINUOUS
 10
206.3816094323
 20
1216.3993435449
 11
206.3816094323
 21
1220.3993435449
  0
LINE
  5
28D
100
AcDbEntity
  8
0
100
AcDbLine
 62
7
  6
CONTINUOUS
 10
207.0635899476
 20
1142.8993435449
 11
207.0635899476
 21
1140.3993435449
  0
LINE
  5
28E
100
AcDbEntity
  8
0
100
AcDbLine
 62
7
  6
CONTINUOUS
 10
207.0635899476
 20
1012.8993435449
 11
207.0635899476
 21
1015.3993435449
  0
LINE
  5
28F
100
AcDbEntity
  8
0
100
AcDbLine
 62
7
  6
CONTINUOUS
 10
208.47780351
 20
1220.3993435449
 11
208.47780351
 21
1216.3993435449
  0
LINE
  5
290
100
AcDbEntity
  8
0
100
AcDbLine
 62
7
  6
CONTINUOUS
 10
208.47780351
 20
939.3993435449
 11
208.47780351
 21
935.3993435449
  0
LINE
  5
291
100
AcDbEntity
  8
0
100
AcDbLine
 62
7
  6
CONTINUOUS
 10
209.8920170724
 20
935.3993435449
 11
209.8920170724
 21
939.3993435449
  0
LINE
  5
292
100
AcDbEntity
  8
0
100
AcDbLine
 62
7
  6
CONTINUOUS
 10
209.8920170724
 20
1216.3993435449
 11
209.8920170724
 21
1220.3993435449
  0
LINE
  5
293
100
AcDbEntity
  8
0
100
AcDbLine
 62
7
  6
CONTINUOUS
 10
211.0635899476
 20
1008.8993435449
 11
211.0635899476
 21
1036.3993435449
  0
LINE
  5
294
100
AcDbEntity
  8
0
100
AcDbLine
 62
7
  6
CONTINUOUS
 10
211.0635899476
 20
1119.3993435449
 11
211.0635899476
 21
1146.8993435449
  0
LINE
  5
295
100
AcDbEntity
  8
0
100
AcDbLine
 62
7
  6
CONTINUOUS
 10
212.0635899476
 20
939.3993435449
 11
212.0635899476
 21
942.3993435449
  0
LINE
  5
296
100
AcDbEntity
  8
0
100
AcDbLine
 62
7
  6
CONTINUOUS
 10
212.0635899476
 20
1213.3993435449
 11
212.0635899476
 21
1216.3993435449
  0
LINE
  5
297
100
AcDbEntity
  8
0
100
AcDbLine
 62
7
  6
CONTINUOUS
 10
216.2351628229
 20
1220.3993435449
 11
216.2351628229
 21
1216.3993435449
  0
LINE
  5
298
100
AcDbEntity
  8
0
100
AcDbLine
 62
7
  6
CONTINUOUS
 10
216.2351628229
 20
939.3993435449
 11
216.2351628229
 21
935.3993435449
  0
LINE
  5
299
100
AcDbEntity
  8
0
100
AcDbLine
 62
7
  6
CONTINUOUS
 10
217.6493763852
 20
935.3993435449
 11
217.6493763852
 21
939.3993435449
  0
LINE
  5
29A
100
AcDbEntity
  8
0
100
AcDbLine
 62
7
  6
CONTINUOUS
 10
217.6493763852
 20
1216.3993435449
 11
217.6493763852
 21
1220.3993435449
  0
LINE
  5
29B
100
AcDbEntity
  8
0
100
AcDbLine
 62
7
  6
CONTINUOUS
 10
219.745570463
 20
1220.3993435449
 11
219.745570463
 21
1216.3993435449
  0
LINE
  5
29C
100
AcDbEntity
  8
0
100
AcDbLine
 62
7
  6
CONTINUOUS
 10
219.745570463
 20
939.3993435449
 11
219.745570463
 21
935.3993435449
  0
LINE
  5
29D
100
AcDbEntity
  8
0
100
AcDbLine
 62
7
  6
CONTINUOUS
 10
221.0635899476
 20
979.3993435449
 11
221.0635899476
 21
962.8993435449
  0
LINE
  5
29E
100
AcDbEntity
  8
0
100
AcDbLine
 62
7
  6
CONTINUOUS
 10
221.0635899476
 20
939.3993435449
 11
221.0635899476
 21
939.5993435449
  0
LINE
  5
29F
100
AcDbEntity
  8
0
100
AcDbLine
 62
7
  6
CONTINUOUS
 10
221.0635899476
 20
1176.3993435449
 11
221.0635899476
 21
1192.8993435449
  0
LINE
  5
2A0
100
AcDbEntity
  8
0
100
AcDbLine
 62
7
  6
CONTINUOUS
 10
221.0635899476
 20
1216.1993435449
 11
221.0635899476
 21
1216.3993435449
  0
LINE
  5
2A1
100
AcDbEntity
  8
0
100
AcDbLine
 62
7
  6
CONTINUOUS
 10
222.9275509783
 20
935.3993435449
 11
222.9275509783
 21
942.3993435449
  0
LINE
  5
2A2
100
AcDbEntity
  8
0
100
AcDbLine
 62
7
  6
CONTINUOUS
 10
222.9275509783
 20
1213.3993435449
 11
222.9275509783
 21
1220.3993435449
  0
LINE
  5
2A3
100
AcDbEntity
  8
0
100
AcDbLine
 62
7
  6
CONTINUOUS
 10
225.0635899476
 20
1192.8993435449
 11
225.0635899476
 21
1176.3993435449
  0
LINE
  5
2A4
100
AcDbEntity
  8
0
100
AcDbLine
 62
7
  6
CONTINUOUS
 10
225.0635899476
 20
962.8993435449
 11
225.0635899476
 21
979.3993435449
  0
LINE
  5
2A5
100
AcDbEntity
  8
0
100
AcDbLine
 62
7
  6
CONTINUOUS
 10
232.5635899476
 20
1146.8993435449
 11
232.5635899476
 21
1119.3993435449
  0
LINE
  5
2A6
100
AcDbEntity
  8
0
100
AcDbLine
 62
7
  6
CONTINUOUS
 10
232.5635899476
 20
1036.3993435449
 11
232.5635899476
 21
1008.8993435449
  0
LINE
  5
2A7
100
AcDbEntity
  8
0
100
AcDbLine
 62
7
  6
CONTINUOUS
 10
236.5635899476
 20
1015.3993435449
 11
236.5635899476
 21
1012.8993435449
  0
LINE
  5
2A8
100
AcDbEntity
  8
0
100
AcDbLine
 62
7
  6
CONTINUOUS
 10
236.5635899626
 20
1007.1865785557
 11
236.5635899476
 21
935.3993435449
  0
LINE
  5
2A9
100
AcDbEntity
  8
0
100
AcDbLine
 62
7
  6
CONTINUOUS
 10
236.5635899299
 20
1148.6121085454
 11
236.56358993
 21
1148.8993435449
  0
LINE
  5
2AA
100
AcDbEntity
  8
0
100
AcDbLine
 62
7
  6
CONTINUOUS
 10
238.5635899476
 20
1144.8993435449
 11
238.5635899476
 21
1220.3993435449
  0
LINE
  5
2AB
100
AcDbEntity
  8
0
100
AcDbLine
 62
7
  6
CONTINUOUS
 10
240.7635899476
 20
1220.6739261799
 11
240.7635899476
 21
1220.3993435449
  0
LINE
  5
2AC
100
AcDbEntity
  8
0
100
AcDbLine
 62
7
  6
CONTINUOUS
 10
240.7635899476
 20
935.1247609098
 11
240.7635899476
 21
935.3993435449
  0
LINE
  5
2AD
100
AcDbEntity
  8
0
100
AcDbLine
 62
7
  6
CONTINUOUS
 10
241.0635899476
 20
935.3993435449
 11
241.0635899476
 21
937.5969816175
  0
LINE
  5
2AE
100
AcDbEntity
  8
0
100
AcDbLine
 62
7
  6
CONTINUOUS
 10
241.0635899476
 20
938.3993435449
 11
241.0635899476
 21
1010.8993435449
  0
LINE
  5
2AF
100
AcDbEntity
  8
0
100
AcDbLine
 62
7
  6
CONTINUOUS
 10
241.0635899476
 20
1144.8993435449
 11
241.0635899476
 21
1220.3993435449
  0
LINE
  5
2B0
100
AcDbEntity
  8
0
100
AcDbLine
 62
7
  6
CONTINUOUS
 10
241.6635899476
 20
938.3993435449
 11
241.6635899476
 21
955.3993435449
  0
LINE
  5
2B1
100
AcDbEntity
  8
0
100
AcDbLine
 62
7
  6
CONTINUOUS
 10
241.6635899476
 20
1200.3993435449
 11
241.6635899476
 21
1217.3993435449
  0
LINE
  5
2B2
100
AcDbEntity
  8
0
100
AcDbLine
 62
7
  6
CONTINUOUS
 10
242.5635899476
 20
1200.3993435449
 11
242.5635899476
 21
1195.3993435449
  0
LINE
  5
2B3
100
AcDbEntity
  8
0
100
AcDbLine
 62
7
  6
CONTINUOUS
 10
242.5635899476
 20
955.3993435449
 11
242.5635899476
 21
960.3993435449
  0
LINE
  5
2B4
100
AcDbEntity
  8
0
100
AcDbLine
 62
7
  6
CONTINUOUS
 10
248.0635899476
 20
1195.3993435449
 11
248.0635899476
 21
1192.8993435449
  0
LINE
  5
2B5
100
AcDbEntity
  8
0
100
AcDbLine
 62
7
  6
CONTINUOUS
 10
248.0635899476
 20
962.8993435449
 11
248.0635899476
 21
960.3993435449
  0
LINE
  5
2B6
100
AcDbEntity
  8
0
100
AcDbLine
 62
7
  6
CONTINUOUS
 10
251.0635899476
 20
960.3993435449
 11
251.0635899476
 21
962.8993435449
  0
LINE
  5
2B7
100
AcDbEntity
  8
0
100
AcDbLine
 62
7
  6
CONTINUOUS
 10
251.0635899476
 20
1192.8993435449
 11
251.0635899476
 21
1195.3993435449
  0
LINE
  5
2B8
100
AcDbEntity
  8
0
100
AcDbLine
 62
7
  6
CONTINUOUS
 10
180.5635899476
 20
1216.1993435449
 11
177.0635899476
 21
1215.1993435449
  0
LINE
  5
2B9
100
AcDbEntity
  8
0
100
AcDbLine
 62
7
  6
CONTINUOUS
 10
215.5635899476
 20
1216.1993435449
 11
212.0635899476
 21
1215.1993435449
  0
LINE
  5
2BA
100
AcDbEntity
  8
0
100
AcDbLine
 62
7
  6
CONTINUOUS
 10
177.0635899476
 20
940.5993435449
 11
180.5635899476
 21
939.5993435449
  0
LINE
  5
2BB
100
AcDbEntity
  8
0
100
AcDbLine
 62
7
  6
CONTINUOUS
 10
212.0635899476
 20
940.5993435449
 11
215.5635899476
 21
939.5993435449
  0
LINE
  5
2BC
100
AcDbEntity
  8
0
100
AcDbLine
 62
7
  6
CONTINUOUS
 10
168.1635899476
 20
932.8993435449
 11
169.4635899476
 21
932.8993435449
  0
LINE
  5
2BD
100
AcDbEntity
  8
0
100
AcDbLine
 62
7
  6
CONTINUOUS
 10
170.7635899476
 20
932.8993435449
 11
172.0635899476
 21
932.8993435449
  0
LINE
  5
2BE
100
AcDbEntity
  8
0
100
AcDbLine
 62
7
  6
CONTINUOUS
 10
173.3635899476
 20
932.8993435449
 11
174.6635899476
 21
932.8993435449
  0
LINE
  5
2BF
100
AcDbEntity
  8
0
100
AcDbLine
 62
7
  6
CONTINUOUS
 10
175.9635899476
 20
932.8993435449
 11
177.2635899476
 21
932.8993435449
  0
LINE
  5
2C0
100
AcDbEntity
  8
0
100
AcDbLine
 62
7
  6
CONTINUOUS
 10
178.5635899476
 20
932.8993435449
 11
179.8635899476
 21
932.8993435449
  0
LINE
  5
2C1
100
AcDbEntity
  8
0
100
AcDbLine
 62
7
  6
CONTINUOUS
 10
181.1635899476
 20
932.8993435449
 11
182.4635899476
 21
932.8993435449
  0
LINE
  5
2C2
100
AcDbEntity
  8
0
100
AcDbLine
 62
7
  6
CONTINUOUS
 10
183.7635899476
 20
932.8993435449
 11
185.0635899476
 21
932.8993435449
  0
LINE
  5
2C3
100
AcDbEntity
  8
0
100
AcDbLine
 62
7
  6
CONTINUOUS
 10
186.3635899476
 20
932.8993435449
 11
187.6635899476
 21
932.8993435449
  0
LINE
  5
2C4
100
AcDbEntity
  8
0
100
AcDbLine
 62
7
  6
CONTINUOUS
 10
188.9635899476
 20
932.8993435449
 11
190.2635899476
 21
932.8993435449
  0
LINE
  5
2C5
100
AcDbEntity
  8
0
100
AcDbLine
 62
7
  6
CONTINUOUS
 10
191.5635899476
 20
932.8993435449
 11
192.8635899476
 21
932.8993435449
  0
LINE
  5
2C6
100
AcDbEntity
  8
0
100
AcDbLine
 62
7
  6
CONTINUOUS
 10
194.1635899476
 20
932.8993435449
 11
195.4635899476
 21
932.8993435449
  0
LINE
  5
2C7
100
AcDbEntity
  8
0
100
AcDbLine
 62
7
  6
CONTINUOUS
 10
196.7635899476
 20
932.8993435449
 11
198.0635899476
 21
932.8993435449
  0
LINE
  5
2C8
100
AcDbEntity
  8
0
100
AcDbLine
 62
7
  6
CONTINUOUS
 10
199.3635899476
 20
932.8993435449
 11
200.6635899476
 21
932.8993435449
  0
LINE
  5
2C9
100
AcDbEntity
  8
0
100
AcDbLine
 62
7
  6
CONTINUOUS
 10
201.9635899476
 20
932.8993435449
 11
203.2635899476
 21
932.8993435449
  0
LINE
  5
2CA
100
AcDbEntity
  8
0
100
AcDbLine
 62
7
  6
CONTINUOUS
 10
204.5635899476
 20
932.8993435449
 11
234.8386401486
 21
932.8993435449
  0
LINE
  5
2CB
100
AcDbEntity
  8
0
100
AcDbLine
 62
7
  6
CONTINUOUS
 10
1287.2885397466
 20
932.8993435449
 11
1317.5635899476
 21
932.8993435449
  0
LINE
  5
2CC
100
AcDbEntity
  8
0
100
AcDbLine
 62
7
  6
CONTINUOUS
 10
1318.8635899476
 20
932.8993435449
 11
1320.1635899476
 21
932.8993435449
  0
LINE
  5
2CD
100
AcDbEntity
  8
0
100
AcDbLine
 62
7
  6
CONTINUOUS
 10
1321.4635899476
 20
932.8993435449
 11
1322.7635899476
 21
932.8993435449
  0
LINE
  5
2CE
100
AcDbEntity
  8
0
100
AcDbLine
 62
7
  6
CONTINUOUS
 10
1324.0635899476
 20
932.8993435449
 11
1325.3635899476
 21
932.8993435449
  0
LINE
  5
2CF
100
AcDbEntity
  8
0
100
AcDbLine
 62
7
  6
CONTINUOUS
 10
1326.6635899476
 20
932.8993435449
 11
1327.9635899476
 21
932.8993435449
  0
LINE
  5
2D0
100
AcDbEntity
  8
0
100
AcDbLine
 62
7
  6
CONTINUOUS
 10
1329.2635899476
 20
932.8993435449
 11
1330.5635899476
 21
932.8993435449
  0
LINE
  5
2D1
100
AcDbEntity
  8
0
100
AcDbLine
 62
7
  6
CONTINUOUS
 10
1331.8635899476
 20
932.8993435449
 11
1333.1635899476
 21
932.8993435449
  0
LINE
  5
2D2
100
AcDbEntity
  8
0
100
AcDbLine
 62
7
  6
CONTINUOUS
 10
1334.4635899476
 20
932.8993435449
 11
1335.7635899476
 21
932.8993435449
  0
LINE
  5
2D3
100
AcDbEntity
  8
0
100
AcDbLine
 62
7
  6
CONTINUOUS
 10
1337.0635899476
 20
932.8993435449
 11
1338.3635899476
 21
932.8993435449
  0
LINE
  5
2D4
100
AcDbEntity
  8
0
100
AcDbLine
 62
7
  6
CONTINUOUS
 10
1339.6635899476
 20
932.8993435449
 11
1340.9635899476
 21
932.8993435449
  0
LINE
  5
2D5
100
AcDbEntity
  8
0
100
AcDbLine
 62
7
  6
CONTINUOUS
 10
1342.2635899476
 20
932.8993435449
 11
1343.5635899476
 21
932.8993435449
  0
LINE
  5
2D6
100
AcDbEntity
  8
0
100
AcDbLine
 62
7
  6
CONTINUOUS
 10
1344.8635899476
 20
932.8993435449
 11
1346.1635899476
 21
932.8993435449
  0
LINE
  5
2D7
100
AcDbEntity
  8
0
100
AcDbLine
 62
7
  6
CONTINUOUS
 10
1347.4635899476
 20
932.8993435449
 11
1348.7635899476
 21
932.8993435449
  0
LINE
  5
2D8
100
AcDbEntity
  8
0
100
AcDbLine
 62
7
  6
CONTINUOUS
 10
1350.0635899476
 20
932.8993435449
 11
1351.3635899476
 21
932.8993435449
  0
LINE
  5
2D9
100
AcDbEntity
  8
0
100
AcDbLine
 62
7
  6
CONTINUOUS
 10
1352.6635899476
 20
932.8993435449
 11
1353.9635899476
 21
932.8993435449
  0
LINE
  5
2DA
100
AcDbEntity
  8
0
100
AcDbLine
 62
7
  6
CONTINUOUS
 10
204.5635899476
 20
933.3993435449
 11
203.2635899476
 21
933.3993435449
  0
LINE
  5
2DB
100
AcDbEntity
  8
0
100
AcDbLine
 62
7
  6
CONTINUOUS
 10
201.9635899476
 20
933.3993435449
 11
200.6635899476
 21
933.3993435449
  0
LINE
  5
2DC
100
AcDbEntity
  8
0
100
AcDbLine
 62
7
  6
CONTINUOUS
 10
199.3635899476
 20
933.3993435449
 11
198.0635899476
 21
933.3993435449
  0
LINE
  5
2DD
100
AcDbEntity
  8
0
100
AcDbLine
 62
7
  6
CONTINUOUS
 10
196.7635899476
 20
933.3993435449
 11
195.4635899476
 21
933.3993435449
  0
LINE
  5
2DE
100
AcDbEntity
  8
0
100
AcDbLine
 62
7
  6
CONTINUOUS
 10
194.1635899476
 20
933.3993435449
 11
192.8635899476
 21
933.3993435449
  0
LINE
  5
2DF
100
AcDbEntity
  8
0
100
AcDbLine
 62
7
  6
CONTINUOUS
 10
191.5635899476
 20
933.3993435449
 11
190.2635899476
 21
933.3993435449
  0
LINE
  5
2E0
100
AcDbEntity
  8
0
100
AcDbLine
 62
7
  6
CONTINUOUS
 10
188.9635899476
 20
933.3993435449
 11
187.6635899476
 21
933.3993435449
  0
LINE
  5
2E1
100
AcDbEntity
  8
0
100
AcDbLine
 62
7
  6
CONTINUOUS
 10
186.3635899476
 20
933.3993435449
 11
185.0635899476
 21
933.3993435449
  0
LINE
  5
2E2
100
AcDbEntity
  8
0
100
AcDbLine
 62
7
  6
CONTINUOUS
 10
183.7635899476
 20
933.3993435449
 11
182.4635899476
 21
933.3993435449
  0
LINE
  5
2E3
100
AcDbEntity
  8
0
100
AcDbLine
 62
7
  6
CONTINUOUS
 10
181.1635899476
 20
933.3993435449
 11
179.8635899476
 21
933.3993435449
  0
LINE
  5
2E4
100
AcDbEntity
  8
0
100
AcDbLine
 62
7
  6
CONTINUOUS
 10
178.5635899476
 20
933.3993435449
 11
177.2635899476
 21
933.3993435449
  0
LINE
  5
2E5
100
AcDbEntity
  8
0
100
AcDbLine
 62
7
  6
CONTINUOUS
 10
175.9635899476
 20
933.3993435449
 11
174.6635899476
 21
933.3993435449
  0
LINE
  5
2E6
100
AcDbEntity
  8
0
100
AcDbLine
 62
7
  6
CONTINUOUS
 10
173.3635899476
 20
933.3993435449
 11
172.0635899476
 21
933.3993435449
  0
LINE
  5
2E7
100
AcDbEntity
  8
0
100
AcDbLine
 62
7
  6
CONTINUOUS
 10
170.7635899476
 20
933.3993435449
 11
169.4635899476
 21
933.3993435449
  0
LINE
  5
2E8
100
AcDbEntity
  8
0
100
AcDbLine
 62
7
  6
CONTINUOUS
 10
168.1635899476
 20
933.3993435449
 11
166.8635899476
 21
933.3993435449
  0
LINE
  5
2E9
100
AcDbEntity
  8
0
100
AcDbLine
 62
7
  6
CONTINUOUS
 10
1317.5635899476
 20
933.3993435449
 11
1318.8635899476
 21
933.3993435449
  0
LINE
  5
2EA
100
AcDbEntity
  8
0
100
AcDbLine
 62
7
  6
CONTINUOUS
 10
1320.1635899476
 20
933.3993435449
 11
1321.4635899476
 21
933.3993435449
  0
LINE
  5
2EB
100
AcDbEntity
  8
0
100
AcDbLine
 62
7
  6
CONTINUOUS
 10
1322.7635899476
 20
933.3993435449
 11
1324.0635899476
 21
933.3993435449
  0
LINE
  5
2EC
100
AcDbEntity
  8
0
100
AcDbLine
 62
7
  6
CONTINUOUS
 10
1325.3635899476
 20
933.3993435449
 11
1326.6635899476
 21
933.3993435449
  0
LINE
  5
2ED
100
AcDbEntity
  8
0
100
AcDbLine
 62
7
  6
CONTINUOUS
 10
1327.9635899476
 20
933.3993435449
 11
1329.2635899476
 21
933.3993435449
  0
LINE
  5
2EE
100
AcDbEntity
  8
0
100
AcDbLine
 62
7
  6
CONTINUOUS
 10
1330.5635899476
 20
933.3993435449
 11
1331.8635899476
 21
933.3993435449
  0
LINE
  5
2EF
100
AcDbEntity
  8
0
100
AcDbLine
 62
7
  6
CONTINUOUS
 10
1333.1635899476
 20
933.3993435449
 11
1334.4635899476
 21
933.3993435449
  0
LINE
  5
2F0
100
AcDbEntity
  8
0
100
AcDbLine
 62
7
  6
CONTINUOUS
 10
1335.7635899476
 20
933.3993435449
 11
1337.0635899476
 21
933.3993435449
  0
LINE
  5
2F1
100
AcDbEntity
  8
0
100
AcDbLine
 62
7
  6
CONTINUOUS
 10
1338.3635899476
 20
933.3993435449
 11
1339.6635899476
 21
933.3993435449
  0
LINE
  5
2F2
100
AcDbEntity
  8
0
100
AcDbLine
 62
7
  6
CONTINUOUS
 10
1340.9635899476
 20
933.3993435449
 11
1342.2635899476
 21
933.3993435449
  0
LINE
  5
2F3
100
AcDbEntity
  8
0
100
AcDbLine
 62
7
  6
CONTINUOUS
 10
1343.5635899476
 20
933.3993435449
 11
1344.8635899476
 21
933.3993435449
  0
LINE
  5
2F4
100
AcDbEntity
  8
0
100
AcDbLine
 62
7
  6
CONTINUOUS
 10
1346.1635899476
 20
933.3993435449
 11
1347.4635899476
 21
933.3993435449
  0
LINE
  5
2F5
100
AcDbEntity
  8
0
100
AcDbLine
 62
7
  6
CONTINUOUS
 10
1348.7635899476
 20
933.3993435449
 11
1350.0635899476
 21
933.3993435449
  0
LINE
  5
2F6
100
AcDbEntity
  8
0
100
AcDbLine
 62
7
  6
CONTINUOUS
 10
1351.3635899476
 20
933.3993435449
 11
1352.6635899476
 21
933.3993435449
  0
LINE
  5
2F7
100
AcDbEntity
  8
0
100
AcDbLine
 62
7
  6
CONTINUOUS
 10
1353.9635899476
 20
933.3993435449
 11
1355.2635899476
 21
933.3993435449
  0
LINE
  5
2F8
100
AcDbEntity
  8
0
100
AcDbLine
 62
7
  6
CONTINUOUS
 10
161.0635899476
 20
935.3993435449
 11
241.0635899476
 21
935.3993435449
  0
LINE
  5
2F9
100
AcDbEntity
  8
0
100
AcDbLine
 62
7
  6
CONTINUOUS
 10
244.0635899476
 20
935.3993435449
 11
1278.0635899476
 21
935.3993435449
  0
LINE
  5
2FA
100
AcDbEntity
  8
0
100
AcDbLine
 62
7
  6
CONTINUOUS
 10
1281.0635899476
 20
935.3993435449
 11
1361.0635899476
 21
935.3993435449
  0
LINE
  5
2FB
100
AcDbEntity
  8
0
100
AcDbLine
 62
7
  6
CONTINUOUS
 10
1280.4635899476
 20
938.3993435449
 11
241.6635899476
 21
938.3993435449
  0
LINE
  5
2FC
100
AcDbEntity
  8
0
100
AcDbLine
 62
7
  6
CONTINUOUS
 10
168.1996289169
 20
939.3993435449
 11
187.9275509783
 21
939.3993435449
  0
LINE
  5
2FD
100
AcDbEntity
  8
0
100
AcDbLine
 62
7
  6
CONTINUOUS
 10
203.1996289169
 20
939.3993435449
 11
222.9275509783
 21
939.3993435449
  0
LINE
  5
2FE
100
AcDbEntity
  8
0
100
AcDbLine
 62
7
  6
CONTINUOUS
 10
1299.1996289169
 20
939.3993435449
 11
1318.9275509783
 21
939.3993435449
  0
LINE
  5
2FF
100
AcDbEntity
  8
0
100
AcDbLine
 62
7
  6
CONTINUOUS
 10
1334.1996289169
 20
939.3993435449
 11
1353.9275509783
 21
939.3993435449
  0
LINE
  5
300
100
AcDbEntity
  8
0
100
AcDbLine
 62
7
  6
CONTINUOUS
 10
180.5635899476
 20
939.5993435449
 11
186.0635899476
 21
939.5993435449
  0
LINE
  5
301
100
AcDbEntity
  8
0
100
AcDbLine
 62
7
  6
CONTINUOUS
 10
215.5635899476
 20
939.5993435449
 11
221.0635899476
 21
939.5993435449
  0
LINE
  5
302
100
AcDbEntity
  8
0
100
AcDbLine
 62
7
  6
CONTINUOUS
 10
1301.0635899476
 20
939.5993435449
 11
1306.5635899476
 21
939.5993435449
  0
LINE
  5
303
100
AcDbEntity
  8
0
100
AcDbLine
 62
7
  6
CONTINUOUS
 10
1336.0635899476
 20
939.5993435449
 11
1341.5635899476
 21
939.5993435449
  0
LINE
  5
304
100
AcDbEntity
  8
0
100
AcDbLine
 62
7
  6
CONTINUOUS
 10
1283.5635899476
 20
942.3993435449
 11
1281.0635899476
 21
942.3993435449
  0
LINE
  5
305
100
AcDbEntity
  8
0
100
AcDbLine
 62
7
  6
CONTINUOUS
 10
168.1996289169
 20
942.3993435449
 11
187.9275509783
 21
942.3993435449
  0
LINE
  5
306
100
AcDbEntity
  8
0
100
AcDbLine
 62
7
  6
CONTINUOUS
 10
203.1996289169
 20
942.3993435449
 11
222.9275509783
 21
942.3993435449
  0
LINE
  5
307
100
AcDbEntity
  8
0
100
AcDbLine
 62
7
  6
CONTINUOUS
 10
1299.1996289169
 20
942.3993435449
 11
1318.9275509783
 21
942.3993435449
  0
LINE
  5
308
100
AcDbEntity
  8
0
100
AcDbLine
 62
7
  6
CONTINUOUS
 10
1334.1996289169
 20
942.3993435449
 11
1353.9275509783
 21
942.3993435449
  0
LINE
  5
309
100
AcDbEntity
  8
0
100
AcDbLine
 62
7
  6
CONTINUOUS
 10
1283.5635899476
 20
947.3993435449
 11
1281.0635899476
 21
947.3993435449
  0
LINE
  5
30A
100
AcDbEntity
  8
0
100
AcDbLine
 62
7
  6
CONTINUOUS
 10
1281.0635899476
 20
951.3993435449
 11
1280.4635899476
 21
951.3993435449
  0
LINE
  5
30B
100
AcDbEntity
  8
0
100
AcDbLine
 62
7
  6
CONTINUOUS
 10
205.0635899476
 20
951.3993435449
 11
188.5635899476
 21
951.3993435449
  0
LINE
  5
30C
100
AcDbEntity
  8
0
100
AcDbLine
 62
7
  6
CONTINUOUS
 10
241.0635899476
 20
951.3993435449
 11
241.6635899476
 21
951.3993435449
  0
LINE
  5
30D
100
AcDbEntity
  8
0
100
AcDbLine
 62
7
  6
CONTINUOUS
 10
1317.0635899476
 20
951.3993435449
 11
1333.5635899476
 21
951.3993435449
  0
LINE
  5
30E
100
AcDbEntity
  8
0
100
AcDbLine
 62
7
  6
CONTINUOUS
 10
241.6635899476
 20
952.3993435449
 11
1280.4635899476
 21
952.3993435449
  0
LINE
  5
30F
100
AcDbEntity
  8
0
100
AcDbLine
 62
7
  6
CONTINUOUS
 10
1281.0635899476
 20
953.3993435449
 11
1280.4635899476
 21
953.3993435449
  0
LINE
  5
310
100
AcDbEntity
  8
0
100
AcDbLine
 62
7
  6
CONTINUOUS
 10
241.0635899476
 20
953.3993435449
 11
241.6635899476
 21
953.3993435449
  0
LINE
  5
311
100
AcDbEntity
  8
0
100
AcDbLine
 62
7
  6
CONTINUOUS
 10
1333.5635899476
 20
955.3993435449
 11
1317.0635899476
 21
955.3993435449
  0
LINE
  5
312
100
AcDbEntity
  8
0
100
AcDbLine
 62
7
  6
CONTINUOUS
 10
1280.4635899476
 20
955.3993435449
 11
241.6635899476
 21
955.3993435449
  0
LINE
  5
313
100
AcDbEntity
  8
0
100
AcDbLine
 62
7
  6
CONTINUOUS
 10
188.5635899476
 20
955.3993435449
 11
205.0635899476
 21
955.3993435449
  0
LINE
  5
314
100
AcDbEntity
  8
0
100
AcDbLine
 62
7
  6
CONTINUOUS
 10
1281.0635899476
 20
956.8993435449
 11
1279.5635899476
 21
956.8993435449
  0
LINE
  5
315
100
AcDbEntity
  8
0
100
AcDbLine
 62
7
  6
CONTINUOUS
 10
241.0635899476
 20
956.8993435449
 11
242.5635899476
 21
956.8993435449
  0
LINE
  5
316
100
AcDbEntity
  8
0
100
AcDbLine
 62
7
  6
CONTINUOUS
 10
1281.0635899476
 20
957.8993435449
 11
1279.5635899476
 21
957.8993435449
  0
LINE
  5
317
100
AcDbEntity
  8
0
100
AcDbLine
 62
7
  6
CONTINUOUS
 10
241.0635899476
 20
957.8993435449
 11
242.5635899476
 21
957.8993435449
  0
LINE
  5
318
100
AcDbEntity
  8
0
100
AcDbLine
 62
7
  6
CONTINUOUS
 10
1281.0635899476
 20
959.3993435449
 11
1279.5635899476
 21
959.3993435449
  0
LINE
  5
319
100
AcDbEntity
  8
0
100
AcDbLine
 62
7
  6
CONTINUOUS
 10
241.0635899476
 20
959.3993435449
 11
242.5635899476
 21
959.3993435449
  0
LINE
  5
31A
100
AcDbEntity
  8
0
100
AcDbLine
 62
7
  6
CONTINUOUS
 10
1281.0635899476
 20
960.3993435449
 11
1271.0635899476
 21
960.3993435449
  0
LINE
  5
31B
100
AcDbEntity
  8
0
100
AcDbLine
 62
7
  6
CONTINUOUS
 10
161.0635899476
 20
960.3993435449
 11
165.5635899476
 21
960.3993435449
  0
LINE
  5
31C
100
AcDbEntity
  8
0
100
AcDbLine
 62
7
  6
CONTINUOUS
 10
241.0635899476
 20
960.3993435449
 11
251.0635899476
 21
960.3993435449
  0
LINE
  5
31D
100
AcDbEntity
  8
0
100
AcDbLine
 62
7
  6
CONTINUOUS
 10
1356.5635899476
 20
960.3993435449
 11
1361.0635899476
 21
960.3993435449
  0
LINE
  5
31E
100
AcDbEntity
  8
0
100
AcDbLine
 62
7
  6
CONTINUOUS
 10
1345.0635899476
 20
962.8993435449
 11
1341.0635899476
 21
962.8993435449
  0
LINE
  5
31F
100
AcDbEntity
  8
0
100
AcDbLine
 62
7
  6
CONTINUOUS
 10
1301.0635899476
 20
962.8993435449
 11
1297.0635899476
 21
962.8993435449
  0
LINE
  5
320
100
AcDbEntity
  8
0
100
AcDbLine
 62
7
  6
CONTINUOUS
 10
177.0635899476
 20
962.8993435449
 11
181.0635899476
 21
962.8993435449
  0
LINE
  5
321
100
AcDbEntity
  8
0
100
AcDbLine
 62
7
  6
CONTINUOUS
 10
221.0635899476
 20
962.8993435449
 11
225.0635899476
 21
962.8993435449
  0
LINE
  5
322
100
AcDbEntity
  8
0
100
AcDbLine
 62
7
  6
CONTINUOUS
 10
241.1635899476
 20
962.8993435449
 11
251.0635899476
 21
962.8993435449
  0
LINE
  5
323
100
AcDbEntity
  8
0
100
AcDbLine
 62
7
  6
CONTINUOUS
 10
1271.0635899476
 20
962.8993435449
 11
1280.9635899476
 21
962.8993435449
  0
LINE
  5
324
100
AcDbEntity
  8
0
100
AcDbLine
 62
7
  6
CONTINUOUS
 10
1361.0635899476
 20
977.3993435449
 11
1356.5635899476
 21
977.3993435449
  0
LINE
  5
325
100
AcDbEntity
  8
0
100
AcDbLine
 62
7
  6
CONTINUOUS
 10
165.5635899476
 20
977.3993435449
 11
161.0635899476
 21
977.3993435449
  0
LINE
  5
326
100
AcDbEntity
  8
0
100
AcDbLine
 62
7
  6
CONTINUOUS
 10
225.0635899476
 20
979.3993435449
 11
221.0635899476
 21
979.3993435449
  0
LINE
  5
327
100
AcDbEntity
  8
0
100
AcDbLine
 62
7
  6
CONTINUOUS
 10
181.0635899476
 20
979.3993435449
 11
177.0635899476
 21
979.3993435449
  0
LINE
  5
328
100
AcDbEntity
  8
0
100
AcDbLine
 62
7
  6
CONTINUOUS
 10
1297.0635899476
 20
979.3993435449
 11
1301.0635899476
 21
979.3993435449
  0
LINE
  5
329
100
AcDbEntity
  8
0
100
AcDbLine
 62
7
  6
CONTINUOUS
 10
1341.0635899476
 20
979.3993435449
 11
1345.0635899476
 21
979.3993435449
  0
LINE
  5
32A
100
AcDbEntity
  8
0
100
AcDbLine
 62
7
  6
CONTINUOUS
 10
1281.0635899476
 20
985.3993435449
 11
1283.5635899476
 21
985.3993435449
  0
LINE
  5
32B
100
AcDbEntity
  8
0
100
AcDbLine
 62
7
  6
CONTINUOUS
 10
180.4635899476
 20
989.7993435449
 11
171.6635899476
 21
989.7993435449
  0
LINE
  5
32C
100
AcDbEntity
  8
0
100
AcDbLine
 62
7
  6
CONTINUOUS
 10
1341.6635899476
 20
989.7993435449
 11
1350.4635899476
 21
989.7993435449
  0
LINE
  5
32D
100
AcDbEntity
  8
0
100
AcDbLine
 62
7
  6
CONTINUOUS
 10
1283.5635899476
 20
990.3993435449
 11
1281.0635899476
 21
990.3993435449
  0
LINE
  5
32E
100
AcDbEntity
  8
0
100
AcDbLine
 62
7
  6
CONTINUOUS
 10
205.0635899476
 20
995.3993435449
 11
188.5635899476
 21
995.3993435449
  0
LINE
  5
32F
100
AcDbEntity
  8
0
100
AcDbLine
 62
7
  6
CONTINUOUS
 10
161.0635899476
 20
995.3993435449
 11
165.5635899476
 21
995.3993435449
  0
LINE
  5
330
100
AcDbEntity
  8
0
100
AcDbLine
 62
7
  6
CONTINUOUS
 10
1317.0635899476
 20
995.3993435449
 11
1333.5635899476
 21
995.3993435449
  0
LINE
  5
331
100
AcDbEntity
  8
0
100
AcDbLine
 62
7
  6
CONTINUOUS
 10
1356.5635899476
 20
995.3993435449
 11
1361.0635899476
 21
995.3993435449
  0
LINE
  5
332
100
AcDbEntity
  8
0
100
AcDbLine
 62
7
  6
CONTINUOUS
 10
1350.4635899476
 20
998.9993435449
 11
1341.6635899476
 21
998.9993435449
  0
LINE
  5
333
100
AcDbEntity
  8
0
100
AcDbLine
 62
7
  6
CONTINUOUS
 10
171.6635899476
 20
998.9993435449
 11
180.4635899476
 21
998.9993435449
  0
LINE
  5
334
100
AcDbEntity
  8
0
100
AcDbLine
 62
7
  6
CONTINUOUS
 10
1333.5635899476
 20
999.3993435449
 11
1317.0635899476
 21
999.3993435449
  0
LINE
  5
335
100
AcDbEntity
  8
0
100
AcDbLine
 62
7
  6
CONTINUOUS
 10
188.5635899476
 20
999.3993435449
 11
205.0635899476
 21
999.3993435449
  0
LINE
  5
336
100
AcDbEntity
  8
0
100
AcDbLine
 62
7
  6
CONTINUOUS
 10
1287.5635899476
 20
1006.8993435449
 11
1283.5635899476
 21
1006.8993435449
  0
LINE
  5
337
100
AcDbEntity
  8
0
100
AcDbLine
 62
7
  6
CONTINUOUS
 10
1283.5635899476
 20
1010.8993435449
 11
1281.0635899476
 21
1010.8993435449
  0
LINE
  5
338
100
AcDbEntity
  8
0
100
AcDbLine
 62
7
  6
CONTINUOUS
 10
165.5635899476
 20
1010.8993435449
 11
206.0635899476
 21
1010.8993435449
  0
LINE
  5
339
100
AcDbEntity
  8
0
100
AcDbLine
 62
7
  6
CONTINUOUS
 10
238.5635899476
 20
1010.8993435449
 11
241.0635899476
 21
1010.8993435449
  0
LINE
  5
33A
100
AcDbEntity
  8
0
100
AcDbLine
 62
7
  6
CONTINUOUS
 10
1316.0635899476
 20
1010.8993435449
 11
1356.5635899476
 21
1010.8993435449
  0
LINE
  5
33B
100
AcDbEntity
  8
0
100
AcDbLine
 62
7
  6
CONTINUOUS
 10
207.0635899476
 20
1012.8993435449
 11
211.0635899476
 21
1012.8993435449
  0
LINE
  5
33C
100
AcDbEntity
  8
0
100
AcDbLine
 62
7
  6
CONTINUOUS
 10
232.5635899476
 20
1012.8993435449
 11
236.5635899476
 21
1012.8993435449
  0
LINE
  5
33D
100
AcDbEntity
  8
0
100
AcDbLine
 62
7
  6
CONTINUOUS
 10
1285.5635899476
 20
1012.8993435449
 11
1289.5635899476
 21
1012.8993435449
  0
LINE
  5
33E
100
AcDbEntity
  8
0
100
AcDbLine
 62
7
  6
CONTINUOUS
 10
1311.0635899476
 20
1012.8993435449
 11
1315.0635899476
 21
1012.8993435449
  0
LINE
  5
33F
100
AcDbEntity
  8
0
100
AcDbLine
 62
7
  6
CONTINUOUS
 10
163.275553601
 20
1014.7593435449
 11
161.0635899476
 21
1014.7593435449
  0
LINE
  5
340
100
AcDbEntity
  8
0
100
AcDbLine
 62
7
  6
CONTINUOUS
 10
1358.8516757929
 20
1014.7593435449
 11
1361.0635899476
 21
1014.7593435449
  0
LINE
  5
341
100
AcDbEntity
  8
0
100
AcDbLine
 62
7
  6
CONTINUOUS
 10
1356.5635899476
 20
1015.3993435449
 11
1316.0635899476
 21
1015.3993435449
  0
LINE
  5
342
100
AcDbEntity
  8
0
100
AcDbLine
 62
7
  6
CONTINUOUS
 10
206.0635899476
 20
1015.3993435449
 11
165.5635899476
 21
1015.3993435449
  0
LINE
  5
343
100
AcDbEntity
  8
0
100
AcDbLine
 62
7
  6
CONTINUOUS
 10
207.0635899476
 20
1015.3993435449
 11
211.0635899476
 21
1015.3993435449
  0
LINE
  5
344
100
AcDbEntity
  8
0
100
AcDbLine
 62
7
  6
CONTINUOUS
 10
232.5635899476
 20
1015.3993435449
 11
236.5635899476
 21
1015.3993435449
  0
LINE
  5
345
100
AcDbEntity
  8
0
100
AcDbLine
 62
7
  6
CONTINUOUS
 10
1285.5635899476
 20
1015.3993435449
 11
1289.5635899476
 21
1015.3993435449
  0
LINE
  5
346
100
AcDbEntity
  8
0
100
AcDbLine
 62
7
  6
CONTINUOUS
 10
1311.0635899476
 20
1015.3993435449
 11
1315.0635899476
 21
1015.3993435449
  0
LINE
  5
347
100
AcDbEntity
  8
0
100
AcDbLine
 62
7
  6
CONTINUOUS
 10
186.0635899476
 20
1022.3993435449
 11
188.5635899476
 21
1022.3993435449
  0
LINE
  5
348
100
AcDbEntity
  8
0
100
AcDbLine
 62
7
  6
CONTINUOUS
 10
1333.5635899476
 20
1022.3993435449
 11
1336.0635899476
 21
1022.3993435449
  0
LINE
  5
349
100
AcDbEntity
  8
0
100
AcDbLine
 62
7
  6
CONTINUOUS
 10
224.8135899476
 20
1022.6493435449
 11
218.8135899476
 21
1022.6493435449
  0
LINE
  5
34A
100
AcDbEntity
  8
0
100
AcDbLine
 62
7
  6
CONTINUOUS
 10
1297.3135899476
 20
1022.6493435449
 11
1303.3135899476
 21
1022.6493435449
  0
LINE
  5
34B
100
AcDbEntity
  8
0
100
AcDbLine
 62
7
  6
CONTINUOUS
 10
1336.0635899476
 20
1025.3993435449
 11
1333.5635899476
 21
1025.3993435449
  0
LINE
  5
34C
100
AcDbEntity
  8
0
100
AcDbLine
 62
7
  6
CONTINUOUS
 10
188.5635899476
 20
1025.3993435449
 11
186.0635899476
 21
1025.3993435449
  0
LINE
  5
34D
100
AcDbEntity
  8
0
100
AcDbLine
 62
7
  6
CONTINUOUS
 10
1303.3135899476
 20
1032.1493435449
 11
1297.3135899476
 21
1032.1493435449
  0
LINE
  5
34E
100
AcDbEntity
  8
0
100
AcDbLine
 62
7
  6
CONTINUOUS
 10
218.8135899476
 20
1032.1493435449
 11
224.8135899476
 21
1032.1493435449
  0
LINE
  5
34F
100
AcDbEntity
  8
0
100
AcDbLine
 62
7
  6
CONTINUOUS
 10
1308.0635899476
 20
1039.3993435449
 11
1292.5635899476
 21
1039.3993435449
  0
LINE
  5
350
100
AcDbEntity
  8
0
100
AcDbLine
 62
7
  6
CONTINUOUS
 10
229.5635899476
 20
1039.3993435449
 11
214.0635899476
 21
1039.3993435449
  0
LINE
  5
351
100
AcDbEntity
  8
0
100
AcDbLine
 62
7
  6
CONTINUOUS
 10
1280.954301856
 20
1218.2017054723
 11
1280.2919140376
 21
1218.0178494591
  0
LINE
  5
352
100
AcDbEntity
  8
0
100
AcDbLine
 62
7
  6
CONTINUOUS
 10
241.1728780392
 20
937.5969816175
 11
241.8352658576
 21
937.7808376306
  0
LINE
  5
353
100
AcDbEntity
  8
0
100
AcDbLine
 62
7
  6
CONTINUOUS
 10
241.8352658576
 20
1218.0178494591
 11
241.1728780392
 21
1218.2017054723
  0
LINE
  5
354
100
AcDbEntity
  8
0
100
AcDbLine
 62
7
  6
CONTINUOUS
 10
1280.2919140376
 20
937.7808376306
 11
1280.954301856
 21
937.5969816175
  0
LINE
  5
355
100
AcDbEntity
  8
0
100
AcDbLine
 62
7
  6
CONTINUOUS
 10
214.0635899476
 20
1116.3993435449
 11
229.5635899476
 21
1116.3993435449
  0
LINE
  5
356
100
AcDbEntity
  8
0
100
AcDbLine
 62
7
  6
CONTINUOUS
 10
1292.5635899476
 20
1116.3993435449
 11
1308.0635899476
 21
1116.3993435449
  0
LINE
  5
357
100
AcDbEntity
  8
0
100
AcDbLine
 62
7
  6
CONTINUOUS
 10
1303.3135899476
 20
1123.6493435449
 11
1297.3135899476
 21
1123.6493435449
  0
LINE
  5
358
100
AcDbEntity
  8
0
100
AcDbLine
 62
7
  6
CONTINUOUS
 10
218.8135899476
 20
1123.6493435449
 11
224.8135899476
 21
1123.6493435449
  0
LINE
  5
359
100
AcDbEntity
  8
0
100
AcDbLine
 62
7
  6
CONTINUOUS
 10
186.0635899476
 20
1130.3993435449
 11
188.5635899476
 21
1130.3993435449
  0
LINE
  5
35A
100
AcDbEntity
  8
0
100
AcDbLine
 62
7
  6
CONTINUOUS
 10
1333.5635899476
 20
1130.3993435449
 11
1336.0635899476
 21
1130.3993435449
  0
LINE
  5
35B
100
AcDbEntity
  8
0
100
AcDbLine
 62
7
  6
CONTINUOUS
 10
224.8135899476
 20
1133.1493435449
 11
218.8135899476
 21
1133.1493435449
  0
LINE
  5
35C
100
AcDbEntity
  8
0
100
AcDbLine
 62
7
  6
CONTINUOUS
 10
1297.3135899476
 20
1133.1493435449
 11
1303.3135899476
 21
1133.1493435449
  0
LINE
  5
35D
100
AcDbEntity
  8
0
100
AcDbLine
 62
7
  6
CONTINUOUS
 10
1336.0635899476
 20
1133.3993435449
 11
1333.5635899476
 21
1133.3993435449
  0
LINE
  5
35E
100
AcDbEntity
  8
0
100
AcDbLine
 62
7
  6
CONTINUOUS
 10
188.5635899476
 20
1133.3993435449
 11
186.0635899476
 21
1133.3993435449
  0
LINE
  5
35F
100
AcDbEntity
  8
0
100
AcDbLine
 62
7
  6
CONTINUOUS
 10
1315.0635899476
 20
1140.3993435449
 11
1311.0635899476
 21
1140.3993435449
  0
LINE
  5
360
100
AcDbEntity
  8
0
100
AcDbLine
 62
7
  6
CONTINUOUS
 10
1289.5635899476
 20
1140.3993435449
 11
1285.5635899476
 21
1140.3993435449
  0
LINE
  5
361
100
AcDbEntity
  8
0
100
AcDbLine
 62
7
  6
CONTINUOUS
 10
236.5635899476
 20
1140.3993435449
 11
232.5635899476
 21
1140.3993435449
  0
LINE
  5
362
100
AcDbEntity
  8
0
100
AcDbLine
 62
7
  6
CONTINUOUS
 10
211.0635899476
 20
1140.3993435449
 11
207.0635899476
 21
1140.3993435449
  0
LINE
  5
363
100
AcDbEntity
  8
0
100
AcDbLine
 62
7
  6
CONTINUOUS
 10
165.5635899476
 20
1140.3993435449
 11
206.0635899476
 21
1140.3993435449
  0
LINE
  5
364
100
AcDbEntity
  8
0
100
AcDbLine
 62
7
  6
CONTINUOUS
 10
1316.0635899476
 20
1140.3993435449
 11
1356.5635899476
 21
1140.3993435449
  0
LINE
  5
365
100
AcDbEntity
  8
0
100
AcDbLine
 62
7
  6
CONTINUOUS
 10
163.2755041023
 20
1141.0393435449
 11
161.0635899476
 21
1141.0393435449
  0
LINE
  5
366
100
AcDbEntity
  8
0
100
AcDbLine
 62
7
  6
CONTINUOUS
 10
1358.8516262943
 20
1141.0393435449
 11
1361.0635899476
 21
1141.0393435449
  0
LINE
  5
367
100
AcDbEntity
  8
0
100
AcDbLine
 62
7
  6
CONTINUOUS
 10
1315.0635899476
 20
1142.8993435449
 11
1311.0635899476
 21
1142.8993435449
  0
LINE
  5
368
100
AcDbEntity
  8
0
100
AcDbLine
 62
7
  6
CONTINUOUS
 10
1289.5635899476
 20
1142.8993435449
 11
1285.5635899476
 21
1142.8993435449
  0
LINE
  5
369
100
AcDbEntity
  8
0
100
AcDbLine
 62
7
  6
CONTINUOUS
 10
236.5635899476
 20
1142.8993435449
 11
232.5635899476
 21
1142.8993435449
  0
LINE
  5
36A
100
AcDbEntity
  8
0
100
AcDbLine
 62
7
  6
CONTINUOUS
 10
211.0635899476
 20
1142.8993435449
 11
207.0635899476
 21
1142.8993435449
  0
LINE
  5
36B
100
AcDbEntity
  8
0
100
AcDbLine
 62
7
  6
CONTINUOUS
 10
1356.5635899476
 20
1144.8993435449
 11
1316.0635899476
 21
1144.8993435449
  0
LINE
  5
36C
100
AcDbEntity
  8
0
100
AcDbLine
 62
7
  6
CONTINUOUS
 10
1283.5635899476
 20
1144.8993435449
 11
1281.0635899476
 21
1144.8993435449
  0
LINE
  5
36D
100
AcDbEntity
  8
0
100
AcDbLine
 62
7
  6
CONTINUOUS
 10
206.0635899476
 20
1144.8993435449
 11
165.5635899476
 21
1144.8993435449
  0
LINE
  5
36E
100
AcDbEntity
  8
0
100
AcDbLine
 62
7
  6
CONTINUOUS
 10
238.5635899476
 20
1144.8993435449
 11
241.0635899476
 21
1144.8993435449
  0
LINE
  5
36F
100
AcDbEntity
  8
0
100
AcDbLine
 62
7
  6
CONTINUOUS
 10
234.5635899476
 20
1148.8993435449
 11
238.5635899476
 21
1148.8993435449
  0
LINE
  5
370
100
AcDbEntity
  8
0
100
AcDbLine
 62
7
  6
CONTINUOUS
 10
1333.5635899476
 20
1156.3993435449
 11
1317.0635899476
 21
1156.3993435449
  0
LINE
  5
371
100
AcDbEntity
  8
0
100
AcDbLine
 62
7
  6
CONTINUOUS
 10
188.5635899476
 20
1156.3993435449
 11
205.0635899476
 21
1156.3993435449
  0
LINE
  5
372
100
AcDbEntity
  8
0
100
AcDbLine
 62
7
  6
CONTINUOUS
 10
1350.4635899476
 20
1156.7993435449
 11
1341.6635899476
 21
1156.7993435449
  0
LINE
  5
373
100
AcDbEntity
  8
0
100
AcDbLine
 62
7
  6
CONTINUOUS
 10
171.6635899476
 20
1156.7993435449
 11
180.4635899476
 21
1156.7993435449
  0
LINE
  5
374
100
AcDbEntity
  8
0
100
AcDbLine
 62
7
  6
CONTINUOUS
 10
1361.0635899476
 20
1160.3993435449
 11
1356.5635899476
 21
1160.3993435449
  0
LINE
  5
375
100
AcDbEntity
  8
0
100
AcDbLine
 62
7
  6
CONTINUOUS
 10
205.0635899476
 20
1160.3993435449
 11
188.5635899476
 21
1160.3993435449
  0
LINE
  5
376
100
AcDbEntity
  8
0
100
AcDbLine
 62
7
  6
CONTINUOUS
 10
165.5635899476
 20
1160.3993435449
 11
161.0635899476
 21
1160.3993435449
  0
LINE
  5
377
100
AcDbEntity
  8
0
100
AcDbLine
 62
7
  6
CONTINUOUS
 10
1317.0635899476
 20
1160.3993435449
 11
1333.5635899476
 21
1160.3993435449
  0
LINE
  5
378
100
AcDbEntity
  8
0
100
AcDbLine
 62
7
  6
CONTINUOUS
 10
238.5635899476
 20
1165.3993435449
 11
241.0635899476
 21
1165.3993435449
  0
LINE
  5
379
100
AcDbEntity
  8
0
100
AcDbLine
 62
7
  6
CONTINUOUS
 10
180.4635899476
 20
1165.9993435449
 11
171.6635899476
 21
1165.9993435449
  0
LINE
  5
37A
100
AcDbEntity
  8
0
100
AcDbLine
 62
7
  6
CONTINUOUS
 10
1341.6635899476
 20
1165.9993435449
 11
1350.4635899476
 21
1165.9993435449
  0
LINE
  5
37B
100
AcDbEntity
  8
0
100
AcDbLine
 62
7
  6
CONTINUOUS
 10
241.0635899476
 20
1170.3993435449
 11
238.5635899476
 21
1170.3993435449
  0
LINE
  5
37C
100
AcDbEntity
  8
0
100
AcDbLine
 62
7
  6
CONTINUOUS
 10
225.0635899476
 20
1176.3993435449
 11
221.0635899476
 21
1176.3993435449
  0
LINE
  5
37D
100
AcDbEntity
  8
0
100
AcDbLine
 62
7
  6
CONTINUOUS
 10
181.0635899476
 20
1176.3993435449
 11
177.0635899476
 21
1176.3993435449
  0
LINE
  5
37E
100
AcDbEntity
  8
0
100
AcDbLine
 62
7
  6
CONTINUOUS
 10
1297.0635899476
 20
1176.3993435449
 11
1301.0635899476
 21
1176.3993435449
  0
LINE
  5
37F
100
AcDbEntity
  8
0
100
AcDbLine
 62
7
  6
CONTINUOUS
 10
1341.0635899476
 20
1176.3993435449
 11
1345.0635899476
 21
1176.3993435449
  0
LINE
  5
380
100
AcDbEntity
  8
0
100
AcDbLine
 62
7
  6
CONTINUOUS
 10
161.0635899476
 20
1178.3993435449
 11
165.5635899476
 21
1178.3993435449
  0
LINE
  5
381
100
AcDbEntity
  8
0
100
AcDbLine
 62
7
  6
CONTINUOUS
 10
1356.5635899476
 20
1178.3993435449
 11
1361.0635899476
 21
1178.3993435449
  0
LINE
  5
382
100
AcDbEntity
  8
0
100
AcDbLine
 62
7
  6
CONTINUOUS
 10
1345.0635899476
 20
1192.8993435449
 11
1341.0635899476
 21
1192.8993435449
  0
LINE
  5
383
100
AcDbEntity
  8
0
100
AcDbLine
 62
7
  6
CONTINUOUS
 10
1301.0635899476
 20
1192.8993435449
 11
1297.0635899476
 21
1192.8993435449
  0
LINE
  5
384
100
AcDbEntity
  8
0
100
AcDbLine
 62
7
  6
CONTINUOUS
 10
177.0635899476
 20
1192.8993435449
 11
181.0635899476
 21
1192.8993435449
  0
LINE
  5
385
100
AcDbEntity
  8
0
100
AcDbLine
 62
7
  6
CONTINUOUS
 10
221.0635899476
 20
1192.8993435449
 11
225.0635899476
 21
1192.8993435449
  0
LINE
  5
386
100
AcDbEntity
  8
0
100
AcDbLine
 62
7
  6
CONTINUOUS
 10
241.1635899476
 20
1192.8993435449
 11
251.0635899476
 21
1192.8993435449
  0
LINE
  5
387
100
AcDbEntity
  8
0
100
AcDbLine
 62
7
  6
CONTINUOUS
 10
1271.0635899476
 20
1192.8993435449
 11
1280.9635899476
 21
1192.8993435449
  0
LINE
  5
388
100
AcDbEntity
  8
0
100
AcDbLine
 62
7
  6
CONTINUOUS
 10
1361.0635899476
 20
1195.3993435449
 11
1356.5635899476
 21
1195.3993435449
  0
LINE
  5
389
100
AcDbEntity
  8
0
100
AcDbLine
 62
7
  6
CONTINUOUS
 10
165.5635899476
 20
1195.3993435449
 11
161.0635899476
 21
1195.3993435449
  0
LINE
  5
38A
100
AcDbEntity
  8
0
100
AcDbLine
 62
7
  6
CONTINUOUS
 10
241.0635899476
 20
1195.3993435449
 11
251.0635899476
 21
1195.3993435449
  0
LINE
  5
38B
100
AcDbEntity
  8
0
100
AcDbLine
 62
7
  6
CONTINUOUS
 10
1271.0635899476
 20
1195.3993435449
 11
1281.0635899476
 21
1195.3993435449
  0
LINE
  5
38C
100
AcDbEntity
  8
0
100
AcDbLine
 62
7
  6
CONTINUOUS
 10
1281.0635899476
 20
1196.3993435449
 11
1279.5635899476
 21
1196.3993435449
  0
LINE
  5
38D
100
AcDbEntity
  8
0
100
AcDbLine
 62
7
  6
CONTINUOUS
 10
241.0635899476
 20
1196.3993435449
 11
242.5635899476
 21
1196.3993435449
  0
LINE
  5
38E
100
AcDbEntity
  8
0
100
AcDbLine
 62
7
  6
CONTINUOUS
 10
1281.0635899476
 20
1197.8993435449
 11
1279.5635899476
 21
1197.8993435449
  0
LINE
  5
38F
100
AcDbEntity
  8
0
100
AcDbLine
 62
7
  6
CONTINUOUS
 10
241.0635899476
 20
1197.8993435449
 11
242.5635899476
 21
1197.8993435449
  0
LINE
  5
390
100
AcDbEntity
  8
0
100
AcDbLine
 62
7
  6
CONTINUOUS
 10
1281.0635899476
 20
1198.8993435449
 11
1279.5635899476
 21
1198.8993435449
  0
LINE
  5
391
100
AcDbEntity
  8
0
100
AcDbLine
 62
7
  6
CONTINUOUS
 10
241.0635899476
 20
1198.8993435449
 11
242.5635899476
 21
1198.8993435449
  0
LINE
  5
392
100
AcDbEntity
  8
0
100
AcDbLine
 62
7
  6
CONTINUOUS
 10
1333.5635899476
 20
1200.3993435449
 11
1317.0635899476
 21
1200.3993435449
  0
LINE
  5
393
100
AcDbEntity
  8
0
100
AcDbLine
 62
7
  6
CONTINUOUS
 10
188.5635899476
 20
1200.3993435449
 11
205.0635899476
 21
1200.3993435449
  0
LINE
  5
394
100
AcDbEntity
  8
0
100
AcDbLine
 62
7
  6
CONTINUOUS
 10
241.6635899476
 20
1200.3993435449
 11
1280.4635899476
 21
1200.3993435449
  0
LINE
  5
395
100
AcDbEntity
  8
0
100
AcDbLine
 62
7
  6
CONTINUOUS
 10
1281.0635899476
 20
1202.3993435449
 11
1280.4635899476
 21
1202.3993435449
  0
LINE
  5
396
100
AcDbEntity
  8
0
100
AcDbLine
 62
7
  6
CONTINUOUS
 10
241.0635899476
 20
1202.3993435449
 11
241.6635899476
 21
1202.3993435449
  0
LINE
  5
397
100
AcDbEntity
  8
0
100
AcDbLine
 62
7
  6
CONTINUOUS
 10
1280.4635899476
 20
1203.3993435449
 11
241.6635899476
 21
1203.3993435449
  0
LINE
  5
398
100
AcDbEntity
  8
0
100
AcDbLine
 62
7
  6
CONTINUOUS
 10
1281.0635899476
 20
1204.3993435449
 11
1280.4635899476
 21
1204.3993435449
  0
LINE
  5
399
100
AcDbEntity
  8
0
100
AcDbLine
 62
7
  6
CONTINUOUS
 10
205.0635899476
 20
1204.3993435449
 11
188.5635899476
 21
1204.3993435449
  0
LINE
  5
39A
100
AcDbEntity
  8
0
100
AcDbLine
 62
7
  6
CONTINUOUS
 10
241.0635899476
 20
1204.3993435449
 11
241.6635899476
 21
1204.3993435449
  0
LINE
  5
39B
100
AcDbEntity
  8
0
100
AcDbLine
 62
7
  6
CONTINUOUS
 10
1317.0635899476
 20
1204.3993435449
 11
1333.5635899476
 21
1204.3993435449
  0
LINE
  5
39C
100
AcDbEntity
  8
0
100
AcDbLine
 62
7
  6
CONTINUOUS
 10
238.5635899476
 20
1208.3993435449
 11
241.0635899476
 21
1208.3993435449
  0
LINE
  5
39D
100
AcDbEntity
  8
0
100
AcDbLine
 62
7
  6
CONTINUOUS
 10
1353.9275509783
 20
1213.3993435449
 11
1334.1996289169
 21
1213.3993435449
  0
LINE
  5
39E
100
AcDbEntity
  8
0
100
AcDbLine
 62
7
  6
CONTINUOUS
 10
1318.9275509783
 20
1213.3993435449
 11
1299.1996289169
 21
1213.3993435449
  0
LINE
  5
39F
100
AcDbEntity
  8
0
100
AcDbLine
 62
7
  6
CONTINUOUS
 10
222.9275509783
 20
1213.3993435449
 11
203.1996289169
 21
1213.3993435449
  0
LINE
  5
3A0
100
AcDbEntity
  8
0
100
AcDbLine
 62
7
  6
CONTINUOUS
 10
187.9275509783
 20
1213.3993435449
 11
168.1996289169
 21
1213.3993435449
  0
LINE
  5
3A1
100
AcDbEntity
  8
0
100
AcDbLine
 62
7
  6
CONTINUOUS
 10
238.5635899476
 20
1213.3993435449
 11
241.0635899476
 21
1213.3993435449
  0
LINE
  5
3A2
100
AcDbEntity
  8
0
100
AcDbLine
 62
7
  6
CONTINUOUS
 10
1341.5635899476
 20
1216.1993435449
 11
1336.0635899476
 21
1216.1993435449
  0
LINE
  5
3A3
100
AcDbEntity
  8
0
100
AcDbLine
 62
7
  6
CONTINUOUS
 10
1306.5635899476
 20
1216.1993435449
 11
1301.0635899476
 21
1216.1993435449
  0
LINE
  5
3A4
100
AcDbEntity
  8
0
100
AcDbLine
 62
7
  6
CONTINUOUS
 10
221.0635899476
 20
1216.1993435449
 11
215.5635899476
 21
1216.1993435449
  0
LINE
  5
3A5
100
AcDbEntity
  8
0
100
AcDbLine
 62
7
  6
CONTINUOUS
 10
186.0635899476
 20
1216.1993435449
 11
180.5635899476
 21
1216.1993435449
  0
LINE
  5
3A6
100
AcDbEntity
  8
0
100
AcDbLine
 62
7
  6
CONTINUOUS
 10
1353.9275509783
 20
1216.3993435449
 11
1334.1996289169
 21
1216.3993435449
  0
LINE
  5
3A7
100
AcDbEntity
  8
0
100
AcDbLine
 62
7
  6
CONTINUOUS
 10
1318.9275509783
 20
1216.3993435449
 11
1299.1996289169
 21
1216.3993435449
  0
LINE
  5
3A8
100
AcDbEntity
  8
0
100
AcDbLine
 62
7
  6
CONTINUOUS
 10
168.1996289169
 20
1216.3993435449
 11
187.9275509783
 21
1216.3993435449
  0
LINE
  5
3A9
100
AcDbEntity
  8
0
100
AcDbLine
 62
7
  6
CONTINUOUS
 10
203.1996289169
 20
1216.3993435449
 11
222.9275509783
 21
1216.3993435449
  0
LINE
  5
3AA
100
AcDbEntity
  8
0
100
AcDbLine
 62
7
  6
CONTINUOUS
 10
241.6635899476
 20
1217.3993435449
 11
1280.4635899476
 21
1217.3993435449
  0
LINE
  5
3AB
100
AcDbEntity
  8
0
100
AcDbLine
 62
7
  6
CONTINUOUS
 10
1278.0635899476
 20
1220.3993435449
 11
244.0635899476
 21
1220.3993435449
  0
LINE
  5
3AC
100
AcDbEntity
  8
0
100
AcDbLine
 62
7
  6
CONTINUOUS
 10
161.0635899476
 20
1220.3993435449
 11
241.0635899476
 21
1220.3993435449
  0
LINE
  5
3AD
100
AcDbEntity
  8
0
100
AcDbLine
 62
7
  6
CONTINUOUS
 10
1281.0635899476
 20
1220.3993435449
 11
1361.0635899476
 21
1220.3993435449
  0
LINE
  5
3AE
100
AcDbEntity
  8
0
100
AcDbLine
 62
7
  6
CONTINUOUS
 10
204.5635899476
 20
1222.3993435449
 11
203.2635899476
 21
1222.3993435449
  0
LINE
  5
3AF
100
AcDbEntity
  8
0
100
AcDbLine
 62
7
  6
CONTINUOUS
 10
201.9635899476
 20
1222.3993435449
 11
200.6635899476
 21
1222.3993435449
  0
LINE
  5
3B0
100
AcDbEntity
  8
0
100
AcDbLine
 62
7
  6
CONTINUOUS
 10
199.3635899476
 20
1222.3993435449
 11
198.0635899476
 21
1222.3993435449
  0
LINE
  5
3B1
100
AcDbEntity
  8
0
100
AcDbLine
 62
7
  6
CONTINUOUS
 10
196.7635899476
 20
1222.3993435449
 11
195.4635899476
 21
1222.3993435449
  0
LINE
  5
3B2
100
AcDbEntity
  8
0
100
AcDbLine
 62
7
  6
CONTINUOUS
 10
194.1635899476
 20
1222.3993435449
 11
192.8635899476
 21
1222.3993435449
  0
LINE
  5
3B3
100
AcDbEntity
  8
0
100
AcDbLine
 62
7
  6
CONTINUOUS
 10
191.5635899476
 20
1222.3993435449
 11
190.2635899476
 21
1222.3993435449
  0
LINE
  5
3B4
100
AcDbEntity
  8
0
100
AcDbLine
 62
7
  6
CONTINUOUS
 10
188.9635899476
 20
1222.3993435449
 11
187.6635899476
 21
1222.3993435449
  0
LINE
  5
3B5
100
AcDbEntity
  8
0
100
AcDbLine
 62
7
  6
CONTINUOUS
 10
186.3635899476
 20
1222.3993435449
 11
185.0635899476
 21
1222.3993435449
  0
LINE
  5
3B6
100
AcDbEntity
  8
0
100
AcDbLine
 62
7
  6
CONTINUOUS
 10
183.7635899476
 20
1222.3993435449
 11
182.4635899476
 21
1222.3993435449
  0
LINE
  5
3B7
100
AcDbEntity
  8
0
100
AcDbLine
 62
7
  6
CONTINUOUS
 10
181.1635899476
 20
1222.3993435449
 11
179.8635899476
 21
1222.3993435449
  0
LINE
  5
3B8
100
AcDbEntity
  8
0
100
AcDbLine
 62
7
  6
CONTINUOUS
 10
178.5635899476
 20
1222.3993435449
 11
177.2635899476
 21
1222.3993435449
  0
LINE
  5
3B9
100
AcDbEntity
  8
0
100
AcDbLine
 62
7
  6
CONTINUOUS
 10
175.9635899476
 20
1222.3993435449
 11
174.6635899476
 21
1222.3993435449
  0
LINE
  5
3BA
100
AcDbEntity
  8
0
100
AcDbLine
 62
7
  6
CONTINUOUS
 10
173.3635899476
 20
1222.3993435449
 11
172.0635899476
 21
1222.3993435449
  0
LINE
  5
3BB
100
AcDbEntity
  8
0
100
AcDbLine
 62
7
  6
CONTINUOUS
 10
170.7635899476
 20
1222.3993435449
 11
169.4635899476
 21
1222.3993435449
  0
LINE
  5
3BC
100
AcDbEntity
  8
0
100
AcDbLine
 62
7
  6
CONTINUOUS
 10
168.1635899476
 20
1222.3993435449
 11
166.8635899476
 21
1222.3993435449
  0
LINE
  5
3BD
100
AcDbEntity
  8
0
100
AcDbLine
 62
7
  6
CONTINUOUS
 10
1317.5635899476
 20
1222.3993435449
 11
1318.8635899476
 21
1222.3993435449
  0
LINE
  5
3BE
100
AcDbEntity
  8
0
100
AcDbLine
 62
7
  6
CONTINUOUS
 10
1320.1635899476
 20
1222.3993435449
 11
1321.4635899476
 21
1222.3993435449
  0
LINE
  5
3BF
100
AcDbEntity
  8
0
100
AcDbLine
 62
7
  6
CONTINUOUS
 10
1322.7635899476
 20
1222.3993435449
 11
1324.0635899476
 21
1222.3993435449
  0
LINE
  5
3C0
100
AcDbEntity
  8
0
100
AcDbLine
 62
7
  6
CONTINUOUS
 10
1325.3635899476
 20
1222.3993435449
 11
1326.6635899476
 21
1222.3993435449
  0
LINE
  5
3C1
100
AcDbEntity
  8
0
100
AcDbLine
 62
7
  6
CONTINUOUS
 10
1327.9635899476
 20
1222.3993435449
 11
1329.2635899476
 21
1222.3993435449
  0
LINE
  5
3C2
100
AcDbEntity
  8
0
100
AcDbLine
 62
7
  6
CONTINUOUS
 10
1330.5635899476
 20
1222.3993435449
 11
1331.8635899476
 21
1222.3993435449
  0
LINE
  5
3C3
100
AcDbEntity
  8
0
100
AcDbLine
 62
7
  6
CONTINUOUS
 10
1333.1635899476
 20
1222.3993435449
 11
1334.4635899476
 21
1222.3993435449
  0
LINE
  5
3C4
100
AcDbEntity
  8
0
100
AcDbLine
 62
7
  6
CONTINUOUS
 10
1335.7635899476
 20
1222.3993435449
 11
1337.0635899476
 21
1222.3993435449
  0
LINE
  5
3C5
100
AcDbEntity
  8
0
100
AcDbLine
 62
7
  6
CONTINUOUS
 10
1338.3635899476
 20
1222.3993435449
 11
1339.6635899476
 21
1222.3993435449
  0
LINE
  5
3C6
100
AcDbEntity
  8
0
100
AcDbLine
 62
7
  6
CONTINUOUS
 10
1340.9635899476
 20
1222.3993435449
 11
1342.2635899476
 21
1222.3993435449
  0
LINE
  5
3C7
100
AcDbEntity
  8
0
100
AcDbLine
 62
7
  6
CONTINUOUS
 10
1343.5635899476
 20
1222.3993435449
 11
1344.8635899476
 21
1222.3993435449
  0
LINE
  5
3C8
100
AcDbEntity
  8
0
100
AcDbLine
 62
7
  6
CONTINUOUS
 10
1346.1635899476
 20
1222.3993435449
 11
1347.4635899476
 21
1222.3993435449
  0
LINE
  5
3C9
100
AcDbEntity
  8
0
100
AcDbLine
 62
7
  6
CONTINUOUS
 10
1348.7635899476
 20
1222.3993435449
 11
1350.0635899476
 21
1222.3993435449
  0
LINE
  5
3CA
100
AcDbEntity
  8
0
100
AcDbLine
 62
7
  6
CONTINUOUS
 10
1351.3635899476
 20
1222.3993435449
 11
1352.6635899476
 21
1222.3993435449
  0
LINE
  5
3CB
100
AcDbEntity
  8
0
100
AcDbLine
 62
7
  6
CONTINUOUS
 10
1353.9635899476
 20
1222.3993435449
 11
1355.2635899476
 21
1222.3993435449
  0
LINE
  5
3CC
100
AcDbEntity
  8
0
100
AcDbLine
 62
7
  6
CONTINUOUS
 10
1353.9635899476
 20
1222.8993435449
 11
1352.6635899476
 21
1222.8993435449
  0
LINE
  5
3CD
100
AcDbEntity
  8
0
100
AcDbLine
 62
7
  6
CONTINUOUS
 10
1351.3635899476
 20
1222.8993435449
 11
1350.0635899476
 21
1222.8993435449
  0
LINE
  5
3CE
100
AcDbEntity
  8
0
100
AcDbLine
 62
7
  6
CONTINUOUS
 10
1348.7635899476
 20
1222.8993435449
 11
1347.4635899476
 21
1222.8993435449
  0
LINE
  5
3CF
100
AcDbEntity
  8
0
100
AcDbLine
 62
7
  6
CONTINUOUS
 10
1346.1635899476
 20
1222.8993435449
 11
1344.8635899476
 21
1222.8993435449
  0
LINE
  5
3D0
100
AcDbEntity
  8
0
100
AcDbLine
 62
7
  6
CONTINUOUS
 10
1343.5635899476
 20
1222.8993435449
 11
1342.2635899476
 21
1222.8993435449
  0
LINE
  5
3D1
100
AcDbEntity
  8
0
100
AcDbLine
 62
7
  6
CONTINUOUS
 10
1340.9635899476
 20
1222.8993435449
 11
1339.6635899476
 21
1222.8993435449
  0
LINE
  5
3D2
100
AcDbEntity
  8
0
100
AcDbLine
 62
7
  6
CONTINUOUS
 10
1338.3635899476
 20
1222.8993435449
 11
1337.0635899476
 21
1222.8993435449
  0
LINE
  5
3D3
100
AcDbEntity
  8
0
100
AcDbLine
 62
7
  6
CONTINUOUS
 10
1335.7635899476
 20
1222.8993435449
 11
1334.4635899476
 21
1222.8993435449
  0
LINE
  5
3D4
100
AcDbEntity
  8
0
100
AcDbLine
 62
7
  6
CONTINUOUS
 10
1333.1635899476
 20
1222.8993435449
 11
1331.8635899476
 21
1222.8993435449
  0
LINE
  5
3D5
100
AcDbEntity
  8
0
100
AcDbLine
 62
7
  6
CONTINUOUS
 10
1330.5635899476
 20
1222.8993435449
 11
1329.2635899476
 21
1222.8993435449
  0
LINE
  5
3D6
100
AcDbEntity
  8
0
100
AcDbLine
 62
7
  6
CONTINUOUS
 10
1327.9635899476
 20
1222.8993435449
 11
1326.6635899476
 21
1222.8993435449
  0
LINE
  5
3D7
100
AcDbEntity
  8
0
100
AcDbLine
 62
7
  6
CONTINUOUS
 10
1325.3635899476
 20
1222.8993435449
 11
1324.0635899476
 21
1222.8993435449
  0
LINE
  5
3D8
100
AcDbEntity
  8
0
100
AcDbLine
 62
7
  6
CONTINUOUS
 10
1322.7635899476
 20
1222.8993435449
 11
1321.4635899476
 21
1222.8993435449
  0
LINE
  5
3D9
100
AcDbEntity
  8
0
100
AcDbLine
 62
7
  6
CONTINUOUS
 10
1320.1635899476
 20
1222.8993435449
 11
1318.8635899476
 21
1222.8993435449
  0
LINE
  5
3DA
100
AcDbEntity
  8
0
100
AcDbLine
 62
7
  6
CONTINUOUS
 10
1317.5635899476
 20
1222.8993435449
 11
1287.2885397466
 21
1222.8993435449
  0
LINE
  5
3DB
100
AcDbEntity
  8
0
100
AcDbLine
 62
7
  6
CONTINUOUS
 10
234.8386401486
 20
1222.8993435449
 11
204.5635899476
 21
1222.8993435449
  0
LINE
  5
3DC
100
AcDbEntity
  8
0
100
AcDbLine
 62
7
  6
CONTINUOUS
 10
203.2635899476
 20
1222.8993435449
 11
201.9635899476
 21
1222.8993435449
  0
LINE
  5
3DD
100
AcDbEntity
  8
0
100
AcDbLine
 62
7
  6
CONTINUOUS
 10
200.6635899476
 20
1222.8993435449
 11
199.3635899476
 21
1222.8993435449
  0
LINE
  5
3DE
100
AcDbEntity
  8
0
100
AcDbLine
 62
7
  6
CONTINUOUS
 10
198.0635899476
 20
1222.8993435449
 11
196.7635899476
 21
1222.8993435449
  0
LINE
  5
3DF
100
AcDbEntity
  8
0
100
AcDbLine
 62
7
  6
CONTINUOUS
 10
195.4635899476
 20
1222.8993435449
 11
194.1635899476
 21
1222.8993435449
  0
LINE
  5
3E0
100
AcDbEntity
  8
0
100
AcDbLine
 62
7
  6
CONTINUOUS
 10
192.8635899476
 20
1222.8993435449
 11
191.5635899476
 21
1222.8993435449
  0
LINE
  5
3E1
100
AcDbEntity
  8
0
100
AcDbLine
 62
7
  6
CONTINUOUS
 10
190.2635899476
 20
1222.8993435449
 11
188.9635899476
 21
1222.8993435449
  0
LINE
  5
3E2
100
AcDbEntity
  8
0
100
AcDbLine
 62
7
  6
CONTINUOUS
 10
187.6635899476
 20
1222.8993435449
 11
186.3635899476
 21
1222.8993435449
  0
LINE
  5
3E3
100
AcDbEntity
  8
0
100
AcDbLine
 62
7
  6
CONTINUOUS
 10
185.0635899476
 20
1222.8993435449
 11
183.7635899476
 21
1222.8993435449
  0
LINE
  5
3E4
100
AcDbEntity
  8
0
100
AcDbLine
 62
7
  6
CONTINUOUS
 10
182.4635899476
 20
1222.8993435449
 11
181.1635899476
 21
1222.8993435449
  0
LINE
  5
3E5
100
AcDbEntity
  8
0
100
AcDbLine
 62
7
  6
CONTINUOUS
 10
179.8635899476
 20
1222.8993435449
 11
178.5635899476
 21
1222.8993435449
  0
LINE
  5
3E6
100
AcDbEntity
  8
0
100
AcDbLine
 62
7
  6
CONTINUOUS
 10
177.2635899476
 20
1222.8993435449
 11
175.9635899476
 21
1222.8993435449
  0
LINE
  5
3E7
100
AcDbEntity
  8
0
100
AcDbLine
 62
7
  6
CONTINUOUS
 10
174.6635899476
 20
1222.8993435449
 11
173.3635899476
 21
1222.8993435449
  0
LINE
  5
3E8
100
AcDbEntity
  8
0
100
AcDbLine
 62
7
  6
CONTINUOUS
 10
172.0635899476
 20
1222.8993435449
 11
170.7635899476
 21
1222.8993435449
  0
LINE
  5
3E9
100
AcDbEntity
  8
0
100
AcDbLine
 62
7
  6
CONTINUOUS
 10
169.4635899476
 20
1222.8993435449
 11
168.1635899476
 21
1222.8993435449
  0
LINE
  5
3EA
100
AcDbEntity
  8
0
100
AcDbLine
 62
7
  6
CONTINUOUS
 10
1306.5635899476
 20
939.5993435449
 11
1310.0635899476
 21
940.5993435449
  0
LINE
  5
3EB
100
AcDbEntity
  8
0
100
AcDbLine
 62
7
  6
CONTINUOUS
 10
1341.5635899476
 20
939.5993435449
 11
1345.0635899476
 21
940.5993435449
  0
LINE
  5
3EC
100
AcDbEntity
  8
0
100
AcDbLine
 62
7
  6
CONTINUOUS
 10
1310.0635899476
 20
1215.1993435449
 11
1306.5635899476
 21
1216.1993435449
  0
LINE
  5
3ED
100
AcDbEntity
  8
0
100
AcDbLine
 62
7
  6
CONTINUOUS
 10
1345.0635899476
 20
1215.1993435449
 11
1341.5635899476
 21
1216.1993435449
  0
LINE
  5
3EE
100
AcDbEntity
  8
0
100
AcDbLine
 62
7
  6
CONTINUOUS
 10
1271.0635899476
 20
1195.3993435449
 11
1271.0635899476
 21
1192.8993435449
  0
LINE
  5
3EF
100
AcDbEntity
  8
0
100
AcDbLine
 62
7
  6
CONTINUOUS
 10
1271.0635899476
 20
962.8993435449
 11
1271.0635899476
 21
960.3993435449
  0
LINE
  5
3F0
100
AcDbEntity
  8
0
100
AcDbLine
 62
7
  6
CONTINUOUS
 10
1274.0635899476
 20
960.3993435449
 11
1274.0635899476
 21
962.8993435449
  0
LINE
  5
3F1
100
AcDbEntity
  8
0
100
AcDbLine
 62
7
  6
CONTINUOUS
 10
1274.0635899476
 20
1192.8993435449
 11
1274.0635899476
 21
1195.3993435449
  0
LINE
  5
3F2
100
AcDbEntity
  8
0
100
AcDbLine
 62
7
  6
CONTINUOUS
 10
1279.5635899476
 20
955.3993435449
 11
1279.5635899476
 21
960.3993435449
  0
LINE
  5
3F3
100
AcDbEntity
  8
0
100
AcDbLine
 62
7
  6
CONTINUOUS
 10
1279.5635899476
 20
1195.3993435449
 11
1279.5635899476
 21
1200.3993435449
  0
LINE
  5
3F4
100
AcDbEntity
  8
0
100
AcDbLine
 62
7
  6
CONTINUOUS
 10
1280.4635899476
 20
938.3993435449
 11
1280.4635899476
 21
955.3993435449
  0
LINE
  5
3F5
100
AcDbEntity
  8
0
100
AcDbLine
 62
7
  6
CONTINUOUS
 10
1280.4635899476
 20
1200.3993435449
 11
1280.4635899476
 21
1217.3993435449
  0
LINE
  5
3F6
100
AcDbEntity
  8
0
100
AcDbLine
 62
7
  6
CONTINUOUS
 10
1281.0635899476
 20
1220.3993435449
 11
1281.0635899476
 21
1218.2017054723
  0
LINE
  5
3F7
100
AcDbEntity
  8
0
100
AcDbLine
 62
7
  6
CONTINUOUS
 10
1281.0635899476
 20
935.3993435449
 11
1281.0635899476
 21
1010.8993435449
  0
LINE
  5
3F8
100
AcDbEntity
  8
0
100
AcDbLine
 62
7
  6
CONTINUOUS
 10
1281.0635899476
 20
1144.8993435449
 11
1281.0635899476
 21
1217.3993435449
  0
LINE
  5
3F9
100
AcDbEntity
  8
0
100
AcDbLine
 62
7
  6
CONTINUOUS
 10
1281.3635899476
 20
1220.6739261799
 11
1281.3635899476
 21
1220.3993435449
  0
LINE
  5
3FA
100
AcDbEntity
  8
0
100
AcDbLine
 62
7
  6
CONTINUOUS
 10
1281.3635899476
 20
935.1247609098
 11
1281.3635899476
 21
935.3993435449
  0
LINE
  5
3FB
100
AcDbEntity
  8
0
100
AcDbLine
 62
7
  6
CONTINUOUS
 10
1283.5635899476
 20
935.3993435449
 11
1283.5635899476
 21
1010.8993435449
  0
LINE
  5
3FC
100
AcDbEntity
  8
0
100
AcDbLine
 62
7
  6
CONTINUOUS
 10
1285.5635899653
 20
1007.1865785443
 11
1285.5635899652
 21
1006.8993435449
  0
LINE
  5
3FD
100
AcDbEntity
  8
0
100
AcDbLine
 62
7
  6
CONTINUOUS
 10
1285.5635899476
 20
1140.3993435449
 11
1285.5635899476
 21
1142.8993435449
  0
LINE
  5
3FE
100
AcDbEntity
  8
0
100
AcDbLine
 62
7
  6
CONTINUOUS
 10
1285.5635899326
 20
1148.612108534
 11
1285.5635899476
 21
1220.3993435449
  0
LINE
  5
3FF
100
AcDbEntity
  8
0
100
AcDbLine
 62
7
  6
CONTINUOUS
 10
1289.5635899476
 20
1008.8993435449
 11
1289.5635899476
 21
1036.3993435449
  0
LINE
  5
400
100
AcDbEntity
  8
0
100
AcDbLine
 62
7
  6
CONTINUOUS
 10
1289.5635899476
 20
1119.3993435449
 11
1289.5635899476
 21
1146.8993435449
  0
LINE
  5
401
100
AcDbEntity
  8
0
100
AcDbLine
 62
7
  6
CONTINUOUS
 10
1297.0635899476
 20
1192.8993435449
 11
1297.0635899476
 21
1176.3993435449
  0
LINE
  5
402
100
AcDbEntity
  8
0
100
AcDbLine
 62
7
  6
CONTINUOUS
 10
1297.0635899476
 20
962.8993435449
 11
1297.0635899476
 21
979.3993435449
  0
LINE
  5
403
100
AcDbEntity
  8
0
100
AcDbLine
 62
7
  6
CONTINUOUS
 10
1299.1996289169
 20
935.3993435449
 11
1299.1996289169
 21
942.3993435449
  0
LINE
  5
404
100
AcDbEntity
  8
0
100
AcDbLine
 62
7
  6
CONTINUOUS
 10
1299.1996289169
 20
1213.3993435449
 11
1299.1996289169
 21
1220.3993435449
  0
LINE
  5
405
100
AcDbEntity
  8
0
100
AcDbLine
 62
7
  6
CONTINUOUS
 10
1301.0635899476
 20
1216.3993435449
 11
1301.0635899476
 21
1216.1993435449
  0
LINE
  5
406
100
AcDbEntity
  8
0
100
AcDbLine
 62
7
  6
CONTINUOUS
 10
1301.0635899476
 20
979.3993435449
 11
1301.0635899476
 21
962.8993435449
  0
LINE
  5
407
100
AcDbEntity
  8
0
100
AcDbLine
 62
7
  6
CONTINUOUS
 10
1301.0635899476
 20
939.5993435449
 11
1301.0635899476
 21
939.3993435449
  0
LINE
  5
408
100
AcDbEntity
  8
0
100
AcDbLine
 62
7
  6
CONTINUOUS
 10
1301.0635899476
 20
1176.3993435449
 11
1301.0635899476
 21
1192.8993435449
  0
LINE
  5
409
100
AcDbEntity
  8
0
100
AcDbLine
 62
7
  6
CONTINUOUS
 10
1302.3816094323
 20
935.3993435449
 11
1302.3816094323
 21
939.3993435449
  0
LINE
  5
40A
100
AcDbEntity
  8
0
100
AcDbLine
 62
7
  6
CONTINUOUS
 10
1302.3816094323
 20
1216.3993435449
 11
1302.3816094323
 21
1220.3993435449
  0
LINE
  5
40B
100
AcDbEntity
  8
0
100
AcDbLine
 62
7
  6
CONTINUOUS
 10
1304.47780351
 20
1220.3993435449
 11
1304.47780351
 21
1216.3993435449
  0
LINE
  5
40C
100
AcDbEntity
  8
0
100
AcDbLine
 62
7
  6
CONTINUOUS
 10
1304.47780351
 20
939.3993435449
 11
1304.47780351
 21
935.3993435449
  0
LINE
  5
40D
100
AcDbEntity
  8
0
100
AcDbLine
 62
7
  6
CONTINUOUS
 10
1305.8920170724
 20
935.3993435449
 11
1305.8920170724
 21
939.3993435449
  0
LINE
  5
40E
100
AcDbEntity
  8
0
100
AcDbLine
 62
7
  6
CONTINUOUS
 10
1305.8920170724
 20
1216.3993435449
 11
1305.8920170724
 21
1220.3993435449
  0
LINE
  5
40F
100
AcDbEntity
  8
0
100
AcDbLine
 62
7
  6
CONTINUOUS
 10
1310.0635899476
 20
942.3993435449
 11
1310.0635899476
 21
939.3993435449
  0
LINE
  5
410
100
AcDbEntity
  8
0
100
AcDbLine
 62
7
  6
CONTINUOUS
 10
1310.0635899476
 20
1213.3993435449
 11
1310.0635899476
 21
1216.3993435449
  0
LINE
  5
411
100
AcDbEntity
  8
0
100
AcDbLine
 62
7
  6
CONTINUOUS
 10
1311.0635899476
 20
1146.8993435449
 11
1311.0635899476
 21
1119.3993435449
  0
LINE
  5
412
100
AcDbEntity
  8
0
100
AcDbLine
 62
7
  6
CONTINUOUS
 10
1311.0635899476
 20
1036.3993435449
 11
1311.0635899476
 21
1008.8993435449
  0
LINE
  5
413
100
AcDbEntity
  8
0
100
AcDbLine
 62
7
  6
CONTINUOUS
 10
1312.2351628229
 20
1220.3993435449
 11
1312.2351628229
 21
1216.3993435449
  0
LINE
  5
414
100
AcDbEntity
  8
0
100
AcDbLine
 62
7
  6
CONTINUOUS
 10
1312.2351628229
 20
939.3993435449
 11
1312.2351628229
 21
935.3993435449
  0
LINE
  5
415
100
AcDbEntity
  8
0
100
AcDbLine
 62
7
  6
CONTINUOUS
 10
1313.6493763852
 20
935.3993435449
 11
1313.6493763852
 21
939.3993435449
  0
LINE
  5
416
100
AcDbEntity
  8
0
100
AcDbLine
 62
7
  6
CONTINUOUS
 10
1313.6493763852
 20
1216.3993435449
 11
1313.6493763852
 21
1220.3993435449
  0
LINE
  5
417
100
AcDbEntity
  8
0
100
AcDbLine
 62
7
  6
CONTINUOUS
 10
1315.0635899476
 20
1142.8993435449
 11
1315.0635899476
 21
1140.3993435449
  0
LINE
  5
418
100
AcDbEntity
  8
0
100
AcDbLine
 62
7
  6
CONTINUOUS
 10
1315.0635899476
 20
1012.8993435449
 11
1315.0635899476
 21
1015.3993435449
  0
LINE
  5
419
100
AcDbEntity
  8
0
100
AcDbLine
 62
7
  6
CONTINUOUS
 10
1315.745570463
 20
1220.3993435449
 11
1315.745570463
 21
1216.3993435449
  0
LINE
  5
41A
100
AcDbEntity
  8
0
100
AcDbLine
 62
7
  6
CONTINUOUS
 10
1315.745570463
 20
939.3993435449
 11
1315.745570463
 21
935.3993435449
  0
LINE
  5
41B
100
AcDbEntity
  8
0
100
AcDbLine
 62
7
  6
CONTINUOUS
 10
1316.0635899476
 20
1008.8993435449
 11
1316.0635899476
 21
1015.3993435449
  0
LINE
  5
41C
100
AcDbEntity
  8
0
100
AcDbLine
 62
7
  6
CONTINUOUS
 10
1316.0635899476
 20
1140.3993435449
 11
1316.0635899476
 21
1146.8993435449
  0
LINE
  5
41D
100
AcDbEntity
  8
0
100
AcDbLine
 62
7
  6
CONTINUOUS
 10
1317.0635899476
 20
999.3993435449
 11
1317.0635899476
 21
995.3993435449
  0
LINE
  5
41E
100
AcDbEntity
  8
0
100
AcDbLine
 62
7
  6
CONTINUOUS
 10
1317.0635899476
 20
955.3993435449
 11
1317.0635899476
 21
951.3993435449
  0
LINE
  5
41F
100
AcDbEntity
  8
0
100
AcDbLine
 62
7
  6
CONTINUOUS
 10
1317.0635899476
 20
1156.3993435449
 11
1317.0635899476
 21
1160.3993435449
  0
LINE
  5
420
100
AcDbEntity
  8
0
100
AcDbLine
 62
7
  6
CONTINUOUS
 10
1317.0635899476
 20
1200.3993435449
 11
1317.0635899476
 21
1204.3993435449
  0
LINE
  5
421
100
AcDbEntity
  8
0
100
AcDbLine
 62
7
  6
CONTINUOUS
 10
1317.5635899476
 20
933.3993435449
 11
1317.5635899476
 21
932.8993435449
  0
LINE
  5
422
100
AcDbEntity
  8
0
100
AcDbLine
 62
7
  6
CONTINUOUS
 10
1317.5635899476
 20
1222.3993435449
 11
1317.5635899476
 21
1222.8993435449
  0
LINE
  5
423
100
AcDbEntity
  8
0
100
AcDbLine
 62
7
  6
CONTINUOUS
 10
1318.8635899476
 20
933.3993435449
 11
1318.8635899476
 21
932.8993435449
  0
LINE
  5
424
100
AcDbEntity
  8
0
100
AcDbLine
 62
7
  6
CONTINUOUS
 10
1318.8635899476
 20
1222.3993435449
 11
1318.8635899476
 21
1222.8993435449
  0
LINE
  5
425
100
AcDbEntity
  8
0
100
AcDbLine
 62
7
  6
CONTINUOUS
 10
1318.9275509783
 20
935.3993435449
 11
1318.9275509783
 21
942.3993435449
  0
LINE
  5
426
100
AcDbEntity
  8
0
100
AcDbLine
 62
7
  6
CONTINUOUS
 10
1318.9275509783
 20
1213.3993435449
 11
1318.9275509783
 21
1220.3993435449
  0
LINE
  5
427
100
AcDbEntity
  8
0
100
AcDbLine
 62
7
  6
CONTINUOUS
 10
1320.1635899476
 20
933.3993435449
 11
1320.1635899476
 21
932.8993435449
  0
LINE
  5
428
100
AcDbEntity
  8
0
100
AcDbLine
 62
7
  6
CONTINUOUS
 10
1320.1635899476
 20
1222.3993435449
 11
1320.1635899476
 21
1222.8993435449
  0
LINE
  5
429
100
AcDbEntity
  8
0
100
AcDbLine
 62
7
  6
CONTINUOUS
 10
1321.4635899476
 20
933.3993435449
 11
1321.4635899476
 21
932.8993435449
  0
LINE
  5
42A
100
AcDbEntity
  8
0
100
AcDbLine
 62
7
  6
CONTINUOUS
 10
1321.4635899476
 20
1222.3993435449
 11
1321.4635899476
 21
1222.8993435449
  0
LINE
  5
42B
100
AcDbEntity
  8
0
100
AcDbLine
 62
7
  6
CONTINUOUS
 10
1322.7635899476
 20
933.3993435449
 11
1322.7635899476
 21
932.8993435449
  0
LINE
  5
42C
100
AcDbEntity
  8
0
100
AcDbLine
 62
7
  6
CONTINUOUS
 10
1322.7635899476
 20
1222.3993435449
 11
1322.7635899476
 21
1222.8993435449
  0
LINE
  5
42D
100
AcDbEntity
  8
0
100
AcDbLine
 62
7
  6
CONTINUOUS
 10
1324.0635899476
 20
933.3993435449
 11
1324.0635899476
 21
932.8993435449
  0
LINE
  5
42E
100
AcDbEntity
  8
0
100
AcDbLine
 62
7
  6
CONTINUOUS
 10
1324.0635899476
 20
1222.3993435449
 11
1324.0635899476
 21
1222.8993435449
  0
LINE
  5
42F
100
AcDbEntity
  8
0
100
AcDbLine
 62
7
  6
CONTINUOUS
 10
1325.3635899476
 20
933.3993435449
 11
1325.3635899476
 21
932.8993435449
  0
LINE
  5
430
100
AcDbEntity
  8
0
100
AcDbLine
 62
7
  6
CONTINUOUS
 10
1325.3635899476
 20
1222.3993435449
 11
1325.3635899476
 21
1222.8993435449
  0
LINE
  5
431
100
AcDbEntity
  8
0
100
AcDbLine
 62
7
  6
CONTINUOUS
 10
1326.6635899476
 20
933.3993435449
 11
1326.6635899476
 21
932.8993435449
  0
LINE
  5
432
100
AcDbEntity
  8
0
100
AcDbLine
 62
7
  6
CONTINUOUS
 10
1326.6635899476
 20
1222.3993435449
 11
1326.6635899476
 21
1222.8993435449
  0
LINE
  5
433
100
AcDbEntity
  8
0
100
AcDbLine
 62
7
  6
CONTINUOUS
 10
1327.9635899476
 20
933.3993435449
 11
1327.9635899476
 21
932.8993435449
  0
LINE
  5
434
100
AcDbEntity
  8
0
100
AcDbLine
 62
7
  6
CONTINUOUS
 10
1327.9635899476
 20
1222.3993435449
 11
1327.9635899476
 21
1222.8993435449
  0
LINE
  5
435
100
AcDbEntity
  8
0
100
AcDbLine
 62
7
  6
CONTINUOUS
 10
1329.2635899476
 20
933.3993435449
 11
1329.2635899476
 21
932.8993435449
  0
LINE
  5
436
100
AcDbEntity
  8
0
100
AcDbLine
 62
7
  6
CONTINUOUS
 10
1329.2635899476
 20
1222.3993435449
 11
1329.2635899476
 21
1222.8993435449
  0
LINE
  5
437
100
AcDbEntity
  8
0
100
AcDbLine
 62
7
  6
CONTINUOUS
 10
1330.5635899476
 20
933.3993435449
 11
1330.5635899476
 21
932.8993435449
  0
LINE
  5
438
100
AcDbEntity
  8
0
100
AcDbLine
 62
7
  6
CONTINUOUS
 10
1330.5635899476
 20
1222.3993435449
 11
1330.5635899476
 21
1222.8993435449
  0
LINE
  5
439
100
AcDbEntity
  8
0
100
AcDbLine
 62
7
  6
CONTINUOUS
 10
1331.8635899476
 20
933.3993435449
 11
1331.8635899476
 21
932.8993435449
  0
LINE
  5
43A
100
AcDbEntity
  8
0
100
AcDbLine
 62
7
  6
CONTINUOUS
 10
1331.8635899476
 20
1222.3993435449
 11
1331.8635899476
 21
1222.8993435449
  0
LINE
  5
43B
100
AcDbEntity
  8
0
100
AcDbLine
 62
7
  6
CONTINUOUS
 10
1333.1635899476
 20
933.3993435449
 11
1333.1635899476
 21
932.8993435449
  0
LINE
  5
43C
100
AcDbEntity
  8
0
100
AcDbLine
 62
7
  6
CONTINUOUS
 10
1333.1635899476
 20
1222.3993435449
 11
1333.1635899476
 21
1222.8993435449
  0
LINE
  5
43D
100
AcDbEntity
  8
0
100
AcDbLine
 62
7
  6
CONTINUOUS
 10
1333.5635899476
 20
1204.3993435449
 11
1333.5635899476
 21
1200.3993435449
  0
LINE
  5
43E
100
AcDbEntity
  8
0
100
AcDbLine
 62
7
  6
CONTINUOUS
 10
1333.5635899476
 20
1160.3993435449
 11
1333.5635899476
 21
1156.3993435449
  0
LINE
  5
43F
100
AcDbEntity
  8
0
100
AcDbLine
 62
7
  6
CONTINUOUS
 10
1333.5635899476
 20
951.3993435449
 11
1333.5635899476
 21
955.3993435449
  0
LINE
  5
440
100
AcDbEntity
  8
0
100
AcDbLine
 62
7
  6
CONTINUOUS
 10
1333.5635899476
 20
995.3993435449
 11
1333.5635899476
 21
999.3993435449
  0
LINE
  5
441
100
AcDbEntity
  8
0
100
AcDbLine
 62
7
  6
CONTINUOUS
 10
1333.5635899476
 20
1015.4993435449
 11
1333.5635899476
 21
1025.3993435449
  0
LINE
  5
442
100
AcDbEntity
  8
0
100
AcDbLine
 62
7
  6
CONTINUOUS
 10
1333.5635899476
 20
1130.3993435449
 11
1333.5635899476
 21
1140.2993435449
  0
LINE
  5
443
100
AcDbEntity
  8
0
100
AcDbLine
 62
7
  6
CONTINUOUS
 10
1334.1996289169
 20
935.3993435449
 11
1334.1996289169
 21
942.3993435449
  0
LINE
  5
444
100
AcDbEntity
  8
0
100
AcDbLine
 62
7
  6
CONTINUOUS
 10
1334.1996289169
 20
1213.3993435449
 11
1334.1996289169
 21
1220.3993435449
  0
LINE
  5
445
100
AcDbEntity
  8
0
100
AcDbLine
 62
7
  6
CONTINUOUS
 10
1334.4635899476
 20
933.3993435449
 11
1334.4635899476
 21
932.8993435449
  0
LINE
  5
446
100
AcDbEntity
  8
0
100
AcDbLine
 62
7
  6
CONTINUOUS
 10
1334.4635899476
 20
1222.3993435449
 11
1334.4635899476
 21
1222.8993435449
  0
LINE
  5
447
100
AcDbEntity
  8
0
100
AcDbLine
 62
7
  6
CONTINUOUS
 10
1335.7635899476
 20
933.3993435449
 11
1335.7635899476
 21
932.8993435449
  0
LINE
  5
448
100
AcDbEntity
  8
0
100
AcDbLine
 62
7
  6
CONTINUOUS
 10
1335.7635899476
 20
1222.3993435449
 11
1335.7635899476
 21
1222.8993435449
  0
LINE
  5
449
100
AcDbEntity
  8
0
100
AcDbLine
 62
7
  6
CONTINUOUS
 10
1336.0635899476
 20
1216.3993435449
 11
1336.0635899476
 21
1216.1993435449
  0
LINE
  5
44A
100
AcDbEntity
  8
0
100
AcDbLine
 62
7
  6
CONTINUOUS
 10
1336.0635899476
 20
1140.2993435449
 11
1336.0635899476
 21
1130.3993435449
  0
LINE
  5
44B
100
AcDbEntity
  8
0
100
AcDbLine
 62
7
  6
CONTINUOUS
 10
1336.0635899476
 20
1025.3993435449
 11
1336.0635899476
 21
1015.4993435449
  0
LINE
  5
44C
100
AcDbEntity
  8
0
100
AcDbLine
 62
7
  6
CONTINUOUS
 10
1336.0635899476
 20
939.5993435449
 11
1336.0635899476
 21
939.3993435449
  0
LINE
  5
44D
100
AcDbEntity
  8
0
100
AcDbLine
 62
7
  6
CONTINUOUS
 10
1337.0635899476
 20
933.3993435449
 11
1337.0635899476
 21
932.8993435449
  0
LINE
  5
44E
100
AcDbEntity
  8
0
100
AcDbLine
 62
7
  6
CONTINUOUS
 10
1337.0635899476
 20
1222.3993435449
 11
1337.0635899476
 21
1222.8993435449
  0
LINE
  5
44F
100
AcDbEntity
  8
0
100
AcDbLine
 62
7
  6
CONTINUOUS
 10
1337.3816094323
 20
935.3993435449
 11
1337.3816094323
 21
939.3993435449
  0
LINE
  5
450
100
AcDbEntity
  8
0
100
AcDbLine
 62
7
  6
CONTINUOUS
 10
1337.3816094323
 20
1216.3993435449
 11
1337.3816094323
 21
1220.3993435449
  0
LINE
  5
451
100
AcDbEntity
  8
0
100
AcDbLine
 62
7
  6
CONTINUOUS
 10
1338.3635899476
 20
933.3993435449
 11
1338.3635899476
 21
932.8993435449
  0
LINE
  5
452
100
AcDbEntity
  8
0
100
AcDbLine
 62
7
  6
CONTINUOUS
 10
1338.3635899476
 20
1222.3993435449
 11
1338.3635899476
 21
1222.8993435449
  0
LINE
  5
453
100
AcDbEntity
  8
0
100
AcDbLine
 62
7
  6
CONTINUOUS
 10
1339.47780351
 20
1220.3993435449
 11
1339.47780351
 21
1216.3993435449
  0
LINE
  5
454
100
AcDbEntity
  8
0
100
AcDbLine
 62
7
  6
CONTINUOUS
 10
1339.47780351
 20
939.3993435449
 11
1339.47780351
 21
935.3993435449
  0
LINE
  5
455
100
AcDbEntity
  8
0
100
AcDbLine
 62
7
  6
CONTINUOUS
 10
1339.6635899476
 20
933.3993435449
 11
1339.6635899476
 21
932.8993435449
  0
LINE
  5
456
100
AcDbEntity
  8
0
100
AcDbLine
 62
7
  6
CONTINUOUS
 10
1339.6635899476
 20
1222.3993435449
 11
1339.6635899476
 21
1222.8993435449
  0
LINE
  5
457
100
AcDbEntity
  8
0
100
AcDbLine
 62
7
  6
CONTINUOUS
 10
1340.8920170724
 20
935.3993435449
 11
1340.8920170724
 21
939.3993435449
  0
LINE
  5
458
100
AcDbEntity
  8
0
100
AcDbLine
 62
7
  6
CONTINUOUS
 10
1340.8920170724
 20
1216.3993435449
 11
1340.8920170724
 21
1220.3993435449
  0
LINE
  5
459
100
AcDbEntity
  8
0
100
AcDbLine
 62
7
  6
CONTINUOUS
 10
1340.9635899476
 20
933.3993435449
 11
1340.9635899476
 21
932.8993435449
  0
LINE
  5
45A
100
AcDbEntity
  8
0
100
AcDbLine
 62
7
  6
CONTINUOUS
 10
1340.9635899476
 20
1222.3993435449
 11
1340.9635899476
 21
1222.8993435449
  0
LINE
  5
45B
100
AcDbEntity
  8
0
100
AcDbLine
 62
7
  6
CONTINUOUS
 10
1341.0635899476
 20
1192.8993435449
 11
1341.0635899476
 21
1176.3993435449
  0
LINE
  5
45C
100
AcDbEntity
  8
0
100
AcDbLine
 62
7
  6
CONTINUOUS
 10
1341.0635899476
 20
962.8993435449
 11
1341.0635899476
 21
979.3993435449
  0
LINE
  5
45D
100
AcDbEntity
  8
0
100
AcDbLine
 62
7
  6
CONTINUOUS
 10
1341.4635899476
 20
998.7993435449
 11
1341.4635899476
 21
989.9993435449
  0
LINE
  5
45E
100
AcDbEntity
  8
0
100
AcDbLine
 62
7
  6
CONTINUOUS
 10
1341.4635899476
 20
1156.9993435449
 11
1341.4635899476
 21
1165.7993435449
  0
LINE
  5
45F
100
AcDbEntity
  8
0
100
AcDbLine
 62
7
  6
CONTINUOUS
 10
1342.2635899476
 20
933.3993435449
 11
1342.2635899476
 21
932.8993435449
  0
LINE
  5
460
100
AcDbEntity
  8
0
100
AcDbLine
 62
7
  6
CONTINUOUS
 10
1342.2635899476
 20
1222.3993435449
 11
1342.2635899476
 21
1222.8993435449
  0
LINE
  5
461
100
AcDbEntity
  8
0
100
AcDbLine
 62
7
  6
CONTINUOUS
 10
1343.5635899476
 20
933.3993435449
 11
1343.5635899476
 21
932.8993435449
  0
LINE
  5
462
100
AcDbEntity
  8
0
100
AcDbLine
 62
7
  6
CONTINUOUS
 10
1343.5635899476
 20
1222.3993435449
 11
1343.5635899476
 21
1222.8993435449
  0
LINE
  5
463
100
AcDbEntity
  8
0
100
AcDbLine
 62
7
  6
CONTINUOUS
 10
1344.8635899476
 20
933.3993435449
 11
1344.8635899476
 21
932.8993435449
  0
LINE
  5
464
100
AcDbEntity
  8
0
100
AcDbLine
 62
7
  6
CONTINUOUS
 10
1344.8635899476
 20
1222.3993435449
 11
1344.8635899476
 21
1222.8993435449
  0
LINE
  5
465
100
AcDbEntity
  8
0
100
AcDbLine
 62
7
  6
CONTINUOUS
 10
1345.0635899476
 20
979.3993435449
 11
1345.0635899476
 21
962.8993435449
  0
LINE
  5
466
100
AcDbEntity
  8
0
100
AcDbLine
 62
7
  6
CONTINUOUS
 10
1345.0635899476
 20
942.3993435449
 11
1345.0635899476
 21
939.3993435449
  0
LINE
  5
467
100
AcDbEntity
  8
0
100
AcDbLine
 62
7
  6
CONTINUOUS
 10
1345.0635899476
 20
1176.3993435449
 11
1345.0635899476
 21
1192.8993435449
  0
LINE
  5
468
100
AcDbEntity
  8
0
100
AcDbLine
 62
7
  6
CONTINUOUS
 10
1345.0635899476
 20
1213.3993435449
 11
1345.0635899476
 21
1216.3993435449
  0
LINE
  5
469
100
AcDbEntity
  8
0
100
AcDbLine
 62
7
  6
CONTINUOUS
 10
1346.1635899476
 20
933.3993435449
 11
1346.1635899476
 21
932.8993435449
  0
LINE
  5
46A
100
AcDbEntity
  8
0
100
AcDbLine
 62
7
  6
CONTINUOUS
 10
1346.1635899476
 20
1222.3993435449
 11
1346.1635899476
 21
1222.8993435449
  0
LINE
  5
46B
100
AcDbEntity
  8
0
100
AcDbLine
 62
7
  6
CONTINUOUS
 10
1347.2351628229
 20
1220.3993435449
 11
1347.2351628229
 21
1216.3993435449
  0
LINE
  5
46C
100
AcDbEntity
  8
0
100
AcDbLine
 62
7
  6
CONTINUOUS
 10
1347.2351628229
 20
939.3993435449
 11
1347.2351628229
 21
935.3993435449
  0
LINE
  5
46D
100
AcDbEntity
  8
0
100
AcDbLine
 62
7
  6
CONTINUOUS
 10
1347.4635899476
 20
933.3993435449
 11
1347.4635899476
 21
932.8993435449
  0
LINE
  5
46E
100
AcDbEntity
  8
0
100
AcDbLine
 62
7
  6
CONTINUOUS
 10
1347.4635899476
 20
1222.3993435449
 11
1347.4635899476
 21
1222.8993435449
  0
LINE
  5
46F
100
AcDbEntity
  8
0
100
AcDbLine
 62
7
  6
CONTINUOUS
 10
1348.6493763852
 20
935.3993435449
 11
1348.6493763852
 21
939.3993435449
  0
LINE
  5
470
100
AcDbEntity
  8
0
100
AcDbLine
 62
7
  6
CONTINUOUS
 10
1348.6493763852
 20
1216.3993435449
 11
1348.6493763852
 21
1220.3993435449
  0
LINE
  5
471
100
AcDbEntity
  8
0
100
AcDbLine
 62
7
  6
CONTINUOUS
 10
1348.7635899476
 20
933.3993435449
 11
1348.7635899476
 21
932.8993435449
  0
LINE
  5
472
100
AcDbEntity
  8
0
100
AcDbLine
 62
7
  6
CONTINUOUS
 10
1348.7635899476
 20
1222.3993435449
 11
1348.7635899476
 21
1222.8993435449
  0
LINE
  5
473
100
AcDbEntity
  8
0
100
AcDbLine
 62
7
  6
CONTINUOUS
 10
1350.0635899476
 20
933.3993435449
 11
1350.0635899476
 21
932.8993435449
  0
LINE
  5
474
100
AcDbEntity
  8
0
100
AcDbLine
 62
7
  6
CONTINUOUS
 10
1350.0635899476
 20
1222.3993435449
 11
1350.0635899476
 21
1222.8993435449
  0
LINE
  5
475
100
AcDbEntity
  8
0
100
AcDbLine
 62
7
  6
CONTINUOUS
 10
1350.6635899476
 20
1165.7993435449
 11
1350.6635899476
 21
1156.9993435449
  0
LINE
  5
476
100
AcDbEntity
  8
0
100
AcDbLine
 62
7
  6
CONTINUOUS
 10
1350.6635899476
 20
989.9993435449
 11
1350.6635899476
 21
998.7993435449
  0
LINE
  5
477
100
AcDbEntity
  8
0
100
AcDbLine
 62
7
  6
CONTINUOUS
 10
1350.745570463
 20
1220.3993435449
 11
1350.745570463
 21
1216.3993435449
  0
LINE
  5
478
100
AcDbEntity
  8
0
100
AcDbLine
 62
7
  6
CONTINUOUS
 10
1350.745570463
 20
939.3993435449
 11
1350.745570463
 21
935.3993435449
  0
LINE
  5
479
100
AcDbEntity
  8
0
100
AcDbLine
 62
7
  6
CONTINUOUS
 10
1351.3635899476
 20
933.3993435449
 11
1351.3635899476
 21
932.8993435449
  0
LINE
  5
47A
100
AcDbEntity
  8
0
100
AcDbLine
 62
7
  6
CONTINUOUS
 10
1351.3635899476
 20
1222.3993435449
 11
1351.3635899476
 21
1222.8993435449
  0
LINE
  5
47B
100
AcDbEntity
  8
0
100
AcDbLine
 62
7
  6
CONTINUOUS
 10
1352.6635899476
 20
933.3993435449
 11
1352.6635899476
 21
932.8993435449
  0
LINE
  5
47C
100
AcDbEntity
  8
0
100
AcDbLine
 62
7
  6
CONTINUOUS
 10
1352.6635899476
 20
1222.3993435449
 11
1352.6635899476
 21
1222.8993435449
  0
LINE
  5
47D
100
AcDbEntity
  8
0
100
AcDbLine
 62
7
  6
CONTINUOUS
 10
1353.9275509783
 20
935.3993435449
 11
1353.9275509783
 21
942.3993435449
  0
LINE
  5
47E
100
AcDbEntity
  8
0
100
AcDbLine
 62
7
  6
CONTINUOUS
 10
1353.9275509783
 20
1213.3993435449
 11
1353.9275509783
 21
1220.3993435449
  0
LINE
  5
47F
100
AcDbEntity
  8
0
100
AcDbLine
 62
7
  6
CONTINUOUS
 10
1353.9635899476
 20
933.3993435449
 11
1353.9635899476
 21
932.8993435449
  0
LINE
  5
480
100
AcDbEntity
  8
0
100
AcDbLine
 62
7
  6
CONTINUOUS
 10
1353.9635899476
 20
1222.3993435449
 11
1353.9635899476
 21
1222.8993435449
  0
LINE
  5
481
100
AcDbEntity
  8
0
100
AcDbLine
 62
7
  6
CONTINUOUS
 10
1355.2635899476
 20
933.3993435449
 11
1355.2635899476
 21
932.9093814944
  0
LINE
  5
482
100
AcDbEntity
  8
0
100
AcDbLine
 62
7
  6
CONTINUOUS
 10
1355.2635899476
 20
1222.3993435449
 11
1355.2635899476
 21
1222.8893055953
  0
LINE
  5
483
100
AcDbEntity
  8
0
100
AcDbLine
 62
7
  6
CONTINUOUS
 10
1356.5635899476
 20
1015.3993435449
 11
1356.5635899476
 21
935.3993435449
  0
LINE
  5
484
100
AcDbEntity
  8
0
100
AcDbLine
 62
7
  6
CONTINUOUS
 10
1356.5635899476
 20
1140.3993435449
 11
1356.5635899476
 21
1220.3993435449
  0
LINE
  5
485
100
AcDbEntity
  8
0
100
AcDbLine
 62
7
  6
CONTINUOUS
 10
1357.6260899476
 20
1190.1927796688
 11
1357.6260899476
 21
1181.605907421
  0
LINE
  5
486
100
AcDbEntity
  8
0
100
AcDbLine
 62
7
  6
CONTINUOUS
 10
1357.6260899476
 20
974.1927796688
 11
1357.6260899476
 21
965.605907421
  0
LINE
  5
487
100
AcDbEntity
  8
0
100
AcDbLine
 62
7
  6
CONTINUOUS
 10
1358.5635899476
 20
1195.3993435449
 11
1358.5635899476
 21
1178.3993435449
  0
LINE
  5
488
100
AcDbEntity
  8
0
100
AcDbLine
 62
7
  6
CONTINUOUS
 10
1358.5635899476
 20
1160.3993435449
 11
1358.5635899476
 21
1144.8993435449
  0
LINE
  5
489
100
AcDbEntity
  8
0
100
AcDbLine
 62
7
  6
CONTINUOUS
 10
1358.5635899476
 20
977.3993435449
 11
1358.5635899476
 21
960.3993435449
  0
LINE
  5
48A
100
AcDbEntity
  8
0
100
AcDbLine
 62
7
  6
CONTINUOUS
 10
1358.5635899476
 20
995.3993435449
 11
1358.5635899476
 21
1010.8993435449
  0
LINE
  5
48B
100
AcDbEntity
  8
0
100
AcDbLine
 62
7
  6
CONTINUOUS
 10
1360.7635899476
 20
1220.6739261799
 11
1360.7635899476
 21
1220.3993435449
  0
LINE
  5
48C
100
AcDbEntity
  8
0
100
AcDbLine
 62
7
  6
CONTINUOUS
 10
1360.7635899476
 20
935.1247609098
 11
1360.7635899476
 21
935.3993435449
  0
LINE
  5
48D
100
AcDbEntity
  8
0
100
AcDbLine
 62
7
  6
CONTINUOUS
 10
1361.0635899476
 20
935.3993435449
 11
1361.0635899476
 21
1014.7593435449
  0
LINE
  5
48E
100
AcDbEntity
  8
0
100
AcDbLine
 62
7
  6
CONTINUOUS
 10
1361.0635899476
 20
1141.0393435449
 11
1361.0635899476
 21
1220.3993435449
  0
ARC
  5
48F
100
AcDbEntity
  8
0
100
AcDbCircle
 62
7
  6
CONTINUOUS
 10
234.8386401486
 20
941.8993435449
 40
9.0
100
AcDbArc
 50
270.0
 51
311.1724622773
  0
ARC
  5
490
100
AcDbEntity
  8
0
100
AcDbCircle
 62
7
  6
CONTINUOUS
 10
167.2885397466
 20
941.8993435449
 40
9.0
100
AcDbArc
 50
228.8275377227
 51
267.2936793373
  0
CIRCLE
  5
491
100
AcDbEntity
  8
0
100
AcDbCircle
 62
7
  6
CONTINUOUS
 10
193.5635899476
 20
967.8993435449
 40
6.75
  0
ARC
  5
492
100
AcDbEntity
  8
0
100
AcDbCircle
 62
7
  6
CONTINUOUS
 10
161.0635899476
 20
969.8993435449
 40
5.5
100
AcDbArc
 50
308.6821874535
 51
326.6165312562
  0
ARC
  5
493
100
AcDbEntity
  8
0
100
AcDbCircle
 62
7
  6
CONTINUOUS
 10
161.0635899476
 20
969.8993435449
 40
5.5
100
AcDbArc
 50
33.3834687438
 51
51.3178125465
  0
ARC
  5
494
100
AcDbEntity
  8
0
100
AcDbCircle
 62
7
  6
CONTINUOUS
 10
244.0635899476
 20
938.3993435449
 40
3.0
100
AcDbArc
 50
180.0
 51
270.0
  0
ARC
  5
495
100
AcDbEntity
  8
0
100
AcDbCircle
 62
7
  6
CONTINUOUS
 10
241.1635899476
 20
960.2993435449
 40
2.6
100
AcDbArc
 50
90.0
 51
92.0250378196
  0
ARC
  5
496
100
AcDbEntity
  8
0
100
AcDbCircle
 62
7
  6
CONTINUOUS
 10
166.0635899476
 20
963.6543455465
 40
2.5
100
AcDbArc
 50
128.6821874535
 51
180.0
  0
ARC
  5
497
100
AcDbEntity
  8
0
100
AcDbCircle
 62
7
  6
CONTINUOUS
 10
166.0635899476
 20
976.1443415433
 40
2.5
100
AcDbArc
 50
180.0
 51
231.3178125465
  0
CIRCLE
  5
498
100
AcDbEntity
  8
0
100
AcDbCircle
 62
7
  6
CONTINUOUS
 10
223.5635899476
 20
997.8993435449
 40
9.055
  0
ARC
  5
499
100
AcDbEntity
  8
0
100
AcDbCircle
 62
7
  6
CONTINUOUS
 10
234.5635899476
 20
1014.005900626
 40
7.1065570812
100
AcDbArc
 50
269.9999999999
 51
286.3455840351
  0
CIRCLE
  5
49A
100
AcDbEntity
  8
0
100
AcDbCircle
 62
7
  6
CONTINUOUS
 10
223.5635899476
 20
997.8993435449
 40
5.055
  0
ARC
  5
49B
100
AcDbEntity
  8
0
100
AcDbCircle
 62
7
  6
CONTINUOUS
 10
224.8135899476
 20
1027.3993435449
 40
4.75
100
AcDbArc
 50
270.0
 51
90.0
  0
ARC
  5
49C
100
AcDbEntity
  8
0
100
AcDbCircle
 62
7
  6
CONTINUOUS
 10
218.8135899476
 20
1027.3993435449
 40
4.75
100
AcDbArc
 50
90.0
 51
270.0
  0
ARC
  5
49D
100
AcDbEntity
  8
0
100
AcDbCircle
 62
7
  6
CONTINUOUS
 10
165.5635899476
 20
1010.8993435449
 40
4.5
100
AcDbArc
 50
90.0
 51
180.0
  0
ARC
  5
49E
100
AcDbEntity
  8
0
100
AcDbCircle
 62
7
  6
CONTINUOUS
 10
236.5635899476
 20
1010.8993435449
 40
4.5
100
AcDbArc
 50
0.0
 51
90.0
  0
ARC
  5
49F
100
AcDbEntity
  8
0
100
AcDbCircle
 62
7
  6
CONTINUOUS
 10
214.0635899476
 20
1036.3993435449
 40
3.0
100
AcDbArc
 50
90.0
 51
180.0
  0
ARC
  5
4A0
100
AcDbEntity
  8
0
100
AcDbCircle
 62
7
  6
CONTINUOUS
 10
229.5635899476
 20
1036.3993435449
 40
3.0
100
AcDbArc
 50
0.0000000001
 51
90.0
  0
ARC
  5
4A1
100
AcDbEntity
  8
0
100
AcDbCircle
 62
7
  6
CONTINUOUS
 10
185.9635899476
 20
1015.4993435449
 40
2.6
100
AcDbArc
 50
357.9751065095
 51
360.0
  0
ARC
  5
4A2
100
AcDbEntity
  8
0
100
AcDbCircle
 62
7
  6
CONTINUOUS
 10
208.5635899476
 20
1008.8993435449
 40
2.5
100
AcDbArc
 50
180.0
 51
360.0
  0
ARC
  5
4A3
100
AcDbEntity
  8
0
100
AcDbCircle
 62
7
  6
CONTINUOUS
 10
165.5635899476
 20
1010.8993435449
 40
2.0
100
AcDbArc
 50
90.0
 51
180.0
  0
ARC
  5
4A4
100
AcDbEntity
  8
0
100
AcDbCircle
 62
7
  6
CONTINUOUS
 10
234.5635899476
 20
1008.8993435449
 40
2.0
100
AcDbArc
 50
180.0
 51
269.9999999997
  0
ARC
  5
4A5
100
AcDbEntity
  8
0
100
AcDbCircle
 62
7
  6
CONTINUOUS
 10
236.5635899476
 20
1010.8993435449
 40
2.0
100
AcDbArc
 50
0.0
 51
90.0
  0
ARC
  5
4A6
100
AcDbEntity
  8
0
100
AcDbCircle
 62
7
  6
CONTINUOUS
 10
180.4635899476
 20
998.7993435449
 40
0.2
100
AcDbArc
 50
0.0
 51
90.0
  0
ARC
  5
4A7
100
AcDbEntity
  8
0
100
AcDbCircle
 62
7
  6
CONTINUOUS
 10
171.6635899476
 20
998.7993435449
 40
0.2
100
AcDbArc
 50
90.0
 51
180.0
  0
ARC
  5
4A8
100
AcDbEntity
  8
0
100
AcDbCircle
 62
7
  6
CONTINUOUS
 10
171.6635899476
 20
989.9993435449
 40
0.2
100
AcDbArc
 50
179.9999999999
 51
270.0
  0
ARC
  5
4A9
100
AcDbEntity
  8
0
100
AcDbCircle
 62
7
  6
CONTINUOUS
 10
180.4635899476
 20
989.9993435449
 40
0.2
100
AcDbArc
 50
270.0
 51
360.0
  0
ARC
  5
4AA
100
AcDbEntity
  8
0
100
AcDbCircle
 62
7
  6
CONTINUOUS
 10
185.9635899476
 20
1015.4993435449
 40
0.1
100
AcDbArc
 50
270.0
 51
360.0
  0
ARC
  5
4AB
100
AcDbEntity
  8
0
100
AcDbCircle
 62
7
  6
CONTINUOUS
 10
277.8824734473
 20
956.4778334903
 40
40.4784155318
100
AcDbArc
 50
207.1754486866
 51
207.7494825321
  0
ARC
  5
4AC
100
AcDbEntity
  8
0
100
AcDbCircle
 62
7
  6
CONTINUOUS
 10
349.2116676584
 20
993.0873611143
 40
120.6539194762
100
AcDbArc
 50
206.9532601735
 51
207.1711946317
  0
CIRCLE
  5
4AD
100
AcDbEntity
  8
0
100
AcDbCircle
 62
7
  6
CONTINUOUS
 10
223.5635899476
 20
1157.8993435449
 40
9.055
  0
ARC
  5
4AE
100
AcDbEntity
  8
0
100
AcDbCircle
 62
7
  6
CONTINUOUS
 10
234.5635899476
 20
1141.7927864637
 40
7.1065570812
100
AcDbArc
 50
73.6544162438
 51
90.0000000001
  0
CIRCLE
  5
4AF
100
AcDbEntity
  8
0
100
AcDbCircle
 62
7
  6
CONTINUOUS
 10
223.5635899476
 20
1157.8993435449
 40
5.055
  0
ARC
  5
4B0
100
AcDbEntity
  8
0
100
AcDbCircle
 62
7
  6
CONTINUOUS
 10
218.8135899476
 20
1128.3993435449
 40
4.75
100
AcDbArc
 50
90.0
 51
270.0
  0
ARC
  5
4B1
100
AcDbEntity
  8
0
100
AcDbCircle
 62
7
  6
CONTINUOUS
 10
224.8135899476
 20
1128.3993435449
 40
4.75
100
AcDbArc
 50
270.0
 51
90.0
  0
ARC
  5
4B2
100
AcDbEntity
  8
0
100
AcDbCircle
 62
7
  6
CONTINUOUS
 10
165.5635899476
 20
1144.8993435449
 40
4.5
100
AcDbArc
 50
180.0
 51
270.0
  0
ARC
  5
4B3
100
AcDbEntity
  8
0
100
AcDbCircle
 62
7
  6
CONTINUOUS
 10
236.5635899476
 20
1144.8993435449
 40
4.5
100
AcDbArc
 50
270.0
 51
360.0
  0
ARC
  5
4B4
100
AcDbEntity
  8
0
100
AcDbCircle
 62
7
  6
CONTINUOUS
 10
229.5635899476
 20
1119.3993435449
 40
3.0
100
AcDbArc
 50
270.0
 51
360.0
  0
ARC
  5
4B5
100
AcDbEntity
  8
0
100
AcDbCircle
 62
7
  6
CONTINUOUS
 10
214.0635899476
 20
1119.3993435449
 40
3.0
100
AcDbArc
 50
179.9999999999
 51
270.0
  0
ARC
  5
4B6
100
AcDbEntity
  8
0
100
AcDbCircle
 62
7
  6
CONTINUOUS
 10
185.9635899476
 20
1140.2993435449
 40
2.6
100
AcDbArc
 50
0.0
 51
2.0250378196
  0
ARC
  5
4B7
100
AcDbEntity
  8
0
100
AcDbCircle
 62
7
  6
CONTINUOUS
 10
208.5635899476
 20
1146.8993435449
 40
2.5
100
AcDbArc
 50
0.0
 51
180.0
  0
ARC
  5
4B8
100
AcDbEntity
  8
0
100
AcDbCircle
 62
7
  6
CONTINUOUS
 10
234.5635899476
 20
1146.8993435449
 40
2.0
100
AcDbArc
 50
90.0
 51
179.9999999999
  0
ARC
  5
4B9
100
AcDbEntity
  8
0
100
AcDbCircle
 62
7
  6
CONTINUOUS
 10
165.5635899476
 20
1144.8993435449
 40
2.0
100
AcDbArc
 50
180.0
 51
270.0
  0
ARC
  5
4BA
100
AcDbEntity
  8
0
100
AcDbCircle
 62
7
  6
CONTINUOUS
 10
236.5635899476
 20
1144.8993435449
 40
2.0
100
AcDbArc
 50
270.0
 51
360.0
  0
ARC
  5
4BB
100
AcDbEntity
  8
0
100
AcDbCircle
 62
7
  6
CONTINUOUS
 10
180.4635899476
 20
1156.9993435449
 40
0.2
100
AcDbArc
 50
270.0
 51
360.0
  0
ARC
  5
4BC
100
AcDbEntity
  8
0
100
AcDbCircle
 62
7
  6
CONTINUOUS
 10
180.4635899476
 20
1165.7993435449
 40
0.2
100
AcDbArc
 50
0.0
 51
90.0
  0
ARC
  5
4BD
100
AcDbEntity
  8
0
100
AcDbCircle
 62
7
  6
CONTINUOUS
 10
171.6635899476
 20
1165.7993435449
 40
0.2
100
AcDbArc
 50
90.0
 51
180.0000000001
  0
ARC
  5
4BE
100
AcDbEntity
  8
0
100
AcDbCircle
 62
7
  6
CONTINUOUS
 10
171.6635899476
 20
1156.9993435449
 40
0.2
100
AcDbArc
 50
180.0
 51
270.0
  0
ARC
  5
4BF
100
AcDbEntity
  8
0
100
AcDbCircle
 62
7
  6
CONTINUOUS
 10
167.2885397466
 20
1213.8993435449
 40
9.0
100
AcDbArc
 50
92.7063206627
 51
131.1724622773
  0
ARC
  5
4C0
100
AcDbEntity
  8
0
100
AcDbCircle
 62
7
  6
CONTINUOUS
 10
234.8386401486
 20
1213.8993435449
 40
9.0
100
AcDbArc
 50
48.8275377227
 51
90.0
  0
CIRCLE
  5
4C1
100
AcDbEntity
  8
0
100
AcDbCircle
 62
7
  6
CONTINUOUS
 10
193.5635899476
 20
1187.8993435449
 40
6.75
  0
ARC
  5
4C2
100
AcDbEntity
  8
0
100
AcDbCircle
 62
7
  6
CONTINUOUS
 10
247.6755857814
 20
1216.0574176632
 40
5.9286909958
100
AcDbArc
 50
144.2535787719
 51
145.6224392796
  0
ARC
  5
4C3
100
AcDbEntity
  8
0
100
AcDbCircle
 62
7
  6
CONTINUOUS
 10
161.0635899476
 20
1185.8993435449
 40
5.5
100
AcDbArc
 50
33.3834687438
 51
51.3178125465
  0
ARC
  5
4C4
100
AcDbEntity
  8
0
100
AcDbCircle
 62
7
  6
CONTINUOUS
 10
161.0635899476
 20
1185.8993435449
 40
5.5
100
AcDbArc
 50
308.6821874535
 51
326.6165312562
  0
ARC
  5
4C5
100
AcDbEntity
  8
0
100
AcDbCircle
 62
7
  6
CONTINUOUS
 10
244.0635899476
 20
1217.3993435449
 40
3.0
100
AcDbArc
 50
90.0
 51
180.0
  0
ARC
  5
4C6
100
AcDbEntity
  8
0
100
AcDbCircle
 62
7
  6
CONTINUOUS
 10
241.1635899476
 20
1195.4993435449
 40
2.6
100
AcDbArc
 50
267.9751065095
 51
270.0
  0
ARC
  5
4C7
100
AcDbEntity
  8
0
100
AcDbCircle
 62
7
  6
CONTINUOUS
 10
166.0635899476
 20
1179.6543455465
 40
2.5
100
AcDbArc
 50
128.6821874535
 51
180.0
  0
ARC
  5
4C8
100
AcDbEntity
  8
0
100
AcDbCircle
 62
7
  6
CONTINUOUS
 10
166.0635899476
 20
1192.1443415433
 40
2.5
100
AcDbArc
 50
180.0
 51
231.3178125465
  0
ARC
  5
4C9
100
AcDbEntity
  8
0
100
AcDbCircle
 62
7
  6
CONTINUOUS
 10
345.8715935081
 20
1164.415188344
 40
116.9043570976
100
AcDbArc
 50
152.8170692833
 51
153.0491165143
  0
ARC
  5
4CA
100
AcDbEntity
  8
0
100
AcDbCircle
 62
7
  6
CONTINUOUS
 10
277.4672019235
 20
1199.5376139396
 40
40.0099785142
100
AcDbArc
 50
152.2482715126
 51
152.8082805881
  0
ARC
  5
4CB
100
AcDbEntity
  8
0
100
AcDbCircle
 62
7
  6
CONTINUOUS
 10
1244.6599779643
 20
956.2610731539
 40
40.0099785226
100
AcDbArc
 50
332.2482715126
 51
332.808280588
  0
ARC
  5
4CC
100
AcDbEntity
  8
0
100
AcDbCircle
 62
7
  6
CONTINUOUS
 10
1176.2555865827
 20
991.3834986458
 40
116.9043568779
100
AcDbArc
 50
332.8170692831
 51
333.0491165145
  0
ARC
  5
4CD
100
AcDbEntity
  8
0
100
AcDbCircle
 62
7
  6
CONTINUOUS
 10
1354.8386401486
 20
941.8993435449
 40
9.0
100
AcDbArc
 50
272.7063206627
 51
311.1724622773
  0
ARC
  5
4CE
100
AcDbEntity
  8
0
100
AcDbCircle
 62
7
  6
CONTINUOUS
 10
1287.2885397466
 20
941.8993435449
 40
9.0
100
AcDbArc
 50
228.8275377227
 51
270.0
  0
CIRCLE
  5
4CF
100
AcDbEntity
  8
0
100
AcDbCircle
 62
7
  6
CONTINUOUS
 10
1328.5635899476
 20
967.8993435449
 40
6.75
  0
ARC
  5
4D0
100
AcDbEntity
  8
0
100
AcDbCircle
 62
7
  6
CONTINUOUS
 10
1274.4515941132
 20
939.741269427
 40
5.9286909966
100
AcDbArc
 50
324.2535787719
 51
325.6224392794
  0
ARC
  5
4D1
100
AcDbEntity
  8
0
100
AcDbCircle
 62
7
  6
CONTINUOUS
 10
1361.0635899476
 20
969.8993435449
 40
5.5
100
AcDbArc
 50
213.3834687438
 51
231.3178125465
  0
ARC
  5
4D2
100
AcDbEntity
  8
0
100
AcDbCircle
 62
7
  6
CONTINUOUS
 10
1361.0635899476
 20
969.8993435449
 40
5.5
100
AcDbArc
 50
128.6821874535
 51
146.6165312562
  0
ARC
  5
4D3
100
AcDbEntity
  8
0
100
AcDbCircle
 62
7
  6
CONTINUOUS
 10
1278.0635899476
 20
938.3993435449
 40
3.0
100
AcDbArc
 50
270.0
 51
360.0
  0
ARC
  5
4D4
100
AcDbEntity
  8
0
100
AcDbCircle
 62
7
  6
CONTINUOUS
 10
1280.9635899476
 20
960.2993435449
 40
2.6
100
AcDbArc
 50
87.9751065095
 51
90.0
  0
ARC
  5
4D5
100
AcDbEntity
  8
0
100
AcDbCircle
 62
7
  6
CONTINUOUS
 10
1356.0635899476
 20
976.1443415433
 40
2.5
100
AcDbArc
 50
308.6821874535
 51
360.0
  0
ARC
  5
4D6
100
AcDbEntity
  8
0
100
AcDbCircle
 62
7
  6
CONTINUOUS
 10
1356.0635899476
 20
963.6543455465
 40
2.5
100
AcDbArc
 50
0.0
 51
51.3178125465
  0
CIRCLE
  5
4D7
100
AcDbEntity
  8
0
100
AcDbCircle
 62
7
  6
CONTINUOUS
 10
1298.5635899476
 20
997.8993435449
 40
9.055
  0
ARC
  5
4D8
100
AcDbEntity
  8
0
100
AcDbCircle
 62
7
  6
CONTINUOUS
 10
1287.5635899476
 20
1014.005900626
 40
7.1065570812
100
AcDbArc
 50
253.6544162438
 51
270.0000000001
  0
CIRCLE
  5
4D9
100
AcDbEntity
  8
0
100
AcDbCircle
 62
7
  6
CONTINUOUS
 10
1298.5635899476
 20
997.8993435449
 40
5.055
  0
ARC
  5
4DA
100
AcDbEntity
  8
0
100
AcDbCircle
 62
7
  6
CONTINUOUS
 10
1303.3135899476
 20
1027.3993435449
 40
4.75
100
AcDbArc
 50
270.0
 51
90.0
  0
ARC
  5
4DB
100
AcDbEntity
  8
0
100
AcDbCircle
 62
7
  6
CONTINUOUS
 10
1297.3135899476
 20
1027.3993435449
 40
4.75
100
AcDbArc
 50
90.0
 51
270.0
  0
ARC
  5
4DC
100
AcDbEntity
  8
0
100
AcDbCircle
 62
7
  6
CONTINUOUS
 10
1356.5635899476
 20
1010.8993435449
 40
4.5
100
AcDbArc
 50
0.0
 51
90.0
  0
ARC
  5
4DD
100
AcDbEntity
  8
0
100
AcDbCircle
 62
7
  6
CONTINUOUS
 10
1285.5635899476
 20
1010.8993435449
 40
4.5
100
AcDbArc
 50
90.0
 51
180.0
  0
ARC
  5
4DE
100
AcDbEntity
  8
0
100
AcDbCircle
 62
7
  6
CONTINUOUS
 10
1292.5635899476
 20
1036.3993435449
 40
3.0
100
AcDbArc
 50
90.0
 51
180.0
  0
ARC
  5
4DF
100
AcDbEntity
  8
0
100
AcDbCircle
 62
7
  6
CONTINUOUS
 10
1308.0635899476
 20
1036.3993435449
 40
3.0
100
AcDbArc
 50
0.0
 51
90.0
  0
ARC
  5
4E0
100
AcDbEntity
  8
0
100
AcDbCircle
 62
7
  6
CONTINUOUS
 10
1336.1635899476
 20
1015.4993435449
 40
2.6
100
AcDbArc
 50
180.0
 51
182.0250378196
  0
ARC
  5
4E1
100
AcDbEntity
  8
0
100
AcDbCircle
 62
7
  6
CONTINUOUS
 10
1313.5635899476
 20
1008.8993435449
 40
2.5
100
AcDbArc
 50
180.0
 51
360.0
  0
ARC
  5
4E2
100
AcDbEntity
  8
0
100
AcDbCircle
 62
7
  6
CONTINUOUS
 10
1287.5635899476
 20
1008.8993435449
 40
2.0
100
AcDbArc
 50
270.0
 51
359.9999999999
  0
ARC
  5
4E3
100
AcDbEntity
  8
0
100
AcDbCircle
 62
7
  6
CONTINUOUS
 10
1356.5635899476
 20
1010.8993435449
 40
2.0
100
AcDbArc
 50
0.0
 51
90.0
  0
ARC
  5
4E4
100
AcDbEntity
  8
0
100
AcDbCircle
 62
7
  6
CONTINUOUS
 10
1285.5635899476
 20
1010.8993435449
 40
2.0
100
AcDbArc
 50
90.0
 51
180.0
  0
ARC
  5
4E5
100
AcDbEntity
  8
0
100
AcDbCircle
 62
7
  6
CONTINUOUS
 10
1341.6635899476
 20
998.7993435449
 40
0.2
100
AcDbArc
 50
90.0
 51
180.0000000001
  0
ARC
  5
4E6
100
AcDbEntity
  8
0
100
AcDbCircle
 62
7
  6
CONTINUOUS
 10
1341.6635899476
 20
989.9993435449
 40
0.2
100
AcDbArc
 50
180.0
 51
270.0
  0
ARC
  5
4E7
100
AcDbEntity
  8
0
100
AcDbCircle
 62
7
  6
CONTINUOUS
 10
1350.4635899476
 20
989.9993435449
 40
0.2
100
AcDbArc
 50
270.0
 51
360.0
  0
ARC
  5
4E8
100
AcDbEntity
  8
0
100
AcDbCircle
 62
7
  6
CONTINUOUS
 10
1350.4635899476
 20
998.7993435449
 40
0.2
100
AcDbArc
 50
0.0
 51
89.9999999999
  0
ARC
  5
4E9
100
AcDbEntity
  8
0
100
AcDbCircle
 62
7
  6
CONTINUOUS
 10
1172.9155121887
 20
1162.7113259508
 40
120.6539195302
100
AcDbArc
 50
26.9532601736
 51
27.1711946317
  0
ARC
  5
4EA
100
AcDbEntity
  8
0
100
AcDbCircle
 62
7
  6
CONTINUOUS
 10
1244.2447064387
 20
1199.3208535946
 40
40.4784155421
100
AcDbArc
 50
27.1754486867
 51
27.749482532
  0
CIRCLE
  5
4EB
100
AcDbEntity
  8
0
100
AcDbCircle
 62
7
  6
CONTINUOUS
 10
1298.5635899476
 20
1157.8993435449
 40
9.055
  0
ARC
  5
4EC
100
AcDbEntity
  8
0
100
AcDbCircle
 62
7
  6
CONTINUOUS
 10
1287.5635899476
 20
1141.7927864637
 40
7.1065570812
100
AcDbArc
 50
89.9999999999
 51
106.3455840351
  0
CIRCLE
  5
4ED
100
AcDbEntity
  8
0
100
AcDbCircle
 62
7
  6
CONTINUOUS
 10
1298.5635899476
 20
1157.8993435449
 40
5.055
  0
ARC
  5
4EE
100
AcDbEntity
  8
0
100
AcDbCircle
 62
7
  6
CONTINUOUS
 10
1297.3135899476
 20
1128.3993435449
 40
4.75
100
AcDbArc
 50
90.0
 51
270.0
  0
ARC
  5
4EF
100
AcDbEntity
  8
0
100
AcDbCircle
 62
7
  6
CONTINUOUS
 10
1303.3135899476
 20
1128.3993435449
 40
4.75
100
AcDbArc
 50
270.0
 51
90.0
  0
ARC
  5
4F0
100
AcDbEntity
  8
0
100
AcDbCircle
 62
7
  6
CONTINUOUS
 10
1356.5635899476
 20
1144.8993435449
 40
4.5
100
AcDbArc
 50
270.0
 51
360.0
  0
ARC
  5
4F1
100
AcDbEntity
  8
0
100
AcDbCircle
 62
7
  6
CONTINUOUS
 10
1285.5635899476
 20
1144.8993435449
 40
4.5
100
AcDbArc
 50
180.0
 51
270.0
  0
ARC
  5
4F2
100
AcDbEntity
  8
0
100
AcDbCircle
 62
7
  6
CONTINUOUS
 10
1308.0635899476
 20
1119.3993435449
 40
3.0
100
AcDbArc
 50
270.0
 51
360.0
  0
ARC
  5
4F3
100
AcDbEntity
  8
0
100
AcDbCircle
 62
7
  6
CONTINUOUS
 10
1292.5635899476
 20
1119.3993435449
 40
3.0
100
AcDbArc
 50
180.0000000001
 51
270.0
  0
ARC
  5
4F4
100
AcDbEntity
  8
0
100
AcDbCircle
 62
7
  6
CONTINUOUS
 10
1336.1635899476
 20
1140.2993435449
 40
2.6
100
AcDbArc
 50
177.9751065095
 51
180.0
  0
ARC
  5
4F5
100
AcDbEntity
  8
0
100
AcDbCircle
 62
7
  6
CONTINUOUS
 10
1313.5635899476
 20
1146.8993435449
 40
2.5
100
AcDbArc
 50
0.0
 51
180.0000000001
  0
ARC
  5
4F6
100
AcDbEntity
  8
0
100
AcDbCircle
 62
7
  6
CONTINUOUS
 10
1356.5635899476
 20
1144.8993435449
 40
2.0
100
AcDbArc
 50
270.0
 51
360.0
  0
ARC
  5
4F7
100
AcDbEntity
  8
0
100
AcDbCircle
 62
7
  6
CONTINUOUS
 10
1287.5635899476
 20
1146.8993435449
 40
2.0
100
AcDbArc
 50
0.0
 51
89.9999999997
  0
ARC
  5
4F8
100
AcDbEntity
  8
0
100
AcDbCircle
 62
7
  6
CONTINUOUS
 10
1285.5635899476
 20
1144.8993435449
 40
2.0
100
AcDbArc
 50
180.0
 51
270.0
  0
ARC
  5
4F9
100
AcDbEntity
  8
0
100
AcDbCircle
 62
7
  6
CONTINUOUS
 10
1341.6635899476
 20
1156.9993435449
 40
0.2
100
AcDbArc
 50
179.9999999999
 51
270.0
  0
ARC
  5
4FA
100
AcDbEntity
  8
0
100
AcDbCircle
 62
7
  6
CONTINUOUS
 10
1350.4635899476
 20
1156.9993435449
 40
0.2
100
AcDbArc
 50
270.0
 51
360.0
  0
ARC
  5
4FB
100
AcDbEntity
  8
0
100
AcDbCircle
 62
7
  6
CONTINUOUS
 10
1350.4635899476
 20
1165.7993435449
 40
0.2
100
AcDbArc
 50
0.0
 51
90.0
  0
ARC
  5
4FC
100
AcDbEntity
  8
0
100
AcDbCircle
 62
7
  6
CONTINUOUS
 10
1341.6635899476
 20
1165.7993435449
 40
0.2
100
AcDbArc
 50
90.0
 51
180.0
  0
ARC
  5
4FD
100
AcDbEntity
  8
0
100
AcDbCircle
 62
7
  6
CONTINUOUS
 10
1336.1635899476
 20
1140.2993435449
 40
0.1
100
AcDbArc
 50
90.0
 51
180.0
  0
ARC
  5
4FE
100
AcDbEntity
  8
0
100
AcDbCircle
 62
7
  6
CONTINUOUS
 10
1287.2885397466
 20
1213.8993435449
 40
9.0
100
AcDbArc
 50
90.0
 51
131.1724622773
  0
ARC
  5
4FF
100
AcDbEntity
  8
0
100
AcDbCircle
 62
7
  6
CONTINUOUS
 10
1354.8386401486
 20
1213.8993435449
 40
9.0
100
AcDbArc
 50
48.8275377227
 51
87.2936793373
  0
CIRCLE
  5
500
100
AcDbEntity
  8
0
100
AcDbCircle
 62
7
  6
CONTINUOUS
 10
1328.5635899476
 20
1187.8993435449
 40
6.75
  0
ARC
  5
501
100
AcDbEntity
  8
0
100
AcDbCircle
 62
7
  6
CONTINUOUS
 10
1361.0635899476
 20
1185.8993435449
 40
5.5
100
AcDbArc
 50
128.6821874535
 51
146.6165312562
  0
ARC
  5
502
100
AcDbEntity
  8
0
100
AcDbCircle
 62
7
  6
CONTINUOUS
 10
1361.0635899476
 20
1185.8993435449
 40
5.5
100
AcDbArc
 50
213.3834687438
 51
231.3178125465
  0
ARC
  5
503
100
AcDbEntity
  8
0
100
AcDbCircle
 62
7
  6
CONTINUOUS
 10
1278.0635899476
 20
1217.3993435449
 40
3.0
100
AcDbArc
 50
0.0
 51
90.0
  0
ARC
  5
504
100
AcDbEntity
  8
0
100
AcDbCircle
 62
7
  6
CONTINUOUS
 10
1280.9635899476
 20
1195.4993435449
 40
2.6
100
AcDbArc
 50
270.0
 51
272.0250378196
  0
ARC
  5
505
100
AcDbEntity
  8
0
100
AcDbCircle
 62
7
  6
CONTINUOUS
 10
1356.0635899476
 20
1192.1443415433
 40
2.5
100
AcDbArc
 50
308.6821874535
 51
360.0
  0
ARC
  5
506
100
AcDbEntity
  8
0
100
AcDbCircle
 62
7
  6
CONTINUOUS
 10
1356.0635899476
 20
1179.6543455465
 40
2.5
100
AcDbArc
 50
0.0
 51
51.3178125465
  0
SPLINE
  5
507
100
AcDbEntity
  8
0
100
AcDbSpline
 62
7
  6
CONTINUOUS
 70
0
 71
3
 72
11
 73
7
 74
0
 42
0.0000001
 43
0.0000001
 44
0.0000000001
 40
0.0
 40
0.0
 40
0.0
 40
0.0
 40
0.2661856061
 40
0.506959015
 40
0.7461782023
 40
1.0
 40
1.0
 40
1.0
 40
1.0
 10
1285.5635899476
 20
1007.1865785343
 30
0.0
 10
1285.1921120367
 20
1007.3388764225
 30
0.0
 10
1284.5139745146
 20
1007.734726714
 30
0.0
 10
1283.8379563105
 20
1008.6767947053
 30
0.0
 10
1283.5861774286
 20
1009.772460398
 30
0.0
 10
1283.5635899476
 20
1010.516506417
 30
0.0
 10
1283.5635899476
 20
1010.8993435448
 30
0.0
  0
SPLINE
  5
508
100
AcDbEntity
  8
0
100
AcDbSpline
 62
7
  6
CONTINUOUS
 70
0
 71
3
 72
11
 73
7
 74
0
 42
0.0000001
 43
0.0000001
 44
0.0000000001
 40
0.0
 40
0.0
 40
0.0
 40
0.0
 40
0.2661856061
 40
0.506959015
 40
0.7461782023
 40
1.0
 40
1.0
 40
1.0
 40
1.0
 10
236.5635899476
 20
1148.6121085554
 30
0.0
 10
236.9350678777
 20
1148.4598107139
 30
0.0
 10
237.6132053726
 20
1148.0639603562
 30
0.0
 10
238.2892235868
 20
1147.1218923894
 30
0.0
 10
238.541002466
 20
1146.0262266902
 30
0.0
 10
238.5635899476
 20
1145.2821806728
 30
0.0
 10
238.5635899476
 20
1144.8993435449
 30
0.0
  0
SPLINE
  5
509
100
AcDbEntity
  8
0
100
AcDbSpline
 62
7
  6
CONTINUOUS
 70
0
 71
3
 72
11
 73
7
 74
0
 42
0.0000001
 43
0.0000001
 44
0.0000000001
 40
0.0
 40
0.0
 40
0.0
 40
0.0
 40
0.2661856061
 40
0.506959015
 40
0.7461782023
 40
1.0
 40
1.0
 40
1.0
 40
1.0
 10
1285.5635899476
 20
1148.6121085554
 30
0.0
 10
1285.1921120435
 20
1148.4598106505
 30
0.0
 10
1284.5139745118
 20
1148.0639603827
 30
0.0
 10
1283.8379563112
 20
1147.1218923826
 30
0.0
 10
1283.5861774284
 20
1146.0262266923
 30
0.0
 10
1283.5635899476
 20
1145.2821806728
 30
0.0
 10
1283.5635899476
 20
1144.8993435449
 30
0.0
  0
SPLINE
  5
50A
100
AcDbEntity
  8
0
100
AcDbSpline
 62
7
  6
CONTINUOUS
 70
0
 71
3
 72
13
 73
9
 74
0
 42
0.0000001
 43
0.0000001
 44
0.0000000001
 40
0.0
 40
0.0
 40
0.0
 40
0.0
 40
0.2217449851
 40
0.324635476
 40
0.434168964
 40
0.5568015648
 40
0.6941035038
 40
1.0
 40
1.0
 40
1.0
 40
1.0
 10
1281.0635899476
 20
1144.8993435449
 30
0.0
 10
1281.0635899476
 20
1145.3768469826
 30
0.0
 10
1281.1348473226
 20
1146.1017155953
 30
0.0
 10
1281.6249383447
 20
1146.9144554015
 30
0.0
 10
1282.1607037469
 20
1147.4088339673
 30
0.0
 10
1282.8497184529
 20
1147.8147900646
 30
0.0
 10
1283.9814322575
 20
1148.2734964516
 30
0.0
 10
1284.9155456426
 20
1148.4940267058
 30
0.0
 10
1285.5635899476
 20
1148.6121085463
 30
0.0
  0
SPLINE
  5
50B
100
AcDbEntity
  8
0
100
AcDbSpline
 62
7
  6
CONTINUOUS
 70
0
 71
3
 72
11
 73
7
 74
0
 42
0.0000001
 43
0.0000001
 44
0.0000000001
 40
0.0
 40
0.0
 40
0.0
 40
0.0
 40
0.2661856061
 40
0.506959015
 40
0.7461782023
 40
1.0
 40
1.0
 40
1.0
 40
1.0
 10
236.5635899476
 20
1007.1865785343
 30
0.0
 10
236.9350678586
 20
1007.3388764225
 30
0.0
 10
237.6132053806
 20
1007.734726714
 30
0.0
 10
238.2892235848
 20
1008.6767947053
 30
0.0
 10
238.5410024666
 20
1009.772460398
 30
0.0
 10
238.5635899476
 20
1010.516506417
 30
0.0
 10
238.5635899476
 20
1010.8993435448
 30
0.0
  0
SPLINE
  5
50C
100
AcDbEntity
  8
0
100
AcDbSpline
 62
7
  6
CONTINUOUS
 70
0
 71
3
 72
13
 73
9
 74
0
 42
0.0000001
 43
0.0000001
 44
0.0000000001
 40
0.0
 40
0.0
 40
0.0
 40
0.0
 40
0.2217449851
 40
0.324635476
 40
0.434168964
 40
0.5568015648
 40
0.6941035038
 40
1.0
 40
1.0
 40
1.0
 40
1.0
 10
241.0635899476
 20
1010.8993435449
 30
0.0
 10
241.0635899476
 20
1010.4218401071
 30
0.0
 10
240.9923325727
 20
1009.6969714944
 30
0.0
 10
240.5022415506
 20
1008.8842316882
 30
0.0
 10
239.9664761484
 20
1008.3898531223
 30
0.0
 10
239.2774614421
 20
1007.9838970257
 30
0.0
 10
238.1457476384
 20
1007.5251906357
 30
0.0
 10
237.2116342515
 20
1007.3046603905
 30
0.0
 10
236.5635899476
 20
1007.1865785434
 30
0.0
  0
SPLINE
  5
50D
100
AcDbEntity
  8
0
100
AcDbSpline
 62
7
  6
CONTINUOUS
 70
0
 71
3
 72
9
 73
5
 74
0
 42
0.0000001
 43
0.0000001
 44
0.0000000001
 40
0.0
 40
0.0
 40
0.0
 40
0.0
 40
0.7135373293
 40
1.0
 40
1.0
 40
1.0
 40
1.0
 10
244.0635899476
 20
1220.3993435449
 30
0.0
 10
243.8734173597
 20
1220.3993435449
 30
0.0
 10
243.6072004847
 20
1220.2898320764
 30
0.0
 10
243.4008496114
 20
1220.1234199467
 30
0.0
 10
243.343858377
 20
1220.0726158231
 30
0.0
  0
SPLINE
  5
50E
100
AcDbEntity
  8
0
100
AcDbSpline
 62
7
  6
CONTINUOUS
 70
0
 71
3
 72
8
 73
4
 74
0
 42
0.0000001
 43
0.0000001
 44
0.0000000001
 40
0.0
 40
0.0
 40
0.0
 40
0.0
 40
1.0
 40
1.0
 40
1.0
 40
1.0
 10
243.343858377
 20
1220.0726158231
 30
0.0
 10
243.1618970211
 20
1219.9104086469
 30
0.0
 10
243.0062714267
 20
1219.7187468027
 30
0.0
 10
242.8637980756
 20
1219.5209528511
 30
0.0
  0
SPLINE
  5
50F
100
AcDbEntity
  8
0
100
AcDbSpline
 62
7
  6
CONTINUOUS
 70
0
 71
3
 72
9
 73
5
 74
0
 42
0.0000001
 43
0.0000001
 44
0.0000000001
 40
0.0
 40
0.0
 40
0.0
 40
0.0
 40
0.2307296307
 40
1.0
 40
1.0
 40
1.0
 40
1.0
 10
242.7824313872
 20
1219.4050163545
 30
0.0
 10
242.720154364
 20
1219.3140496582
 30
0.0
 10
242.4603617686
 20
1218.9128464815
 30
0.0
 10
242.2307466167
 20
1218.4930974375
 30
0.0
 10
242.0594275821
 20
1218.1679090768
 30
0.0
  0
SPLINE
  5
510
100
AcDbEntity
  8
0
100
AcDbSpline
 62
7
  6
CONTINUOUS
 70
0
 71
3
 72
9
 73
5
 74
0
 42
0.0000001
 43
0.0000001
 44
0.0000000001
 40
0.0
 40
0.0
 40
0.0
 40
0.0
 40
0.2699669384
 40
1.0
 40
1.0
 40
1.0
 40
1.0
 10
1280.0677739963
 20
1218.1678680948
 30
0.0
 10
1280.0017560007
 20
1218.2931802854
 30
0.0
 10
1279.7537284988
 20
1218.7552475989
 30
0.0
 10
1279.4876182085
 20
1219.2095634499
 30
0.0
 10
1279.2637980756
 20
1219.5203748863
 30
0.0
  0
SPLINE
  5
511
100
AcDbEntity
  8
0
100
AcDbSpline
 62
7
  6
CONTINUOUS
 70
0
 71
3
 72
8
 73
4
 74
0
 42
0.0000001
 43
0.0000001
 44
0.0000000001
 40
0.0
 40
0.0
 40
0.0
 40
0.0
 40
1.0
 40
1.0
 40
1.0
 40
1.0
 10
1279.2637980756
 20
1219.5203748863
 30
0.0
 10
1279.1974423112
 20
1219.6125208885
 30
0.0
 10
1279.1282026778
 20
1219.7027310343
 30
0.0
 10
1279.0550186205
 20
1219.7895530762
 30
0.0
  0
SPLINE
  5
512
100
AcDbEntity
  8
0
100
AcDbSpline
 62
7
  6
CONTINUOUS
 70
0
 71
3
 72
8
 73
4
 74
0
 42
0.0000001
 43
0.0000001
 44
0.0000000001
 40
0.0
 40
0.0
 40
0.0
 40
0.0
 40
1.0
 40
1.0
 40
1.0
 40
1.0
 10
1279.0550186205
 20
1219.7895530762
 30
0.0
 10
1278.9707459591
 20
1219.889530104
 30
0.0
 10
1278.8809883843
 20
1219.9855451694
 30
0.0
 10
1278.7833868221
 20
1220.072557942
 30
0.0
  0
SPLINE
  5
513
100
AcDbEntity
  8
0
100
AcDbSpline
 62
7
  6
CONTINUOUS
 70
0
 71
3
 72
9
 73
5
 74
0
 42
0.0000001
 43
0.0000001
 44
0.0000000001
 40
0.0
 40
0.0
 40
0.0
 40
0.0
 40
0.2864671863
 40
1.0
 40
1.0
 40
1.0
 40
1.0
 10
1278.7833868221
 20
1220.072557942
 30
0.0
 10
1278.7263906847
 20
1220.1233705707
 30
0.0
 10
1278.5200244922
 20
1220.2898077492
 30
0.0
 10
1278.2537815473
 20
1220.3993435449
 30
0.0
 10
1278.0635899476
 20
1220.3993435449
 30
0.0
  0
SPLINE
  5
514
100
AcDbEntity
  8
0
100
AcDbSpline
 62
7
  6
CONTINUOUS
 70
0
 71
3
 72
9
 73
5
 74
0
 42
0.0000001
 43
0.0000001
 44
0.0000000001
 40
0.0
 40
0.0
 40
0.0
 40
0.0
 40
0.7135373293
 40
1.0
 40
1.0
 40
1.0
 40
1.0
 10
1278.0635899476
 20
935.3993435449
 30
0.0
 10
1278.2537625355
 20
935.3993435449
 30
0.0
 10
1278.5199794105
 20
935.5088550134
 30
0.0
 10
1278.7263302838
 20
935.6752671431
 30
0.0
 10
1278.7833215183
 20
935.7260712666
 30
0.0
  0
SPLINE
  5
515
100
AcDbEntity
  8
0
100
AcDbSpline
 62
7
  6
CONTINUOUS
 70
0
 71
3
 72
8
 73
4
 74
0
 42
0.0000001
 43
0.0000001
 44
0.0000000001
 40
0.0
 40
0.0
 40
0.0
 40
0.0
 40
1.0
 40
1.0
 40
1.0
 40
1.0
 10
1278.7833215183
 20
935.7260712666
 30
0.0
 10
1278.9652828742
 20
935.8882784429
 30
0.0
 10
1279.1209084685
 20
936.079940287
 30
0.0
 10
1279.2633818196
 20
936.2777342386
 30
0.0
  0
SPLINE
  5
516
100
AcDbEntity
  8
0
100
AcDbSpline
 62
7
  6
CONTINUOUS
 70
0
 71
3
 72
9
 73
5
 74
0
 42
0.0000001
 43
0.0000001
 44
0.0000000001
 40
0.0
 40
0.0
 40
0.0
 40
0.0
 40
0.2307296307
 40
1.0
 40
1.0
 40
1.0
 40
1.0
 10
1279.3447485081
 20
936.3936707352
 30
0.0
 10
1279.4070255312
 20
936.4846374316
 30
0.0
 10
1279.6668181267
 20
936.8858406082
 30
0.0
 10
1279.8964332785
 20
937.3055896522
 30
0.0
 10
1280.0677523131
 20
937.6307780129
 30
0.0
  0
SPLINE
  5
517
100
AcDbEntity
  8
0
100
AcDbSpline
 62
7
  6
CONTINUOUS
 70
0
 71
3
 72
9
 73
5
 74
0
 42
0.0000001
 43
0.0000001
 44
0.0000000001
 40
0.0
 40
0.0
 40
0.0
 40
0.0
 40
0.2699669384
 40
1.0
 40
1.0
 40
1.0
 40
1.0
 10
242.0594058989
 20
937.6308189949
 30
0.0
 10
242.1254238945
 20
937.5055068044
 30
0.0
 10
242.3734513964
 20
937.0434394909
 30
0.0
 10
242.6395616868
 20
936.5891236398
 30
0.0
 10
242.8633818196
 20
936.2783122034
 30
0.0
  0
SPLINE
  5
518
100
AcDbEntity
  8
0
100
AcDbSpline
 62
7
  6
CONTINUOUS
 70
0
 71
3
 72
8
 73
4
 74
0
 42
0.0000001
 43
0.0000001
 44
0.0000000001
 40
0.0
 40
0.0
 40
0.0
 40
0.0
 40
1.0
 40
1.0
 40
1.0
 40
1.0
 10
242.8633818196
 20
936.2783122034
 30
0.0
 10
242.9297375841
 20
936.1861662012
 30
0.0
 10
242.9989772174
 20
936.0959560554
 30
0.0
 10
243.0721612747
 20
936.0091340136
 30
0.0
  0
SPLINE
  5
519
100
AcDbEntity
  8
0
100
AcDbSpline
 62
7
  6
CONTINUOUS
 70
0
 71
3
 72
8
 73
4
 74
0
 42
0.0000001
 43
0.0000001
 44
0.0000000001
 40
0.0
 40
0.0
 40
0.0
 40
0.0
 40
1.0
 40
1.0
 40
1.0
 40
1.0
 10
243.0721612747
 20
936.0091340136
 30
0.0
 10
243.1564339361
 20
935.9091569857
 30
0.0
 10
243.2461915109
 20
935.8131419203
 30
0.0
 10
243.3437930731
 20
935.7261291477
 30
0.0
  0
SPLINE
  5
51A
100
AcDbEntity
  8
0
100
AcDbSpline
 62
7
  6
CONTINUOUS
 70
0
 71
3
 72
9
 73
5
 74
0
 42
0.0000001
 43
0.0000001
 44
0.0000000001
 40
0.0
 40
0.0
 40
0.0
 40
0.0
 40
0.2864671863
 40
1.0
 40
1.0
 40
1.0
 40
1.0
 10
243.3437930731
 20
935.7261291477
 30
0.0
 10
243.4007892105
 20
935.675316519
 30
0.0
 10
243.607155403
 20
935.5088793405
 30
0.0
 10
243.873398348
 20
935.3993435449
 30
0.0
 10
244.0635899476
 20
935.3993435449
 30
0.0
  0
ENDSEC
  0
SECTION
  2
OBJECTS
  0
DICTIONARY
  5
C
100
AcDbDictionary
280
0
281
1
  3
ACAD_GROUP
350
D
  3
ACAD_MLINESTYLE
350
17
  3
ACAD_LAYOUT
350
1A
  3
ACAD_PLOTSETTINGS
350
19
  3
ACAD_PLOTSTYLENAME
350
E
  0
DICTIONARY
  5
D
102
{ACAD_REACTORS
330
C
102
}
100
AcDbDictionary
280
0
281
1
  0
ACDBDICTIONARYWDFLT
  5
E
102
{ACAD_REACTORS
330
C
102
}
100
AcDbDictionary
281
1
  3
Normal
350
F
100
AcDbDictionaryWithDefault
340
F
  0
DICTIONARY
  5
17
102
{ACAD_REACTORS
330
C
102
}
100
AcDbDictionary
280
0
281
1
  3
Standard
350
18
  0
DICTIONARY
  5
19
102
{ACAD_REACTORS
330
C
102
}
100
AcDbDictionary
281
1
  0
DICTIONARY
  5
1A
102
{ACAD_REACTORS
330
C
102
}
100
AcDbDictionary
281
1
  3
Model
350
51B
  3
Layout1
350
51C
  0
ACDBPLACEHOLDER
  5
F
102
{ACAD_REACTORS
330
E
102
}
  0
MLINESTYLE
  5
18
102
{ACAD_REACTORS
330
17
102
}
100
AcDbMlineStyle
  2
STANDARD
 70
0
  3

 62
256
 51
90.0
 52
90.0
 71
2
 49
0.5
 62
256
  6
BYLAYER
 49
-0.5
 62
256
  6
BYLAYER
  0
LAYOUT
  5
51B
102
{ACAD_REACTORS
330
1A
102
}
100
AcDbPlotSettings
  1

  2
none_device
  4

  6

 40
0.0
 41
0.0
 42
0.0
 43
0.0
 44
210.0
 45
297.0
 46
0.0
 47
0.0
 48
0.0
 49
0.0
140
0.0
141
0.0
142
1.0
143
1.0
 70
1024
 72
1
 73
0
 74
0
  7

 75
0
147
1.0
148
0.0
149
0.0
100
AcDbLayout
  1
Model
 70
0
 71
0
 10
0.0
 20
0.0
 11
210.0
 21
297.0
 12
0.0
 22
0.0
 32
0.0
 14
0.0
 24
0.0
 34
0.0
 15
0.0
 25
0.0
 35
0.0
146
0.0
 13
0.0
 23
0.0
 33
0.0
 16
1.0
 26
0.0
 36
0.0
 17
0.0
 27
1.0
 37
0.0
 76
0
330
210
345
0
346
0
  0
LAYOUT
  5
51C
102
{ACAD_REACTORS
330
1A
102
}
100
AcDbPlotSettings
  1

  2
none_device
  4

  6

 40
0.0
 41
0.0
 42
0.0
 43
0.0
 44
210.0
 45
297.0
 46
0.0
 47
0.0
 48
0.0
 49
0.0
140
0.0
141
0.0
142
1.0
143
1.0
 70
0
 72
1
 73
0
 74
0
  7

 75
0
147
1.0
148
0.0
149
0.0
100
AcDbLayout
  1
Layout1
 70
0
 71
1
 10
0.0
 20
0.0
 11
210.0
 21
297.0
 12
0.0
 22
0.0
 32
0.0
 14
0.0
 24
0.0
 34
0.0
 15
0.0
 25
0.0
 35
0.0
146
0.0
 13
0.0
 23
0.0
 33
0.0
 16
1.0
 26
0.0
 36
0.0
 17
0.0
 27
1.0
 37
0.0
 76
0
330
211
345
0
346
0
  0
ENDSEC
  0
EOF
