999
DXF file: C:\Users\sesa63760\Dev\_Creo\CAD\MCADPP0003162_3D-CAD\drw0001_3.dxf
999
Pro/ENGINEER 2019471 by Parametric Technology Corporation
  0
SECTION
  2
HEADER
  9
$ACADVER
  1
AC1024
  9
$DWGCODEPAGE
  3
ANSI_1252
  9
$EXTMAX
 10
2528.1208416772
 20
3575.485190372
 30
0.0
  9
$EXTMIN
 10
0.0
 20
0.0
 30
0.0
  9
$LIMMIN
 10
0.0
 20
0.0
  9
$LIMMAX
 10
2528.1208416772
 20
3575.485190372
  9
$VIEWCTR
 10
1264.0604208386
 20
1787.742595186
  9
$VIEWSIZE
 40
3575.485190372
  9
$CLAYER
  8
0
  9
$LTSCALE
 40
233.0686642613
  9
$CELTYPE
  6
BYLAYER
  9
$DIMSCALE
 40
1.0
  9
$DIMASZ
 40
30.0966766866
  9
$DIMEXO
 40
1.0
  9
$DIMDLI
 40
161.0292589442
  9
$DIMEXE
 40
1.0
  9
$DIMCEN
 40
38.1385086973
  9
$DIMLFAC
 40
1.0
  9
$DIMBLK
  1
_FILLED
  9
$DIMALT
 70
0
  9
$DIMALTF
 40
0.0393700787
  9
$DIMTXT
 40
42.1353473613
  9
$DIMTOL
 70
1
  9
$DIMLIM
 70
0
  9
$DIMTFAC
 40
1.0
  9
$DIMTP
 40
0.01
  9
$DIMTM
 40
0.01
  9
$DIMGAP
 40
0.625
  9
$DIMDSEP
 70
46
  9
$AUNITS
 70
0
  9
$PDMODE
 70
3
  9
$PDSIZE
 40
0.3125
  9
$HANDSEED
  5
4AC
  9
$TILEMODE
 70
1
  9
$MEASUREMENT
 70
1
  9
$INSUNITS
 70
4
  0
ENDSEC
  0
SECTION
  2
CLASSES
  0
CLASS
  1
ACDBDICTIONARYWDFLT
  2
AcDbDictionaryWithDefault
  3
AutoCAD 2000
 90
0
 91
1
280
0
281
0
  0
CLASS
  1
ACDBPLACEHOLDER
  2
AcDbPlaceHolder
  3
AutoCAD 2000
 90
0
 91
1
280
0
281
0
  0
CLASS
  1
LAYOUT
  2
AcDbLayout
  3
AutoCAD 2000
 90
0
 91
0
280
0
281
0
  0
ENDSEC
  0
SECTION
  2
TABLES
  0
TABLE
  2
VPORT
  5
8
100
AcDbSymbolTable
 70
2
  0
VPORT
  5
1F4
100
AcDbSymbolTableRecord
100
AcDbViewportTableRecord
  2
*ACTIVE
 70
0
 10
0.0
 20
0.0
 11
1.0
 21
1.0
 12
1264.0604208386
 22
1787.742595186
 13
0.0
 23
0.0
 14
1.0
 24
1.0
 15
0.0
 25
0.0
 16
0.0
 26
0.0
 36
1.0
 17
0.0
 27
0.0
 37
0.0
 40
3575.485190372
 41
0.7070707071
 42
50.0
 43
0.0
 44
0.0
 50
0.0
 51
0.0
 71
0
 72
100
 73
1
 74
1
 75
0
 76
0
 77
0
 78
0
  0
ENDTAB
  0
TABLE
  2
LTYPE
  5
5
100
AcDbSymbolTable
 70
6
  0
LTYPE
  5
14
100
AcDbSymbolTableRecord
100
AcDbLinetypeTableRecord
  2
BYBLOCK
 70
0
  3

 72
65
 73
0
 40
0.0
  0
LTYPE
  5
15
100
AcDbSymbolTableRecord
100
AcDbLinetypeTableRecord
  2
BYLAYER
 70
0
  3

 72
65
 73
0
 40
0.0
  0
LTYPE
  5
16
100
AcDbSymbolTableRecord
100
AcDbLinetypeTableRecord
  2
CONTINUOUS
 70
64
  3
Solid line
 72
65
 73
0
 40
0.0
  0
LTYPE
  5
1F5
100
AcDbSymbolTableRecord
100
AcDbLinetypeTableRecord
  2
CENTER
 70
64
  3
____ _ ____ _ ____ _ ____ _ ____ _ ____ _ ____
 72
65
 73
4
 40
0.6
 49
0.375
 74
0
 49
-0.075
 74
0
 49
0.075
 74
0
 49
-0.075
 74
0
  0
LTYPE
  5
1F6
100
AcDbSymbolTableRecord
100
AcDbLinetypeTableRecord
  2
HIDDEN
 70
64
  3
- - - - - - - - - - - - - - - - - - - -
 72
65
 73
2
 40
0.2
 49
0.1
 74
0
 49
-0.1
 74
0
  0
LTYPE
  5
1F7
100
AcDbSymbolTableRecord
100
AcDbLinetypeTableRecord
  2
PHANTOM
 70
64
  3
_____ _ _ _____ _ _ _____ _ _ _____
 72
65
 73
6
 40
0.8
 49
0.45
 74
0
 49
-0.05
 74
0
 49
0.1
 74
0
 49
-0.05
 74
0
 49
0.1
 74
0
 49
-0.05
 74
0
  0
LTYPE
  5
1F8
100
AcDbSymbolTableRecord
100
AcDbLinetypeTableRecord
  2
DOT
 70
64
  3
. . . . . . . . . . . . . . . . . . . .
 72
65
 73
2
 40
0.2
 49
0.1
 74
0
 49
-0.1
 74
0
  0
LTYPE
  5
1F9
100
AcDbSymbolTableRecord
100
AcDbLinetypeTableRecord
  2
DASHED
 70
64
  3
- - - - - - - - - - - - - - - - - - - -
 72
65
 73
2
 40
0.2
 49
0.1
 74
0
 49
-0.1
 74
0
  0
ENDTAB
  0
TABLE
  2
LAYER
  5
2
100
AcDbSymbolTable
 70
36
  0
LAYER
  5
10
100
AcDbSymbolTableRecord
100
AcDbLayerTableRecord
  2
0
 70
0
 62
7
  6
CONTINUOUS
370
-3
390
F
  0
LAYER
  5
1FA
100
AcDbSymbolTableRecord
100
AcDbLayerTableRecord
  2
DEFAULT_1
 70
0
 62
7
  6
CENTER
370
-3
390
F
  0
LAYER
  5
1FB
100
AcDbSymbolTableRecord
100
AcDbLayerTableRecord
  2
DEFAULT_2
 70
0
 62
8
  6
HIDDEN
370
-3
390
F
  0
LAYER
  5
1FC
100
AcDbSymbolTableRecord
100
AcDbLayerTableRecord
  2
DEFAULT_3
 70
0
 62
7
  6
PHANTOM
370
-3
390
F
  0
LAYER
  5
1FD
100
AcDbSymbolTableRecord
100
AcDbLayerTableRecord
  2
00_COMPONENTS
 70
0
 62
7
  6
CONTINUOUS
370
-3
390
F
  0
LAYER
  5
1FE
100
AcDbSymbolTableRecord
100
AcDbLayerTableRecord
  2
01_1_DEFAULT_DATUMS
 70
0
 62
7
  6
CONTINUOUS
370
-3
390
F
  0
LAYER
  5
1FF
100
AcDbSymbolTableRecord
100
AcDbLayerTableRecord
  2
01_PLANES
 70
0
 62
7
  6
CONTINUOUS
370
-3
390
F
  0
LAYER
  5
200
100
AcDbSymbolTableRecord
100
AcDbLayerTableRecord
  2
02_COORD_SYS
 70
0
 62
7
  6
CONTINUOUS
370
-3
390
F
  0
LAYER
  5
201
100
AcDbSymbolTableRecord
100
AcDbLayerTableRecord
  2
03_AXES
 70
0
 62
7
  6
CONTINUOUS
370
-3
390
F
  0
LAYER
  5
202
100
AcDbSymbolTableRecord
100
AcDbLayerTableRecord
  2
04_POINTS
 70
0
 62
7
  6
CONTINUOUS
370
-3
390
F
  0
LAYER
  5
203
100
AcDbSymbolTableRecord
100
AcDbLayerTableRecord
  2
05_CURVES
 70
0
 62
7
  6
CONTINUOUS
370
-3
390
F
  0
LAYER
  5
204
100
AcDbSymbolTableRecord
100
AcDbLayerTableRecord
  2
06_SURFS
 70
0
 62
7
  6
CONTINUOUS
370
-3
390
F
  0
LAYER
  5
205
100
AcDbSymbolTableRecord
100
AcDbLayerTableRecord
  2
07_COSMETICS
 70
0
 62
7
  6
CONTINUOUS
370
-3
390
F
  0
LAYER
  5
206
100
AcDbSymbolTableRecord
100
AcDbLayerTableRecord
  2
10_NOTES
 70
0
 62
7
  6
CONTINUOUS
370
-3
390
F
  0
LAYER
  5
207
100
AcDbSymbolTableRecord
100
AcDbLayerTableRecord
  2
11_NOTES_PUB
 70
0
 62
7
  6
CONTINUOUS
370
-3
390
F
  0
LAYER
  5
208
100
AcDbSymbolTableRecord
100
AcDbLayerTableRecord
  2
13_REF_GTOL
 70
0
 62
7
  6
CONTINUOUS
370
-3
390
F
  0
LAYER
  5
209
100
AcDbSymbolTableRecord
100
AcDbLayerTableRecord
  2
16_MISC
 70
0
 62
7
  6
CONTINUOUS
370
-3
390
F
  0
LAYER
  5
20A
100
AcDbSymbolTableRecord
100
AcDbLayerTableRecord
  2
17_NO_PRINT
 70
0
 62
7
  6
CONTINUOUS
370
-3
390
F
  0
LAYER
  5
20B
100
AcDbSymbolTableRecord
100
AcDbLayerTableRecord
  2
18_DATUM_CAMS_JOINTS
 70
0
 62
7
  6
CONTINUOUS
370
-3
390
F
  0
LAYER
  5
20C
100
AcDbSymbolTableRecord
100
AcDbLayerTableRecord
  2
19_DATUM_FUNCTIONAL
 70
0
 62
7
  6
CONTINUOUS
370
-3
390
F
  0
LAYER
  5
20D
100
AcDbSymbolTableRecord
100
AcDbLayerTableRecord
  2
20_DATUM_KINEMATIC_SCHEME
 70
0
 62
7
  6
CONTINUOUS
370
-3
390
F
  0
LAYER
  5
20E
100
AcDbSymbolTableRecord
100
AcDbLayerTableRecord
  2
SHELL178
 70
0
 62
7
  6
CONTINUOUS
370
-3
390
F
  0
ENDTAB
  0
TABLE
  2
STYLE
  5
3
100
AcDbSymbolTable
 70
1
  0
STYLE
  5
11
100
AcDbSymbolTableRecord
100
AcDbTextStyleTableRecord
  2
STANDARD
 70
0
 40
0.0
 41
0.8
 50
0.0
 71
0
 42
0.2
  3
txt
  4

  0
STYLE
  5
20F
100
AcDbSymbolTableRecord
100
AcDbTextStyleTableRecord
  2
TEXTSTYLE_1
 70
0
 40
0.0
 41
0.8
 50
0.0
 71
0
 42
0.2
  3
gdt
  4

  0
ENDTAB
  0
TABLE
  2
VIEW
  5
6
100
AcDbSymbolTable
 70
0
  0
ENDTAB
  0
TABLE
  2
UCS
  5
7
100
AcDbSymbolTable
 70
0
  0
ENDTAB
  0
TABLE
  2
APPID
  5
9
100
AcDbSymbolTable
 70
1
  0
APPID
  5
210
100
AcDbSymbolTableRecord
100
AcDbRegAppTableRecord
  2
ACAD
 70
0
  0
ENDTAB
  0
TABLE
  2
BLOCK_RECORD
  5
1
100
AcDbSymbolTable
 70
0
  0
BLOCK_RECORD
  5
211
100
AcDbSymbolTableRecord
100
AcDbBlockTableRecord
  2
*Model_Space
  0
BLOCK_RECORD
  5
212
100
AcDbSymbolTableRecord
100
AcDbBlockTableRecord
  2
*Paper_Space
  0
BLOCK_RECORD
  5
213
100
AcDbSymbolTableRecord
100
AcDbBlockTableRecord
  2
_FILLED
  0
ENDTAB
  0
TABLE
  2
DIMSTYLE
  5
A
100
AcDbSymbolTable
 70
1
100
AcDbDimStyleTable
 71
0
  0
DIMSTYLE
105
214
100
AcDbSymbolTableRecord
100
AcDbDimStyleTableRecord
  2
STANDARD
 70
0
  3

  4

 40
1.0
 41
30.0966766866
 42
1.0
 43
0.38
 44
1.0
 45
0.0
 46
0.0
 47
0.01
 48
0.01
140
42.1353473613
141
0.09
142
0.0
143
25.4
144
1.0
145
0.0
146
1.0
147
0.625
 71
1
 72
0
 73
0
 74
0
 75
0
 76
0
 77
1
 78
8
 79
2
170
0
171
1
172
0
173
0
174
0
175
0
176
0
177
0
178
0
270
2
179
2
271
2
272
2
273
2
274
2
275
0
280
0
281
0
282
0
283
1
284
8
285
0
286
0
287
3
288
0
340
11
278
46
341
213
342
213
343
213
344
213
  0
ENDTAB
  0
ENDSEC
  0
SECTION
  2
BLOCKS
  0
BLOCK
  5
20
100
AcDbEntity
  8
0
100
AcDbBlockBegin
  2
*Model_Space
 70
0
 10
0.0
 20
0.0
 30
0.0
  3
*Model_Space
  1

  0
ENDBLK
  5
21
100
AcDbEntity
  8
0
100
AcDbBlockEnd
  0
BLOCK
  5
1C
100
AcDbEntity
  8
0
100
AcDbBlockBegin
  2
*Paper_Space
 70
0
 10
0.0
 20
0.0
 30
0.0
  3
*Paper_Space
  1

  0
ENDBLK
  5
1D
100
AcDbEntity
  8
0
100
AcDbBlockEnd
  0
BLOCK
  5
215
100
AcDbEntity
  8
0
100
AcDbBlockBegin
  2
_FILLED
 70
64
 10
0.0
 20
0.0
  3
_FILLED
  1

  0
SOLID
  5
216
100
AcDbEntity
  8
0
  6
BYBLOCK
 62
0
100
AcDbTrace
 10
0.0
 20
0.0
 11
-1.0
 21
0.25
 12
-1.0
 22
-0.25
 13
-1.0
 23
-0.25
  0
ENDBLK
  5
217
100
AcDbEntity
  8
0
  6
BYBLOCK
 62
0
100
AcDbBlockEnd
  0
ENDSEC
  0
SECTION
  2
ENTITIES
  0
LINE
  5
218
100
AcDbEntity
  8
0
100
AcDbLine
 62
7
  6
CONTINUOUS
 10
299.0732917357
 20
1778.9953129103
 11
299.0732917357
 21
1783.9953129103
  0
LINE
  5
219
100
AcDbEntity
  8
0
100
AcDbLine
 62
7
  6
CONTINUOUS
 10
299.0732917357
 20
1784.1953129103
 11
299.0732917357
 21
1808.7953129103
  0
LINE
  5
21A
100
AcDbEntity
  8
0
100
AcDbLine
 62
7
  6
CONTINUOUS
 10
299.0732917357
 20
1808.9953129103
 11
299.0732917357
 21
1813.9953129103
  0
LINE
  5
21B
100
AcDbEntity
  8
0
100
AcDbLine
 62
7
  6
CONTINUOUS
 10
303.0732917357
 20
1798.9953129103
 11
303.0732917357
 21
1793.9953129103
  0
LINE
  5
21C
100
AcDbEntity
  8
0
100
AcDbLine
 62
7
  6
CONTINUOUS
 10
321.0732917357
 20
1793.9953129103
 11
321.0732917357
 21
1798.9953129103
  0
LINE
  5
21D
100
AcDbEntity
  8
0
100
AcDbLine
 62
7
  6
CONTINUOUS
 10
328.0732917357
 20
1798.9953129103
 11
328.0732917357
 21
1793.9953129103
  0
LINE
  5
21E
100
AcDbEntity
  8
0
100
AcDbLine
 62
7
  6
CONTINUOUS
 10
346.0732917357
 20
1793.9953129103
 11
346.0732917357
 21
1798.9953129103
  0
LINE
  5
21F
100
AcDbEntity
  8
0
100
AcDbLine
 62
7
  6
CONTINUOUS
 10
353.0732917357
 20
1798.9953129103
 11
353.0732917357
 21
1793.9953129103
  0
LINE
  5
220
100
AcDbEntity
  8
0
100
AcDbLine
 62
7
  6
CONTINUOUS
 10
371.0732917357
 20
1793.9953129103
 11
371.0732917357
 21
1798.9953129103
  0
LINE
  5
221
100
AcDbEntity
  8
0
100
AcDbLine
 62
7
  6
CONTINUOUS
 10
378.0732917357
 20
1798.9953129103
 11
378.0732917357
 21
1793.9953129103
  0
LINE
  5
222
100
AcDbEntity
  8
0
100
AcDbLine
 62
7
  6
CONTINUOUS
 10
396.0732917357
 20
1793.9953129103
 11
396.0732917357
 21
1798.9953129103
  0
LINE
  5
223
100
AcDbEntity
  8
0
100
AcDbLine
 62
7
  6
CONTINUOUS
 10
403.0732917357
 20
1798.9953129103
 11
403.0732917357
 21
1793.9953129103
  0
LINE
  5
224
100
AcDbEntity
  8
0
100
AcDbLine
 62
7
  6
CONTINUOUS
 10
421.0732917357
 20
1793.9953129103
 11
421.0732917357
 21
1798.9953129103
  0
LINE
  5
225
100
AcDbEntity
  8
0
100
AcDbLine
 62
7
  6
CONTINUOUS
 10
428.0732917357
 20
1798.9953129103
 11
428.0732917357
 21
1793.9953129103
  0
LINE
  5
226
100
AcDbEntity
  8
0
100
AcDbLine
 62
7
  6
CONTINUOUS
 10
446.0732917357
 20
1793.9953129103
 11
446.0732917357
 21
1798.9953129103
  0
LINE
  5
227
100
AcDbEntity
  8
0
100
AcDbLine
 62
7
  6
CONTINUOUS
 10
453.0732917357
 20
1798.9953129103
 11
453.0732917357
 21
1793.9953129103
  0
LINE
  5
228
100
AcDbEntity
  8
0
100
AcDbLine
 62
7
  6
CONTINUOUS
 10
471.0732917357
 20
1793.9953129103
 11
471.0732917357
 21
1798.9953129103
  0
LINE
  5
229
100
AcDbEntity
  8
0
100
AcDbLine
 62
7
  6
CONTINUOUS
 10
478.0732917357
 20
1798.9953129103
 11
478.0732917357
 21
1793.9953129103
  0
LINE
  5
22A
100
AcDbEntity
  8
0
100
AcDbLine
 62
7
  6
CONTINUOUS
 10
496.0732917357
 20
1793.9953129103
 11
496.0732917357
 21
1798.9953129103
  0
LINE
  5
22B
100
AcDbEntity
  8
0
100
AcDbLine
 62
7
  6
CONTINUOUS
 10
503.0732917357
 20
1798.9953129103
 11
503.0732917357
 21
1793.9953129103
  0
LINE
  5
22C
100
AcDbEntity
  8
0
100
AcDbLine
 62
7
  6
CONTINUOUS
 10
521.0732917357
 20
1793.9953129103
 11
521.0732917357
 21
1798.9953129103
  0
LINE
  5
22D
100
AcDbEntity
  8
0
100
AcDbLine
 62
7
  6
CONTINUOUS
 10
528.0732917357
 20
1798.9953129103
 11
528.0732917357
 21
1793.9953129103
  0
LINE
  5
22E
100
AcDbEntity
  8
0
100
AcDbLine
 62
7
  6
CONTINUOUS
 10
546.0732917357
 20
1793.9953129103
 11
546.0732917357
 21
1798.9953129103
  0
LINE
  5
22F
100
AcDbEntity
  8
0
100
AcDbLine
 62
7
  6
CONTINUOUS
 10
553.0732917357
 20
1798.9953129103
 11
553.0732917357
 21
1793.9953129103
  0
LINE
  5
230
100
AcDbEntity
  8
0
100
AcDbLine
 62
7
  6
CONTINUOUS
 10
571.0732917357
 20
1793.9953129103
 11
571.0732917357
 21
1798.9953129103
  0
LINE
  5
231
100
AcDbEntity
  8
0
100
AcDbLine
 62
7
  6
CONTINUOUS
 10
578.0732917357
 20
1798.9953129103
 11
578.0732917357
 21
1793.9953129103
  0
LINE
  5
232
100
AcDbEntity
  8
0
100
AcDbLine
 62
7
  6
CONTINUOUS
 10
596.0732917357
 20
1793.9953129103
 11
596.0732917357
 21
1798.9953129103
  0
LINE
  5
233
100
AcDbEntity
  8
0
100
AcDbLine
 62
7
  6
CONTINUOUS
 10
603.0732917357
 20
1798.9953129103
 11
603.0732917357
 21
1793.9953129103
  0
LINE
  5
234
100
AcDbEntity
  8
0
100
AcDbLine
 62
7
  6
CONTINUOUS
 10
621.0732917357
 20
1793.9953129103
 11
621.0732917357
 21
1798.9953129103
  0
LINE
  5
235
100
AcDbEntity
  8
0
100
AcDbLine
 62
7
  6
CONTINUOUS
 10
628.0732917357
 20
1798.9953129103
 11
628.0732917357
 21
1793.9953129103
  0
LINE
  5
236
100
AcDbEntity
  8
0
100
AcDbLine
 62
7
  6
CONTINUOUS
 10
646.0732917357
 20
1793.9953129103
 11
646.0732917357
 21
1798.9953129103
  0
LINE
  5
237
100
AcDbEntity
  8
0
100
AcDbLine
 62
7
  6
CONTINUOUS
 10
653.0732917357
 20
1798.9953129103
 11
653.0732917357
 21
1793.9953129103
  0
LINE
  5
238
100
AcDbEntity
  8
0
100
AcDbLine
 62
7
  6
CONTINUOUS
 10
671.0732917357
 20
1793.9953129103
 11
671.0732917357
 21
1798.9953129103
  0
LINE
  5
239
100
AcDbEntity
  8
0
100
AcDbLine
 62
7
  6
CONTINUOUS
 10
678.0732917357
 20
1798.9953129103
 11
678.0732917357
 21
1793.9953129103
  0
LINE
  5
23A
100
AcDbEntity
  8
0
100
AcDbLine
 62
7
  6
CONTINUOUS
 10
696.0732917357
 20
1793.9953129103
 11
696.0732917357
 21
1798.9953129103
  0
LINE
  5
23B
100
AcDbEntity
  8
0
100
AcDbLine
 62
7
  6
CONTINUOUS
 10
703.0732917357
 20
1798.9953129103
 11
703.0732917357
 21
1793.9953129103
  0
LINE
  5
23C
100
AcDbEntity
  8
0
100
AcDbLine
 62
7
  6
CONTINUOUS
 10
721.0732917357
 20
1793.9953129103
 11
721.0732917357
 21
1798.9953129103
  0
LINE
  5
23D
100
AcDbEntity
  8
0
100
AcDbLine
 62
7
  6
CONTINUOUS
 10
728.0732917357
 20
1798.9953129103
 11
728.0732917357
 21
1793.9953129103
  0
LINE
  5
23E
100
AcDbEntity
  8
0
100
AcDbLine
 62
7
  6
CONTINUOUS
 10
746.0732917357
 20
1793.9953129103
 11
746.0732917357
 21
1798.9953129103
  0
LINE
  5
23F
100
AcDbEntity
  8
0
100
AcDbLine
 62
7
  6
CONTINUOUS
 10
753.0732917357
 20
1798.9953129103
 11
753.0732917357
 21
1793.9953129103
  0
LINE
  5
240
100
AcDbEntity
  8
0
100
AcDbLine
 62
7
  6
CONTINUOUS
 10
771.0732917357
 20
1793.9953129103
 11
771.0732917357
 21
1798.9953129103
  0
LINE
  5
241
100
AcDbEntity
  8
0
100
AcDbLine
 62
7
  6
CONTINUOUS
 10
778.0732917357
 20
1798.9953129103
 11
778.0732917357
 21
1793.9953129103
  0
LINE
  5
242
100
AcDbEntity
  8
0
100
AcDbLine
 62
7
  6
CONTINUOUS
 10
796.0732917357
 20
1793.9953129103
 11
796.0732917357
 21
1798.9953129103
  0
LINE
  5
243
100
AcDbEntity
  8
0
100
AcDbLine
 62
7
  6
CONTINUOUS
 10
803.0732917357
 20
1798.9953129103
 11
803.0732917357
 21
1793.9953129103
  0
LINE
  5
244
100
AcDbEntity
  8
0
100
AcDbLine
 62
7
  6
CONTINUOUS
 10
821.0732917357
 20
1793.9953129103
 11
821.0732917357
 21
1798.9953129103
  0
LINE
  5
245
100
AcDbEntity
  8
0
100
AcDbLine
 62
7
  6
CONTINUOUS
 10
828.0732917357
 20
1798.9953129103
 11
828.0732917357
 21
1793.9953129103
  0
LINE
  5
246
100
AcDbEntity
  8
0
100
AcDbLine
 62
7
  6
CONTINUOUS
 10
846.0732917357
 20
1793.9953129103
 11
846.0732917357
 21
1798.9953129103
  0
LINE
  5
247
100
AcDbEntity
  8
0
100
AcDbLine
 62
7
  6
CONTINUOUS
 10
853.0732917357
 20
1798.9953129103
 11
853.0732917357
 21
1793.9953129103
  0
LINE
  5
248
100
AcDbEntity
  8
0
100
AcDbLine
 62
7
  6
CONTINUOUS
 10
871.0732917357
 20
1793.9953129103
 11
871.0732917357
 21
1798.9953129103
  0
LINE
  5
249
100
AcDbEntity
  8
0
100
AcDbLine
 62
7
  6
CONTINUOUS
 10
878.0732917357
 20
1798.9953129103
 11
878.0732917357
 21
1793.9953129103
  0
LINE
  5
24A
100
AcDbEntity
  8
0
100
AcDbLine
 62
7
  6
CONTINUOUS
 10
896.0732917357
 20
1793.9953129103
 11
896.0732917357
 21
1798.9953129103
  0
LINE
  5
24B
100
AcDbEntity
  8
0
100
AcDbLine
 62
7
  6
CONTINUOUS
 10
903.0732917357
 20
1798.9953129103
 11
903.0732917357
 21
1793.9953129103
  0
LINE
  5
24C
100
AcDbEntity
  8
0
100
AcDbLine
 62
7
  6
CONTINUOUS
 10
921.0732917357
 20
1793.9953129103
 11
921.0732917357
 21
1798.9953129103
  0
LINE
  5
24D
100
AcDbEntity
  8
0
100
AcDbLine
 62
7
  6
CONTINUOUS
 10
928.0732917357
 20
1798.9953129103
 11
928.0732917357
 21
1793.9953129103
  0
LINE
  5
24E
100
AcDbEntity
  8
0
100
AcDbLine
 62
7
  6
CONTINUOUS
 10
946.0732917357
 20
1793.9953129103
 11
946.0732917357
 21
1798.9953129103
  0
LINE
  5
24F
100
AcDbEntity
  8
0
100
AcDbLine
 62
7
  6
CONTINUOUS
 10
953.0732917357
 20
1798.9953129103
 11
953.0732917357
 21
1793.9953129103
  0
LINE
  5
250
100
AcDbEntity
  8
0
100
AcDbLine
 62
7
  6
CONTINUOUS
 10
971.0732917357
 20
1793.9953129103
 11
971.0732917357
 21
1798.9953129103
  0
LINE
  5
251
100
AcDbEntity
  8
0
100
AcDbLine
 62
7
  6
CONTINUOUS
 10
978.0732917357
 20
1798.9953129103
 11
978.0732917357
 21
1793.9953129103
  0
LINE
  5
252
100
AcDbEntity
  8
0
100
AcDbLine
 62
7
  6
CONTINUOUS
 10
996.0732917357
 20
1793.9953129103
 11
996.0732917357
 21
1798.9953129103
  0
LINE
  5
253
100
AcDbEntity
  8
0
100
AcDbLine
 62
7
  6
CONTINUOUS
 10
1003.0732917357
 20
1798.9953129103
 11
1003.0732917357
 21
1793.9953129103
  0
LINE
  5
254
100
AcDbEntity
  8
0
100
AcDbLine
 62
7
  6
CONTINUOUS
 10
1021.0732917357
 20
1793.9953129103
 11
1021.0732917357
 21
1798.9953129103
  0
LINE
  5
255
100
AcDbEntity
  8
0
100
AcDbLine
 62
7
  6
CONTINUOUS
 10
1028.0732917357
 20
1798.9953129103
 11
1028.0732917357
 21
1793.9953129103
  0
LINE
  5
256
100
AcDbEntity
  8
0
100
AcDbLine
 62
7
  6
CONTINUOUS
 10
1046.0732917357
 20
1793.9953129103
 11
1046.0732917357
 21
1798.9953129103
  0
LINE
  5
257
100
AcDbEntity
  8
0
100
AcDbLine
 62
7
  6
CONTINUOUS
 10
1053.0732917357
 20
1798.9953129103
 11
1053.0732917357
 21
1793.9953129103
  0
LINE
  5
258
100
AcDbEntity
  8
0
100
AcDbLine
 62
7
  6
CONTINUOUS
 10
1071.0732917357
 20
1793.9953129103
 11
1071.0732917357
 21
1798.9953129103
  0
LINE
  5
259
100
AcDbEntity
  8
0
100
AcDbLine
 62
7
  6
CONTINUOUS
 10
1078.0732917357
 20
1798.9953129103
 11
1078.0732917357
 21
1793.9953129103
  0
LINE
  5
25A
100
AcDbEntity
  8
0
100
AcDbLine
 62
7
  6
CONTINUOUS
 10
1096.0732917357
 20
1793.9953129103
 11
1096.0732917357
 21
1798.9953129103
  0
LINE
  5
25B
100
AcDbEntity
  8
0
100
AcDbLine
 62
7
  6
CONTINUOUS
 10
1103.0732917357
 20
1798.9953129103
 11
1103.0732917357
 21
1793.9953129103
  0
LINE
  5
25C
100
AcDbEntity
  8
0
100
AcDbLine
 62
7
  6
CONTINUOUS
 10
1121.0732917357
 20
1793.9953129103
 11
1121.0732917357
 21
1798.9953129103
  0
LINE
  5
25D
100
AcDbEntity
  8
0
100
AcDbLine
 62
7
  6
CONTINUOUS
 10
1128.0732917357
 20
1798.9953129103
 11
1128.0732917357
 21
1793.9953129103
  0
LINE
  5
25E
100
AcDbEntity
  8
0
100
AcDbLine
 62
7
  6
CONTINUOUS
 10
1146.0732917357
 20
1793.9953129103
 11
1146.0732917357
 21
1798.9953129103
  0
LINE
  5
25F
100
AcDbEntity
  8
0
100
AcDbLine
 62
7
  6
CONTINUOUS
 10
1153.0732917357
 20
1798.9953129103
 11
1153.0732917357
 21
1793.9953129103
  0
LINE
  5
260
100
AcDbEntity
  8
0
100
AcDbLine
 62
7
  6
CONTINUOUS
 10
1171.0732917357
 20
1793.9953129103
 11
1171.0732917357
 21
1798.9953129103
  0
LINE
  5
261
100
AcDbEntity
  8
0
100
AcDbLine
 62
7
  6
CONTINUOUS
 10
1178.0732917357
 20
1798.9953129103
 11
1178.0732917357
 21
1793.9953129103
  0
LINE
  5
262
100
AcDbEntity
  8
0
100
AcDbLine
 62
7
  6
CONTINUOUS
 10
1196.0732917357
 20
1793.9953129103
 11
1196.0732917357
 21
1798.9953129103
  0
LINE
  5
263
100
AcDbEntity
  8
0
100
AcDbLine
 62
7
  6
CONTINUOUS
 10
1203.0732917357
 20
1798.9953129103
 11
1203.0732917357
 21
1793.9953129103
  0
LINE
  5
264
100
AcDbEntity
  8
0
100
AcDbLine
 62
7
  6
CONTINUOUS
 10
1221.0732917357
 20
1793.9953129103
 11
1221.0732917357
 21
1798.9953129103
  0
LINE
  5
265
100
AcDbEntity
  8
0
100
AcDbLine
 62
7
  6
CONTINUOUS
 10
1228.0732917357
 20
1798.9953129103
 11
1228.0732917357
 21
1793.9953129103
  0
LINE
  5
266
100
AcDbEntity
  8
0
100
AcDbLine
 62
7
  6
CONTINUOUS
 10
1246.0732917357
 20
1793.9953129103
 11
1246.0732917357
 21
1798.9953129103
  0
LINE
  5
267
100
AcDbEntity
  8
0
100
AcDbLine
 62
7
  6
CONTINUOUS
 10
1253.0732917357
 20
1798.9953129103
 11
1253.0732917357
 21
1793.9953129103
  0
LINE
  5
268
100
AcDbEntity
  8
0
100
AcDbLine
 62
7
  6
CONTINUOUS
 10
1271.0732917357
 20
1793.9953129103
 11
1271.0732917357
 21
1798.9953129103
  0
LINE
  5
269
100
AcDbEntity
  8
0
100
AcDbLine
 62
7
  6
CONTINUOUS
 10
1278.0732917357
 20
1798.9953129103
 11
1278.0732917357
 21
1793.9953129103
  0
LINE
  5
26A
100
AcDbEntity
  8
0
100
AcDbLine
 62
7
  6
CONTINUOUS
 10
1296.0732917357
 20
1793.9953129103
 11
1296.0732917357
 21
1798.9953129103
  0
LINE
  5
26B
100
AcDbEntity
  8
0
100
AcDbLine
 62
7
  6
CONTINUOUS
 10
1303.0732917357
 20
1798.9953129103
 11
1303.0732917357
 21
1793.9953129103
  0
LINE
  5
26C
100
AcDbEntity
  8
0
100
AcDbLine
 62
7
  6
CONTINUOUS
 10
2299.0692917357
 20
1778.9953129103
 11
299.0732917357
 21
1778.9953129103
  0
LINE
  5
26D
100
AcDbEntity
  8
0
100
AcDbLine
 62
7
  6
CONTINUOUS
 10
299.0732917357
 20
1782.7953129103
 11
2299.0692917357
 21
1782.7953129103
  0
LINE
  5
26E
100
AcDbEntity
  8
0
100
AcDbLine
 62
7
  6
CONTINUOUS
 10
2299.0692917357
 20
1783.9953129103
 11
299.0732917357
 21
1783.9953129103
  0
LINE
  5
26F
100
AcDbEntity
  8
0
100
AcDbLine
 62
7
  6
CONTINUOUS
 10
2299.0692917357
 20
1784.1953129103
 11
299.0732917357
 21
1784.1953129103
  0
LINE
  5
270
100
AcDbEntity
  8
0
100
AcDbLine
 62
7
  6
CONTINUOUS
 10
299.0732917357
 20
1787.9953129103
 11
2299.0692917357
 21
1787.9953129103
  0
LINE
  5
271
100
AcDbEntity
  8
0
100
AcDbLine
 62
7
  6
CONTINUOUS
 10
2299.0692917357
 20
1792.9953129103
 11
299.0732917357
 21
1792.9953129103
  0
LINE
  5
272
100
AcDbEntity
  8
0
100
AcDbLine
 62
7
  6
CONTINUOUS
 10
303.5732917357
 20
1793.4953129103
 11
320.5732917357
 21
1793.4953129103
  0
LINE
  5
273
100
AcDbEntity
  8
0
100
AcDbLine
 62
7
  6
CONTINUOUS
 10
328.5732917357
 20
1793.4953129103
 11
345.5732917357
 21
1793.4953129103
  0
LINE
  5
274
100
AcDbEntity
  8
0
100
AcDbLine
 62
7
  6
CONTINUOUS
 10
353.5732917357
 20
1793.4953129103
 11
370.5732917357
 21
1793.4953129103
  0
LINE
  5
275
100
AcDbEntity
  8
0
100
AcDbLine
 62
7
  6
CONTINUOUS
 10
378.5732917357
 20
1793.4953129103
 11
395.5732917357
 21
1793.4953129103
  0
LINE
  5
276
100
AcDbEntity
  8
0
100
AcDbLine
 62
7
  6
CONTINUOUS
 10
403.5732917357
 20
1793.4953129103
 11
420.5732917357
 21
1793.4953129103
  0
LINE
  5
277
100
AcDbEntity
  8
0
100
AcDbLine
 62
7
  6
CONTINUOUS
 10
428.5732917357
 20
1793.4953129103
 11
445.5732917357
 21
1793.4953129103
  0
LINE
  5
278
100
AcDbEntity
  8
0
100
AcDbLine
 62
7
  6
CONTINUOUS
 10
453.5732917357
 20
1793.4953129103
 11
470.5732917357
 21
1793.4953129103
  0
LINE
  5
279
100
AcDbEntity
  8
0
100
AcDbLine
 62
7
  6
CONTINUOUS
 10
478.5732917357
 20
1793.4953129103
 11
495.5732917357
 21
1793.4953129103
  0
LINE
  5
27A
100
AcDbEntity
  8
0
100
AcDbLine
 62
7
  6
CONTINUOUS
 10
503.5732917357
 20
1793.4953129103
 11
520.5732917357
 21
1793.4953129103
  0
LINE
  5
27B
100
AcDbEntity
  8
0
100
AcDbLine
 62
7
  6
CONTINUOUS
 10
528.5732917357
 20
1793.4953129103
 11
545.5732917357
 21
1793.4953129103
  0
LINE
  5
27C
100
AcDbEntity
  8
0
100
AcDbLine
 62
7
  6
CONTINUOUS
 10
553.5732917357
 20
1793.4953129103
 11
570.5732917357
 21
1793.4953129103
  0
LINE
  5
27D
100
AcDbEntity
  8
0
100
AcDbLine
 62
7
  6
CONTINUOUS
 10
578.5732917357
 20
1793.4953129103
 11
595.5732917357
 21
1793.4953129103
  0
LINE
  5
27E
100
AcDbEntity
  8
0
100
AcDbLine
 62
7
  6
CONTINUOUS
 10
603.5732917357
 20
1793.4953129103
 11
620.5732917357
 21
1793.4953129103
  0
LINE
  5
27F
100
AcDbEntity
  8
0
100
AcDbLine
 62
7
  6
CONTINUOUS
 10
628.5732917357
 20
1793.4953129103
 11
645.5732917357
 21
1793.4953129103
  0
LINE
  5
280
100
AcDbEntity
  8
0
100
AcDbLine
 62
7
  6
CONTINUOUS
 10
653.5732917357
 20
1793.4953129103
 11
670.5732917357
 21
1793.4953129103
  0
LINE
  5
281
100
AcDbEntity
  8
0
100
AcDbLine
 62
7
  6
CONTINUOUS
 10
678.5732917357
 20
1793.4953129103
 11
695.5732917357
 21
1793.4953129103
  0
LINE
  5
282
100
AcDbEntity
  8
0
100
AcDbLine
 62
7
  6
CONTINUOUS
 10
703.5732917357
 20
1793.4953129103
 11
720.5732917357
 21
1793.4953129103
  0
LINE
  5
283
100
AcDbEntity
  8
0
100
AcDbLine
 62
7
  6
CONTINUOUS
 10
728.5732917357
 20
1793.4953129103
 11
745.5732917357
 21
1793.4953129103
  0
LINE
  5
284
100
AcDbEntity
  8
0
100
AcDbLine
 62
7
  6
CONTINUOUS
 10
753.5732917357
 20
1793.4953129103
 11
770.5732917357
 21
1793.4953129103
  0
LINE
  5
285
100
AcDbEntity
  8
0
100
AcDbLine
 62
7
  6
CONTINUOUS
 10
778.5732917357
 20
1793.4953129103
 11
795.5732917357
 21
1793.4953129103
  0
LINE
  5
286
100
AcDbEntity
  8
0
100
AcDbLine
 62
7
  6
CONTINUOUS
 10
803.5732917357
 20
1793.4953129103
 11
820.5732917357
 21
1793.4953129103
  0
LINE
  5
287
100
AcDbEntity
  8
0
100
AcDbLine
 62
7
  6
CONTINUOUS
 10
828.5732917357
 20
1793.4953129103
 11
845.5732917357
 21
1793.4953129103
  0
LINE
  5
288
100
AcDbEntity
  8
0
100
AcDbLine
 62
7
  6
CONTINUOUS
 10
853.5732917357
 20
1793.4953129103
 11
870.5732917357
 21
1793.4953129103
  0
LINE
  5
289
100
AcDbEntity
  8
0
100
AcDbLine
 62
7
  6
CONTINUOUS
 10
878.5732917357
 20
1793.4953129103
 11
895.5732917357
 21
1793.4953129103
  0
LINE
  5
28A
100
AcDbEntity
  8
0
100
AcDbLine
 62
7
  6
CONTINUOUS
 10
903.5732917357
 20
1793.4953129103
 11
920.5732917357
 21
1793.4953129103
  0
LINE
  5
28B
100
AcDbEntity
  8
0
100
AcDbLine
 62
7
  6
CONTINUOUS
 10
928.5732917357
 20
1793.4953129103
 11
945.5732917357
 21
1793.4953129103
  0
LINE
  5
28C
100
AcDbEntity
  8
0
100
AcDbLine
 62
7
  6
CONTINUOUS
 10
953.5732917357
 20
1793.4953129103
 11
970.5732917357
 21
1793.4953129103
  0
LINE
  5
28D
100
AcDbEntity
  8
0
100
AcDbLine
 62
7
  6
CONTINUOUS
 10
978.5732917357
 20
1793.4953129103
 11
995.5732917357
 21
1793.4953129103
  0
LINE
  5
28E
100
AcDbEntity
  8
0
100
AcDbLine
 62
7
  6
CONTINUOUS
 10
1003.5732917357
 20
1793.4953129103
 11
1020.5732917357
 21
1793.4953129103
  0
LINE
  5
28F
100
AcDbEntity
  8
0
100
AcDbLine
 62
7
  6
CONTINUOUS
 10
1028.5732917357
 20
1793.4953129103
 11
1045.5732917357
 21
1793.4953129103
  0
LINE
  5
290
100
AcDbEntity
  8
0
100
AcDbLine
 62
7
  6
CONTINUOUS
 10
1053.5732917357
 20
1793.4953129103
 11
1070.5732917357
 21
1793.4953129103
  0
LINE
  5
291
100
AcDbEntity
  8
0
100
AcDbLine
 62
7
  6
CONTINUOUS
 10
1078.5732917357
 20
1793.4953129103
 11
1095.5732917357
 21
1793.4953129103
  0
LINE
  5
292
100
AcDbEntity
  8
0
100
AcDbLine
 62
7
  6
CONTINUOUS
 10
1103.5732917357
 20
1793.4953129103
 11
1120.5732917357
 21
1793.4953129103
  0
LINE
  5
293
100
AcDbEntity
  8
0
100
AcDbLine
 62
7
  6
CONTINUOUS
 10
1128.5732917357
 20
1793.4953129103
 11
1145.5732917357
 21
1793.4953129103
  0
LINE
  5
294
100
AcDbEntity
  8
0
100
AcDbLine
 62
7
  6
CONTINUOUS
 10
1153.5732917357
 20
1793.4953129103
 11
1170.5732917357
 21
1793.4953129103
  0
LINE
  5
295
100
AcDbEntity
  8
0
100
AcDbLine
 62
7
  6
CONTINUOUS
 10
1178.5732917357
 20
1793.4953129103
 11
1195.5732917357
 21
1793.4953129103
  0
LINE
  5
296
100
AcDbEntity
  8
0
100
AcDbLine
 62
7
  6
CONTINUOUS
 10
1203.5732917357
 20
1793.4953129103
 11
1220.5732917357
 21
1793.4953129103
  0
LINE
  5
297
100
AcDbEntity
  8
0
100
AcDbLine
 62
7
  6
CONTINUOUS
 10
1228.5732917357
 20
1793.4953129103
 11
1245.5732917357
 21
1793.4953129103
  0
LINE
  5
298
100
AcDbEntity
  8
0
100
AcDbLine
 62
7
  6
CONTINUOUS
 10
1253.5732917357
 20
1793.4953129103
 11
1270.5732917357
 21
1793.4953129103
  0
LINE
  5
299
100
AcDbEntity
  8
0
100
AcDbLine
 62
7
  6
CONTINUOUS
 10
1278.5732917357
 20
1793.4953129103
 11
1295.5732917357
 21
1793.4953129103
  0
LINE
  5
29A
100
AcDbEntity
  8
0
100
AcDbLine
 62
7
  6
CONTINUOUS
 10
1303.5732917357
 20
1793.4953129103
 11
1320.5732917357
 21
1793.4953129103
  0
LINE
  5
29B
100
AcDbEntity
  8
0
100
AcDbLine
 62
7
  6
CONTINUOUS
 10
1328.5732917357
 20
1793.4953129103
 11
1345.5732917357
 21
1793.4953129103
  0
LINE
  5
29C
100
AcDbEntity
  8
0
100
AcDbLine
 62
7
  6
CONTINUOUS
 10
1353.5732917357
 20
1793.4953129103
 11
1370.5732917357
 21
1793.4953129103
  0
LINE
  5
29D
100
AcDbEntity
  8
0
100
AcDbLine
 62
7
  6
CONTINUOUS
 10
1378.5732917357
 20
1793.4953129103
 11
1395.5732917357
 21
1793.4953129103
  0
LINE
  5
29E
100
AcDbEntity
  8
0
100
AcDbLine
 62
7
  6
CONTINUOUS
 10
1403.5732917357
 20
1793.4953129103
 11
1420.5732917357
 21
1793.4953129103
  0
LINE
  5
29F
100
AcDbEntity
  8
0
100
AcDbLine
 62
7
  6
CONTINUOUS
 10
1428.5732917357
 20
1793.4953129103
 11
1445.5732917357
 21
1793.4953129103
  0
LINE
  5
2A0
100
AcDbEntity
  8
0
100
AcDbLine
 62
7
  6
CONTINUOUS
 10
1453.5732917357
 20
1793.4953129103
 11
1470.5732917357
 21
1793.4953129103
  0
LINE
  5
2A1
100
AcDbEntity
  8
0
100
AcDbLine
 62
7
  6
CONTINUOUS
 10
1478.5732917357
 20
1793.4953129103
 11
1495.5732917357
 21
1793.4953129103
  0
LINE
  5
2A2
100
AcDbEntity
  8
0
100
AcDbLine
 62
7
  6
CONTINUOUS
 10
1503.5732917357
 20
1793.4953129103
 11
1520.5732917357
 21
1793.4953129103
  0
LINE
  5
2A3
100
AcDbEntity
  8
0
100
AcDbLine
 62
7
  6
CONTINUOUS
 10
1528.5732917357
 20
1793.4953129103
 11
1545.5732917357
 21
1793.4953129103
  0
LINE
  5
2A4
100
AcDbEntity
  8
0
100
AcDbLine
 62
7
  6
CONTINUOUS
 10
1553.5732917357
 20
1793.4953129103
 11
1570.5732917357
 21
1793.4953129103
  0
LINE
  5
2A5
100
AcDbEntity
  8
0
100
AcDbLine
 62
7
  6
CONTINUOUS
 10
1578.5732917357
 20
1793.4953129103
 11
1595.5732917357
 21
1793.4953129103
  0
LINE
  5
2A6
100
AcDbEntity
  8
0
100
AcDbLine
 62
7
  6
CONTINUOUS
 10
1603.5732917357
 20
1793.4953129103
 11
1620.5732917357
 21
1793.4953129103
  0
LINE
  5
2A7
100
AcDbEntity
  8
0
100
AcDbLine
 62
7
  6
CONTINUOUS
 10
1628.5732917357
 20
1793.4953129103
 11
1645.5732917357
 21
1793.4953129103
  0
LINE
  5
2A8
100
AcDbEntity
  8
0
100
AcDbLine
 62
7
  6
CONTINUOUS
 10
1653.5732917357
 20
1793.4953129103
 11
1670.5732917357
 21
1793.4953129103
  0
LINE
  5
2A9
100
AcDbEntity
  8
0
100
AcDbLine
 62
7
  6
CONTINUOUS
 10
1678.5732917357
 20
1793.4953129103
 11
1695.5732917357
 21
1793.4953129103
  0
LINE
  5
2AA
100
AcDbEntity
  8
0
100
AcDbLine
 62
7
  6
CONTINUOUS
 10
1703.5732917357
 20
1793.4953129103
 11
1720.5732917357
 21
1793.4953129103
  0
LINE
  5
2AB
100
AcDbEntity
  8
0
100
AcDbLine
 62
7
  6
CONTINUOUS
 10
1728.5732917357
 20
1793.4953129103
 11
1745.5732917357
 21
1793.4953129103
  0
LINE
  5
2AC
100
AcDbEntity
  8
0
100
AcDbLine
 62
7
  6
CONTINUOUS
 10
1753.5732917357
 20
1793.4953129103
 11
1770.5732917357
 21
1793.4953129103
  0
LINE
  5
2AD
100
AcDbEntity
  8
0
100
AcDbLine
 62
7
  6
CONTINUOUS
 10
1778.5732917357
 20
1793.4953129103
 11
1795.5732917357
 21
1793.4953129103
  0
LINE
  5
2AE
100
AcDbEntity
  8
0
100
AcDbLine
 62
7
  6
CONTINUOUS
 10
1803.5732917357
 20
1793.4953129103
 11
1820.5732917357
 21
1793.4953129103
  0
LINE
  5
2AF
100
AcDbEntity
  8
0
100
AcDbLine
 62
7
  6
CONTINUOUS
 10
1828.5732917357
 20
1793.4953129103
 11
1845.5732917357
 21
1793.4953129103
  0
LINE
  5
2B0
100
AcDbEntity
  8
0
100
AcDbLine
 62
7
  6
CONTINUOUS
 10
1853.5732917357
 20
1793.4953129103
 11
1870.5732917357
 21
1793.4953129103
  0
LINE
  5
2B1
100
AcDbEntity
  8
0
100
AcDbLine
 62
7
  6
CONTINUOUS
 10
1878.5732917357
 20
1793.4953129103
 11
1895.5732917357
 21
1793.4953129103
  0
LINE
  5
2B2
100
AcDbEntity
  8
0
100
AcDbLine
 62
7
  6
CONTINUOUS
 10
1903.5732917357
 20
1793.4953129103
 11
1920.5732917357
 21
1793.4953129103
  0
LINE
  5
2B3
100
AcDbEntity
  8
0
100
AcDbLine
 62
7
  6
CONTINUOUS
 10
1928.5732917357
 20
1793.4953129103
 11
1945.5732917357
 21
1793.4953129103
  0
LINE
  5
2B4
100
AcDbEntity
  8
0
100
AcDbLine
 62
7
  6
CONTINUOUS
 10
1953.5732917357
 20
1793.4953129103
 11
1970.5732917357
 21
1793.4953129103
  0
LINE
  5
2B5
100
AcDbEntity
  8
0
100
AcDbLine
 62
7
  6
CONTINUOUS
 10
1978.5732917357
 20
1793.4953129103
 11
1995.5732917357
 21
1793.4953129103
  0
LINE
  5
2B6
100
AcDbEntity
  8
0
100
AcDbLine
 62
7
  6
CONTINUOUS
 10
2003.5732917357
 20
1793.4953129103
 11
2020.5732917357
 21
1793.4953129103
  0
LINE
  5
2B7
100
AcDbEntity
  8
0
100
AcDbLine
 62
7
  6
CONTINUOUS
 10
2028.5732917357
 20
1793.4953129103
 11
2045.5732917357
 21
1793.4953129103
  0
LINE
  5
2B8
100
AcDbEntity
  8
0
100
AcDbLine
 62
7
  6
CONTINUOUS
 10
2053.5732917357
 20
1793.4953129103
 11
2070.5732917357
 21
1793.4953129103
  0
LINE
  5
2B9
100
AcDbEntity
  8
0
100
AcDbLine
 62
7
  6
CONTINUOUS
 10
2078.5732917357
 20
1793.4953129103
 11
2095.5732917357
 21
1793.4953129103
  0
LINE
  5
2BA
100
AcDbEntity
  8
0
100
AcDbLine
 62
7
  6
CONTINUOUS
 10
2103.5732917357
 20
1793.4953129103
 11
2120.5732917357
 21
1793.4953129103
  0
LINE
  5
2BB
100
AcDbEntity
  8
0
100
AcDbLine
 62
7
  6
CONTINUOUS
 10
2128.5732917357
 20
1793.4953129103
 11
2145.5732917357
 21
1793.4953129103
  0
LINE
  5
2BC
100
AcDbEntity
  8
0
100
AcDbLine
 62
7
  6
CONTINUOUS
 10
2153.5732917357
 20
1793.4953129103
 11
2170.5732917357
 21
1793.4953129103
  0
LINE
  5
2BD
100
AcDbEntity
  8
0
100
AcDbLine
 62
7
  6
CONTINUOUS
 10
2178.5732917357
 20
1793.4953129103
 11
2195.5732917357
 21
1793.4953129103
  0
LINE
  5
2BE
100
AcDbEntity
  8
0
100
AcDbLine
 62
7
  6
CONTINUOUS
 10
2203.5732917357
 20
1793.4953129103
 11
2220.5732917357
 21
1793.4953129103
  0
LINE
  5
2BF
100
AcDbEntity
  8
0
100
AcDbLine
 62
7
  6
CONTINUOUS
 10
2228.5732917357
 20
1793.4953129103
 11
2245.5732917357
 21
1793.4953129103
  0
LINE
  5
2C0
100
AcDbEntity
  8
0
100
AcDbLine
 62
7
  6
CONTINUOUS
 10
2253.5732917357
 20
1793.4953129103
 11
2270.5732917357
 21
1793.4953129103
  0
LINE
  5
2C1
100
AcDbEntity
  8
0
100
AcDbLine
 62
7
  6
CONTINUOUS
 10
2278.5732917357
 20
1793.4953129103
 11
2295.5732917357
 21
1793.4953129103
  0
LINE
  5
2C2
100
AcDbEntity
  8
0
100
AcDbLine
 62
7
  6
CONTINUOUS
 10
2295.5732917357
 20
1799.4953129103
 11
2278.5732917357
 21
1799.4953129103
  0
LINE
  5
2C3
100
AcDbEntity
  8
0
100
AcDbLine
 62
7
  6
CONTINUOUS
 10
2270.5732917357
 20
1799.4953129103
 11
2253.5732917357
 21
1799.4953129103
  0
LINE
  5
2C4
100
AcDbEntity
  8
0
100
AcDbLine
 62
7
  6
CONTINUOUS
 10
2245.5732917357
 20
1799.4953129103
 11
2228.5732917357
 21
1799.4953129103
  0
LINE
  5
2C5
100
AcDbEntity
  8
0
100
AcDbLine
 62
7
  6
CONTINUOUS
 10
2220.5732917357
 20
1799.4953129103
 11
2203.5732917357
 21
1799.4953129103
  0
LINE
  5
2C6
100
AcDbEntity
  8
0
100
AcDbLine
 62
7
  6
CONTINUOUS
 10
2195.5732917357
 20
1799.4953129103
 11
2178.5732917357
 21
1799.4953129103
  0
LINE
  5
2C7
100
AcDbEntity
  8
0
100
AcDbLine
 62
7
  6
CONTINUOUS
 10
2170.5732917357
 20
1799.4953129103
 11
2153.5732917357
 21
1799.4953129103
  0
LINE
  5
2C8
100
AcDbEntity
  8
0
100
AcDbLine
 62
7
  6
CONTINUOUS
 10
2145.5732917357
 20
1799.4953129103
 11
2128.5732917357
 21
1799.4953129103
  0
LINE
  5
2C9
100
AcDbEntity
  8
0
100
AcDbLine
 62
7
  6
CONTINUOUS
 10
2120.5732917357
 20
1799.4953129103
 11
2103.5732917357
 21
1799.4953129103
  0
LINE
  5
2CA
100
AcDbEntity
  8
0
100
AcDbLine
 62
7
  6
CONTINUOUS
 10
2095.5732917357
 20
1799.4953129103
 11
2078.5732917357
 21
1799.4953129103
  0
LINE
  5
2CB
100
AcDbEntity
  8
0
100
AcDbLine
 62
7
  6
CONTINUOUS
 10
2070.5732917357
 20
1799.4953129103
 11
2053.5732917357
 21
1799.4953129103
  0
LINE
  5
2CC
100
AcDbEntity
  8
0
100
AcDbLine
 62
7
  6
CONTINUOUS
 10
2045.5732917357
 20
1799.4953129103
 11
2028.5732917357
 21
1799.4953129103
  0
LINE
  5
2CD
100
AcDbEntity
  8
0
100
AcDbLine
 62
7
  6
CONTINUOUS
 10
2020.5732917357
 20
1799.4953129103
 11
2003.5732917357
 21
1799.4953129103
  0
LINE
  5
2CE
100
AcDbEntity
  8
0
100
AcDbLine
 62
7
  6
CONTINUOUS
 10
1995.5732917357
 20
1799.4953129103
 11
1978.5732917357
 21
1799.4953129103
  0
LINE
  5
2CF
100
AcDbEntity
  8
0
100
AcDbLine
 62
7
  6
CONTINUOUS
 10
1970.5732917357
 20
1799.4953129103
 11
1953.5732917357
 21
1799.4953129103
  0
LINE
  5
2D0
100
AcDbEntity
  8
0
100
AcDbLine
 62
7
  6
CONTINUOUS
 10
1945.5732917357
 20
1799.4953129103
 11
1928.5732917357
 21
1799.4953129103
  0
LINE
  5
2D1
100
AcDbEntity
  8
0
100
AcDbLine
 62
7
  6
CONTINUOUS
 10
1920.5732917357
 20
1799.4953129103
 11
1903.5732917357
 21
1799.4953129103
  0
LINE
  5
2D2
100
AcDbEntity
  8
0
100
AcDbLine
 62
7
  6
CONTINUOUS
 10
1895.5732917357
 20
1799.4953129103
 11
1878.5732917357
 21
1799.4953129103
  0
LINE
  5
2D3
100
AcDbEntity
  8
0
100
AcDbLine
 62
7
  6
CONTINUOUS
 10
1870.5732917357
 20
1799.4953129103
 11
1853.5732917357
 21
1799.4953129103
  0
LINE
  5
2D4
100
AcDbEntity
  8
0
100
AcDbLine
 62
7
  6
CONTINUOUS
 10
1845.5732917357
 20
1799.4953129103
 11
1828.5732917357
 21
1799.4953129103
  0
LINE
  5
2D5
100
AcDbEntity
  8
0
100
AcDbLine
 62
7
  6
CONTINUOUS
 10
1820.5732917357
 20
1799.4953129103
 11
1803.5732917357
 21
1799.4953129103
  0
LINE
  5
2D6
100
AcDbEntity
  8
0
100
AcDbLine
 62
7
  6
CONTINUOUS
 10
1795.5732917357
 20
1799.4953129103
 11
1778.5732917357
 21
1799.4953129103
  0
LINE
  5
2D7
100
AcDbEntity
  8
0
100
AcDbLine
 62
7
  6
CONTINUOUS
 10
1770.5732917357
 20
1799.4953129103
 11
1753.5732917357
 21
1799.4953129103
  0
LINE
  5
2D8
100
AcDbEntity
  8
0
100
AcDbLine
 62
7
  6
CONTINUOUS
 10
1745.5732917357
 20
1799.4953129103
 11
1728.5732917357
 21
1799.4953129103
  0
LINE
  5
2D9
100
AcDbEntity
  8
0
100
AcDbLine
 62
7
  6
CONTINUOUS
 10
1720.5732917357
 20
1799.4953129103
 11
1703.5732917357
 21
1799.4953129103
  0
LINE
  5
2DA
100
AcDbEntity
  8
0
100
AcDbLine
 62
7
  6
CONTINUOUS
 10
1695.5732917357
 20
1799.4953129103
 11
1678.5732917357
 21
1799.4953129103
  0
LINE
  5
2DB
100
AcDbEntity
  8
0
100
AcDbLine
 62
7
  6
CONTINUOUS
 10
1670.5732917357
 20
1799.4953129103
 11
1653.5732917357
 21
1799.4953129103
  0
LINE
  5
2DC
100
AcDbEntity
  8
0
100
AcDbLine
 62
7
  6
CONTINUOUS
 10
1645.5732917357
 20
1799.4953129103
 11
1628.5732917357
 21
1799.4953129103
  0
LINE
  5
2DD
100
AcDbEntity
  8
0
100
AcDbLine
 62
7
  6
CONTINUOUS
 10
1620.5732917357
 20
1799.4953129103
 11
1603.5732917357
 21
1799.4953129103
  0
LINE
  5
2DE
100
AcDbEntity
  8
0
100
AcDbLine
 62
7
  6
CONTINUOUS
 10
1595.5732917357
 20
1799.4953129103
 11
1578.5732917357
 21
1799.4953129103
  0
LINE
  5
2DF
100
AcDbEntity
  8
0
100
AcDbLine
 62
7
  6
CONTINUOUS
 10
1570.5732917357
 20
1799.4953129103
 11
1553.5732917357
 21
1799.4953129103
  0
LINE
  5
2E0
100
AcDbEntity
  8
0
100
AcDbLine
 62
7
  6
CONTINUOUS
 10
1545.5732917357
 20
1799.4953129103
 11
1528.5732917357
 21
1799.4953129103
  0
LINE
  5
2E1
100
AcDbEntity
  8
0
100
AcDbLine
 62
7
  6
CONTINUOUS
 10
1520.5732917357
 20
1799.4953129103
 11
1503.5732917357
 21
1799.4953129103
  0
LINE
  5
2E2
100
AcDbEntity
  8
0
100
AcDbLine
 62
7
  6
CONTINUOUS
 10
1495.5732917357
 20
1799.4953129103
 11
1478.5732917357
 21
1799.4953129103
  0
LINE
  5
2E3
100
AcDbEntity
  8
0
100
AcDbLine
 62
7
  6
CONTINUOUS
 10
1470.5732917357
 20
1799.4953129103
 11
1453.5732917357
 21
1799.4953129103
  0
LINE
  5
2E4
100
AcDbEntity
  8
0
100
AcDbLine
 62
7
  6
CONTINUOUS
 10
1445.5732917357
 20
1799.4953129103
 11
1428.5732917357
 21
1799.4953129103
  0
LINE
  5
2E5
100
AcDbEntity
  8
0
100
AcDbLine
 62
7
  6
CONTINUOUS
 10
1420.5732917357
 20
1799.4953129103
 11
1403.5732917357
 21
1799.4953129103
  0
LINE
  5
2E6
100
AcDbEntity
  8
0
100
AcDbLine
 62
7
  6
CONTINUOUS
 10
1395.5732917357
 20
1799.4953129103
 11
1378.5732917357
 21
1799.4953129103
  0
LINE
  5
2E7
100
AcDbEntity
  8
0
100
AcDbLine
 62
7
  6
CONTINUOUS
 10
1370.5732917357
 20
1799.4953129103
 11
1353.5732917357
 21
1799.4953129103
  0
LINE
  5
2E8
100
AcDbEntity
  8
0
100
AcDbLine
 62
7
  6
CONTINUOUS
 10
1345.5732917357
 20
1799.4953129103
 11
1328.5732917357
 21
1799.4953129103
  0
LINE
  5
2E9
100
AcDbEntity
  8
0
100
AcDbLine
 62
7
  6
CONTINUOUS
 10
1320.5732917357
 20
1799.4953129103
 11
1303.5732917357
 21
1799.4953129103
  0
LINE
  5
2EA
100
AcDbEntity
  8
0
100
AcDbLine
 62
7
  6
CONTINUOUS
 10
1295.5732917357
 20
1799.4953129103
 11
1278.5732917357
 21
1799.4953129103
  0
LINE
  5
2EB
100
AcDbEntity
  8
0
100
AcDbLine
 62
7
  6
CONTINUOUS
 10
1270.5732917357
 20
1799.4953129103
 11
1253.5732917357
 21
1799.4953129103
  0
LINE
  5
2EC
100
AcDbEntity
  8
0
100
AcDbLine
 62
7
  6
CONTINUOUS
 10
1245.5732917357
 20
1799.4953129103
 11
1228.5732917357
 21
1799.4953129103
  0
LINE
  5
2ED
100
AcDbEntity
  8
0
100
AcDbLine
 62
7
  6
CONTINUOUS
 10
1220.5732917357
 20
1799.4953129103
 11
1203.5732917357
 21
1799.4953129103
  0
LINE
  5
2EE
100
AcDbEntity
  8
0
100
AcDbLine
 62
7
  6
CONTINUOUS
 10
1195.5732917357
 20
1799.4953129103
 11
1178.5732917357
 21
1799.4953129103
  0
LINE
  5
2EF
100
AcDbEntity
  8
0
100
AcDbLine
 62
7
  6
CONTINUOUS
 10
1170.5732917357
 20
1799.4953129103
 11
1153.5732917357
 21
1799.4953129103
  0
LINE
  5
2F0
100
AcDbEntity
  8
0
100
AcDbLine
 62
7
  6
CONTINUOUS
 10
1145.5732917357
 20
1799.4953129103
 11
1128.5732917357
 21
1799.4953129103
  0
LINE
  5
2F1
100
AcDbEntity
  8
0
100
AcDbLine
 62
7
  6
CONTINUOUS
 10
1120.5732917357
 20
1799.4953129103
 11
1103.5732917357
 21
1799.4953129103
  0
LINE
  5
2F2
100
AcDbEntity
  8
0
100
AcDbLine
 62
7
  6
CONTINUOUS
 10
1095.5732917357
 20
1799.4953129103
 11
1078.5732917357
 21
1799.4953129103
  0
LINE
  5
2F3
100
AcDbEntity
  8
0
100
AcDbLine
 62
7
  6
CONTINUOUS
 10
1070.5732917357
 20
1799.4953129103
 11
1053.5732917357
 21
1799.4953129103
  0
LINE
  5
2F4
100
AcDbEntity
  8
0
100
AcDbLine
 62
7
  6
CONTINUOUS
 10
1045.5732917357
 20
1799.4953129103
 11
1028.5732917357
 21
1799.4953129103
  0
LINE
  5
2F5
100
AcDbEntity
  8
0
100
AcDbLine
 62
7
  6
CONTINUOUS
 10
1020.5732917357
 20
1799.4953129103
 11
1003.5732917357
 21
1799.4953129103
  0
LINE
  5
2F6
100
AcDbEntity
  8
0
100
AcDbLine
 62
7
  6
CONTINUOUS
 10
995.5732917357
 20
1799.4953129103
 11
978.5732917357
 21
1799.4953129103
  0
LINE
  5
2F7
100
AcDbEntity
  8
0
100
AcDbLine
 62
7
  6
CONTINUOUS
 10
970.5732917357
 20
1799.4953129103
 11
953.5732917357
 21
1799.4953129103
  0
LINE
  5
2F8
100
AcDbEntity
  8
0
100
AcDbLine
 62
7
  6
CONTINUOUS
 10
945.5732917357
 20
1799.4953129103
 11
928.5732917357
 21
1799.4953129103
  0
LINE
  5
2F9
100
AcDbEntity
  8
0
100
AcDbLine
 62
7
  6
CONTINUOUS
 10
920.5732917357
 20
1799.4953129103
 11
903.5732917357
 21
1799.4953129103
  0
LINE
  5
2FA
100
AcDbEntity
  8
0
100
AcDbLine
 62
7
  6
CONTINUOUS
 10
895.5732917357
 20
1799.4953129103
 11
878.5732917357
 21
1799.4953129103
  0
LINE
  5
2FB
100
AcDbEntity
  8
0
100
AcDbLine
 62
7
  6
CONTINUOUS
 10
870.5732917357
 20
1799.4953129103
 11
853.5732917357
 21
1799.4953129103
  0
LINE
  5
2FC
100
AcDbEntity
  8
0
100
AcDbLine
 62
7
  6
CONTINUOUS
 10
845.5732917357
 20
1799.4953129103
 11
828.5732917357
 21
1799.4953129103
  0
LINE
  5
2FD
100
AcDbEntity
  8
0
100
AcDbLine
 62
7
  6
CONTINUOUS
 10
820.5732917357
 20
1799.4953129103
 11
803.5732917357
 21
1799.4953129103
  0
LINE
  5
2FE
100
AcDbEntity
  8
0
100
AcDbLine
 62
7
  6
CONTINUOUS
 10
795.5732917357
 20
1799.4953129103
 11
778.5732917357
 21
1799.4953129103
  0
LINE
  5
2FF
100
AcDbEntity
  8
0
100
AcDbLine
 62
7
  6
CONTINUOUS
 10
770.5732917357
 20
1799.4953129103
 11
753.5732917357
 21
1799.4953129103
  0
LINE
  5
300
100
AcDbEntity
  8
0
100
AcDbLine
 62
7
  6
CONTINUOUS
 10
745.5732917357
 20
1799.4953129103
 11
728.5732917357
 21
1799.4953129103
  0
LINE
  5
301
100
AcDbEntity
  8
0
100
AcDbLine
 62
7
  6
CONTINUOUS
 10
720.5732917357
 20
1799.4953129103
 11
703.5732917357
 21
1799.4953129103
  0
LINE
  5
302
100
AcDbEntity
  8
0
100
AcDbLine
 62
7
  6
CONTINUOUS
 10
695.5732917357
 20
1799.4953129103
 11
678.5732917357
 21
1799.4953129103
  0
LINE
  5
303
100
AcDbEntity
  8
0
100
AcDbLine
 62
7
  6
CONTINUOUS
 10
670.5732917357
 20
1799.4953129103
 11
653.5732917357
 21
1799.4953129103
  0
LINE
  5
304
100
AcDbEntity
  8
0
100
AcDbLine
 62
7
  6
CONTINUOUS
 10
645.5732917357
 20
1799.4953129103
 11
628.5732917357
 21
1799.4953129103
  0
LINE
  5
305
100
AcDbEntity
  8
0
100
AcDbLine
 62
7
  6
CONTINUOUS
 10
620.5732917357
 20
1799.4953129103
 11
603.5732917357
 21
1799.4953129103
  0
LINE
  5
306
100
AcDbEntity
  8
0
100
AcDbLine
 62
7
  6
CONTINUOUS
 10
595.5732917357
 20
1799.4953129103
 11
578.5732917357
 21
1799.4953129103
  0
LINE
  5
307
100
AcDbEntity
  8
0
100
AcDbLine
 62
7
  6
CONTINUOUS
 10
570.5732917357
 20
1799.4953129103
 11
553.5732917357
 21
1799.4953129103
  0
LINE
  5
308
100
AcDbEntity
  8
0
100
AcDbLine
 62
7
  6
CONTINUOUS
 10
545.5732917357
 20
1799.4953129103
 11
528.5732917357
 21
1799.4953129103
  0
LINE
  5
309
100
AcDbEntity
  8
0
100
AcDbLine
 62
7
  6
CONTINUOUS
 10
520.5732917357
 20
1799.4953129103
 11
503.5732917357
 21
1799.4953129103
  0
LINE
  5
30A
100
AcDbEntity
  8
0
100
AcDbLine
 62
7
  6
CONTINUOUS
 10
495.5732917357
 20
1799.4953129103
 11
478.5732917357
 21
1799.4953129103
  0
LINE
  5
30B
100
AcDbEntity
  8
0
100
AcDbLine
 62
7
  6
CONTINUOUS
 10
470.5732917357
 20
1799.4953129103
 11
453.5732917357
 21
1799.4953129103
  0
LINE
  5
30C
100
AcDbEntity
  8
0
100
AcDbLine
 62
7
  6
CONTINUOUS
 10
445.5732917357
 20
1799.4953129103
 11
428.5732917357
 21
1799.4953129103
  0
LINE
  5
30D
100
AcDbEntity
  8
0
100
AcDbLine
 62
7
  6
CONTINUOUS
 10
420.5732917357
 20
1799.4953129103
 11
403.5732917357
 21
1799.4953129103
  0
LINE
  5
30E
100
AcDbEntity
  8
0
100
AcDbLine
 62
7
  6
CONTINUOUS
 10
395.5732917357
 20
1799.4953129103
 11
378.5732917357
 21
1799.4953129103
  0
LINE
  5
30F
100
AcDbEntity
  8
0
100
AcDbLine
 62
7
  6
CONTINUOUS
 10
370.5732917357
 20
1799.4953129103
 11
353.5732917357
 21
1799.4953129103
  0
LINE
  5
310
100
AcDbEntity
  8
0
100
AcDbLine
 62
7
  6
CONTINUOUS
 10
345.5732917357
 20
1799.4953129103
 11
328.5732917357
 21
1799.4953129103
  0
LINE
  5
311
100
AcDbEntity
  8
0
100
AcDbLine
 62
7
  6
CONTINUOUS
 10
320.5732917357
 20
1799.4953129103
 11
303.5732917357
 21
1799.4953129103
  0
LINE
  5
312
100
AcDbEntity
  8
0
100
AcDbLine
 62
7
  6
CONTINUOUS
 10
299.0732917357
 20
1799.9953129103
 11
2299.0692917357
 21
1799.9953129103
  0
LINE
  5
313
100
AcDbEntity
  8
0
100
AcDbLine
 62
7
  6
CONTINUOUS
 10
2299.0692917357
 20
1804.9953129103
 11
299.0732917357
 21
1804.9953129103
  0
LINE
  5
314
100
AcDbEntity
  8
0
100
AcDbLine
 62
7
  6
CONTINUOUS
 10
1321.0732917357
 20
1793.9953129103
 11
1321.0732917357
 21
1798.9953129103
  0
LINE
  5
315
100
AcDbEntity
  8
0
100
AcDbLine
 62
7
  6
CONTINUOUS
 10
1328.0732917357
 20
1798.9953129103
 11
1328.0732917357
 21
1793.9953129103
  0
LINE
  5
316
100
AcDbEntity
  8
0
100
AcDbLine
 62
7
  6
CONTINUOUS
 10
1346.0732917357
 20
1793.9953129103
 11
1346.0732917357
 21
1798.9953129103
  0
LINE
  5
317
100
AcDbEntity
  8
0
100
AcDbLine
 62
7
  6
CONTINUOUS
 10
1353.0732917357
 20
1798.9953129103
 11
1353.0732917357
 21
1793.9953129103
  0
LINE
  5
318
100
AcDbEntity
  8
0
100
AcDbLine
 62
7
  6
CONTINUOUS
 10
1371.0732917357
 20
1793.9953129103
 11
1371.0732917357
 21
1798.9953129103
  0
LINE
  5
319
100
AcDbEntity
  8
0
100
AcDbLine
 62
7
  6
CONTINUOUS
 10
299.0732917357
 20
1808.7953129103
 11
2299.0692917357
 21
1808.7953129103
  0
LINE
  5
31A
100
AcDbEntity
  8
0
100
AcDbLine
 62
7
  6
CONTINUOUS
 10
299.0732917357
 20
1808.9953129103
 11
2299.0692917357
 21
1808.9953129103
  0
LINE
  5
31B
100
AcDbEntity
  8
0
100
AcDbLine
 62
7
  6
CONTINUOUS
 10
2299.0692917357
 20
1810.1953129103
 11
299.0732917357
 21
1810.1953129103
  0
LINE
  5
31C
100
AcDbEntity
  8
0
100
AcDbLine
 62
7
  6
CONTINUOUS
 10
2299.0692917357
 20
1813.9953129103
 11
299.0732917357
 21
1813.9953129103
  0
LINE
  5
31D
100
AcDbEntity
  8
0
100
AcDbLine
 62
7
  6
CONTINUOUS
 10
1378.0732917357
 20
1798.9953129103
 11
1378.0732917357
 21
1793.9953129103
  0
LINE
  5
31E
100
AcDbEntity
  8
0
100
AcDbLine
 62
7
  6
CONTINUOUS
 10
1396.0732917357
 20
1793.9953129103
 11
1396.0732917357
 21
1798.9953129103
  0
LINE
  5
31F
100
AcDbEntity
  8
0
100
AcDbLine
 62
7
  6
CONTINUOUS
 10
1403.0732917357
 20
1798.9953129103
 11
1403.0732917357
 21
1793.9953129103
  0
LINE
  5
320
100
AcDbEntity
  8
0
100
AcDbLine
 62
7
  6
CONTINUOUS
 10
1421.0732917357
 20
1793.9953129103
 11
1421.0732917357
 21
1798.9953129103
  0
LINE
  5
321
100
AcDbEntity
  8
0
100
AcDbLine
 62
7
  6
CONTINUOUS
 10
1428.0732917357
 20
1798.9953129103
 11
1428.0732917357
 21
1793.9953129103
  0
LINE
  5
322
100
AcDbEntity
  8
0
100
AcDbLine
 62
7
  6
CONTINUOUS
 10
1446.0732917357
 20
1793.9953129103
 11
1446.0732917357
 21
1798.9953129103
  0
LINE
  5
323
100
AcDbEntity
  8
0
100
AcDbLine
 62
7
  6
CONTINUOUS
 10
1453.0732917357
 20
1798.9953129103
 11
1453.0732917357
 21
1793.9953129103
  0
LINE
  5
324
100
AcDbEntity
  8
0
100
AcDbLine
 62
7
  6
CONTINUOUS
 10
1471.0732917357
 20
1793.9953129103
 11
1471.0732917357
 21
1798.9953129103
  0
LINE
  5
325
100
AcDbEntity
  8
0
100
AcDbLine
 62
7
  6
CONTINUOUS
 10
1478.0732917357
 20
1798.9953129103
 11
1478.0732917357
 21
1793.9953129103
  0
LINE
  5
326
100
AcDbEntity
  8
0
100
AcDbLine
 62
7
  6
CONTINUOUS
 10
1496.0732917357
 20
1793.9953129103
 11
1496.0732917357
 21
1798.9953129103
  0
LINE
  5
327
100
AcDbEntity
  8
0
100
AcDbLine
 62
7
  6
CONTINUOUS
 10
1503.0732917357
 20
1798.9953129103
 11
1503.0732917357
 21
1793.9953129103
  0
LINE
  5
328
100
AcDbEntity
  8
0
100
AcDbLine
 62
7
  6
CONTINUOUS
 10
1521.0732917357
 20
1793.9953129103
 11
1521.0732917357
 21
1798.9953129103
  0
LINE
  5
329
100
AcDbEntity
  8
0
100
AcDbLine
 62
7
  6
CONTINUOUS
 10
1528.0732917357
 20
1798.9953129103
 11
1528.0732917357
 21
1793.9953129103
  0
LINE
  5
32A
100
AcDbEntity
  8
0
100
AcDbLine
 62
7
  6
CONTINUOUS
 10
1546.0732917357
 20
1793.9953129103
 11
1546.0732917357
 21
1798.9953129103
  0
LINE
  5
32B
100
AcDbEntity
  8
0
100
AcDbLine
 62
7
  6
CONTINUOUS
 10
1553.0732917357
 20
1798.9953129103
 11
1553.0732917357
 21
1793.9953129103
  0
LINE
  5
32C
100
AcDbEntity
  8
0
100
AcDbLine
 62
7
  6
CONTINUOUS
 10
1571.0732917357
 20
1793.9953129103
 11
1571.0732917357
 21
1798.9953129103
  0
LINE
  5
32D
100
AcDbEntity
  8
0
100
AcDbLine
 62
7
  6
CONTINUOUS
 10
1578.0732917357
 20
1798.9953129103
 11
1578.0732917357
 21
1793.9953129103
  0
LINE
  5
32E
100
AcDbEntity
  8
0
100
AcDbLine
 62
7
  6
CONTINUOUS
 10
1596.0732917357
 20
1793.9953129103
 11
1596.0732917357
 21
1798.9953129103
  0
LINE
  5
32F
100
AcDbEntity
  8
0
100
AcDbLine
 62
7
  6
CONTINUOUS
 10
1603.0732917357
 20
1798.9953129103
 11
1603.0732917357
 21
1793.9953129103
  0
LINE
  5
330
100
AcDbEntity
  8
0
100
AcDbLine
 62
7
  6
CONTINUOUS
 10
1621.0732917357
 20
1793.9953129103
 11
1621.0732917357
 21
1798.9953129103
  0
LINE
  5
331
100
AcDbEntity
  8
0
100
AcDbLine
 62
7
  6
CONTINUOUS
 10
1628.0732917357
 20
1798.9953129103
 11
1628.0732917357
 21
1793.9953129103
  0
LINE
  5
332
100
AcDbEntity
  8
0
100
AcDbLine
 62
7
  6
CONTINUOUS
 10
1646.0732917357
 20
1793.9953129103
 11
1646.0732917357
 21
1798.9953129103
  0
LINE
  5
333
100
AcDbEntity
  8
0
100
AcDbLine
 62
7
  6
CONTINUOUS
 10
1653.0732917357
 20
1798.9953129103
 11
1653.0732917357
 21
1793.9953129103
  0
LINE
  5
334
100
AcDbEntity
  8
0
100
AcDbLine
 62
7
  6
CONTINUOUS
 10
1671.0732917357
 20
1793.9953129103
 11
1671.0732917357
 21
1798.9953129103
  0
LINE
  5
335
100
AcDbEntity
  8
0
100
AcDbLine
 62
7
  6
CONTINUOUS
 10
1678.0732917357
 20
1798.9953129103
 11
1678.0732917357
 21
1793.9953129103
  0
LINE
  5
336
100
AcDbEntity
  8
0
100
AcDbLine
 62
7
  6
CONTINUOUS
 10
1696.0732917357
 20
1793.9953129103
 11
1696.0732917357
 21
1798.9953129103
  0
LINE
  5
337
100
AcDbEntity
  8
0
100
AcDbLine
 62
7
  6
CONTINUOUS
 10
1703.0732917357
 20
1798.9953129103
 11
1703.0732917357
 21
1793.9953129103
  0
LINE
  5
338
100
AcDbEntity
  8
0
100
AcDbLine
 62
7
  6
CONTINUOUS
 10
1721.0732917357
 20
1793.9953129103
 11
1721.0732917357
 21
1798.9953129103
  0
LINE
  5
339
100
AcDbEntity
  8
0
100
AcDbLine
 62
7
  6
CONTINUOUS
 10
1728.0732917357
 20
1798.9953129103
 11
1728.0732917357
 21
1793.9953129103
  0
LINE
  5
33A
100
AcDbEntity
  8
0
100
AcDbLine
 62
7
  6
CONTINUOUS
 10
1746.0732917357
 20
1793.9953129103
 11
1746.0732917357
 21
1798.9953129103
  0
LINE
  5
33B
100
AcDbEntity
  8
0
100
AcDbLine
 62
7
  6
CONTINUOUS
 10
1753.0732917357
 20
1798.9953129103
 11
1753.0732917357
 21
1793.9953129103
  0
LINE
  5
33C
100
AcDbEntity
  8
0
100
AcDbLine
 62
7
  6
CONTINUOUS
 10
1771.0732917357
 20
1793.9953129103
 11
1771.0732917357
 21
1798.9953129103
  0
LINE
  5
33D
100
AcDbEntity
  8
0
100
AcDbLine
 62
7
  6
CONTINUOUS
 10
1778.0732917357
 20
1798.9953129103
 11
1778.0732917357
 21
1793.9953129103
  0
LINE
  5
33E
100
AcDbEntity
  8
0
100
AcDbLine
 62
7
  6
CONTINUOUS
 10
1796.0732917357
 20
1793.9953129103
 11
1796.0732917357
 21
1798.9953129103
  0
LINE
  5
33F
100
AcDbEntity
  8
0
100
AcDbLine
 62
7
  6
CONTINUOUS
 10
1803.0732917357
 20
1798.9953129103
 11
1803.0732917357
 21
1793.9953129103
  0
LINE
  5
340
100
AcDbEntity
  8
0
100
AcDbLine
 62
7
  6
CONTINUOUS
 10
1821.0732917357
 20
1793.9953129103
 11
1821.0732917357
 21
1798.9953129103
  0
LINE
  5
341
100
AcDbEntity
  8
0
100
AcDbLine
 62
7
  6
CONTINUOUS
 10
1828.0732917357
 20
1798.9953129103
 11
1828.0732917357
 21
1793.9953129103
  0
LINE
  5
342
100
AcDbEntity
  8
0
100
AcDbLine
 62
7
  6
CONTINUOUS
 10
1846.0732917357
 20
1793.9953129103
 11
1846.0732917357
 21
1798.9953129103
  0
LINE
  5
343
100
AcDbEntity
  8
0
100
AcDbLine
 62
7
  6
CONTINUOUS
 10
1853.0732917357
 20
1798.9953129103
 11
1853.0732917357
 21
1793.9953129103
  0
LINE
  5
344
100
AcDbEntity
  8
0
100
AcDbLine
 62
7
  6
CONTINUOUS
 10
1871.0732917357
 20
1793.9953129103
 11
1871.0732917357
 21
1798.9953129103
  0
LINE
  5
345
100
AcDbEntity
  8
0
100
AcDbLine
 62
7
  6
CONTINUOUS
 10
1878.0732917357
 20
1798.9953129103
 11
1878.0732917357
 21
1793.9953129103
  0
LINE
  5
346
100
AcDbEntity
  8
0
100
AcDbLine
 62
7
  6
CONTINUOUS
 10
1896.0732917357
 20
1793.9953129103
 11
1896.0732917357
 21
1798.9953129103
  0
LINE
  5
347
100
AcDbEntity
  8
0
100
AcDbLine
 62
7
  6
CONTINUOUS
 10
1903.0732917357
 20
1798.9953129103
 11
1903.0732917357
 21
1793.9953129103
  0
LINE
  5
348
100
AcDbEntity
  8
0
100
AcDbLine
 62
7
  6
CONTINUOUS
 10
1921.0732917357
 20
1793.9953129103
 11
1921.0732917357
 21
1798.9953129103
  0
LINE
  5
349
100
AcDbEntity
  8
0
100
AcDbLine
 62
7
  6
CONTINUOUS
 10
1928.0732917357
 20
1798.9953129103
 11
1928.0732917357
 21
1793.9953129103
  0
LINE
  5
34A
100
AcDbEntity
  8
0
100
AcDbLine
 62
7
  6
CONTINUOUS
 10
1946.0732917357
 20
1793.9953129103
 11
1946.0732917357
 21
1798.9953129103
  0
LINE
  5
34B
100
AcDbEntity
  8
0
100
AcDbLine
 62
7
  6
CONTINUOUS
 10
1953.0732917357
 20
1798.9953129103
 11
1953.0732917357
 21
1793.9953129103
  0
LINE
  5
34C
100
AcDbEntity
  8
0
100
AcDbLine
 62
7
  6
CONTINUOUS
 10
1971.0732917357
 20
1793.9953129103
 11
1971.0732917357
 21
1798.9953129103
  0
LINE
  5
34D
100
AcDbEntity
  8
0
100
AcDbLine
 62
7
  6
CONTINUOUS
 10
1978.0732917357
 20
1798.9953129103
 11
1978.0732917357
 21
1793.9953129103
  0
LINE
  5
34E
100
AcDbEntity
  8
0
100
AcDbLine
 62
7
  6
CONTINUOUS
 10
1996.0732917357
 20
1793.9953129103
 11
1996.0732917357
 21
1798.9953129103
  0
LINE
  5
34F
100
AcDbEntity
  8
0
100
AcDbLine
 62
7
  6
CONTINUOUS
 10
2003.0732917357
 20
1798.9953129103
 11
2003.0732917357
 21
1793.9953129103
  0
LINE
  5
350
100
AcDbEntity
  8
0
100
AcDbLine
 62
7
  6
CONTINUOUS
 10
2021.0732917357
 20
1793.9953129103
 11
2021.0732917357
 21
1798.9953129103
  0
LINE
  5
351
100
AcDbEntity
  8
0
100
AcDbLine
 62
7
  6
CONTINUOUS
 10
2028.0732917357
 20
1798.9953129103
 11
2028.0732917357
 21
1793.9953129103
  0
LINE
  5
352
100
AcDbEntity
  8
0
100
AcDbLine
 62
7
  6
CONTINUOUS
 10
2046.0732917357
 20
1793.9953129103
 11
2046.0732917357
 21
1798.9953129103
  0
LINE
  5
353
100
AcDbEntity
  8
0
100
AcDbLine
 62
7
  6
CONTINUOUS
 10
2053.0732917357
 20
1798.9953129103
 11
2053.0732917357
 21
1793.9953129103
  0
LINE
  5
354
100
AcDbEntity
  8
0
100
AcDbLine
 62
7
  6
CONTINUOUS
 10
2071.0732917357
 20
1793.9953129103
 11
2071.0732917357
 21
1798.9953129103
  0
LINE
  5
355
100
AcDbEntity
  8
0
100
AcDbLine
 62
7
  6
CONTINUOUS
 10
2078.0732917357
 20
1798.9953129103
 11
2078.0732917357
 21
1793.9953129103
  0
LINE
  5
356
100
AcDbEntity
  8
0
100
AcDbLine
 62
7
  6
CONTINUOUS
 10
2096.0732917357
 20
1793.9953129103
 11
2096.0732917357
 21
1798.9953129103
  0
LINE
  5
357
100
AcDbEntity
  8
0
100
AcDbLine
 62
7
  6
CONTINUOUS
 10
2103.0732917357
 20
1798.9953129103
 11
2103.0732917357
 21
1793.9953129103
  0
LINE
  5
358
100
AcDbEntity
  8
0
100
AcDbLine
 62
7
  6
CONTINUOUS
 10
2121.0732917357
 20
1793.9953129103
 11
2121.0732917357
 21
1798.9953129103
  0
LINE
  5
359
100
AcDbEntity
  8
0
100
AcDbLine
 62
7
  6
CONTINUOUS
 10
2128.0732917357
 20
1798.9953129103
 11
2128.0732917357
 21
1793.9953129103
  0
LINE
  5
35A
100
AcDbEntity
  8
0
100
AcDbLine
 62
7
  6
CONTINUOUS
 10
2146.0732917357
 20
1793.9953129103
 11
2146.0732917357
 21
1798.9953129103
  0
LINE
  5
35B
100
AcDbEntity
  8
0
100
AcDbLine
 62
7
  6
CONTINUOUS
 10
2153.0732917357
 20
1798.9953129103
 11
2153.0732917357
 21
1793.9953129103
  0
LINE
  5
35C
100
AcDbEntity
  8
0
100
AcDbLine
 62
7
  6
CONTINUOUS
 10
2171.0732917357
 20
1793.9953129103
 11
2171.0732917357
 21
1798.9953129103
  0
LINE
  5
35D
100
AcDbEntity
  8
0
100
AcDbLine
 62
7
  6
CONTINUOUS
 10
2178.0732917357
 20
1798.9953129103
 11
2178.0732917357
 21
1793.9953129103
  0
LINE
  5
35E
100
AcDbEntity
  8
0
100
AcDbLine
 62
7
  6
CONTINUOUS
 10
2196.0732917357
 20
1793.9953129103
 11
2196.0732917357
 21
1798.9953129103
  0
LINE
  5
35F
100
AcDbEntity
  8
0
100
AcDbLine
 62
7
  6
CONTINUOUS
 10
2203.0732917357
 20
1798.9953129103
 11
2203.0732917357
 21
1793.9953129103
  0
LINE
  5
360
100
AcDbEntity
  8
0
100
AcDbLine
 62
7
  6
CONTINUOUS
 10
2221.0732917357
 20
1793.9953129103
 11
2221.0732917357
 21
1798.9953129103
  0
LINE
  5
361
100
AcDbEntity
  8
0
100
AcDbLine
 62
7
  6
CONTINUOUS
 10
2228.0732917357
 20
1798.9953129103
 11
2228.0732917357
 21
1793.9953129103
  0
LINE
  5
362
100
AcDbEntity
  8
0
100
AcDbLine
 62
7
  6
CONTINUOUS
 10
2246.0732917357
 20
1793.9953129103
 11
2246.0732917357
 21
1798.9953129103
  0
LINE
  5
363
100
AcDbEntity
  8
0
100
AcDbLine
 62
7
  6
CONTINUOUS
 10
2253.0732917357
 20
1798.9953129103
 11
2253.0732917357
 21
1793.9953129103
  0
LINE
  5
364
100
AcDbEntity
  8
0
100
AcDbLine
 62
7
  6
CONTINUOUS
 10
2271.0732917357
 20
1793.9953129103
 11
2271.0732917357
 21
1798.9953129103
  0
LINE
  5
365
100
AcDbEntity
  8
0
100
AcDbLine
 62
7
  6
CONTINUOUS
 10
2278.0732917357
 20
1798.9953129103
 11
2278.0732917357
 21
1793.9953129103
  0
LINE
  5
366
100
AcDbEntity
  8
0
100
AcDbLine
 62
7
  6
CONTINUOUS
 10
2296.0732917357
 20
1793.9953129103
 11
2296.0732917357
 21
1798.9953129103
  0
LINE
  5
367
100
AcDbEntity
  8
0
100
AcDbLine
 62
7
  6
CONTINUOUS
 10
2299.0692917357
 20
1813.9953129103
 11
2299.0692917357
 21
1808.9953129103
  0
LINE
  5
368
100
AcDbEntity
  8
0
100
AcDbLine
 62
7
  6
CONTINUOUS
 10
2299.0692917357
 20
1808.7953129103
 11
2299.0692917357
 21
1784.1953129103
  0
LINE
  5
369
100
AcDbEntity
  8
0
100
AcDbLine
 62
7
  6
CONTINUOUS
 10
2299.0692917357
 20
1783.9953129103
 11
2299.0692917357
 21
1778.9953129103
  0
ARC
  5
36A
100
AcDbEntity
  8
0
100
AcDbCircle
 62
7
  6
CONTINUOUS
 10
2295.5732917332
 20
1793.9953129128
 40
0.5
100
AcDbArc
 50
269.9999992669
 51
0.0000014104
  0
ARC
  5
36B
100
AcDbEntity
  8
0
100
AcDbCircle
 62
7
  6
CONTINUOUS
 10
2295.5732917332
 20
1798.9953129077
 40
0.5
100
AcDbArc
 50
359.9999992668
 51
90.0000014104
  0
ARC
  5
36C
100
AcDbEntity
  8
0
100
AcDbCircle
 62
7
  6
CONTINUOUS
 10
2278.5732917383
 20
1798.9953129077
 40
0.5
100
AcDbArc
 50
89.9999992669
 51
180.0000014104
  0
ARC
  5
36D
100
AcDbEntity
  8
0
100
AcDbCircle
 62
7
  6
CONTINUOUS
 10
2278.5732917383
 20
1793.9953129128
 40
0.5
100
AcDbArc
 50
179.9999992668
 51
270.0000014104
  0
ARC
  5
36E
100
AcDbEntity
  8
0
100
AcDbCircle
 62
7
  6
CONTINUOUS
 10
2270.5732917332
 20
1793.9953129128
 40
0.5
100
AcDbArc
 50
269.9999992668
 51
0.0000014104
  0
ARC
  5
36F
100
AcDbEntity
  8
0
100
AcDbCircle
 62
7
  6
CONTINUOUS
 10
2270.5732917332
 20
1798.9953129077
 40
0.5
100
AcDbArc
 50
359.9999992668
 51
90.0000014104
  0
ARC
  5
370
100
AcDbEntity
  8
0
100
AcDbCircle
 62
7
  6
CONTINUOUS
 10
2253.5732917383
 20
1798.9953129077
 40
0.5
100
AcDbArc
 50
89.9999992668
 51
180.0000014104
  0
ARC
  5
371
100
AcDbEntity
  8
0
100
AcDbCircle
 62
7
  6
CONTINUOUS
 10
2253.5732917383
 20
1793.9953129128
 40
0.5
100
AcDbArc
 50
179.9999992668
 51
270.0000014104
  0
ARC
  5
372
100
AcDbEntity
  8
0
100
AcDbCircle
 62
7
  6
CONTINUOUS
 10
2245.5732917332
 20
1793.9953129128
 40
0.5
100
AcDbArc
 50
269.9999992668
 51
0.0000014104
  0
ARC
  5
373
100
AcDbEntity
  8
0
100
AcDbCircle
 62
7
  6
CONTINUOUS
 10
2245.5732917332
 20
1798.9953129077
 40
0.5
100
AcDbArc
 50
359.9999992668
 51
90.0000014105
  0
ARC
  5
374
100
AcDbEntity
  8
0
100
AcDbCircle
 62
7
  6
CONTINUOUS
 10
2228.5732917383
 20
1798.9953129077
 40
0.5
100
AcDbArc
 50
89.9999992668
 51
180.0000014104
  0
ARC
  5
375
100
AcDbEntity
  8
0
100
AcDbCircle
 62
7
  6
CONTINUOUS
 10
2228.5732917383
 20
1793.9953129128
 40
0.5
100
AcDbArc
 50
179.9999992668
 51
270.0000014104
  0
ARC
  5
376
100
AcDbEntity
  8
0
100
AcDbCircle
 62
7
  6
CONTINUOUS
 10
2220.5732917332
 20
1793.9953129128
 40
0.5
100
AcDbArc
 50
269.9999992668
 51
0.0000014104
  0
ARC
  5
377
100
AcDbEntity
  8
0
100
AcDbCircle
 62
7
  6
CONTINUOUS
 10
2220.5732917332
 20
1798.9953129077
 40
0.5
100
AcDbArc
 50
359.9999992668
 51
90.0000014104
  0
ARC
  5
378
100
AcDbEntity
  8
0
100
AcDbCircle
 62
7
  6
CONTINUOUS
 10
2203.5732917383
 20
1798.9953129077
 40
0.5
100
AcDbArc
 50
89.9999992668
 51
180.0000014104
  0
ARC
  5
379
100
AcDbEntity
  8
0
100
AcDbCircle
 62
7
  6
CONTINUOUS
 10
2203.5732917383
 20
1793.9953129128
 40
0.5
100
AcDbArc
 50
179.9999992668
 51
270.0000014104
  0
ARC
  5
37A
100
AcDbEntity
  8
0
100
AcDbCircle
 62
7
  6
CONTINUOUS
 10
2195.5732917332
 20
1793.9953129128
 40
0.5
100
AcDbArc
 50
269.9999992669
 51
0.0000014104
  0
ARC
  5
37B
100
AcDbEntity
  8
0
100
AcDbCircle
 62
7
  6
CONTINUOUS
 10
2195.5732917332
 20
1798.9953129077
 40
0.5
100
AcDbArc
 50
359.9999992668
 51
90.0000014104
  0
ARC
  5
37C
100
AcDbEntity
  8
0
100
AcDbCircle
 62
7
  6
CONTINUOUS
 10
2178.5732917383
 20
1798.9953129077
 40
0.5
100
AcDbArc
 50
89.9999992668
 51
180.0000014104
  0
ARC
  5
37D
100
AcDbEntity
  8
0
100
AcDbCircle
 62
7
  6
CONTINUOUS
 10
2178.5732917383
 20
1793.9953129128
 40
0.5
100
AcDbArc
 50
179.9999992668
 51
270.0000014105
  0
ARC
  5
37E
100
AcDbEntity
  8
0
100
AcDbCircle
 62
7
  6
CONTINUOUS
 10
2170.5732917332
 20
1793.9953129128
 40
0.5
100
AcDbArc
 50
269.9999992668
 51
0.0000014104
  0
ARC
  5
37F
100
AcDbEntity
  8
0
100
AcDbCircle
 62
7
  6
CONTINUOUS
 10
2170.5732917332
 20
1798.9953129077
 40
0.5
100
AcDbArc
 50
359.9999992668
 51
90.0000014105
  0
ARC
  5
380
100
AcDbEntity
  8
0
100
AcDbCircle
 62
7
  6
CONTINUOUS
 10
2153.5732917383
 20
1798.9953129077
 40
0.5
100
AcDbArc
 50
89.9999992669
 51
180.0000014104
  0
ARC
  5
381
100
AcDbEntity
  8
0
100
AcDbCircle
 62
7
  6
CONTINUOUS
 10
2153.5732917383
 20
1793.9953129128
 40
0.5
100
AcDbArc
 50
179.9999992668
 51
270.0000014104
  0
ARC
  5
382
100
AcDbEntity
  8
0
100
AcDbCircle
 62
7
  6
CONTINUOUS
 10
2145.5732917332
 20
1793.9953129128
 40
0.5
100
AcDbArc
 50
269.9999992668
 51
0.0000014104
  0
ARC
  5
383
100
AcDbEntity
  8
0
100
AcDbCircle
 62
7
  6
CONTINUOUS
 10
2145.5732917332
 20
1798.9953129077
 40
0.5
100
AcDbArc
 50
359.9999992668
 51
90.0000014104
  0
ARC
  5
384
100
AcDbEntity
  8
0
100
AcDbCircle
 62
7
  6
CONTINUOUS
 10
2128.5732917383
 20
1798.9953129077
 40
0.5
100
AcDbArc
 50
89.9999992668
 51
180.0000014104
  0
ARC
  5
385
100
AcDbEntity
  8
0
100
AcDbCircle
 62
7
  6
CONTINUOUS
 10
2128.5732917383
 20
1793.9953129128
 40
0.5
100
AcDbArc
 50
179.9999992668
 51
270.0000014104
  0
ARC
  5
386
100
AcDbEntity
  8
0
100
AcDbCircle
 62
7
  6
CONTINUOUS
 10
2120.5732917332
 20
1793.9953129128
 40
0.5
100
AcDbArc
 50
269.9999992668
 51
0.0000014104
  0
ARC
  5
387
100
AcDbEntity
  8
0
100
AcDbCircle
 62
7
  6
CONTINUOUS
 10
2120.5732917332
 20
1798.9953129077
 40
0.5
100
AcDbArc
 50
359.9999992668
 51
90.0000014104
  0
ARC
  5
388
100
AcDbEntity
  8
0
100
AcDbCircle
 62
7
  6
CONTINUOUS
 10
2103.5732917383
 20
1798.9953129077
 40
0.5
100
AcDbArc
 50
89.9999992668
 51
180.0000014104
  0
ARC
  5
389
100
AcDbEntity
  8
0
100
AcDbCircle
 62
7
  6
CONTINUOUS
 10
2103.5732917383
 20
1793.9953129128
 40
0.5
100
AcDbArc
 50
179.9999992668
 51
270.0000014105
  0
ARC
  5
38A
100
AcDbEntity
  8
0
100
AcDbCircle
 62
7
  6
CONTINUOUS
 10
2095.5732917332
 20
1793.9953129128
 40
0.5
100
AcDbArc
 50
269.9999992668
 51
0.0000014104
  0
ARC
  5
38B
100
AcDbEntity
  8
0
100
AcDbCircle
 62
7
  6
CONTINUOUS
 10
2095.5732917332
 20
1798.9953129077
 40
0.5
100
AcDbArc
 50
359.9999992668
 51
90.0000014104
  0
ARC
  5
38C
100
AcDbEntity
  8
0
100
AcDbCircle
 62
7
  6
CONTINUOUS
 10
2078.5732917383
 20
1798.9953129077
 40
0.5
100
AcDbArc
 50
89.9999992668
 51
180.0000014104
  0
ARC
  5
38D
100
AcDbEntity
  8
0
100
AcDbCircle
 62
7
  6
CONTINUOUS
 10
2078.5732917383
 20
1793.9953129128
 40
0.5
100
AcDbArc
 50
179.9999992668
 51
270.0000014104
  0
ARC
  5
38E
100
AcDbEntity
  8
0
100
AcDbCircle
 62
7
  6
CONTINUOUS
 10
2070.5732917332
 20
1793.9953129128
 40
0.5
100
AcDbArc
 50
269.9999992669
 51
0.0000014104
  0
ARC
  5
38F
100
AcDbEntity
  8
0
100
AcDbCircle
 62
7
  6
CONTINUOUS
 10
2070.5732917332
 20
1798.9953129077
 40
0.5
100
AcDbArc
 50
359.9999992668
 51
90.0000014104
  0
ARC
  5
390
100
AcDbEntity
  8
0
100
AcDbCircle
 62
7
  6
CONTINUOUS
 10
2053.5732917383
 20
1798.9953129077
 40
0.5
100
AcDbArc
 50
89.9999992669
 51
180.0000014104
  0
ARC
  5
391
100
AcDbEntity
  8
0
100
AcDbCircle
 62
7
  6
CONTINUOUS
 10
2053.5732917383
 20
1793.9953129128
 40
0.5
100
AcDbArc
 50
179.9999992668
 51
270.0000014104
  0
ARC
  5
392
100
AcDbEntity
  8
0
100
AcDbCircle
 62
7
  6
CONTINUOUS
 10
2045.5732917332
 20
1793.9953129128
 40
0.5
100
AcDbArc
 50
269.9999992668
 51
0.0000014104
  0
ARC
  5
393
100
AcDbEntity
  8
0
100
AcDbCircle
 62
7
  6
CONTINUOUS
 10
2045.5732917332
 20
1798.9953129077
 40
0.5
100
AcDbArc
 50
359.9999992668
 51
90.0000014105
  0
ARC
  5
394
100
AcDbEntity
  8
0
100
AcDbCircle
 62
7
  6
CONTINUOUS
 10
2028.5732917383
 20
1798.9953129077
 40
0.5
100
AcDbArc
 50
89.9999992668
 51
180.0000014104
  0
ARC
  5
395
100
AcDbEntity
  8
0
100
AcDbCircle
 62
7
  6
CONTINUOUS
 10
2028.5732917383
 20
1793.9953129128
 40
0.5
100
AcDbArc
 50
179.9999992668
 51
270.0000014104
  0
ARC
  5
396
100
AcDbEntity
  8
0
100
AcDbCircle
 62
7
  6
CONTINUOUS
 10
2020.5732917332
 20
1793.9953129128
 40
0.5
100
AcDbArc
 50
269.9999992668
 51
0.0000014104
  0
ARC
  5
397
100
AcDbEntity
  8
0
100
AcDbCircle
 62
7
  6
CONTINUOUS
 10
2020.5732917332
 20
1798.9953129077
 40
0.5
100
AcDbArc
 50
359.9999992668
 51
90.0000014105
  0
ARC
  5
398
100
AcDbEntity
  8
0
100
AcDbCircle
 62
7
  6
CONTINUOUS
 10
2003.5732917383
 20
1798.9953129077
 40
0.5
100
AcDbArc
 50
89.9999992668
 51
180.0000014104
  0
ARC
  5
399
100
AcDbEntity
  8
0
100
AcDbCircle
 62
7
  6
CONTINUOUS
 10
2003.5732917383
 20
1793.9953129128
 40
0.5
100
AcDbArc
 50
179.9999992668
 51
270.0000014104
  0
ARC
  5
39A
100
AcDbEntity
  8
0
100
AcDbCircle
 62
7
  6
CONTINUOUS
 10
1995.5732917332
 20
1793.9953129128
 40
0.5
100
AcDbArc
 50
269.9999992668
 51
0.0000014104
  0
ARC
  5
39B
100
AcDbEntity
  8
0
100
AcDbCircle
 62
7
  6
CONTINUOUS
 10
1995.5732917332
 20
1798.9953129077
 40
0.5
100
AcDbArc
 50
359.9999992668
 51
90.0000014104
  0
ARC
  5
39C
100
AcDbEntity
  8
0
100
AcDbCircle
 62
7
  6
CONTINUOUS
 10
1978.5732917383
 20
1798.9953129077
 40
0.5
100
AcDbArc
 50
89.9999992668
 51
180.0000014104
  0
ARC
  5
39D
100
AcDbEntity
  8
0
100
AcDbCircle
 62
7
  6
CONTINUOUS
 10
1978.5732917383
 20
1793.9953129128
 40
0.5
100
AcDbArc
 50
179.9999992668
 51
270.0000014105
  0
ARC
  5
39E
100
AcDbEntity
  8
0
100
AcDbCircle
 62
7
  6
CONTINUOUS
 10
1970.5732917332
 20
1793.9953129128
 40
0.5
100
AcDbArc
 50
269.9999992668
 51
0.0000014104
  0
ARC
  5
39F
100
AcDbEntity
  8
0
100
AcDbCircle
 62
7
  6
CONTINUOUS
 10
1970.5732917332
 20
1798.9953129077
 40
0.5
100
AcDbArc
 50
359.9999992668
 51
90.0000014104
  0
ARC
  5
3A0
100
AcDbEntity
  8
0
100
AcDbCircle
 62
7
  6
CONTINUOUS
 10
1953.5732917383
 20
1798.9953129077
 40
0.5
100
AcDbArc
 50
89.9999992668
 51
180.0000014104
  0
ARC
  5
3A1
100
AcDbEntity
  8
0
100
AcDbCircle
 62
7
  6
CONTINUOUS
 10
1953.5732917383
 20
1793.9953129128
 40
0.5
100
AcDbArc
 50
179.9999992668
 51
270.0000014105
  0
ARC
  5
3A2
100
AcDbEntity
  8
0
100
AcDbCircle
 62
7
  6
CONTINUOUS
 10
1945.5732917332
 20
1793.9953129128
 40
0.5
100
AcDbArc
 50
269.9999992669
 51
0.0000014104
  0
ARC
  5
3A3
100
AcDbEntity
  8
0
100
AcDbCircle
 62
7
  6
CONTINUOUS
 10
1945.5732917332
 20
1798.9953129077
 40
0.5
100
AcDbArc
 50
359.9999992668
 51
90.0000014104
  0
ARC
  5
3A4
100
AcDbEntity
  8
0
100
AcDbCircle
 62
7
  6
CONTINUOUS
 10
1928.5732917383
 20
1798.9953129077
 40
0.5
100
AcDbArc
 50
89.9999992669
 51
180.0000014104
  0
ARC
  5
3A5
100
AcDbEntity
  8
0
100
AcDbCircle
 62
7
  6
CONTINUOUS
 10
1928.5732917383
 20
1793.9953129128
 40
0.5
100
AcDbArc
 50
179.9999992668
 51
270.0000014104
  0
ARC
  5
3A6
100
AcDbEntity
  8
0
100
AcDbCircle
 62
7
  6
CONTINUOUS
 10
1920.5732917332
 20
1793.9953129128
 40
0.5
100
AcDbArc
 50
269.9999992668
 51
0.0000014104
  0
ARC
  5
3A7
100
AcDbEntity
  8
0
100
AcDbCircle
 62
7
  6
CONTINUOUS
 10
1920.5732917332
 20
1798.9953129077
 40
0.5
100
AcDbArc
 50
359.9999992668
 51
90.0000014105
  0
ARC
  5
3A8
100
AcDbEntity
  8
0
100
AcDbCircle
 62
7
  6
CONTINUOUS
 10
1903.5732917383
 20
1798.9953129077
 40
0.5
100
AcDbArc
 50
89.9999992668
 51
180.0000014104
  0
ARC
  5
3A9
100
AcDbEntity
  8
0
100
AcDbCircle
 62
7
  6
CONTINUOUS
 10
1903.5732917383
 20
1793.9953129128
 40
0.5
100
AcDbArc
 50
179.9999992668
 51
270.0000014104
  0
ARC
  5
3AA
100
AcDbEntity
  8
0
100
AcDbCircle
 62
7
  6
CONTINUOUS
 10
1895.5732917332
 20
1793.9953129128
 40
0.5
100
AcDbArc
 50
269.9999992668
 51
0.0000014104
  0
ARC
  5
3AB
100
AcDbEntity
  8
0
100
AcDbCircle
 62
7
  6
CONTINUOUS
 10
1895.5732917332
 20
1798.9953129077
 40
0.5
100
AcDbArc
 50
359.9999992668
 51
90.0000014105
  0
ARC
  5
3AC
100
AcDbEntity
  8
0
100
AcDbCircle
 62
7
  6
CONTINUOUS
 10
1878.5732917383
 20
1798.9953129077
 40
0.5
100
AcDbArc
 50
89.9999992668
 51
180.0000014104
  0
ARC
  5
3AD
100
AcDbEntity
  8
0
100
AcDbCircle
 62
7
  6
CONTINUOUS
 10
1878.5732917383
 20
1793.9953129128
 40
0.5
100
AcDbArc
 50
179.9999992668
 51
270.0000014104
  0
ARC
  5
3AE
100
AcDbEntity
  8
0
100
AcDbCircle
 62
7
  6
CONTINUOUS
 10
1870.5732917332
 20
1793.9953129128
 40
0.5
100
AcDbArc
 50
269.9999992668
 51
0.0000014104
  0
ARC
  5
3AF
100
AcDbEntity
  8
0
100
AcDbCircle
 62
7
  6
CONTINUOUS
 10
1870.5732917332
 20
1798.9953129077
 40
0.5
100
AcDbArc
 50
359.9999992668
 51
90.0000014104
  0
ARC
  5
3B0
100
AcDbEntity
  8
0
100
AcDbCircle
 62
7
  6
CONTINUOUS
 10
1853.5732917383
 20
1798.9953129077
 40
0.5
100
AcDbArc
 50
89.9999992668
 51
180.0000014104
  0
ARC
  5
3B1
100
AcDbEntity
  8
0
100
AcDbCircle
 62
7
  6
CONTINUOUS
 10
1853.5732917383
 20
1793.9953129128
 40
0.5
100
AcDbArc
 50
179.9999992668
 51
270.0000014105
  0
ARC
  5
3B2
100
AcDbEntity
  8
0
100
AcDbCircle
 62
7
  6
CONTINUOUS
 10
1845.5732917332
 20
1793.9953129128
 40
0.5
100
AcDbArc
 50
269.9999992668
 51
0.0000014104
  0
ARC
  5
3B3
100
AcDbEntity
  8
0
100
AcDbCircle
 62
7
  6
CONTINUOUS
 10
1845.5732917332
 20
1798.9953129077
 40
0.5
100
AcDbArc
 50
359.9999992668
 51
90.0000014104
  0
ARC
  5
3B4
100
AcDbEntity
  8
0
100
AcDbCircle
 62
7
  6
CONTINUOUS
 10
1828.5732917383
 20
1798.9953129077
 40
0.5
100
AcDbArc
 50
89.9999992668
 51
180.0000014104
  0
ARC
  5
3B5
100
AcDbEntity
  8
0
100
AcDbCircle
 62
7
  6
CONTINUOUS
 10
1828.5732917383
 20
1793.9953129128
 40
0.5
100
AcDbArc
 50
179.9999992668
 51
270.0000014105
  0
ARC
  5
3B6
100
AcDbEntity
  8
0
100
AcDbCircle
 62
7
  6
CONTINUOUS
 10
1820.5732917332
 20
1793.9953129128
 40
0.5
100
AcDbArc
 50
269.9999992669
 51
0.0000014104
  0
ARC
  5
3B7
100
AcDbEntity
  8
0
100
AcDbCircle
 62
7
  6
CONTINUOUS
 10
1820.5732917332
 20
1798.9953129077
 40
0.5
100
AcDbArc
 50
359.9999992668
 51
90.0000014104
  0
ARC
  5
3B8
100
AcDbEntity
  8
0
100
AcDbCircle
 62
7
  6
CONTINUOUS
 10
1803.5732917383
 20
1798.9953129077
 40
0.5
100
AcDbArc
 50
89.9999992669
 51
180.0000014104
  0
ARC
  5
3B9
100
AcDbEntity
  8
0
100
AcDbCircle
 62
7
  6
CONTINUOUS
 10
1803.5732917383
 20
1793.9953129128
 40
0.5
100
AcDbArc
 50
179.9999992668
 51
270.0000014104
  0
ARC
  5
3BA
100
AcDbEntity
  8
0
100
AcDbCircle
 62
7
  6
CONTINUOUS
 10
1795.5732917332
 20
1793.9953129128
 40
0.5
100
AcDbArc
 50
269.9999992668
 51
0.0000014104
  0
ARC
  5
3BB
100
AcDbEntity
  8
0
100
AcDbCircle
 62
7
  6
CONTINUOUS
 10
1795.5732917332
 20
1798.9953129077
 40
0.5
100
AcDbArc
 50
359.9999992668
 51
90.0000014104
  0
ARC
  5
3BC
100
AcDbEntity
  8
0
100
AcDbCircle
 62
7
  6
CONTINUOUS
 10
1778.5732917383
 20
1798.9953129077
 40
0.5
100
AcDbArc
 50
89.9999992668
 51
180.0000014104
  0
ARC
  5
3BD
100
AcDbEntity
  8
0
100
AcDbCircle
 62
7
  6
CONTINUOUS
 10
1778.5732917383
 20
1793.9953129128
 40
0.5
100
AcDbArc
 50
179.9999992668
 51
270.0000014104
  0
ARC
  5
3BE
100
AcDbEntity
  8
0
100
AcDbCircle
 62
7
  6
CONTINUOUS
 10
1770.5732917332
 20
1793.9953129128
 40
0.5
100
AcDbArc
 50
269.9999992668
 51
0.0000014104
  0
ARC
  5
3BF
100
AcDbEntity
  8
0
100
AcDbCircle
 62
7
  6
CONTINUOUS
 10
1770.5732917332
 20
1798.9953129077
 40
0.5
100
AcDbArc
 50
359.9999992668
 51
90.0000014105
  0
ARC
  5
3C0
100
AcDbEntity
  8
0
100
AcDbCircle
 62
7
  6
CONTINUOUS
 10
1753.5732917383
 20
1798.9953129077
 40
0.5
100
AcDbArc
 50
89.9999992668
 51
180.0000014104
  0
ARC
  5
3C1
100
AcDbEntity
  8
0
100
AcDbCircle
 62
7
  6
CONTINUOUS
 10
1753.5732917383
 20
1793.9953129128
 40
0.5
100
AcDbArc
 50
179.9999992668
 51
270.0000014104
  0
ARC
  5
3C2
100
AcDbEntity
  8
0
100
AcDbCircle
 62
7
  6
CONTINUOUS
 10
1745.5732917332
 20
1793.9953129128
 40
0.5
100
AcDbArc
 50
269.9999992668
 51
0.0000014104
  0
ARC
  5
3C3
100
AcDbEntity
  8
0
100
AcDbCircle
 62
7
  6
CONTINUOUS
 10
1745.5732917332
 20
1798.9953129077
 40
0.5
100
AcDbArc
 50
359.9999992668
 51
90.0000014104
  0
ARC
  5
3C4
100
AcDbEntity
  8
0
100
AcDbCircle
 62
7
  6
CONTINUOUS
 10
1728.5732917383
 20
1798.9953129077
 40
0.5
100
AcDbArc
 50
89.9999992668
 51
180.0000014104
  0
ARC
  5
3C5
100
AcDbEntity
  8
0
100
AcDbCircle
 62
7
  6
CONTINUOUS
 10
1728.5732917383
 20
1793.9953129128
 40
0.5
100
AcDbArc
 50
179.9999992668
 51
270.0000014104
  0
ARC
  5
3C6
100
AcDbEntity
  8
0
100
AcDbCircle
 62
7
  6
CONTINUOUS
 10
1720.5732917332
 20
1793.9953129128
 40
0.5
100
AcDbArc
 50
269.9999992669
 51
0.0000014104
  0
ARC
  5
3C7
100
AcDbEntity
  8
0
100
AcDbCircle
 62
7
  6
CONTINUOUS
 10
1720.5732917332
 20
1798.9953129077
 40
0.5
100
AcDbArc
 50
359.9999992668
 51
90.0000014104
  0
ARC
  5
3C8
100
AcDbEntity
  8
0
100
AcDbCircle
 62
7
  6
CONTINUOUS
 10
1703.5732917383
 20
1798.9953129077
 40
0.5
100
AcDbArc
 50
89.9999992668
 51
180.0000014104
  0
ARC
  5
3C9
100
AcDbEntity
  8
0
100
AcDbCircle
 62
7
  6
CONTINUOUS
 10
1703.5732917383
 20
1793.9953129128
 40
0.5
100
AcDbArc
 50
179.9999992668
 51
270.0000014105
  0
ARC
  5
3CA
100
AcDbEntity
  8
0
100
AcDbCircle
 62
7
  6
CONTINUOUS
 10
1695.5732917332
 20
1793.9953129128
 40
0.5
100
AcDbArc
 50
269.9999992668
 51
0.0000014104
  0
ARC
  5
3CB
100
AcDbEntity
  8
0
100
AcDbCircle
 62
7
  6
CONTINUOUS
 10
1695.5732917332
 20
1798.9953129077
 40
0.5
100
AcDbArc
 50
359.9999992668
 51
90.0000014105
  0
ARC
  5
3CC
100
AcDbEntity
  8
0
100
AcDbCircle
 62
7
  6
CONTINUOUS
 10
1678.5732917383
 20
1798.9953129077
 40
0.5
100
AcDbArc
 50
89.9999992669
 51
180.0000014104
  0
ARC
  5
3CD
100
AcDbEntity
  8
0
100
AcDbCircle
 62
7
  6
CONTINUOUS
 10
1678.5732917383
 20
1793.9953129128
 40
0.5
100
AcDbArc
 50
179.9999992668
 51
270.0000014104
  0
ARC
  5
3CE
100
AcDbEntity
  8
0
100
AcDbCircle
 62
7
  6
CONTINUOUS
 10
1670.5732917332
 20
1793.9953129128
 40
0.5
100
AcDbArc
 50
269.9999992668
 51
0.0000014104
  0
ARC
  5
3CF
100
AcDbEntity
  8
0
100
AcDbCircle
 62
7
  6
CONTINUOUS
 10
1670.5732917332
 20
1798.9953129077
 40
0.5
100
AcDbArc
 50
359.9999992668
 51
90.0000014104
  0
ARC
  5
3D0
100
AcDbEntity
  8
0
100
AcDbCircle
 62
7
  6
CONTINUOUS
 10
1653.5732917383
 20
1798.9953129077
 40
0.5
100
AcDbArc
 50
89.9999992668
 51
180.0000014104
  0
ARC
  5
3D1
100
AcDbEntity
  8
0
100
AcDbCircle
 62
7
  6
CONTINUOUS
 10
1653.5732917383
 20
1793.9953129128
 40
0.5
100
AcDbArc
 50
179.9999992668
 51
270.0000014104
  0
ARC
  5
3D2
100
AcDbEntity
  8
0
100
AcDbCircle
 62
7
  6
CONTINUOUS
 10
1645.5732917332
 20
1793.9953129128
 40
0.5
100
AcDbArc
 50
269.9999992668
 51
0.0000014104
  0
ARC
  5
3D3
100
AcDbEntity
  8
0
100
AcDbCircle
 62
7
  6
CONTINUOUS
 10
1645.5732917332
 20
1798.9953129077
 40
0.5
100
AcDbArc
 50
359.9999992668
 51
90.0000014104
  0
ARC
  5
3D4
100
AcDbEntity
  8
0
100
AcDbCircle
 62
7
  6
CONTINUOUS
 10
1628.5732917383
 20
1798.9953129077
 40
0.5
100
AcDbArc
 50
89.9999992668
 51
180.0000014104
  0
ARC
  5
3D5
100
AcDbEntity
  8
0
100
AcDbCircle
 62
7
  6
CONTINUOUS
 10
1628.5732917383
 20
1793.9953129128
 40
0.5
100
AcDbArc
 50
179.9999992668
 51
270.0000014105
  0
ARC
  5
3D6
100
AcDbEntity
  8
0
100
AcDbCircle
 62
7
  6
CONTINUOUS
 10
1620.5732917332
 20
1793.9953129128
 40
0.5
100
AcDbArc
 50
269.9999992668
 51
0.0000014104
  0
ARC
  5
3D7
100
AcDbEntity
  8
0
100
AcDbCircle
 62
7
  6
CONTINUOUS
 10
1620.5732917332
 20
1798.9953129077
 40
0.5
100
AcDbArc
 50
359.9999992668
 51
90.0000014104
  0
ARC
  5
3D8
100
AcDbEntity
  8
0
100
AcDbCircle
 62
7
  6
CONTINUOUS
 10
1603.5732917383
 20
1798.9953129077
 40
0.5
100
AcDbArc
 50
89.9999992668
 51
180.0000014104
  0
ARC
  5
3D9
100
AcDbEntity
  8
0
100
AcDbCircle
 62
7
  6
CONTINUOUS
 10
1603.5732917383
 20
1793.9953129128
 40
0.5
100
AcDbArc
 50
179.9999992668
 51
270.0000014105
  0
ARC
  5
3DA
100
AcDbEntity
  8
0
100
AcDbCircle
 62
7
  6
CONTINUOUS
 10
1595.5732917332
 20
1793.9953129128
 40
0.5
100
AcDbArc
 50
269.9999992669
 51
0.0000014104
  0
ARC
  5
3DB
100
AcDbEntity
  8
0
100
AcDbCircle
 62
7
  6
CONTINUOUS
 10
1595.5732917332
 20
1798.9953129077
 40
0.5
100
AcDbArc
 50
359.9999992668
 51
90.0000014104
  0
ARC
  5
3DC
100
AcDbEntity
  8
0
100
AcDbCircle
 62
7
  6
CONTINUOUS
 10
1578.5732917383
 20
1798.9953129077
 40
0.5
100
AcDbArc
 50
89.9999992669
 51
180.0000014104
  0
ARC
  5
3DD
100
AcDbEntity
  8
0
100
AcDbCircle
 62
7
  6
CONTINUOUS
 10
1578.5732917383
 20
1793.9953129128
 40
0.5
100
AcDbArc
 50
179.9999992668
 51
270.0000014104
  0
ARC
  5
3DE
100
AcDbEntity
  8
0
100
AcDbCircle
 62
7
  6
CONTINUOUS
 10
1570.5732917332
 20
1793.9953129128
 40
0.5
100
AcDbArc
 50
269.9999992668
 51
0.0000014104
  0
ARC
  5
3DF
100
AcDbEntity
  8
0
100
AcDbCircle
 62
7
  6
CONTINUOUS
 10
1570.5732917332
 20
1798.9953129077
 40
0.5
100
AcDbArc
 50
359.9999992668
 51
90.0000014105
  0
ARC
  5
3E0
100
AcDbEntity
  8
0
100
AcDbCircle
 62
7
  6
CONTINUOUS
 10
1553.5732917383
 20
1798.9953129077
 40
0.5
100
AcDbArc
 50
89.9999992668
 51
180.0000014104
  0
ARC
  5
3E1
100
AcDbEntity
  8
0
100
AcDbCircle
 62
7
  6
CONTINUOUS
 10
1553.5732917383
 20
1793.9953129128
 40
0.5
100
AcDbArc
 50
179.9999992668
 51
270.0000014104
  0
ARC
  5
3E2
100
AcDbEntity
  8
0
100
AcDbCircle
 62
7
  6
CONTINUOUS
 10
1545.5732917332
 20
1793.9953129128
 40
0.5
100
AcDbArc
 50
269.9999992668
 51
0.0000014104
  0
ARC
  5
3E3
100
AcDbEntity
  8
0
100
AcDbCircle
 62
7
  6
CONTINUOUS
 10
1545.5732917332
 20
1798.9953129077
 40
0.5
100
AcDbArc
 50
359.9999992668
 51
90.0000014105
  0
ARC
  5
3E4
100
AcDbEntity
  8
0
100
AcDbCircle
 62
7
  6
CONTINUOUS
 10
1528.5732917383
 20
1798.9953129077
 40
0.5
100
AcDbArc
 50
89.9999992668
 51
180.0000014104
  0
ARC
  5
3E5
100
AcDbEntity
  8
0
100
AcDbCircle
 62
7
  6
CONTINUOUS
 10
1528.5732917383
 20
1793.9953129128
 40
0.5
100
AcDbArc
 50
179.9999992668
 51
270.0000014104
  0
ARC
  5
3E6
100
AcDbEntity
  8
0
100
AcDbCircle
 62
7
  6
CONTINUOUS
 10
1520.5732917332
 20
1793.9953129128
 40
0.5
100
AcDbArc
 50
269.9999992668
 51
0.0000014104
  0
ARC
  5
3E7
100
AcDbEntity
  8
0
100
AcDbCircle
 62
7
  6
CONTINUOUS
 10
1520.5732917332
 20
1798.9953129077
 40
0.5
100
AcDbArc
 50
359.9999992668
 51
90.0000014104
  0
ARC
  5
3E8
100
AcDbEntity
  8
0
100
AcDbCircle
 62
7
  6
CONTINUOUS
 10
1503.5732917383
 20
1798.9953129077
 40
0.5
100
AcDbArc
 50
89.9999992668
 51
180.0000014104
  0
ARC
  5
3E9
100
AcDbEntity
  8
0
100
AcDbCircle
 62
7
  6
CONTINUOUS
 10
1503.5732917383
 20
1793.9953129128
 40
0.5
100
AcDbArc
 50
179.9999992668
 51
270.0000014105
  0
ARC
  5
3EA
100
AcDbEntity
  8
0
100
AcDbCircle
 62
7
  6
CONTINUOUS
 10
1495.5732917332
 20
1793.9953129128
 40
0.5
100
AcDbArc
 50
269.9999992668
 51
0.0000014104
  0
ARC
  5
3EB
100
AcDbEntity
  8
0
100
AcDbCircle
 62
7
  6
CONTINUOUS
 10
1495.5732917332
 20
1798.9953129077
 40
0.5
100
AcDbArc
 50
359.9999992668
 51
90.0000014104
  0
ARC
  5
3EC
100
AcDbEntity
  8
0
100
AcDbCircle
 62
7
  6
CONTINUOUS
 10
1478.5732917383
 20
1798.9953129077
 40
0.5
100
AcDbArc
 50
89.9999992668
 51
180.0000014104
  0
ARC
  5
3ED
100
AcDbEntity
  8
0
100
AcDbCircle
 62
7
  6
CONTINUOUS
 10
1478.5732917383
 20
1793.9953129128
 40
0.5
100
AcDbArc
 50
179.9999992668
 51
270.0000014105
  0
ARC
  5
3EE
100
AcDbEntity
  8
0
100
AcDbCircle
 62
7
  6
CONTINUOUS
 10
1470.5732917332
 20
1793.9953129128
 40
0.5
100
AcDbArc
 50
269.9999992669
 51
0.0000014104
  0
ARC
  5
3EF
100
AcDbEntity
  8
0
100
AcDbCircle
 62
7
  6
CONTINUOUS
 10
1470.5732917332
 20
1798.9953129077
 40
0.5
100
AcDbArc
 50
359.9999992668
 51
90.0000014104
  0
ARC
  5
3F0
100
AcDbEntity
  8
0
100
AcDbCircle
 62
7
  6
CONTINUOUS
 10
1453.5732917383
 20
1798.9953129077
 40
0.5
100
AcDbArc
 50
89.9999992669
 51
180.0000014104
  0
ARC
  5
3F1
100
AcDbEntity
  8
0
100
AcDbCircle
 62
7
  6
CONTINUOUS
 10
1453.5732917383
 20
1793.9953129128
 40
0.5
100
AcDbArc
 50
179.9999992668
 51
270.0000014104
  0
ARC
  5
3F2
100
AcDbEntity
  8
0
100
AcDbCircle
 62
7
  6
CONTINUOUS
 10
1445.5732917332
 20
1793.9953129128
 40
0.5
100
AcDbArc
 50
269.9999992668
 51
0.0000014104
  0
ARC
  5
3F3
100
AcDbEntity
  8
0
100
AcDbCircle
 62
7
  6
CONTINUOUS
 10
1445.5732917332
 20
1798.9953129077
 40
0.5
100
AcDbArc
 50
359.9999992668
 51
90.0000014105
  0
ARC
  5
3F4
100
AcDbEntity
  8
0
100
AcDbCircle
 62
7
  6
CONTINUOUS
 10
1428.5732917383
 20
1798.9953129077
 40
0.5
100
AcDbArc
 50
89.9999992668
 51
180.0000014104
  0
ARC
  5
3F5
100
AcDbEntity
  8
0
100
AcDbCircle
 62
7
  6
CONTINUOUS
 10
1428.5732917383
 20
1793.9953129128
 40
0.5
100
AcDbArc
 50
179.9999992668
 51
270.0000014104
  0
ARC
  5
3F6
100
AcDbEntity
  8
0
100
AcDbCircle
 62
7
  6
CONTINUOUS
 10
1420.5732917332
 20
1793.9953129128
 40
0.5
100
AcDbArc
 50
269.9999992668
 51
0.0000014104
  0
ARC
  5
3F7
100
AcDbEntity
  8
0
100
AcDbCircle
 62
7
  6
CONTINUOUS
 10
1420.5732917332
 20
1798.9953129077
 40
0.5
100
AcDbArc
 50
359.9999992668
 51
90.0000014105
  0
ARC
  5
3F8
100
AcDbEntity
  8
0
100
AcDbCircle
 62
7
  6
CONTINUOUS
 10
1403.5732917383
 20
1798.9953129077
 40
0.5
100
AcDbArc
 50
89.9999992668
 51
180.0000014104
  0
ARC
  5
3F9
100
AcDbEntity
  8
0
100
AcDbCircle
 62
7
  6
CONTINUOUS
 10
1403.5732917383
 20
1793.9953129128
 40
0.5
100
AcDbArc
 50
179.9999992668
 51
270.0000014104
  0
ARC
  5
3FA
100
AcDbEntity
  8
0
100
AcDbCircle
 62
7
  6
CONTINUOUS
 10
1395.5732917332
 20
1793.9953129128
 40
0.5
100
AcDbArc
 50
269.9999992668
 51
0.0000014104
  0
ARC
  5
3FB
100
AcDbEntity
  8
0
100
AcDbCircle
 62
7
  6
CONTINUOUS
 10
1395.5732917332
 20
1798.9953129077
 40
0.5
100
AcDbArc
 50
359.9999992668
 51
90.0000014104
  0
ARC
  5
3FC
100
AcDbEntity
  8
0
100
AcDbCircle
 62
7
  6
CONTINUOUS
 10
1378.5732917383
 20
1798.9953129077
 40
0.5
100
AcDbArc
 50
89.9999992668
 51
180.0000014104
  0
ARC
  5
3FD
100
AcDbEntity
  8
0
100
AcDbCircle
 62
7
  6
CONTINUOUS
 10
1378.5732917383
 20
1793.9953129128
 40
0.5
100
AcDbArc
 50
179.9999992668
 51
270.0000014104
  0
ARC
  5
3FE
100
AcDbEntity
  8
0
100
AcDbCircle
 62
7
  6
CONTINUOUS
 10
1370.5732917332
 20
1793.9953129128
 40
0.5
100
AcDbArc
 50
269.9999992668
 51
0.0000014104
  0
ARC
  5
3FF
100
AcDbEntity
  8
0
100
AcDbCircle
 62
7
  6
CONTINUOUS
 10
1370.5732917332
 20
1798.9953129077
 40
0.5
100
AcDbArc
 50
359.9999992668
 51
90.0000014104
  0
ARC
  5
400
100
AcDbEntity
  8
0
100
AcDbCircle
 62
7
  6
CONTINUOUS
 10
1353.5732917383
 20
1798.9953129077
 40
0.5
100
AcDbArc
 50
89.9999992668
 51
180.0000014104
  0
ARC
  5
401
100
AcDbEntity
  8
0
100
AcDbCircle
 62
7
  6
CONTINUOUS
 10
1353.5732917383
 20
1793.9953129128
 40
0.5
100
AcDbArc
 50
179.9999992668
 51
270.0000014105
  0
ARC
  5
402
100
AcDbEntity
  8
0
100
AcDbCircle
 62
7
  6
CONTINUOUS
 10
1345.5732917332
 20
1793.9953129128
 40
0.5
100
AcDbArc
 50
269.9999992668
 51
0.0000014104
  0
ARC
  5
403
100
AcDbEntity
  8
0
100
AcDbCircle
 62
7
  6
CONTINUOUS
 10
1345.5732917332
 20
1798.9953129077
 40
0.5
100
AcDbArc
 50
359.9999992668
 51
90.0000014105
  0
ARC
  5
404
100
AcDbEntity
  8
0
100
AcDbCircle
 62
7
  6
CONTINUOUS
 10
1328.5732917383
 20
1798.9953129077
 40
0.5
100
AcDbArc
 50
89.9999992669
 51
180.0000014104
  0
ARC
  5
405
100
AcDbEntity
  8
0
100
AcDbCircle
 62
7
  6
CONTINUOUS
 10
1328.5732917383
 20
1793.9953129128
 40
0.5
100
AcDbArc
 50
179.9999992668
 51
270.0000014104
  0
ARC
  5
406
100
AcDbEntity
  8
0
100
AcDbCircle
 62
7
  6
CONTINUOUS
 10
1320.5732917332
 20
1793.9953129128
 40
0.5
100
AcDbArc
 50
269.9999992668
 51
0.0000014104
  0
ARC
  5
407
100
AcDbEntity
  8
0
100
AcDbCircle
 62
7
  6
CONTINUOUS
 10
1320.5732917332
 20
1798.9953129077
 40
0.5
100
AcDbArc
 50
359.9999992668
 51
90.0000014105
  0
ARC
  5
408
100
AcDbEntity
  8
0
100
AcDbCircle
 62
7
  6
CONTINUOUS
 10
1303.5732917383
 20
1798.9953129077
 40
0.5
100
AcDbArc
 50
89.9999992668
 51
180.0000014104
  0
ARC
  5
409
100
AcDbEntity
  8
0
100
AcDbCircle
 62
7
  6
CONTINUOUS
 10
1303.5732917383
 20
1793.9953129128
 40
0.5
100
AcDbArc
 50
179.9999992668
 51
270.0000014104
  0
ARC
  5
40A
100
AcDbEntity
  8
0
100
AcDbCircle
 62
7
  6
CONTINUOUS
 10
1295.5732917332
 20
1793.9953129128
 40
0.5
100
AcDbArc
 50
269.9999992668
 51
0.00000141
  0
ARC
  5
40B
100
AcDbEntity
  8
0
100
AcDbCircle
 62
7
  6
CONTINUOUS
 10
1295.5732917332
 20
1798.9953129077
 40
0.5
100
AcDbArc
 50
359.9999992672
 51
90.0000014105
  0
ARC
  5
40C
100
AcDbEntity
  8
0
100
AcDbCircle
 62
7
  6
CONTINUOUS
 10
1278.5732917383
 20
1798.9953129077
 40
0.5
100
AcDbArc
 50
89.9999992668
 51
180.0000014104
  0
ARC
  5
40D
100
AcDbEntity
  8
0
100
AcDbCircle
 62
7
  6
CONTINUOUS
 10
1278.5732917383
 20
1793.9953129128
 40
0.5
100
AcDbArc
 50
179.9999992668
 51
270.0000014104
  0
ARC
  5
40E
100
AcDbEntity
  8
0
100
AcDbCircle
 62
7
  6
CONTINUOUS
 10
1270.5732917332
 20
1793.9953129128
 40
0.5
100
AcDbArc
 50
269.9999992668
 51
0.0000014104
  0
ARC
  5
40F
100
AcDbEntity
  8
0
100
AcDbCircle
 62
7
  6
CONTINUOUS
 10
1270.5732917332
 20
1798.9953129077
 40
0.5
100
AcDbArc
 50
359.9999992668
 51
90.0000014104
  0
ARC
  5
410
100
AcDbEntity
  8
0
100
AcDbCircle
 62
7
  6
CONTINUOUS
 10
1253.5732917383
 20
1798.9953129077
 40
0.5
100
AcDbArc
 50
89.9999992668
 51
180.0000014104
  0
ARC
  5
411
100
AcDbEntity
  8
0
100
AcDbCircle
 62
7
  6
CONTINUOUS
 10
1253.5732917383
 20
1793.9953129128
 40
0.5
100
AcDbArc
 50
179.9999992668
 51
270.0000014104
  0
ARC
  5
412
100
AcDbEntity
  8
0
100
AcDbCircle
 62
7
  6
CONTINUOUS
 10
1245.5732917332
 20
1793.9953129128
 40
0.5
100
AcDbArc
 50
269.9999992668
 51
0.0000014104
  0
ARC
  5
413
100
AcDbEntity
  8
0
100
AcDbCircle
 62
7
  6
CONTINUOUS
 10
1245.5732917332
 20
1798.9953129077
 40
0.5
100
AcDbArc
 50
359.9999992668
 51
90.0000014104
  0
ARC
  5
414
100
AcDbEntity
  8
0
100
AcDbCircle
 62
7
  6
CONTINUOUS
 10
1228.5732917383
 20
1798.9953129077
 40
0.5
100
AcDbArc
 50
89.9999992668
 51
180.0000014104
  0
ARC
  5
415
100
AcDbEntity
  8
0
100
AcDbCircle
 62
7
  6
CONTINUOUS
 10
1228.5732917383
 20
1793.9953129128
 40
0.5
100
AcDbArc
 50
179.9999992668
 51
270.0000014105
  0
ARC
  5
416
100
AcDbEntity
  8
0
100
AcDbCircle
 62
7
  6
CONTINUOUS
 10
1220.5732917332
 20
1793.9953129128
 40
0.5
100
AcDbArc
 50
269.9999992668
 51
0.0000014104
  0
ARC
  5
417
100
AcDbEntity
  8
0
100
AcDbCircle
 62
7
  6
CONTINUOUS
 10
1220.5732917332
 20
1798.9953129077
 40
0.5
100
AcDbArc
 50
359.9999992668
 51
90.0000014105
  0
ARC
  5
418
100
AcDbEntity
  8
0
100
AcDbCircle
 62
7
  6
CONTINUOUS
 10
1203.5732917383
 20
1798.9953129077
 40
0.5
100
AcDbArc
 50
89.9999992668
 51
180.0000014104
  0
ARC
  5
419
100
AcDbEntity
  8
0
100
AcDbCircle
 62
7
  6
CONTINUOUS
 10
1203.5732917383
 20
1793.9953129128
 40
0.5
100
AcDbArc
 50
179.9999992668
 51
270.0000014104
  0
ARC
  5
41A
100
AcDbEntity
  8
0
100
AcDbCircle
 62
7
  6
CONTINUOUS
 10
1195.5732917332
 20
1793.9953129128
 40
0.5
100
AcDbArc
 50
269.9999992668
 51
0.0000014104
  0
ARC
  5
41B
100
AcDbEntity
  8
0
100
AcDbCircle
 62
7
  6
CONTINUOUS
 10
1195.5732917332
 20
1798.9953129077
 40
0.5
100
AcDbArc
 50
359.9999992668
 51
90.0000014104
  0
ARC
  5
41C
100
AcDbEntity
  8
0
100
AcDbCircle
 62
7
  6
CONTINUOUS
 10
1178.5732917383
 20
1798.9953129077
 40
0.5
100
AcDbArc
 50
89.9999992668
 51
180.0000014104
  0
ARC
  5
41D
100
AcDbEntity
  8
0
100
AcDbCircle
 62
7
  6
CONTINUOUS
 10
1178.5732917383
 20
1793.9953129128
 40
0.5
100
AcDbArc
 50
179.9999992668
 51
270.0000014105
  0
ARC
  5
41E
100
AcDbEntity
  8
0
100
AcDbCircle
 62
7
  6
CONTINUOUS
 10
1170.5732917332
 20
1793.9953129128
 40
0.5
100
AcDbArc
 50
269.9999992668
 51
0.0000014104
  0
ARC
  5
41F
100
AcDbEntity
  8
0
100
AcDbCircle
 62
7
  6
CONTINUOUS
 10
1170.5732917332
 20
1798.9953129077
 40
0.5
100
AcDbArc
 50
359.9999992668
 51
90.0000014105
  0
ARC
  5
420
100
AcDbEntity
  8
0
100
AcDbCircle
 62
7
  6
CONTINUOUS
 10
1153.5732917383
 20
1798.9953129077
 40
0.5
100
AcDbArc
 50
89.9999992668
 51
180.0000014104
  0
ARC
  5
421
100
AcDbEntity
  8
0
100
AcDbCircle
 62
7
  6
CONTINUOUS
 10
1153.5732917383
 20
1793.9953129128
 40
0.5
100
AcDbArc
 50
179.9999992668
 51
270.0000014104
  0
ARC
  5
422
100
AcDbEntity
  8
0
100
AcDbCircle
 62
7
  6
CONTINUOUS
 10
1145.5732917332
 20
1793.9953129128
 40
0.5
100
AcDbArc
 50
269.9999992668
 51
0.0000014104
  0
ARC
  5
423
100
AcDbEntity
  8
0
100
AcDbCircle
 62
7
  6
CONTINUOUS
 10
1145.5732917332
 20
1798.9953129077
 40
0.5
100
AcDbArc
 50
359.9999992668
 51
90.0000014104
  0
ARC
  5
424
100
AcDbEntity
  8
0
100
AcDbCircle
 62
7
  6
CONTINUOUS
 10
1128.5732917383
 20
1798.9953129077
 40
0.5
100
AcDbArc
 50
89.9999992668
 51
180.0000014104
  0
ARC
  5
425
100
AcDbEntity
  8
0
100
AcDbCircle
 62
7
  6
CONTINUOUS
 10
1128.5732917383
 20
1793.9953129128
 40
0.5
100
AcDbArc
 50
179.9999992668
 51
270.0000014104
  0
ARC
  5
426
100
AcDbEntity
  8
0
100
AcDbCircle
 62
7
  6
CONTINUOUS
 10
1120.5732917332
 20
1793.9953129128
 40
0.5
100
AcDbArc
 50
269.9999992668
 51
0.0000014104
  0
ARC
  5
427
100
AcDbEntity
  8
0
100
AcDbCircle
 62
7
  6
CONTINUOUS
 10
1120.5732917332
 20
1798.9953129077
 40
0.5
100
AcDbArc
 50
359.9999992668
 51
90.0000014104
  0
ARC
  5
428
100
AcDbEntity
  8
0
100
AcDbCircle
 62
7
  6
CONTINUOUS
 10
1103.5732917383
 20
1798.9953129077
 40
0.5
100
AcDbArc
 50
89.9999992668
 51
180.0000014104
  0
ARC
  5
429
100
AcDbEntity
  8
0
100
AcDbCircle
 62
7
  6
CONTINUOUS
 10
1103.5732917383
 20
1793.9953129128
 40
0.5
100
AcDbArc
 50
179.9999992668
 51
270.0000014105
  0
ARC
  5
42A
100
AcDbEntity
  8
0
100
AcDbCircle
 62
7
  6
CONTINUOUS
 10
1095.5732917332
 20
1793.9953129128
 40
0.5
100
AcDbArc
 50
269.9999992668
 51
0.0000014104
  0
ARC
  5
42B
100
AcDbEntity
  8
0
100
AcDbCircle
 62
7
  6
CONTINUOUS
 10
1095.5732917332
 20
1798.9953129077
 40
0.5
100
AcDbArc
 50
359.9999992668
 51
90.0000014105
  0
ARC
  5
42C
100
AcDbEntity
  8
0
100
AcDbCircle
 62
7
  6
CONTINUOUS
 10
1078.5732917383
 20
1798.9953129077
 40
0.5
100
AcDbArc
 50
89.9999992668
 51
180.0000014104
  0
ARC
  5
42D
100
AcDbEntity
  8
0
100
AcDbCircle
 62
7
  6
CONTINUOUS
 10
1078.5732917383
 20
1793.9953129128
 40
0.5
100
AcDbArc
 50
179.9999992668
 51
270.0000014104
  0
ARC
  5
42E
100
AcDbEntity
  8
0
100
AcDbCircle
 62
7
  6
CONTINUOUS
 10
1070.5732917332
 20
1793.9953129128
 40
0.5
100
AcDbArc
 50
269.9999992668
 51
0.0000014104
  0
ARC
  5
42F
100
AcDbEntity
  8
0
100
AcDbCircle
 62
7
  6
CONTINUOUS
 10
1070.5732917332
 20
1798.9953129077
 40
0.5
100
AcDbArc
 50
359.9999992668
 51
90.0000014104
  0
ARC
  5
430
100
AcDbEntity
  8
0
100
AcDbCircle
 62
7
  6
CONTINUOUS
 10
1053.5732917383
 20
1798.9953129077
 40
0.5
100
AcDbArc
 50
89.9999992668
 51
180.0000014104
  0
ARC
  5
431
100
AcDbEntity
  8
0
100
AcDbCircle
 62
7
  6
CONTINUOUS
 10
1053.5732917383
 20
1793.9953129128
 40
0.5
100
AcDbArc
 50
179.9999992668
 51
270.0000014105
  0
ARC
  5
432
100
AcDbEntity
  8
0
100
AcDbCircle
 62
7
  6
CONTINUOUS
 10
1045.5732917332
 20
1793.9953129128
 40
0.5
100
AcDbArc
 50
269.9999992668
 51
0.0000014104
  0
ARC
  5
433
100
AcDbEntity
  8
0
100
AcDbCircle
 62
7
  6
CONTINUOUS
 10
1045.5732917332
 20
1798.9953129077
 40
0.5
100
AcDbArc
 50
359.9999992668
 51
90.0000014105
  0
ARC
  5
434
100
AcDbEntity
  8
0
100
AcDbCircle
 62
7
  6
CONTINUOUS
 10
1028.5732917383
 20
1798.9953129077
 40
0.5
100
AcDbArc
 50
89.9999992668
 51
180.0000014104
  0
ARC
  5
435
100
AcDbEntity
  8
0
100
AcDbCircle
 62
7
  6
CONTINUOUS
 10
1028.5732917383
 20
1793.9953129128
 40
0.5
100
AcDbArc
 50
179.9999992668
 51
270.0000014104
  0
ARC
  5
436
100
AcDbEntity
  8
0
100
AcDbCircle
 62
7
  6
CONTINUOUS
 10
1020.5732917332
 20
1793.9953129128
 40
0.5
100
AcDbArc
 50
269.9999992668
 51
0.0000014104
  0
ARC
  5
437
100
AcDbEntity
  8
0
100
AcDbCircle
 62
7
  6
CONTINUOUS
 10
1020.5732917332
 20
1798.9953129077
 40
0.5
100
AcDbArc
 50
359.9999992668
 51
90.0000014104
  0
ARC
  5
438
100
AcDbEntity
  8
0
100
AcDbCircle
 62
7
  6
CONTINUOUS
 10
1003.5732917383
 20
1798.9953129077
 40
0.5
100
AcDbArc
 50
89.9999992668
 51
180.0000014104
  0
ARC
  5
439
100
AcDbEntity
  8
0
100
AcDbCircle
 62
7
  6
CONTINUOUS
 10
1003.5732917383
 20
1793.9953129128
 40
0.5
100
AcDbArc
 50
179.9999992668
 51
270.0000014104
  0
ARC
  5
43A
100
AcDbEntity
  8
0
100
AcDbCircle
 62
7
  6
CONTINUOUS
 10
995.5732917332
 20
1793.9953129128
 40
0.5
100
AcDbArc
 50
269.9999992668
 51
0.0000014104
  0
ARC
  5
43B
100
AcDbEntity
  8
0
100
AcDbCircle
 62
7
  6
CONTINUOUS
 10
995.5732917332
 20
1798.9953129077
 40
0.5
100
AcDbArc
 50
359.9999992668
 51
90.0000014104
  0
ARC
  5
43C
100
AcDbEntity
  8
0
100
AcDbCircle
 62
7
  6
CONTINUOUS
 10
978.5732917383
 20
1798.9953129077
 40
0.5
100
AcDbArc
 50
89.9999992668
 51
180.0000014104
  0
ARC
  5
43D
100
AcDbEntity
  8
0
100
AcDbCircle
 62
7
  6
CONTINUOUS
 10
978.5732917383
 20
1793.9953129128
 40
0.5
100
AcDbArc
 50
179.9999992668
 51
270.0000014104
  0
ARC
  5
43E
100
AcDbEntity
  8
0
100
AcDbCircle
 62
7
  6
CONTINUOUS
 10
970.5732917332
 20
1793.9953129128
 40
0.5
100
AcDbArc
 50
269.9999992668
 51
0.0000014104
  0
ARC
  5
43F
100
AcDbEntity
  8
0
100
AcDbCircle
 62
7
  6
CONTINUOUS
 10
970.5732917332
 20
1798.9953129077
 40
0.5
100
AcDbArc
 50
359.9999992668
 51
90.0000014104
  0
ARC
  5
440
100
AcDbEntity
  8
0
100
AcDbCircle
 62
7
  6
CONTINUOUS
 10
953.5732917383
 20
1798.9953129077
 40
0.5
100
AcDbArc
 50
89.9999992668
 51
180.0000014104
  0
ARC
  5
441
100
AcDbEntity
  8
0
100
AcDbCircle
 62
7
  6
CONTINUOUS
 10
953.5732917383
 20
1793.9953129128
 40
0.5
100
AcDbArc
 50
179.9999992668
 51
270.0000014104
  0
ARC
  5
442
100
AcDbEntity
  8
0
100
AcDbCircle
 62
7
  6
CONTINUOUS
 10
945.5732917332
 20
1793.9953129128
 40
0.5
100
AcDbArc
 50
269.9999992668
 51
0.0000014104
  0
ARC
  5
443
100
AcDbEntity
  8
0
100
AcDbCircle
 62
7
  6
CONTINUOUS
 10
945.5732917332
 20
1798.9953129077
 40
0.5
100
AcDbArc
 50
359.9999992668
 51
90.0000014104
  0
ARC
  5
444
100
AcDbEntity
  8
0
100
AcDbCircle
 62
7
  6
CONTINUOUS
 10
928.5732917383
 20
1798.9953129077
 40
0.5
100
AcDbArc
 50
89.9999992668
 51
180.0000014104
  0
ARC
  5
445
100
AcDbEntity
  8
0
100
AcDbCircle
 62
7
  6
CONTINUOUS
 10
928.5732917383
 20
1793.9953129128
 40
0.5
100
AcDbArc
 50
179.9999992668
 51
270.0000014105
  0
ARC
  5
446
100
AcDbEntity
  8
0
100
AcDbCircle
 62
7
  6
CONTINUOUS
 10
920.5732917332
 20
1793.9953129128
 40
0.5
100
AcDbArc
 50
269.9999992668
 51
0.0000014104
  0
ARC
  5
447
100
AcDbEntity
  8
0
100
AcDbCircle
 62
7
  6
CONTINUOUS
 10
920.5732917332
 20
1798.9953129077
 40
0.5
100
AcDbArc
 50
359.9999992668
 51
90.0000014105
  0
ARC
  5
448
100
AcDbEntity
  8
0
100
AcDbCircle
 62
7
  6
CONTINUOUS
 10
903.5732917383
 20
1798.9953129077
 40
0.5
100
AcDbArc
 50
89.9999992668
 51
180.0000014104
  0
ARC
  5
449
100
AcDbEntity
  8
0
100
AcDbCircle
 62
7
  6
CONTINUOUS
 10
903.5732917383
 20
1793.9953129128
 40
0.5
100
AcDbArc
 50
179.9999992668
 51
270.0000014104
  0
ARC
  5
44A
100
AcDbEntity
  8
0
100
AcDbCircle
 62
7
  6
CONTINUOUS
 10
895.5732917332
 20
1793.9953129128
 40
0.5
100
AcDbArc
 50
269.9999992668
 51
0.0000014104
  0
ARC
  5
44B
100
AcDbEntity
  8
0
100
AcDbCircle
 62
7
  6
CONTINUOUS
 10
895.5732917332
 20
1798.9953129077
 40
0.5
100
AcDbArc
 50
359.9999992668
 51
90.0000014104
  0
ARC
  5
44C
100
AcDbEntity
  8
0
100
AcDbCircle
 62
7
  6
CONTINUOUS
 10
878.5732917383
 20
1798.9953129077
 40
0.5
100
AcDbArc
 50
89.9999992668
 51
180.0000014104
  0
ARC
  5
44D
100
AcDbEntity
  8
0
100
AcDbCircle
 62
7
  6
CONTINUOUS
 10
878.5732917383
 20
1793.9953129128
 40
0.5
100
AcDbArc
 50
179.9999992668
 51
270.0000014105
  0
ARC
  5
44E
100
AcDbEntity
  8
0
100
AcDbCircle
 62
7
  6
CONTINUOUS
 10
870.5732917332
 20
1793.9953129128
 40
0.5
100
AcDbArc
 50
269.9999992668
 51
0.0000014104
  0
ARC
  5
44F
100
AcDbEntity
  8
0
100
AcDbCircle
 62
7
  6
CONTINUOUS
 10
870.5732917332
 20
1798.9953129077
 40
0.5
100
AcDbArc
 50
359.9999992668
 51
90.0000014105
  0
ARC
  5
450
100
AcDbEntity
  8
0
100
AcDbCircle
 62
7
  6
CONTINUOUS
 10
853.5732917383
 20
1798.9953129077
 40
0.5
100
AcDbArc
 50
89.9999992668
 51
180.0000014104
  0
ARC
  5
451
100
AcDbEntity
  8
0
100
AcDbCircle
 62
7
  6
CONTINUOUS
 10
853.5732917383
 20
1793.9953129128
 40
0.5
100
AcDbArc
 50
179.9999992668
 51
270.0000014104
  0
ARC
  5
452
100
AcDbEntity
  8
0
100
AcDbCircle
 62
7
  6
CONTINUOUS
 10
845.5732917332
 20
1793.9953129128
 40
0.5
100
AcDbArc
 50
269.9999992668
 51
0.0000014104
  0
ARC
  5
453
100
AcDbEntity
  8
0
100
AcDbCircle
 62
7
  6
CONTINUOUS
 10
845.5732917332
 20
1798.9953129077
 40
0.5
100
AcDbArc
 50
359.9999992668
 51
90.0000014104
  0
ARC
  5
454
100
AcDbEntity
  8
0
100
AcDbCircle
 62
7
  6
CONTINUOUS
 10
828.5732917383
 20
1798.9953129077
 40
0.5
100
AcDbArc
 50
89.9999992668
 51
180.0000014104
  0
ARC
  5
455
100
AcDbEntity
  8
0
100
AcDbCircle
 62
7
  6
CONTINUOUS
 10
828.5732917383
 20
1793.9953129128
 40
0.5
100
AcDbArc
 50
179.9999992668
 51
270.0000014104
  0
ARC
  5
456
100
AcDbEntity
  8
0
100
AcDbCircle
 62
7
  6
CONTINUOUS
 10
820.5732917332
 20
1793.9953129128
 40
0.5
100
AcDbArc
 50
269.9999992668
 51
0.0000014104
  0
ARC
  5
457
100
AcDbEntity
  8
0
100
AcDbCircle
 62
7
  6
CONTINUOUS
 10
820.5732917332
 20
1798.9953129077
 40
0.5
100
AcDbArc
 50
359.9999992668
 51
90.0000014104
  0
ARC
  5
458
100
AcDbEntity
  8
0
100
AcDbCircle
 62
7
  6
CONTINUOUS
 10
803.5732917383
 20
1798.9953129077
 40
0.5
100
AcDbArc
 50
89.9999992668
 51
180.0000014104
  0
ARC
  5
459
100
AcDbEntity
  8
0
100
AcDbCircle
 62
7
  6
CONTINUOUS
 10
803.5732917383
 20
1793.9953129128
 40
0.5
100
AcDbArc
 50
179.9999992668
 51
270.0000014104
  0
ARC
  5
45A
100
AcDbEntity
  8
0
100
AcDbCircle
 62
7
  6
CONTINUOUS
 10
795.5732917332
 20
1793.9953129128
 40
0.5
100
AcDbArc
 50
269.9999992668
 51
0.0000014104
  0
ARC
  5
45B
100
AcDbEntity
  8
0
100
AcDbCircle
 62
7
  6
CONTINUOUS
 10
795.5732917332
 20
1798.9953129077
 40
0.5
100
AcDbArc
 50
359.9999992668
 51
90.0000014104
  0
ARC
  5
45C
100
AcDbEntity
  8
0
100
AcDbCircle
 62
7
  6
CONTINUOUS
 10
778.5732917383
 20
1798.9953129077
 40
0.5
100
AcDbArc
 50
89.9999992668
 51
180.0000014104
  0
ARC
  5
45D
100
AcDbEntity
  8
0
100
AcDbCircle
 62
7
  6
CONTINUOUS
 10
778.5732917383
 20
1793.9953129128
 40
0.5
100
AcDbArc
 50
179.9999992668
 51
270.0000014104
  0
ARC
  5
45E
100
AcDbEntity
  8
0
100
AcDbCircle
 62
7
  6
CONTINUOUS
 10
770.5732917332
 20
1793.9953129128
 40
0.5
100
AcDbArc
 50
269.9999992668
 51
0.0000014104
  0
ARC
  5
45F
100
AcDbEntity
  8
0
100
AcDbCircle
 62
7
  6
CONTINUOUS
 10
770.5732917332
 20
1798.9953129077
 40
0.5
100
AcDbArc
 50
359.9999992668
 51
90.0000014104
  0
ARC
  5
460
100
AcDbEntity
  8
0
100
AcDbCircle
 62
7
  6
CONTINUOUS
 10
753.5732917383
 20
1798.9953129077
 40
0.5
100
AcDbArc
 50
89.9999992668
 51
180.0000014104
  0
ARC
  5
461
100
AcDbEntity
  8
0
100
AcDbCircle
 62
7
  6
CONTINUOUS
 10
753.5732917383
 20
1793.9953129128
 40
0.5
100
AcDbArc
 50
179.9999992668
 51
270.0000014105
  0
ARC
  5
462
100
AcDbEntity
  8
0
100
AcDbCircle
 62
7
  6
CONTINUOUS
 10
745.5732917332
 20
1793.9953129128
 40
0.5
100
AcDbArc
 50
269.9999992668
 51
0.0000014104
  0
ARC
  5
463
100
AcDbEntity
  8
0
100
AcDbCircle
 62
7
  6
CONTINUOUS
 10
745.5732917332
 20
1798.9953129077
 40
0.5
100
AcDbArc
 50
359.9999992668
 51
90.0000014104
  0
ARC
  5
464
100
AcDbEntity
  8
0
100
AcDbCircle
 62
7
  6
CONTINUOUS
 10
728.5732917383
 20
1798.9953129077
 40
0.5
100
AcDbArc
 50
89.9999992668
 51
180.0000014104
  0
ARC
  5
465
100
AcDbEntity
  8
0
100
AcDbCircle
 62
7
  6
CONTINUOUS
 10
728.5732917383
 20
1793.9953129128
 40
0.5
100
AcDbArc
 50
179.9999992668
 51
270.0000014104
  0
ARC
  5
466
100
AcDbEntity
  8
0
100
AcDbCircle
 62
7
  6
CONTINUOUS
 10
720.5732917332
 20
1793.9953129128
 40
0.5
100
AcDbArc
 50
269.9999992668
 51
0.0000014104
  0
ARC
  5
467
100
AcDbEntity
  8
0
100
AcDbCircle
 62
7
  6
CONTINUOUS
 10
720.5732917332
 20
1798.9953129077
 40
0.5
100
AcDbArc
 50
359.9999992668
 51
90.0000014104
  0
ARC
  5
468
100
AcDbEntity
  8
0
100
AcDbCircle
 62
7
  6
CONTINUOUS
 10
703.5732917383
 20
1798.9953129077
 40
0.5
100
AcDbArc
 50
89.9999992668
 51
180.0000014104
  0
ARC
  5
469
100
AcDbEntity
  8
0
100
AcDbCircle
 62
7
  6
CONTINUOUS
 10
703.5732917383
 20
1793.9953129128
 40
0.5
100
AcDbArc
 50
179.9999992668
 51
270.0000014104
  0
ARC
  5
46A
100
AcDbEntity
  8
0
100
AcDbCircle
 62
7
  6
CONTINUOUS
 10
695.5732917332
 20
1793.9953129128
 40
0.5
100
AcDbArc
 50
269.9999992668
 51
0.0000014104
  0
ARC
  5
46B
100
AcDbEntity
  8
0
100
AcDbCircle
 62
7
  6
CONTINUOUS
 10
695.5732917332
 20
1798.9953129077
 40
0.5
100
AcDbArc
 50
359.9999992668
 51
90.0000014104
  0
ARC
  5
46C
100
AcDbEntity
  8
0
100
AcDbCircle
 62
7
  6
CONTINUOUS
 10
678.5732917383
 20
1798.9953129077
 40
0.5
100
AcDbArc
 50
89.9999992668
 51
180.0000014104
  0
ARC
  5
46D
100
AcDbEntity
  8
0
100
AcDbCircle
 62
7
  6
CONTINUOUS
 10
678.5732917383
 20
1793.9953129128
 40
0.5
100
AcDbArc
 50
179.9999992668
 51
270.0000014104
  0
ARC
  5
46E
100
AcDbEntity
  8
0
100
AcDbCircle
 62
7
  6
CONTINUOUS
 10
670.5732917332
 20
1793.9953129128
 40
0.5
100
AcDbArc
 50
269.9999992668
 51
0.0000014104
  0
ARC
  5
46F
100
AcDbEntity
  8
0
100
AcDbCircle
 62
7
  6
CONTINUOUS
 10
670.5732917332
 20
1798.9953129077
 40
0.5
100
AcDbArc
 50
359.9999992668
 51
90.0000014104
  0
ARC
  5
470
100
AcDbEntity
  8
0
100
AcDbCircle
 62
7
  6
CONTINUOUS
 10
653.5732917383
 20
1798.9953129077
 40
0.5
100
AcDbArc
 50
89.9999992668
 51
180.0000014104
  0
ARC
  5
471
100
AcDbEntity
  8
0
100
AcDbCircle
 62
7
  6
CONTINUOUS
 10
653.5732917383
 20
1793.9953129128
 40
0.5
100
AcDbArc
 50
179.9999992668
 51
270.0000014104
  0
ARC
  5
472
100
AcDbEntity
  8
0
100
AcDbCircle
 62
7
  6
CONTINUOUS
 10
645.5732917332
 20
1793.9953129128
 40
0.5
100
AcDbArc
 50
269.9999992668
 51
0.0000014104
  0
ARC
  5
473
100
AcDbEntity
  8
0
100
AcDbCircle
 62
7
  6
CONTINUOUS
 10
645.5732917332
 20
1798.9953129077
 40
0.5
100
AcDbArc
 50
359.9999992668
 51
90.0000014104
  0
ARC
  5
474
100
AcDbEntity
  8
0
100
AcDbCircle
 62
7
  6
CONTINUOUS
 10
628.5732917383
 20
1798.9953129077
 40
0.5
100
AcDbArc
 50
89.9999992668
 51
180.0000014104
  0
ARC
  5
475
100
AcDbEntity
  8
0
100
AcDbCircle
 62
7
  6
CONTINUOUS
 10
628.5732917383
 20
1793.9953129128
 40
0.5
100
AcDbArc
 50
179.9999992668
 51
270.0000014104
  0
ARC
  5
476
100
AcDbEntity
  8
0
100
AcDbCircle
 62
7
  6
CONTINUOUS
 10
620.5732917332
 20
1793.9953129128
 40
0.5
100
AcDbArc
 50
269.9999992668
 51
0.0000014104
  0
ARC
  5
477
100
AcDbEntity
  8
0
100
AcDbCircle
 62
7
  6
CONTINUOUS
 10
620.5732917332
 20
1798.9953129077
 40
0.5
100
AcDbArc
 50
359.9999992668
 51
90.0000014104
  0
ARC
  5
478
100
AcDbEntity
  8
0
100
AcDbCircle
 62
7
  6
CONTINUOUS
 10
603.5732917383
 20
1798.9953129077
 40
0.5
100
AcDbArc
 50
89.9999992668
 51
180.0000014104
  0
ARC
  5
479
100
AcDbEntity
  8
0
100
AcDbCircle
 62
7
  6
CONTINUOUS
 10
603.5732917383
 20
1793.9953129128
 40
0.5
100
AcDbArc
 50
179.9999992668
 51
270.0000014104
  0
ARC
  5
47A
100
AcDbEntity
  8
0
100
AcDbCircle
 62
7
  6
CONTINUOUS
 10
595.5732917332
 20
1793.9953129128
 40
0.5
100
AcDbArc
 50
269.9999992668
 51
0.0000014104
  0
ARC
  5
47B
100
AcDbEntity
  8
0
100
AcDbCircle
 62
7
  6
CONTINUOUS
 10
595.5732917332
 20
1798.9953129077
 40
0.5
100
AcDbArc
 50
359.9999992668
 51
90.0000014104
  0
ARC
  5
47C
100
AcDbEntity
  8
0
100
AcDbCircle
 62
7
  6
CONTINUOUS
 10
578.5732917383
 20
1798.9953129077
 40
0.5
100
AcDbArc
 50
89.9999992668
 51
180.0000014104
  0
ARC
  5
47D
100
AcDbEntity
  8
0
100
AcDbCircle
 62
7
  6
CONTINUOUS
 10
578.5732917383
 20
1793.9953129128
 40
0.5
100
AcDbArc
 50
179.9999992668
 51
270.0000014104
  0
ARC
  5
47E
100
AcDbEntity
  8
0
100
AcDbCircle
 62
7
  6
CONTINUOUS
 10
570.5732917332
 20
1793.9953129128
 40
0.5
100
AcDbArc
 50
269.9999992668
 51
0.0000014104
  0
ARC
  5
47F
100
AcDbEntity
  8
0
100
AcDbCircle
 62
7
  6
CONTINUOUS
 10
570.5732917332
 20
1798.9953129077
 40
0.5
100
AcDbArc
 50
359.9999992668
 51
90.0000014105
  0
ARC
  5
480
100
AcDbEntity
  8
0
100
AcDbCircle
 62
7
  6
CONTINUOUS
 10
553.5732917383
 20
1798.9953129077
 40
0.5
100
AcDbArc
 50
89.9999992668
 51
180.0000014104
  0
ARC
  5
481
100
AcDbEntity
  8
0
100
AcDbCircle
 62
7
  6
CONTINUOUS
 10
553.5732917383
 20
1793.9953129128
 40
0.5
100
AcDbArc
 50
179.9999992668
 51
270.0000014104
  0
ARC
  5
482
100
AcDbEntity
  8
0
100
AcDbCircle
 62
7
  6
CONTINUOUS
 10
545.5732917332
 20
1793.9953129128
 40
0.5
100
AcDbArc
 50
269.9999992668
 51
0.0000014104
  0
ARC
  5
483
100
AcDbEntity
  8
0
100
AcDbCircle
 62
7
  6
CONTINUOUS
 10
545.5732917332
 20
1798.9953129077
 40
0.5
100
AcDbArc
 50
359.9999992668
 51
90.0000014104
  0
ARC
  5
484
100
AcDbEntity
  8
0
100
AcDbCircle
 62
7
  6
CONTINUOUS
 10
528.5732917383
 20
1798.9953129077
 40
0.5
100
AcDbArc
 50
89.9999992668
 51
180.0000014104
  0
ARC
  5
485
100
AcDbEntity
  8
0
100
AcDbCircle
 62
7
  6
CONTINUOUS
 10
528.5732917383
 20
1793.9953129128
 40
0.5
100
AcDbArc
 50
179.9999992668
 51
270.0000014104
  0
ARC
  5
486
100
AcDbEntity
  8
0
100
AcDbCircle
 62
7
  6
CONTINUOUS
 10
520.5732917332
 20
1793.9953129128
 40
0.5
100
AcDbArc
 50
269.9999992668
 51
0.0000014104
  0
ARC
  5
487
100
AcDbEntity
  8
0
100
AcDbCircle
 62
7
  6
CONTINUOUS
 10
520.5732917332
 20
1798.9953129077
 40
0.5
100
AcDbArc
 50
359.9999992668
 51
90.0000014104
  0
ARC
  5
488
100
AcDbEntity
  8
0
100
AcDbCircle
 62
7
  6
CONTINUOUS
 10
503.5732917383
 20
1798.9953129077
 40
0.5
100
AcDbArc
 50
89.9999992668
 51
180.0000014104
  0
ARC
  5
489
100
AcDbEntity
  8
0
100
AcDbCircle
 62
7
  6
CONTINUOUS
 10
503.5732917383
 20
1793.9953129128
 40
0.5
100
AcDbArc
 50
179.9999992668
 51
270.0000014104
  0
ARC
  5
48A
100
AcDbEntity
  8
0
100
AcDbCircle
 62
7
  6
CONTINUOUS
 10
495.5732917332
 20
1793.9953129128
 40
0.5
100
AcDbArc
 50
269.9999992668
 51
0.0000014104
  0
ARC
  5
48B
100
AcDbEntity
  8
0
100
AcDbCircle
 62
7
  6
CONTINUOUS
 10
495.5732917332
 20
1798.9953129077
 40
0.5
100
AcDbArc
 50
359.9999992668
 51
90.0000014104
  0
ARC
  5
48C
100
AcDbEntity
  8
0
100
AcDbCircle
 62
7
  6
CONTINUOUS
 10
478.5732917383
 20
1798.9953129077
 40
0.5
100
AcDbArc
 50
89.9999992668
 51
180.0000014104
  0
ARC
  5
48D
100
AcDbEntity
  8
0
100
AcDbCircle
 62
7
  6
CONTINUOUS
 10
478.5732917383
 20
1793.9953129128
 40
0.5
100
AcDbArc
 50
179.9999992668
 51
270.0000014104
  0
ARC
  5
48E
100
AcDbEntity
  8
0
100
AcDbCircle
 62
7
  6
CONTINUOUS
 10
470.5732917332
 20
1793.9953129128
 40
0.5
100
AcDbArc
 50
269.9999992668
 51
0.0000014104
  0
ARC
  5
48F
100
AcDbEntity
  8
0
100
AcDbCircle
 62
7
  6
CONTINUOUS
 10
470.5732917332
 20
1798.9953129077
 40
0.5
100
AcDbArc
 50
359.9999992668
 51
90.0000014104
  0
ARC
  5
490
100
AcDbEntity
  8
0
100
AcDbCircle
 62
7
  6
CONTINUOUS
 10
453.5732917383
 20
1798.9953129077
 40
0.5
100
AcDbArc
 50
89.9999992668
 51
180.0000014104
  0
ARC
  5
491
100
AcDbEntity
  8
0
100
AcDbCircle
 62
7
  6
CONTINUOUS
 10
453.5732917383
 20
1793.9953129128
 40
0.5
100
AcDbArc
 50
179.9999992668
 51
270.0000014104
  0
ARC
  5
492
100
AcDbEntity
  8
0
100
AcDbCircle
 62
7
  6
CONTINUOUS
 10
445.5732917332
 20
1793.9953129128
 40
0.5
100
AcDbArc
 50
269.9999992668
 51
0.0000014104
  0
ARC
  5
493
100
AcDbEntity
  8
0
100
AcDbCircle
 62
7
  6
CONTINUOUS
 10
445.5732917332
 20
1798.9953129077
 40
0.5
100
AcDbArc
 50
359.9999992668
 51
90.0000014104
  0
ARC
  5
494
100
AcDbEntity
  8
0
100
AcDbCircle
 62
7
  6
CONTINUOUS
 10
428.5732917383
 20
1798.9953129077
 40
0.5
100
AcDbArc
 50
89.9999992668
 51
180.0000014104
  0
ARC
  5
495
100
AcDbEntity
  8
0
100
AcDbCircle
 62
7
  6
CONTINUOUS
 10
428.5732917383
 20
1793.9953129128
 40
0.5
100
AcDbArc
 50
179.9999992668
 51
270.0000014104
  0
ARC
  5
496
100
AcDbEntity
  8
0
100
AcDbCircle
 62
7
  6
CONTINUOUS
 10
420.5732917332
 20
1793.9953129128
 40
0.5
100
AcDbArc
 50
269.9999992668
 51
0.0000014104
  0
ARC
  5
497
100
AcDbEntity
  8
0
100
AcDbCircle
 62
7
  6
CONTINUOUS
 10
420.5732917332
 20
1798.9953129077
 40
0.5
100
AcDbArc
 50
359.9999992668
 51
90.0000014104
  0
ARC
  5
498
100
AcDbEntity
  8
0
100
AcDbCircle
 62
7
  6
CONTINUOUS
 10
403.5732917383
 20
1798.9953129077
 40
0.5
100
AcDbArc
 50
89.9999992668
 51
180.0000014104
  0
ARC
  5
499
100
AcDbEntity
  8
0
100
AcDbCircle
 62
7
  6
CONTINUOUS
 10
403.5732917383
 20
1793.9953129128
 40
0.5
100
AcDbArc
 50
179.9999992668
 51
270.0000014104
  0
ARC
  5
49A
100
AcDbEntity
  8
0
100
AcDbCircle
 62
7
  6
CONTINUOUS
 10
395.5732917332
 20
1793.9953129128
 40
0.5
100
AcDbArc
 50
269.9999992668
 51
0.0000014104
  0
ARC
  5
49B
100
AcDbEntity
  8
0
100
AcDbCircle
 62
7
  6
CONTINUOUS
 10
395.5732917332
 20
1798.9953129077
 40
0.5
100
AcDbArc
 50
359.9999992668
 51
90.0000014104
  0
ARC
  5
49C
100
AcDbEntity
  8
0
100
AcDbCircle
 62
7
  6
CONTINUOUS
 10
378.5732917383
 20
1798.9953129077
 40
0.5
100
AcDbArc
 50
89.9999992668
 51
180.0000014104
  0
ARC
  5
49D
100
AcDbEntity
  8
0
100
AcDbCircle
 62
7
  6
CONTINUOUS
 10
378.5732917383
 20
1793.9953129128
 40
0.5
100
AcDbArc
 50
179.9999992668
 51
270.0000014104
  0
ARC
  5
49E
100
AcDbEntity
  8
0
100
AcDbCircle
 62
7
  6
CONTINUOUS
 10
370.5732917332
 20
1793.9953129128
 40
0.5
100
AcDbArc
 50
269.9999992668
 51
0.0000014104
  0
ARC
  5
49F
100
AcDbEntity
  8
0
100
AcDbCircle
 62
7
  6
CONTINUOUS
 10
370.5732917332
 20
1798.9953129077
 40
0.5
100
AcDbArc
 50
359.9999992668
 51
90.0000014104
  0
ARC
  5
4A0
100
AcDbEntity
  8
0
100
AcDbCircle
 62
7
  6
CONTINUOUS
 10
353.5732917383
 20
1798.9953129077
 40
0.5
100
AcDbArc
 50
89.9999992668
 51
180.0000014104
  0
ARC
  5
4A1
100
AcDbEntity
  8
0
100
AcDbCircle
 62
7
  6
CONTINUOUS
 10
353.5732917383
 20
1793.9953129128
 40
0.5
100
AcDbArc
 50
179.9999992668
 51
270.0000014104
  0
ARC
  5
4A2
100
AcDbEntity
  8
0
100
AcDbCircle
 62
7
  6
CONTINUOUS
 10
345.5732917332
 20
1793.9953129128
 40
0.5
100
AcDbArc
 50
269.9999992668
 51
0.0000014104
  0
ARC
  5
4A3
100
AcDbEntity
  8
0
100
AcDbCircle
 62
7
  6
CONTINUOUS
 10
345.5732917332
 20
1798.9953129077
 40
0.5
100
AcDbArc
 50
359.9999992668
 51
90.0000014104
  0
ARC
  5
4A4
100
AcDbEntity
  8
0
100
AcDbCircle
 62
7
  6
CONTINUOUS
 10
328.5732917383
 20
1798.9953129077
 40
0.5
100
AcDbArc
 50
89.9999992668
 51
180.0000014104
  0
ARC
  5
4A5
100
AcDbEntity
  8
0
100
AcDbCircle
 62
7
  6
CONTINUOUS
 10
328.5732917383
 20
1793.9953129128
 40
0.5
100
AcDbArc
 50
179.9999992668
 51
270.0000014104
  0
ARC
  5
4A6
100
AcDbEntity
  8
0
100
AcDbCircle
 62
7
  6
CONTINUOUS
 10
320.5732917332
 20
1793.9953129128
 40
0.5
100
AcDbArc
 50
269.9999992668
 51
0.0000014104
  0
ARC
  5
4A7
100
AcDbEntity
  8
0
100
AcDbCircle
 62
7
  6
CONTINUOUS
 10
320.5732917332
 20
1798.9953129077
 40
0.5
100
AcDbArc
 50
359.9999992668
 51
90.0000014104
  0
ARC
  5
4A8
100
AcDbEntity
  8
0
100
AcDbCircle
 62
7
  6
CONTINUOUS
 10
303.5732917383
 20
1798.9953129077
 40
0.5
100
AcDbArc
 50
89.9999992668
 51
180.0000014104
  0
ARC
  5
4A9
100
AcDbEntity
  8
0
100
AcDbCircle
 62
7
  6
CONTINUOUS
 10
303.5732917383
 20
1793.9953129128
 40
0.5
100
AcDbArc
 50
179.9999992668
 51
270.0000014104
  0
ENDSEC
  0
SECTION
  2
OBJECTS
  0
DICTIONARY
  5
C
100
AcDbDictionary
280
0
281
1
  3
ACAD_GROUP
350
D
  3
ACAD_MLINESTYLE
350
17
  3
ACAD_LAYOUT
350
1A
  3
ACAD_PLOTSETTINGS
350
19
  3
ACAD_PLOTSTYLENAME
350
E
  0
DICTIONARY
  5
D
102
{ACAD_REACTORS
330
C
102
}
100
AcDbDictionary
280
0
281
1
  0
ACDBDICTIONARYWDFLT
  5
E
102
{ACAD_REACTORS
330
C
102
}
100
AcDbDictionary
281
1
  3
Normal
350
F
100
AcDbDictionaryWithDefault
340
F
  0
DICTIONARY
  5
17
102
{ACAD_REACTORS
330
C
102
}
100
AcDbDictionary
280
0
281
1
  3
Standard
350
18
  0
DICTIONARY
  5
19
102
{ACAD_REACTORS
330
C
102
}
100
AcDbDictionary
281
1
  0
DICTIONARY
  5
1A
102
{ACAD_REACTORS
330
C
102
}
100
AcDbDictionary
281
1
  3
Model
350
4AA
  3
Layout1
350
4AB
  0
ACDBPLACEHOLDER
  5
F
102
{ACAD_REACTORS
330
E
102
}
  0
MLINESTYLE
  5
18
102
{ACAD_REACTORS
330
17
102
}
100
AcDbMlineStyle
  2
STANDARD
 70
0
  3

 62
256
 51
90.0
 52
90.0
 71
2
 49
0.5
 62
256
  6
BYLAYER
 49
-0.5
 62
256
  6
BYLAYER
  0
LAYOUT
  5
4AA
102
{ACAD_REACTORS
330
1A
102
}
100
AcDbPlotSettings
  1

  2
none_device
  4

  6

 40
0.0
 41
0.0
 42
0.0
 43
0.0
 44
210.0
 45
297.0
 46
0.0
 47
0.0
 48
0.0
 49
0.0
140
0.0
141
0.0
142
1.0
143
1.0
 70
1024
 72
1
 73
0
 74
0
  7

 75
0
147
1.0
148
0.0
149
0.0
100
AcDbLayout
  1
Model
 70
0
 71
0
 10
0.0
 20
0.0
 11
210.0
 21
297.0
 12
0.0
 22
0.0
 32
0.0
 14
0.0
 24
0.0
 34
0.0
 15
0.0
 25
0.0
 35
0.0
146
0.0
 13
0.0
 23
0.0
 33
0.0
 16
1.0
 26
0.0
 36
0.0
 17
0.0
 27
1.0
 37
0.0
 76
0
330
211
345
0
346
0
  0
LAYOUT
  5
4AB
102
{ACAD_REACTORS
330
1A
102
}
100
AcDbPlotSettings
  1

  2
none_device
  4

  6

 40
0.0
 41
0.0
 42
0.0
 43
0.0
 44
210.0
 45
297.0
 46
0.0
 47
0.0
 48
0.0
 49
0.0
140
0.0
141
0.0
142
1.0
143
1.0
 70
0
 72
1
 73
0
 74
0
  7

 75
0
147
1.0
148
0.0
149
0.0
100
AcDbLayout
  1
Layout1
 70
0
 71
1
 10
0.0
 20
0.0
 11
210.0
 21
297.0
 12
0.0
 22
0.0
 32
0.0
 14
0.0
 24
0.0
 34
0.0
 15
0.0
 25
0.0
 35
0.0
146
0.0
 13
0.0
 23
0.0
 33
0.0
 16
1.0
 26
0.0
 36
0.0
 17
0.0
 27
1.0
 37
0.0
 76
0
330
212
345
0
346
0
  0
ENDSEC
  0
EOF
