999
DXF file: C:\Users\sesa63760\Dev\_Creo\CAD\MCADPE0010582_3D-CAD\drw0001_4.dxf
999
Pro/ENGINEER 2019471 by Parametric Technology Corporation
  0
SECTION
  2
HEADER
  9
$ACADVER
  1
AC1024
  9
$DWGCODEPAGE
  3
ANSI_1252
  9
$EXTMAX
 10
74.8172299524
 20
105.8129395041
 30
0.0
  9
$EXTMIN
 10
0.0
 20
0.0
 30
0.0
  9
$LIMMIN
 10
0.0
 20
0.0
  9
$LIMMAX
 10
74.8172299524
 20
105.8129395041
  9
$VIEWCTR
 10
37.4086149762
 20
52.906469752
  9
$VIEWSIZE
 40
105.8129395041
  9
$CLAYER
  8
0
  9
$LTSCALE
 40
6.8974360566
  9
$CELTYPE
  6
BYLAYER
  9
$DIMSCALE
 40
1.0
  9
$DIMASZ
 40
0.890681309
  9
$DIMEXO
 40
1.0
  9
$DIMDLI
 40
4.7655012754
  9
$DIMEXE
 40
1.0
  9
$DIMCEN
 40
1.1286713547
  9
$DIMLFAC
 40
1.0
  9
$DIMBLK
  1
_FILLED
  9
$DIMALT
 70
0
  9
$DIMALTF
 40
0.0393700787
  9
$DIMTXT
 40
1.2469538325
  9
$DIMTOL
 70
1
  9
$DIMLIM
 70
0
  9
$DIMTFAC
 40
1.0
  9
$DIMTP
 40
0.01
  9
$DIMTM
 40
0.01
  9
$DIMGAP
 40
0.625
  9
$DIMDSEP
 70
46
  9
$AUNITS
 70
0
  9
$PDMODE
 70
3
  9
$PDSIZE
 40
0.3125
  9
$HANDSEED
  5
32A
  9
$TILEMODE
 70
1
  9
$MEASUREMENT
 70
1
  9
$INSUNITS
 70
4
  0
ENDSEC
  0
SECTION
  2
CLASSES
  0
CLASS
  1
ACDBDICTIONARYWDFLT
  2
AcDbDictionaryWithDefault
  3
AutoCAD 2000
 90
0
 91
1
280
0
281
0
  0
CLASS
  1
ACDBPLACEHOLDER
  2
AcDbPlaceHolder
  3
AutoCAD 2000
 90
0
 91
1
280
0
281
0
  0
CLASS
  1
LAYOUT
  2
AcDbLayout
  3
AutoCAD 2000
 90
0
 91
0
280
0
281
0
  0
ENDSEC
  0
SECTION
  2
TABLES
  0
TABLE
  2
VPORT
  5
8
100
AcDbSymbolTable
 70
2
  0
VPORT
  5
1F4
100
AcDbSymbolTableRecord
100
AcDbViewportTableRecord
  2
*ACTIVE
 70
0
 10
0.0
 20
0.0
 11
1.0
 21
1.0
 12
37.4086149762
 22
52.906469752
 13
0.0
 23
0.0
 14
1.0
 24
1.0
 15
0.0
 25
0.0
 16
0.0
 26
0.0
 36
1.0
 17
0.0
 27
0.0
 37
0.0
 40
105.8129395041
 41
0.7070707071
 42
50.0
 43
0.0
 44
0.0
 50
0.0
 51
0.0
 71
0
 72
100
 73
1
 74
1
 75
0
 76
0
 77
0
 78
0
  0
ENDTAB
  0
TABLE
  2
LTYPE
  5
5
100
AcDbSymbolTable
 70
6
  0
LTYPE
  5
14
100
AcDbSymbolTableRecord
100
AcDbLinetypeTableRecord
  2
BYBLOCK
 70
0
  3

 72
65
 73
0
 40
0.0
  0
LTYPE
  5
15
100
AcDbSymbolTableRecord
100
AcDbLinetypeTableRecord
  2
BYLAYER
 70
0
  3

 72
65
 73
0
 40
0.0
  0
LTYPE
  5
16
100
AcDbSymbolTableRecord
100
AcDbLinetypeTableRecord
  2
CONTINUOUS
 70
64
  3
Solid line
 72
65
 73
0
 40
0.0
  0
LTYPE
  5
1F5
100
AcDbSymbolTableRecord
100
AcDbLinetypeTableRecord
  2
CENTER
 70
64
  3
____ _ ____ _ ____ _ ____ _ ____ _ ____ _ ____
 72
65
 73
4
 40
0.6
 49
0.375
 74
0
 49
-0.075
 74
0
 49
0.075
 74
0
 49
-0.075
 74
0
  0
LTYPE
  5
1F6
100
AcDbSymbolTableRecord
100
AcDbLinetypeTableRecord
  2
HIDDEN
 70
64
  3
- - - - - - - - - - - - - - - - - - - -
 72
65
 73
2
 40
0.2
 49
0.1
 74
0
 49
-0.1
 74
0
  0
LTYPE
  5
1F7
100
AcDbSymbolTableRecord
100
AcDbLinetypeTableRecord
  2
PHANTOM
 70
64
  3
_____ _ _ _____ _ _ _____ _ _ _____
 72
65
 73
6
 40
0.8
 49
0.45
 74
0
 49
-0.05
 74
0
 49
0.1
 74
0
 49
-0.05
 74
0
 49
0.1
 74
0
 49
-0.05
 74
0
  0
LTYPE
  5
1F8
100
AcDbSymbolTableRecord
100
AcDbLinetypeTableRecord
  2
DOT
 70
64
  3
. . . . . . . . . . . . . . . . . . . .
 72
65
 73
2
 40
0.2
 49
0.1
 74
0
 49
-0.1
 74
0
  0
LTYPE
  5
1F9
100
AcDbSymbolTableRecord
100
AcDbLinetypeTableRecord
  2
DASHED
 70
64
  3
- - - - - - - - - - - - - - - - - - - -
 72
65
 73
2
 40
0.2
 49
0.1
 74
0
 49
-0.1
 74
0
  0
ENDTAB
  0
TABLE
  2
LAYER
  5
2
100
AcDbSymbolTable
 70
36
  0
LAYER
  5
10
100
AcDbSymbolTableRecord
100
AcDbLayerTableRecord
  2
0
 70
0
 62
7
  6
CONTINUOUS
370
-3
390
F
  0
LAYER
  5
1FA
100
AcDbSymbolTableRecord
100
AcDbLayerTableRecord
  2
DEFAULT_1
 70
0
 62
7
  6
CENTER
370
-3
390
F
  0
LAYER
  5
1FB
100
AcDbSymbolTableRecord
100
AcDbLayerTableRecord
  2
DEFAULT_2
 70
0
 62
7
  6
HIDDEN
370
-3
390
F
  0
LAYER
  5
1FC
100
AcDbSymbolTableRecord
100
AcDbLayerTableRecord
  2
DEFAULT_3
 70
0
 62
7
  6
PHANTOM
370
-3
390
F
  0
LAYER
  5
1FD
100
AcDbSymbolTableRecord
100
AcDbLayerTableRecord
  2
00_COMPONENTS
 70
0
 62
7
  6
CONTINUOUS
370
-3
390
F
  0
LAYER
  5
1FE
100
AcDbSymbolTableRecord
100
AcDbLayerTableRecord
  2
01_1_DEFAULT_DATUMS
 70
0
 62
7
  6
CONTINUOUS
370
-3
390
F
  0
LAYER
  5
1FF
100
AcDbSymbolTableRecord
100
AcDbLayerTableRecord
  2
01_PLANES
 70
0
 62
7
  6
CONTINUOUS
370
-3
390
F
  0
LAYER
  5
200
100
AcDbSymbolTableRecord
100
AcDbLayerTableRecord
  2
02_COORD_SYS
 70
0
 62
7
  6
CONTINUOUS
370
-3
390
F
  0
LAYER
  5
201
100
AcDbSymbolTableRecord
100
AcDbLayerTableRecord
  2
03_AXES
 70
0
 62
7
  6
CONTINUOUS
370
-3
390
F
  0
LAYER
  5
202
100
AcDbSymbolTableRecord
100
AcDbLayerTableRecord
  2
04_POINTS
 70
0
 62
7
  6
CONTINUOUS
370
-3
390
F
  0
LAYER
  5
203
100
AcDbSymbolTableRecord
100
AcDbLayerTableRecord
  2
05_CURVES
 70
0
 62
7
  6
CONTINUOUS
370
-3
390
F
  0
LAYER
  5
204
100
AcDbSymbolTableRecord
100
AcDbLayerTableRecord
  2
06_SURFS
 70
0
 62
7
  6
CONTINUOUS
370
-3
390
F
  0
LAYER
  5
205
100
AcDbSymbolTableRecord
100
AcDbLayerTableRecord
  2
07_COSMETICS
 70
0
 62
7
  6
CONTINUOUS
370
-3
390
F
  0
LAYER
  5
206
100
AcDbSymbolTableRecord
100
AcDbLayerTableRecord
  2
10_NOTES
 70
0
 62
7
  6
CONTINUOUS
370
-3
390
F
  0
LAYER
  5
207
100
AcDbSymbolTableRecord
100
AcDbLayerTableRecord
  2
11_NOTES_PUB
 70
0
 62
7
  6
CONTINUOUS
370
-3
390
F
  0
LAYER
  5
208
100
AcDbSymbolTableRecord
100
AcDbLayerTableRecord
  2
13_REF_GTOL
 70
0
 62
7
  6
CONTINUOUS
370
-3
390
F
  0
LAYER
  5
209
100
AcDbSymbolTableRecord
100
AcDbLayerTableRecord
  2
16_MISC
 70
0
 62
7
  6
CONTINUOUS
370
-3
390
F
  0
LAYER
  5
20A
100
AcDbSymbolTableRecord
100
AcDbLayerTableRecord
  2
17_NO_PRINT
 70
0
 62
7
  6
CONTINUOUS
370
-3
390
F
  0
LAYER
  5
20B
100
AcDbSymbolTableRecord
100
AcDbLayerTableRecord
  2
18_DATUM_CAMS_JOINTS
 70
0
 62
7
  6
CONTINUOUS
370
-3
390
F
  0
LAYER
  5
20C
100
AcDbSymbolTableRecord
100
AcDbLayerTableRecord
  2
19_DATUM_FUNCTIONAL
 70
0
 62
7
  6
CONTINUOUS
370
-3
390
F
  0
LAYER
  5
20D
100
AcDbSymbolTableRecord
100
AcDbLayerTableRecord
  2
20_DATUM_KINEMATIC_SCHEME
 70
0
 62
7
  6
CONTINUOUS
370
-3
390
F
  0
ENDTAB
  0
TABLE
  2
STYLE
  5
3
100
AcDbSymbolTable
 70
1
  0
STYLE
  5
11
100
AcDbSymbolTableRecord
100
AcDbTextStyleTableRecord
  2
STANDARD
 70
0
 40
0.0
 41
1.0
 50
0.0
 71
0
 42
0.2
  3
ARIAL.TTF
  4

  0
STYLE
  5
20E
100
AcDbSymbolTableRecord
100
AcDbTextStyleTableRecord
  2
TEXTSTYLE_1
 70
0
 40
0.0
 41
0.8
 50
0.0
 71
0
 42
0.2
  3
gdt
  4

  0
ENDTAB
  0
TABLE
  2
VIEW
  5
6
100
AcDbSymbolTable
 70
0
  0
ENDTAB
  0
TABLE
  2
UCS
  5
7
100
AcDbSymbolTable
 70
0
  0
ENDTAB
  0
TABLE
  2
APPID
  5
9
100
AcDbSymbolTable
 70
1
  0
APPID
  5
20F
100
AcDbSymbolTableRecord
100
AcDbRegAppTableRecord
  2
ACAD
 70
0
  0
ENDTAB
  0
TABLE
  2
BLOCK_RECORD
  5
1
100
AcDbSymbolTable
 70
0
  0
BLOCK_RECORD
  5
210
100
AcDbSymbolTableRecord
100
AcDbBlockTableRecord
  2
*Model_Space
  0
BLOCK_RECORD
  5
211
100
AcDbSymbolTableRecord
100
AcDbBlockTableRecord
  2
*Paper_Space
  0
BLOCK_RECORD
  5
212
100
AcDbSymbolTableRecord
100
AcDbBlockTableRecord
  2
_FILLED
  0
ENDTAB
  0
TABLE
  2
DIMSTYLE
  5
A
100
AcDbSymbolTable
 70
1
100
AcDbDimStyleTable
 71
0
  0
DIMSTYLE
105
213
100
AcDbSymbolTableRecord
100
AcDbDimStyleTableRecord
  2
STANDARD
 70
0
  3

  4

 40
1.0
 41
0.890681309
 42
1.0
 43
0.38
 44
1.0
 45
0.0
 46
0.0
 47
0.01
 48
0.01
140
1.2469538325
141
0.09
142
0.0
143
25.4
144
1.0
145
0.0
146
1.0
147
0.625
 71
1
 72
0
 73
0
 74
0
 75
0
 76
0
 77
1
 78
8
 79
2
170
0
171
1
172
0
173
0
174
0
175
0
176
0
177
0
178
0
270
2
179
2
271
2
272
2
273
2
274
2
275
0
280
0
281
0
282
0
283
1
284
8
285
0
286
0
287
3
288
0
340
11
278
46
341
212
342
212
343
212
344
212
  0
ENDTAB
  0
ENDSEC
  0
SECTION
  2
BLOCKS
  0
BLOCK
  5
20
100
AcDbEntity
  8
0
100
AcDbBlockBegin
  2
*Model_Space
 70
0
 10
0.0
 20
0.0
 30
0.0
  3
*Model_Space
  1

  0
ENDBLK
  5
21
100
AcDbEntity
  8
0
100
AcDbBlockEnd
  0
BLOCK
  5
1C
100
AcDbEntity
  8
0
100
AcDbBlockBegin
  2
*Paper_Space
 70
0
 10
0.0
 20
0.0
 30
0.0
  3
*Paper_Space
  1

  0
ENDBLK
  5
1D
100
AcDbEntity
  8
0
100
AcDbBlockEnd
  0
BLOCK
  5
214
100
AcDbEntity
  8
0
100
AcDbBlockBegin
  2
_FILLED
 70
64
 10
0.0
 20
0.0
  3
_FILLED
  1

  0
SOLID
  5
215
100
AcDbEntity
  8
0
  6
BYBLOCK
 62
0
100
AcDbTrace
 10
0.0
 20
0.0
 11
-1.0
 21
0.25
 12
-1.0
 22
-0.25
 13
-1.0
 23
-0.25
  0
ENDBLK
  5
216
100
AcDbEntity
  8
0
  6
BYBLOCK
 62
0
100
AcDbBlockEnd
  0
ENDSEC
  0
SECTION
  2
ENTITIES
  0
LINE
  5
217
100
AcDbEntity
  8
0
100
AcDbLine
 62
7
  6
BYLAYER
 10
35.80496999
 20
7.5765691077
 11
40.95496999
 21
7.5765691078
  0
LINE
  5
218
100
AcDbEntity
  8
0
100
AcDbLine
 62
7
  6
BYLAYER
 10
36.3549699901
 20
7.610582011
 11
40.40496999
 21
7.6105820111
  0
LINE
  5
219
100
AcDbEntity
  8
0
100
AcDbLine
 62
7
  6
BYLAYER
 10
40.95496999
 20
7.6368764869
 11
35.8049699901
 21
7.6368764869
  0
LINE
  5
21A
100
AcDbEntity
  8
0
100
AcDbLine
 62
7
  6
BYLAYER
 10
35.8049699901
 20
7.9076926603
 11
40.95496999
 21
7.9076926603
  0
LINE
  5
21B
100
AcDbEntity
  8
0
100
AcDbLine
 62
7
  6
BYLAYER
 10
40.95496999
 20
8.7824466519
 11
35.80496999
 21
8.7824466519
  0
LINE
  5
21C
100
AcDbEntity
  8
0
100
AcDbLine
 62
7
  6
BYLAYER
 10
35.80496999
 20
10.1623207263
 11
40.95496999
 21
10.1623207263
  0
LINE
  5
21D
100
AcDbEntity
  8
0
100
AcDbLine
 62
7
  6
BYLAYER
 10
35.80496999
 20
10.3433602932
 11
40.95496999
 21
10.3433602932
  0
LINE
  5
21E
100
AcDbEntity
  8
0
100
AcDbLine
 62
7
  6
BYLAYER
 10
40.95496999
 20
10.7280089262
 11
35.80496999
 21
10.7280089262
  0
LINE
  5
21F
100
AcDbEntity
  8
0
100
AcDbLine
 62
7
  6
BYLAYER
 10
40.95496999
 20
10.7883163054
 11
35.80496999
 21
10.7883163054
  0
LINE
  5
220
100
AcDbEntity
  8
0
100
AcDbLine
 62
7
  6
BYLAYER
 10
35.8049699901
 20
11.2440235911
 11
40.95496999
 21
11.2440235911
  0
LINE
  5
221
100
AcDbEntity
  8
0
100
AcDbLine
 62
7
  6
BYLAYER
 10
40.95496999
 20
12.1837162117
 11
35.8049699901
 21
12.1837162119
  0
LINE
  5
222
100
AcDbEntity
  8
0
100
AcDbLine
 62
7
  6
BYLAYER
 10
35.80496999
 20
19.3138003873
 11
36.35496999
 21
19.3138003873
  0
LINE
  5
223
100
AcDbEntity
  8
0
100
AcDbLine
 62
7
  6
BYLAYER
 10
40.40496999
 20
19.3138003874
 11
40.95496999
 21
19.3138003874
  0
LINE
  5
224
100
AcDbEntity
  8
0
100
AcDbLine
 62
7
  6
BYLAYER
 10
36.35496999
 20
19.3478132907
 11
40.40496999
 21
19.3478132907
  0
LINE
  5
225
100
AcDbEntity
  8
0
100
AcDbLine
 62
7
  6
BYLAYER
 10
40.95496999
 20
19.3741077665
 11
35.8049699901
 21
19.3741077665
  0
LINE
  5
226
100
AcDbEntity
  8
0
100
AcDbLine
 62
7
  6
BYLAYER
 10
35.8049699901
 20
19.6449239399
 11
40.95496999
 21
19.6449239399
  0
LINE
  5
227
100
AcDbEntity
  8
0
100
AcDbLine
 62
7
  6
BYLAYER
 10
40.95496999
 20
20.5196779315
 11
35.80496999
 21
20.5196779315
  0
LINE
  5
228
100
AcDbEntity
  8
0
100
AcDbLine
 62
7
  6
BYLAYER
 10
35.80496999
 20
21.8995520059
 11
40.95496999
 21
21.8995520059
  0
LINE
  5
229
100
AcDbEntity
  8
0
100
AcDbLine
 62
7
  6
BYLAYER
 10
35.80496999
 20
22.0805915728
 11
40.95496999
 21
22.0805915728
  0
LINE
  5
22A
100
AcDbEntity
  8
0
100
AcDbLine
 62
7
  6
BYLAYER
 10
40.95496999
 20
22.4652402058
 11
35.80496999
 21
22.4652402058
  0
LINE
  5
22B
100
AcDbEntity
  8
0
100
AcDbLine
 62
7
  6
BYLAYER
 10
40.95496999
 20
22.525547585
 11
35.80496999
 21
22.525547585
  0
LINE
  5
22C
100
AcDbEntity
  8
0
100
AcDbLine
 62
7
  6
BYLAYER
 10
35.8049699901
 20
22.9701698785
 11
40.95496999
 21
22.9701698785
  0
LINE
  5
22D
100
AcDbEntity
  8
0
100
AcDbLine
 62
7
  6
BYLAYER
 10
40.95496999
 20
23.9098624993
 11
35.8049699901
 21
23.9098624993
  0
LINE
  5
22E
100
AcDbEntity
  8
0
100
AcDbLine
 62
7
  6
BYLAYER
 10
37.1008167527
 20
17.5729788777
 11
39.814153712
 21
14.8596419183
  0
LINE
  5
22F
100
AcDbEntity
  8
0
100
AcDbLine
 62
7
  6
BYLAYER
 10
37.5957862677
 20
18.0679588563
 11
40.3091232271
 21
15.3546218969
  0
LINE
  5
230
100
AcDbEntity
  8
0
100
AcDbLine
 62
7
  6
BYLAYER
 10
37.1499699899
 20
80.8388003872
 11
37.4085486336
 21
81.097379031
  0
LINE
  5
231
100
AcDbEntity
  8
0
100
AcDbLine
 62
7
  6
BYLAYER
 10
39.8499699899
 20
83.2388003872
 11
39.5913913461
 21
82.9802217434
  0
LINE
  5
232
100
AcDbEntity
  8
0
100
AcDbLine
 62
7
  6
BYLAYER
 10
35.80496999
 20
31.0388003873
 11
36.3549699901
 21
31.0388003873
  0
LINE
  5
233
100
AcDbEntity
  8
0
100
AcDbLine
 62
7
  6
BYLAYER
 10
40.40496999
 20
31.0388003874
 11
40.95496999
 21
31.0388003874
  0
LINE
  5
234
100
AcDbEntity
  8
0
100
AcDbLine
 62
7
  6
BYLAYER
 10
36.3549699901
 20
31.0728132906
 11
40.40496999
 21
31.0728132906
  0
LINE
  5
235
100
AcDbEntity
  8
0
100
AcDbLine
 62
7
  6
BYLAYER
 10
40.95496999
 20
31.0991077665
 11
35.8049699901
 21
31.0991077665
  0
LINE
  5
236
100
AcDbEntity
  8
0
100
AcDbLine
 62
7
  6
BYLAYER
 10
35.8049699901
 20
31.3699239399
 11
40.95496999
 21
31.3699239399
  0
LINE
  5
237
100
AcDbEntity
  8
0
100
AcDbLine
 62
7
  6
BYLAYER
 10
40.95496999
 20
32.2446779315
 11
35.8049699901
 21
32.2446779315
  0
LINE
  5
238
100
AcDbEntity
  8
0
100
AcDbLine
 62
7
  6
BYLAYER
 10
35.80496999
 20
33.6245520058
 11
40.95496999
 21
33.6245520058
  0
LINE
  5
239
100
AcDbEntity
  8
0
100
AcDbLine
 62
7
  6
BYLAYER
 10
35.80496999
 20
33.8055915728
 11
40.95496999
 21
33.8055915728
  0
LINE
  5
23A
100
AcDbEntity
  8
0
100
AcDbLine
 62
7
  6
BYLAYER
 10
40.95496999
 20
34.1902402058
 11
35.80496999
 21
34.1902402057
  0
LINE
  5
23B
100
AcDbEntity
  8
0
100
AcDbLine
 62
7
  6
BYLAYER
 10
40.95496999
 20
34.250547585
 11
35.80496999
 21
34.250547585
  0
LINE
  5
23C
100
AcDbEntity
  8
0
100
AcDbLine
 62
7
  6
BYLAYER
 10
35.8049699901
 20
34.6951698785
 11
40.95496999
 21
34.6951698785
  0
LINE
  5
23D
100
AcDbEntity
  8
0
100
AcDbLine
 62
7
  6
BYLAYER
 10
40.95496999
 20
35.6348624993
 11
35.8049699901
 21
35.6348624993
  0
LINE
  5
23E
100
AcDbEntity
  8
0
100
AcDbLine
 62
7
  6
BYLAYER
 10
37.1008167527
 20
29.2979788776
 11
39.814153712
 21
26.5846419182
  0
LINE
  5
23F
100
AcDbEntity
  8
0
100
AcDbLine
 62
7
  6
BYLAYER
 10
37.5957862677
 20
29.7929588562
 11
40.3091232271
 21
27.0796218968
  0
LINE
  5
240
100
AcDbEntity
  8
0
100
AcDbLine
 62
7
  6
BYLAYER
 10
39.2232265006
 20
72.4746641272
 11
37.573239409
 21
69.4702105162
  0
LINE
  5
241
100
AcDbEntity
  8
0
100
AcDbLine
 62
7
  6
BYLAYER
 10
37.5629023936
 20
69.4164883975
 11
39.3008515172
 21
72.5811116524
  0
LINE
  5
242
100
AcDbEntity
  8
0
100
AcDbLine
 62
7
  6
BYLAYER
 10
35.80496999
 20
43.8620063192
 11
40.95496999
 21
43.8620063192
  0
LINE
  5
243
100
AcDbEntity
  8
0
100
AcDbLine
 62
7
  6
BYLAYER
 10
37.1008167527
 20
41.0229788775
 11
39.8141537121
 21
38.3096419181
  0
LINE
  5
244
100
AcDbEntity
  8
0
100
AcDbLine
 62
7
  6
BYLAYER
 10
39.8368764564
 20
72.1380700507
 11
38.1868893648
 21
69.1336164397
  0
LINE
  5
245
100
AcDbEntity
  8
0
100
AcDbLine
 62
7
  6
BYLAYER
 10
37.1499699898
 20
63.113800387
 11
37.4085486337
 21
63.372379031
  0
LINE
  5
246
100
AcDbEntity
  8
0
100
AcDbLine
 62
7
  6
BYLAYER
 10
39.5913913462
 20
65.2552217434
 11
39.8499699901
 21
65.5138003874
  0
LINE
  5
247
100
AcDbEntity
  8
0
100
AcDbLine
 62
7
  6
BYLAYER
 10
35.80496999
 20
44.3230353427
 11
40.95496999
 21
44.3230353448
  0
LINE
  5
248
100
AcDbEntity
  8
0
100
AcDbLine
 62
7
  6
BYLAYER
 10
40.95496999
 20
45.0388003873
 11
35.80496999
 21
45.0388003873
  0
LINE
  5
249
100
AcDbEntity
  8
0
100
AcDbLine
 62
7
  6
BYLAYER
 10
37.1499699899
 20
45.4138003872
 11
39.8499699899
 21
45.4138003872
  0
LINE
  5
24A
100
AcDbEntity
  8
0
100
AcDbLine
 62
7
  6
BYLAYER
 10
39.4499699899
 20
45.6138003872
 11
37.5499699899
 21
45.6138003872
  0
LINE
  5
24B
100
AcDbEntity
  8
0
100
AcDbLine
 62
7
  6
BYLAYER
 10
37.5957862677
 20
41.5179588561
 11
40.3091232271
 21
38.8046218968
  0
LINE
  5
24C
100
AcDbEntity
  8
0
100
AcDbLine
 62
7
  6
BYLAYER
 10
37.5499699899
 20
47.6138003872
 11
39.4499699899
 21
47.6138003872
  0
LINE
  5
24D
100
AcDbEntity
  8
0
100
AcDbLine
 62
7
  6
BYLAYER
 10
39.8499699899
 20
47.8138003872
 11
37.1499699899
 21
47.8138003872
  0
LINE
  5
24E
100
AcDbEntity
  8
0
100
AcDbLine
 62
7
  6
BYLAYER
 10
40.95496999
 20
48.1888003872
 11
35.80496999
 21
48.1888003872
  0
LINE
  5
24F
100
AcDbEntity
  8
0
100
AcDbLine
 62
7
  6
BYLAYER
 10
40.95496999
 20
48.9045654318
 11
35.80496999
 21
48.9045654297
  0
LINE
  5
250
100
AcDbEntity
  8
0
100
AcDbLine
 62
7
  6
BYLAYER
 10
40.95496999
 20
49.3655944554
 11
35.80496999
 21
49.3655944554
  0
LINE
  5
251
100
AcDbEntity
  8
0
100
AcDbLine
 62
7
  6
BYLAYER
 10
37.1499699899
 20
47.8138003872
 11
37.4085486337
 21
47.5552217434
  0
LINE
  5
252
100
AcDbEntity
  8
0
100
AcDbLine
 62
7
  6
BYLAYER
 10
39.8499699899
 20
45.4138003872
 11
39.5913913461
 21
45.672379031
  0
LINE
  5
253
100
AcDbEntity
  8
0
100
AcDbLine
 62
7
  6
BYLAYER
 10
35.80496999
 20
7.5765691077
 11
35.80496999
 21
97.5888003872
  0
LINE
  5
254
100
AcDbEntity
  8
0
100
AcDbLine
 62
7
  6
BYLAYER
 10
36.35496999
 20
97.5888003872
 11
36.35496999
 21
97.5547874838
  0
LINE
  5
255
100
AcDbEntity
  8
0
100
AcDbLine
 62
7
  6
BYLAYER
 10
36.35496999
 20
79.8888003872
 11
36.35496999
 21
79.8547874838
  0
LINE
  5
256
100
AcDbEntity
  8
0
100
AcDbLine
 62
7
  6
BYLAYER
 10
36.3549699901
 20
62.1888003872
 11
36.3549699901
 21
62.1547874838
  0
LINE
  5
257
100
AcDbEntity
  8
0
100
AcDbLine
 62
7
  6
BYLAYER
 10
36.3549699901
 20
31.0728132906
 11
36.3549699901
 21
31.0388003873
  0
LINE
  5
258
100
AcDbEntity
  8
0
100
AcDbLine
 62
7
  6
BYLAYER
 10
36.3549699901
 20
19.3478132907
 11
36.3549699901
 21
19.3138003873
  0
LINE
  5
259
100
AcDbEntity
  8
0
100
AcDbLine
 62
7
  6
BYLAYER
 10
36.3549699901
 20
7.6105820111
 11
36.3549699901
 21
7.5765691077
  0
LINE
  5
25A
100
AcDbEntity
  8
0
100
AcDbLine
 62
7
  6
BYLAYER
 10
36.37996999
 20
48.1888003872
 11
36.37996999
 21
45.0388003873
  0
LINE
  5
25B
100
AcDbEntity
  8
0
100
AcDbLine
 62
7
  6
BYLAYER
 10
36.37996999
 20
62.7388003872
 11
36.37996999
 21
65.8888003872
  0
LINE
  5
25C
100
AcDbEntity
  8
0
100
AcDbLine
 62
7
  6
BYLAYER
 10
36.37996999
 20
80.4388003872
 11
36.37996999
 21
83.5888003872
  0
LINE
  5
25D
100
AcDbEntity
  8
0
100
AcDbLine
 62
7
  6
BYLAYER
 10
36.5549699899
 20
83.5888003872
 11
36.5549699899
 21
80.4388003872
  0
LINE
  5
25E
100
AcDbEntity
  8
0
100
AcDbLine
 62
7
  6
BYLAYER
 10
36.5549699899
 20
65.8888003872
 11
36.5549699899
 21
62.7388003872
  0
LINE
  5
25F
100
AcDbEntity
  8
0
100
AcDbLine
 62
7
  6
BYLAYER
 10
36.5549699899
 20
48.1888003872
 11
36.5549699899
 21
45.0388003873
  0
LINE
  5
260
100
AcDbEntity
  8
0
100
AcDbLine
 62
7
  6
BYLAYER
 10
37.12996999
 20
62.1888003872
 11
37.12996999
 21
62.7388003872
  0
LINE
  5
261
100
AcDbEntity
  8
0
100
AcDbLine
 62
7
  6
BYLAYER
 10
37.12996999
 20
79.8888003872
 11
37.12996999
 21
80.4388003872
  0
LINE
  5
262
100
AcDbEntity
  8
0
100
AcDbLine
 62
7
  6
BYLAYER
 10
37.1499699899
 20
47.8138003872
 11
37.1499699899
 21
45.4138003872
  0
LINE
  5
263
100
AcDbEntity
  8
0
100
AcDbLine
 62
7
  6
BYLAYER
 10
37.1499699898
 20
63.113800387
 11
37.1499699898
 21
65.5138003874
  0
LINE
  5
264
100
AcDbEntity
  8
0
100
AcDbLine
 62
7
  6
BYLAYER
 10
37.1499699899
 20
80.8388003872
 11
37.1499699899
 21
83.2388003872
  0
LINE
  5
265
100
AcDbEntity
  8
0
100
AcDbLine
 62
7
  6
BYLAYER
 10
37.3499699899
 20
65.1138003872
 11
37.3499699899
 21
63.5138003872
  0
LINE
  5
266
100
AcDbEntity
  8
0
100
AcDbLine
 62
7
  6
BYLAYER
 10
37.3499699899
 20
47.4138003872
 11
37.3499699899
 21
45.8138003872
  0
LINE
  5
267
100
AcDbEntity
  8
0
100
AcDbLine
 62
7
  6
BYLAYER
 10
37.3499699899
 20
81.2388003872
 11
37.3499699899
 21
82.8388003872
  0
LINE
  5
268
100
AcDbEntity
  8
0
100
AcDbLine
 62
7
  6
BYLAYER
 10
37.1008167527
 20
54.4229788775
 11
39.8141537121
 21
51.7096419181
  0
LINE
  5
269
100
AcDbEntity
  8
0
100
AcDbLine
 62
7
  6
BYLAYER
 10
39.6299699901
 20
80.4388003872
 11
39.6299699901
 21
79.8888003872
  0
LINE
  5
26A
100
AcDbEntity
  8
0
100
AcDbLine
 62
7
  6
BYLAYER
 10
39.6299699901
 20
62.7388003872
 11
39.6299699901
 21
62.1888003872
  0
LINE
  5
26B
100
AcDbEntity
  8
0
100
AcDbLine
 62
7
  6
BYLAYER
 10
39.6499699899
 20
82.8388003872
 11
39.6499699899
 21
81.2388003872
  0
LINE
  5
26C
100
AcDbEntity
  8
0
100
AcDbLine
 62
7
  6
BYLAYER
 10
39.6499699899
 20
65.1138003872
 11
39.6499699899
 21
63.5138003872
  0
LINE
  5
26D
100
AcDbEntity
  8
0
100
AcDbLine
 62
7
  6
BYLAYER
 10
39.6499699899
 20
47.4138003872
 11
39.6499699899
 21
45.8138003872
  0
LINE
  5
26E
100
AcDbEntity
  8
0
100
AcDbLine
 62
7
  6
BYLAYER
 10
39.8499699901
 20
65.5138003874
 11
39.8499699901
 21
63.113800387
  0
LINE
  5
26F
100
AcDbEntity
  8
0
100
AcDbLine
 62
7
  6
BYLAYER
 10
39.8499699899
 20
45.4138003872
 11
39.8499699899
 21
47.8138003872
  0
LINE
  5
270
100
AcDbEntity
  8
0
100
AcDbLine
 62
7
  6
BYLAYER
 10
39.8499699899
 20
80.8388003872
 11
39.8499699899
 21
83.2388003872
  0
LINE
  5
271
100
AcDbEntity
  8
0
100
AcDbLine
 62
7
  6
BYLAYER
 10
40.37996999
 20
83.5888003872
 11
40.37996999
 21
80.4388003872
  0
LINE
  5
272
100
AcDbEntity
  8
0
100
AcDbLine
 62
7
  6
BYLAYER
 10
40.3799699901
 20
65.8888003872
 11
40.3799699901
 21
62.7388003872
  0
LINE
  5
273
100
AcDbEntity
  8
0
100
AcDbLine
 62
7
  6
BYLAYER
 10
40.37996999
 20
48.1888003872
 11
40.37996999
 21
45.0388003873
  0
LINE
  5
274
100
AcDbEntity
  8
0
100
AcDbLine
 62
7
  6
BYLAYER
 10
40.40496999
 20
7.5765691077
 11
40.40496999
 21
7.6105820111
  0
LINE
  5
275
100
AcDbEntity
  8
0
100
AcDbLine
 62
7
  6
BYLAYER
 10
40.40496999
 20
19.3138003873
 11
40.40496999
 21
19.3478132907
  0
LINE
  5
276
100
AcDbEntity
  8
0
100
AcDbLine
 62
7
  6
BYLAYER
 10
40.40496999
 20
31.0388003873
 11
40.40496999
 21
31.0728132906
  0
LINE
  5
277
100
AcDbEntity
  8
0
100
AcDbLine
 62
7
  6
BYLAYER
 10
40.40496999
 20
62.1547874838
 11
40.40496999
 21
62.1888003872
  0
LINE
  5
278
100
AcDbEntity
  8
0
100
AcDbLine
 62
7
  6
BYLAYER
 10
40.4049699899
 20
79.8547874838
 11
40.4049699899
 21
79.8888003872
  0
LINE
  5
279
100
AcDbEntity
  8
0
100
AcDbLine
 62
7
  6
BYLAYER
 10
40.4049699899
 20
97.5547874838
 11
40.4049699899
 21
97.5888003872
  0
LINE
  5
27A
100
AcDbEntity
  8
0
100
AcDbLine
 62
7
  6
BYLAYER
 10
40.60496999
 20
53.9383001871
 11
40.60496999
 21
52.6893005874
  0
LINE
  5
27B
100
AcDbEntity
  8
0
100
AcDbLine
 62
7
  6
BYLAYER
 10
40.60496999
 20
15.8393005875
 11
40.60496999
 21
17.0883001871
  0
LINE
  5
27C
100
AcDbEntity
  8
0
100
AcDbLine
 62
7
  6
BYLAYER
 10
40.60496999
 20
27.5643005872
 11
40.60496999
 21
28.8133001873
  0
LINE
  5
27D
100
AcDbEntity
  8
0
100
AcDbLine
 62
7
  6
BYLAYER
 10
40.60496999
 20
39.2893005874
 11
40.60496999
 21
40.5383001871
  0
LINE
  5
27E
100
AcDbEntity
  8
0
100
AcDbLine
 62
7
  6
BYLAYER
 10
40.60496999
 20
70.3888662243
 11
40.60496999
 21
71.638734625
  0
LINE
  5
27F
100
AcDbEntity
  8
0
100
AcDbLine
 62
7
  6
BYLAYER
 10
40.60496999
 20
88.0888662243
 11
40.60496999
 21
89.338734625
  0
LINE
  5
280
100
AcDbEntity
  8
0
100
AcDbLine
 62
7
  6
BYLAYER
 10
40.95496999
 20
7.5765691077
 11
40.95496999
 21
97.5888003872
  0
LINE
  5
281
100
AcDbEntity
  8
0
100
AcDbLine
 62
7
  6
BYLAYER
 10
37.5957862677
 20
54.9179588561
 11
40.3091232271
 21
52.2046218968
  0
LINE
  5
282
100
AcDbEntity
  8
0
100
AcDbLine
 62
7
  6
BYLAYER
 10
37.1499699899
 20
45.4138003872
 11
37.4085486337
 21
45.672379031
  0
LINE
  5
283
100
AcDbEntity
  8
0
100
AcDbLine
 62
7
  6
BYLAYER
 10
39.5913913461
 20
47.5552217434
 11
39.8499699899
 21
47.8138003872
  0
LINE
  5
284
100
AcDbEntity
  8
0
100
AcDbLine
 62
7
  6
BYLAYER
 10
35.80496999
 20
57.592738275
 11
40.95496999
 21
57.592738275
  0
LINE
  5
285
100
AcDbEntity
  8
0
100
AcDbLine
 62
7
  6
BYLAYER
 10
40.95496999
 20
58.5324308961
 11
35.80496999
 21
58.5324308961
  0
LINE
  5
286
100
AcDbEntity
  8
0
100
AcDbLine
 62
7
  6
BYLAYER
 10
35.80496999
 20
58.9770531896
 11
40.95496999
 21
58.9770531896
  0
LINE
  5
287
100
AcDbEntity
  8
0
100
AcDbLine
 62
7
  6
BYLAYER
 10
40.95496999
 20
59.0373605688
 11
35.80496999
 21
59.0373605688
  0
LINE
  5
288
100
AcDbEntity
  8
0
100
AcDbLine
 62
7
  6
BYLAYER
 10
35.80496999
 20
59.4220092017
 11
40.95496999
 21
59.4220092017
  0
LINE
  5
289
100
AcDbEntity
  8
0
100
AcDbLine
 62
7
  6
BYLAYER
 10
40.95496999
 20
59.6030487686
 11
35.80496999
 21
59.6030487686
  0
LINE
  5
28A
100
AcDbEntity
  8
0
100
AcDbLine
 62
7
  6
BYLAYER
 10
35.80496999
 20
60.982922843
 11
40.95496999
 21
60.982922843
  0
LINE
  5
28B
100
AcDbEntity
  8
0
100
AcDbLine
 62
7
  6
BYLAYER
 10
40.95496999
 20
61.8576768346
 11
35.8049699901
 21
61.8576768346
  0
LINE
  5
28C
100
AcDbEntity
  8
0
100
AcDbLine
 62
7
  6
BYLAYER
 10
37.1499699898
 20
65.5138003874
 11
37.4085486337
 21
65.2552217434
  0
LINE
  5
28D
100
AcDbEntity
  8
0
100
AcDbLine
 62
7
  6
BYLAYER
 10
39.8499699901
 20
63.113800387
 11
39.5913913462
 21
63.372379031
  0
LINE
  5
28E
100
AcDbEntity
  8
0
100
AcDbLine
 62
7
  6
BYLAYER
 10
35.8049699901
 20
62.128493008
 11
40.95496999
 21
62.128493008
  0
LINE
  5
28F
100
AcDbEntity
  8
0
100
AcDbLine
 62
7
  6
BYLAYER
 10
40.40496999
 20
62.1547874839
 11
36.3549699901
 21
62.1547874839
  0
LINE
  5
290
100
AcDbEntity
  8
0
100
AcDbLine
 62
7
  6
BYLAYER
 10
40.95496999
 20
62.1888003872
 11
35.8049699901
 21
62.1888003872
  0
LINE
  5
291
100
AcDbEntity
  8
0
100
AcDbLine
 62
7
  6
BYLAYER
 10
40.3799699901
 20
62.7388003872
 11
39.6299699901
 21
62.7388003872
  0
LINE
  5
292
100
AcDbEntity
  8
0
100
AcDbLine
 62
7
  6
BYLAYER
 10
37.12996999
 20
62.7388003872
 11
36.37996999
 21
62.7388003872
  0
LINE
  5
293
100
AcDbEntity
  8
0
100
AcDbLine
 62
7
  6
BYLAYER
 10
39.8499699901
 20
63.113800387
 11
37.1499699898
 21
63.113800387
  0
LINE
  5
294
100
AcDbEntity
  8
0
100
AcDbLine
 62
7
  6
BYLAYER
 10
39.4499699899
 20
63.3138003872
 11
37.5499699899
 21
63.3138003872
  0
LINE
  5
295
100
AcDbEntity
  8
0
100
AcDbLine
 62
7
  6
BYLAYER
 10
37.5499699899
 20
65.3138003872
 11
39.4499699899
 21
65.3138003872
  0
LINE
  5
296
100
AcDbEntity
  8
0
100
AcDbLine
 62
7
  6
BYLAYER
 10
37.1499699898
 20
65.5138003874
 11
39.8499699901
 21
65.5138003874
  0
LINE
  5
297
100
AcDbEntity
  8
0
100
AcDbLine
 62
7
  6
BYLAYER
 10
40.95496999
 20
65.8888003872
 11
35.80496999
 21
65.8888003872
  0
LINE
  5
298
100
AcDbEntity
  8
0
100
AcDbLine
 62
7
  6
BYLAYER
 10
40.95496999
 20
66.5888003872
 11
35.80496999
 21
66.5888003872
  0
LINE
  5
299
100
AcDbEntity
  8
0
100
AcDbLine
 62
7
  6
BYLAYER
 10
37.5960979927
 20
90.1002189217
 11
37.6262417863
 21
90.0421932085
  0
LINE
  5
29A
100
AcDbEntity
  8
0
100
AcDbLine
 62
7
  6
BYLAYER
 10
39.3212202466
 20
72.6463518729
 11
39.3213589167
 21
72.6463488612
  0
LINE
  5
29B
100
AcDbEntity
  8
0
100
AcDbLine
 62
7
  6
BYLAYER
 10
37.4085486336
 20
82.9802217434
 11
37.1499699899
 21
83.2388003872
  0
LINE
  5
29C
100
AcDbEntity
  8
0
100
AcDbLine
 62
7
  6
BYLAYER
 10
39.8499699899
 20
80.8388003872
 11
39.5913913461
 21
81.097379031
  0
LINE
  5
29D
100
AcDbEntity
  8
0
100
AcDbLine
 62
7
  6
BYLAYER
 10
35.80496999
 20
75.4380443075
 11
40.95496999
 21
75.4380443075
  0
LINE
  5
29E
100
AcDbEntity
  8
0
100
AcDbLine
 62
7
  6
BYLAYER
 10
40.95496999
 20
76.3428374316
 11
35.80496999
 21
76.3428374316
  0
LINE
  5
29F
100
AcDbEntity
  8
0
100
AcDbLine
 62
7
  6
BYLAYER
 10
35.80496999
 20
76.6770531896
 11
40.95496999
 21
76.6770531896
  0
LINE
  5
2A0
100
AcDbEntity
  8
0
100
AcDbLine
 62
7
  6
BYLAYER
 10
40.95496999
 20
76.7373605688
 11
35.80496999
 21
76.7373605688
  0
LINE
  5
2A1
100
AcDbEntity
  8
0
100
AcDbLine
 62
7
  6
BYLAYER
 10
35.80496999
 20
77.1220092017
 11
40.95496999
 21
77.1220092017
  0
LINE
  5
2A2
100
AcDbEntity
  8
0
100
AcDbLine
 62
7
  6
BYLAYER
 10
40.95496999
 20
77.3030487686
 11
35.80496999
 21
77.3030487686
  0
LINE
  5
2A3
100
AcDbEntity
  8
0
100
AcDbLine
 62
7
  6
BYLAYER
 10
35.80496999
 20
78.6829228429
 11
40.95496999
 21
78.6829228429
  0
LINE
  5
2A4
100
AcDbEntity
  8
0
100
AcDbLine
 62
7
  6
BYLAYER
 10
40.95496999
 20
79.5576768346
 11
35.80496999
 21
79.5576768346
  0
LINE
  5
2A5
100
AcDbEntity
  8
0
100
AcDbLine
 62
7
  6
BYLAYER
 10
35.80496999
 20
79.828493008
 11
40.95496999
 21
79.828493008
  0
LINE
  5
2A6
100
AcDbEntity
  8
0
100
AcDbLine
 62
7
  6
BYLAYER
 10
40.4049699899
 20
79.8547874838
 11
36.35496999
 21
79.8547874838
  0
LINE
  5
2A7
100
AcDbEntity
  8
0
100
AcDbLine
 62
7
  6
BYLAYER
 10
40.95496999
 20
79.8888003872
 11
35.80496999
 21
79.8888003872
  0
LINE
  5
2A8
100
AcDbEntity
  8
0
100
AcDbLine
 62
7
  6
BYLAYER
 10
37.2453481233
 20
89.4684078949
 11
39.6702405596
 21
87.0449926376
  0
LINE
  5
2A9
100
AcDbEntity
  8
0
100
AcDbLine
 62
7
  6
BYLAYER
 10
40.1906831058
 20
87.4793140774
 11
37.6262417863
 21
90.0421932085
  0
LINE
  5
2AA
100
AcDbEntity
  8
0
100
AcDbLine
 62
7
  6
BYLAYER
 10
37.7403228702
 20
89.9630811165
 11
40.1652153064
 21
87.5396658592
  0
LINE
  5
2AB
100
AcDbEntity
  8
0
100
AcDbLine
 62
7
  6
BYLAYER
 10
40.37996999
 20
80.4388003872
 11
39.6299699901
 21
80.4388003872
  0
LINE
  5
2AC
100
AcDbEntity
  8
0
100
AcDbLine
 62
7
  6
BYLAYER
 10
37.12996999
 20
80.4388003872
 11
36.37996999
 21
80.4388003872
  0
LINE
  5
2AD
100
AcDbEntity
  8
0
100
AcDbLine
 62
7
  6
BYLAYER
 10
37.1499699899
 20
80.8388003872
 11
39.8499699899
 21
80.8388003872
  0
LINE
  5
2AE
100
AcDbEntity
  8
0
100
AcDbLine
 62
7
  6
BYLAYER
 10
37.5499699899
 20
81.0388003872
 11
39.4499699899
 21
81.0388003872
  0
LINE
  5
2AF
100
AcDbEntity
  8
0
100
AcDbLine
 62
7
  6
BYLAYER
 10
37.5499699899
 20
83.0388003872
 11
39.4499699899
 21
83.0388003872
  0
LINE
  5
2B0
100
AcDbEntity
  8
0
100
AcDbLine
 62
7
  6
BYLAYER
 10
39.8499699899
 20
83.2388003872
 11
37.1499699899
 21
83.2388003872
  0
LINE
  5
2B1
100
AcDbEntity
  8
0
100
AcDbLine
 62
7
  6
BYLAYER
 10
40.95496999
 20
83.5888003872
 11
35.80496999
 21
83.5888003872
  0
LINE
  5
2B2
100
AcDbEntity
  8
0
100
AcDbLine
 62
7
  6
BYLAYER
 10
35.80496999
 20
84.2888003872
 11
40.95496999
 21
84.2888003872
  0
LINE
  5
2B3
100
AcDbEntity
  8
0
100
AcDbLine
 62
7
  6
BYLAYER
 10
37.5963088131
 20
90.1002280775
 11
37.5960979927
 21
90.1002189217
  0
LINE
  5
2B4
100
AcDbEntity
  8
0
100
AcDbLine
 62
7
  6
BYLAYER
 10
35.80496999
 20
93.1380443075
 11
40.95496999
 21
93.1380443075
  0
LINE
  5
2B5
100
AcDbEntity
  8
0
100
AcDbLine
 62
7
  6
BYLAYER
 10
40.95496999
 20
94.0428374315
 11
35.80496999
 21
94.0428374315
  0
LINE
  5
2B6
100
AcDbEntity
  8
0
100
AcDbLine
 62
7
  6
BYLAYER
 10
35.80496999
 20
94.3770531895
 11
40.95496999
 21
94.3770531895
  0
LINE
  5
2B7
100
AcDbEntity
  8
0
100
AcDbLine
 62
7
  6
BYLAYER
 10
40.95496999
 20
94.4373605687
 11
35.80496999
 21
94.4373605688
  0
LINE
  5
2B8
100
AcDbEntity
  8
0
100
AcDbLine
 62
7
  6
BYLAYER
 10
35.80496999
 20
94.8220092016
 11
40.95496999
 21
94.8220092016
  0
LINE
  5
2B9
100
AcDbEntity
  8
0
100
AcDbLine
 62
7
  6
BYLAYER
 10
40.95496999
 20
95.0030487686
 11
35.80496999
 21
95.0030487686
  0
LINE
  5
2BA
100
AcDbEntity
  8
0
100
AcDbLine
 62
7
  6
BYLAYER
 10
35.80496999
 20
96.3829228429
 11
40.95496999
 21
96.3829228429
  0
LINE
  5
2BB
100
AcDbEntity
  8
0
100
AcDbLine
 62
7
  6
BYLAYER
 10
40.95496999
 20
97.2576768345
 11
35.8049699901
 21
97.2576768346
  0
LINE
  5
2BC
100
AcDbEntity
  8
0
100
AcDbLine
 62
7
  6
BYLAYER
 10
35.8049699901
 20
97.5284930079
 11
40.95496999
 21
97.5284930079
  0
LINE
  5
2BD
100
AcDbEntity
  8
0
100
AcDbLine
 62
7
  6
BYLAYER
 10
40.40496999
 20
97.5547874838
 11
36.35496999
 21
97.5547874838
  0
LINE
  5
2BE
100
AcDbEntity
  8
0
100
AcDbLine
 62
7
  6
BYLAYER
 10
35.80496999
 20
97.5888003872
 11
40.95496999
 21
97.5888003872
  0
ARC
  5
2BF
100
AcDbEntity
  8
0
100
AcDbCircle
 62
7
  6
BYLAYER
 10
37.5499699899
 20
45.8138003872
 40
0.2
100
AcDbArc
 50
180.0000000009
 51
270.0000000001
  0
ARC
  5
2C0
100
AcDbEntity
  8
0
100
AcDbCircle
 62
7
  6
BYLAYER
 10
37.5499699899
 20
47.4138003872
 40
0.2
100
AcDbArc
 50
90.0
 51
180.000000001
  0
ARC
  5
2C1
100
AcDbEntity
  8
0
100
AcDbCircle
 62
7
  6
BYLAYER
 10
38.70496999
 20
16.4638003873
 40
2.0
100
AcDbArc
 50
18.1948723388
 51
341.8051276612
  0
ARC
  5
2C2
100
AcDbEntity
  8
0
100
AcDbCircle
 62
7
  6
BYLAYER
 10
38.70496999
 20
28.1888003873
 40
2.0
100
AcDbArc
 50
18.1948723451
 51
341.8051276549
  0
ARC
  5
2C3
100
AcDbEntity
  8
0
100
AcDbCircle
 62
7
  6
BYLAYER
 10
38.7049699899
 20
28.1888003872
 40
1.9497406679
100
AcDbArc
 50
75.1970254543
 51
124.6627985203
  0
ARC
  5
2C4
100
AcDbEntity
  8
0
100
AcDbCircle
 62
7
  6
BYLAYER
 10
38.7049699899
 20
28.1888003872
 40
1.9497406679
100
AcDbArc
 50
325.3371873841
 51
346.9801324662
  0
ARC
  5
2C5
100
AcDbEntity
  8
0
100
AcDbCircle
 62
7
  6
BYLAYER
 10
38.7049699899
 20
28.1888003872
 40
1.9497406679
100
AcDbArc
 50
13.0198137143
 51
28.9407654846
  0
ARC
  5
2C6
100
AcDbEntity
  8
0
100
AcDbCircle
 62
7
  6
BYLAYER
 10
38.7049699899
 20
28.1888003872
 40
1.9497406679
100
AcDbArc
 50
37.0464479856
 51
70.3938418448
  0
ARC
  5
2C7
100
AcDbEntity
  8
0
100
AcDbCircle
 62
7
  6
BYLAYER
 10
38.7049699899
 20
28.1888003872
 40
1.9497406679
100
AcDbArc
 50
145.3371873841
 51
145.9125893157
  0
ARC
  5
2C8
100
AcDbEntity
  8
0
100
AcDbCircle
 62
7
  6
BYLAYER
 10
38.7049699899
 20
28.1888003872
 40
1.9497406679
100
AcDbArc
 50
164.2307347924
 51
194.7671323806
  0
ARC
  5
2C9
100
AcDbEntity
  8
0
100
AcDbCircle
 62
7
  6
BYLAYER
 10
38.7049699899
 20
28.1888003872
 40
1.9497406679
100
AcDbArc
 50
212.8939933888
 51
304.6627985203
  0
ARC
  5
2CA
100
AcDbEntity
  8
0
100
AcDbCircle
 62
7
  6
BYLAYER
 10
38.7049699899
 20
16.4638003873
 40
1.9497406679
100
AcDbArc
 50
75.1970254675
 51
124.6627985203
  0
ARC
  5
2CB
100
AcDbEntity
  8
0
100
AcDbCircle
 62
7
  6
BYLAYER
 10
38.7049699899
 20
16.4638003873
 40
1.9497406679
100
AcDbArc
 50
325.3371873844
 51
346.9801324671
  0
ARC
  5
2CC
100
AcDbEntity
  8
0
100
AcDbCircle
 62
7
  6
BYLAYER
 10
38.7049699899
 20
16.4638003873
 40
1.9497406679
100
AcDbArc
 50
13.0198137137
 51
28.9407654438
  0
ARC
  5
2CD
100
AcDbEntity
  8
0
100
AcDbCircle
 62
7
  6
BYLAYER
 10
38.7049699899
 20
16.4638003873
 40
1.9497406679
100
AcDbArc
 50
37.0464480001
 51
70.3938418403
  0
ARC
  5
2CE
100
AcDbEntity
  8
0
100
AcDbCircle
 62
7
  6
BYLAYER
 10
38.7049699899
 20
16.4638003873
 40
1.9497406679
100
AcDbArc
 50
145.3371873841
 51
145.9125893335
  0
ARC
  5
2CF
100
AcDbEntity
  8
0
100
AcDbCircle
 62
7
  6
BYLAYER
 10
38.7049699899
 20
16.4638003873
 40
1.9497406679
100
AcDbArc
 50
164.2307347803
 51
194.7671323871
  0
ARC
  5
2D0
100
AcDbEntity
  8
0
100
AcDbCircle
 62
7
  6
BYLAYER
 10
38.7049699899
 20
16.4638003873
 40
1.9497406679
100
AcDbArc
 50
212.8939933801
 51
304.6627985205
  0
ARC
  5
2D1
100
AcDbEntity
  8
0
100
AcDbCircle
 62
7
  6
BYLAYER
 10
38.7049699899
 20
28.1888003872
 40
1.9083630068
100
AcDbArc
 50
124.4319467027
 51
145.5680532975
  0
ARC
  5
2D2
100
AcDbEntity
  8
0
100
AcDbCircle
 62
7
  6
BYLAYER
 10
38.7049699899
 20
28.1888003872
 40
1.9083630068
100
AcDbArc
 50
304.4319467025
 51
325.5680532973
  0
ARC
  5
2D3
100
AcDbEntity
  8
0
100
AcDbCircle
 62
7
  6
BYLAYER
 10
38.7049699899
 20
16.4638003873
 40
1.9083630068
100
AcDbArc
 50
124.4319467025
 51
145.5680532975
  0
ARC
  5
2D4
100
AcDbEntity
  8
0
100
AcDbCircle
 62
7
  6
BYLAYER
 10
38.7049699899
 20
16.4638003873
 40
1.9083630068
100
AcDbArc
 50
304.4319467025
 51
325.5680532975
  0
ARC
  5
2D5
100
AcDbEntity
  8
0
100
AcDbCircle
 62
7
  6
BYLAYER
 10
38.7049699899
 20
28.1888003872
 40
1.750014761
100
AcDbArc
 50
146.5368603843
 51
303.4631396157
  0
ARC
  5
2D6
100
AcDbEntity
  8
0
100
AcDbCircle
 62
7
  6
BYLAYER
 10
38.7049699899
 20
28.1888003872
 40
1.750014761
100
AcDbArc
 50
326.5368603842
 51
123.4631396159
  0
ARC
  5
2D7
100
AcDbEntity
  8
0
100
AcDbCircle
 62
7
  6
BYLAYER
 10
38.7049699899
 20
16.4638003873
 40
1.750014761
100
AcDbArc
 50
146.5368603843
 51
303.4631396157
  0
ARC
  5
2D8
100
AcDbEntity
  8
0
100
AcDbCircle
 62
7
  6
BYLAYER
 10
38.7049699899
 20
16.4638003873
 40
1.750014761
100
AcDbArc
 50
326.5368603844
 51
123.4631396156
  0
ARC
  5
2D9
100
AcDbEntity
  8
0
100
AcDbCircle
 62
7
  6
BYLAYER
 10
38.70496999
 20
39.9138003873
 40
2.0
100
AcDbArc
 50
18.194872341
 51
341.8051276584
  0
ARC
  5
2DA
100
AcDbEntity
  8
0
100
AcDbCircle
 62
7
  6
BYLAYER
 10
38.7049699899
 20
39.9138003871
 40
1.9497406679
100
AcDbArc
 50
325.3371873841
 51
346.980132465
  0
ARC
  5
2DB
100
AcDbEntity
  8
0
100
AcDbCircle
 62
7
  6
BYLAYER
 10
38.7049699899
 20
39.9138003871
 40
1.9497406679
100
AcDbArc
 50
13.0198137158
 51
28.9407654882
  0
ARC
  5
2DC
100
AcDbEntity
  8
0
100
AcDbCircle
 62
7
  6
BYLAYER
 10
38.7049699899
 20
39.9138003871
 40
1.9497406679
100
AcDbArc
 50
212.8939933911
 51
304.6627985203
  0
ARC
  5
2DD
100
AcDbEntity
  8
0
100
AcDbCircle
 62
7
  6
BYLAYER
 10
38.7049699899
 20
39.9138003871
 40
1.9497406679
100
AcDbArc
 50
145.3371873841
 51
145.9125893283
  0
ARC
  5
2DE
100
AcDbEntity
  8
0
100
AcDbCircle
 62
7
  6
BYLAYER
 10
38.7049699899
 20
39.9138003871
 40
1.9497406679
100
AcDbArc
 50
164.2307347841
 51
194.767132379
  0
ARC
  5
2DF
100
AcDbEntity
  8
0
100
AcDbCircle
 62
7
  6
BYLAYER
 10
38.7049699899
 20
39.9138003871
 40
1.9497406679
100
AcDbArc
 50
37.0464479796
 51
70.3938418495
  0
ARC
  5
2E0
100
AcDbEntity
  8
0
100
AcDbCircle
 62
7
  6
BYLAYER
 10
38.7049699899
 20
39.9138003871
 40
1.9497406679
100
AcDbArc
 50
75.197025439
 51
124.6627985203
  0
ARC
  5
2E1
100
AcDbEntity
  8
0
100
AcDbCircle
 62
7
  6
BYLAYER
 10
38.7049699899
 20
39.9138003871
 40
1.9083630068
100
AcDbArc
 50
304.4319467025
 51
325.5680532973
  0
ARC
  5
2E2
100
AcDbEntity
  8
0
100
AcDbCircle
 62
7
  6
BYLAYER
 10
38.7049699899
 20
39.9138003871
 40
1.9083630068
100
AcDbArc
 50
124.4319467027
 51
145.5680532975
  0
ARC
  5
2E3
100
AcDbEntity
  8
0
100
AcDbCircle
 62
7
  6
BYLAYER
 10
38.7049699899
 20
39.9138003871
 40
1.750014761
100
AcDbArc
 50
326.5368603842
 51
123.4631396159
  0
ARC
  5
2E4
100
AcDbEntity
  8
0
100
AcDbCircle
 62
7
  6
BYLAYER
 10
38.7049699899
 20
39.9138003871
 40
1.750014761
100
AcDbArc
 50
146.5368603843
 51
303.4631396157
  0
ARC
  5
2E5
100
AcDbEntity
  8
0
100
AcDbCircle
 62
7
  6
BYLAYER
 10
39.4499699899
 20
47.4138003872
 40
0.2
100
AcDbArc
 50
0.0
 51
90.0
  0
ARC
  5
2E6
100
AcDbEntity
  8
0
100
AcDbCircle
 62
7
  6
BYLAYER
 10
39.4499699899
 20
45.8138003872
 40
0.2
100
AcDbArc
 50
270.0
 51
359.9999999988
  0
ARC
  5
2E7
100
AcDbEntity
  8
0
100
AcDbCircle
 62
7
  6
BYLAYER
 10
34.4018192589
 20
81.7721071219
 40
8.1536168532
100
AcDbArc
 50
44.5994140059
 51
45.020683851
  0
ARC
  5
2E8
100
AcDbEntity
  8
0
100
AcDbCircle
 62
7
  6
BYLAYER
 10
37.5499699899
 20
63.5138003872
 40
0.2
100
AcDbArc
 50
179.9999998723
 51
269.9999998737
  0
ARC
  5
2E9
100
AcDbEntity
  8
0
100
AcDbCircle
 62
7
  6
BYLAYER
 10
37.5499699899
 20
65.1138003872
 40
0.2
100
AcDbArc
 50
90.0
 51
179.9999998718
  0
ARC
  5
2EA
100
AcDbEntity
  8
0
100
AcDbCircle
 62
7
  6
BYLAYER
 10
38.70496999
 20
53.3138003872
 40
2.0
100
AcDbArc
 50
18.194872339
 51
341.8051276612
  0
ARC
  5
2EB
100
AcDbEntity
  8
0
100
AcDbCircle
 62
7
  6
BYLAYER
 10
38.7049699899
 20
53.3138003871
 40
1.9497406679
100
AcDbArc
 50
212.8939933812
 51
304.6627985203
  0
ARC
  5
2EC
100
AcDbEntity
  8
0
100
AcDbCircle
 62
7
  6
BYLAYER
 10
38.7049699899
 20
53.3138003871
 40
1.9497406679
100
AcDbArc
 50
145.3371873844
 51
145.9125893525
  0
ARC
  5
2ED
100
AcDbEntity
  8
0
100
AcDbCircle
 62
7
  6
BYLAYER
 10
38.7049699899
 20
53.3138003871
 40
1.9497406679
100
AcDbArc
 50
164.2307347681
 51
194.7671323865
  0
ARC
  5
2EE
100
AcDbEntity
  8
0
100
AcDbCircle
 62
7
  6
BYLAYER
 10
38.7049699899
 20
53.3138003871
 40
1.9497406679
100
AcDbArc
 50
13.0198137168
 51
28.9407654517
  0
ARC
  5
2EF
100
AcDbEntity
  8
0
100
AcDbCircle
 62
7
  6
BYLAYER
 10
38.7049699899
 20
53.3138003871
 40
1.9497406679
100
AcDbArc
 50
325.3371873841
 51
346.9801324638
  0
ARC
  5
2F0
100
AcDbEntity
  8
0
100
AcDbCircle
 62
7
  6
BYLAYER
 10
38.7049699899
 20
53.3138003871
 40
1.9497406679
100
AcDbArc
 50
37.0464479964
 51
70.3938418465
  0
ARC
  5
2F1
100
AcDbEntity
  8
0
100
AcDbCircle
 62
7
  6
BYLAYER
 10
38.7049699899
 20
53.3138003871
 40
1.9497406679
100
AcDbArc
 50
75.1970254481
 51
124.6627985205
  0
ARC
  5
2F2
100
AcDbEntity
  8
0
100
AcDbCircle
 62
7
  6
BYLAYER
 10
38.7049699899
 20
53.3138003871
 40
1.9083630068
100
AcDbArc
 50
304.4319467027
 51
325.5680532975
  0
ARC
  5
2F3
100
AcDbEntity
  8
0
100
AcDbCircle
 62
7
  6
BYLAYER
 10
38.7049699899
 20
53.3138003871
 40
1.9083630068
100
AcDbArc
 50
124.4319467025
 51
145.5680532973
  0
ARC
  5
2F4
100
AcDbEntity
  8
0
100
AcDbCircle
 62
7
  6
BYLAYER
 10
38.7049699899
 20
53.3138003871
 40
1.750014761
100
AcDbArc
 50
326.5368603841
 51
123.4631396158
  0
ARC
  5
2F5
100
AcDbEntity
  8
0
100
AcDbCircle
 62
7
  6
BYLAYER
 10
38.7049699899
 20
53.3138003871
 40
1.750014761
100
AcDbArc
 50
146.5368603845
 51
303.4631396155
  0
ARC
  5
2F6
100
AcDbEntity
  8
0
100
AcDbCircle
 62
7
  6
BYLAYER
 10
38.7032195252
 20
70.7296309161
 40
2.0048402499
100
AcDbArc
 50
52.1115092038
 51
67.2346287458
  0
ARC
  5
2F7
100
AcDbEntity
  8
0
100
AcDbCircle
 62
7
  6
BYLAYER
 10
38.7061938183
 20
70.732094106
 40
2.0026123855
100
AcDbArc
 50
116.4663434178
 51
148.7796697769
  0
ARC
  5
2F8
100
AcDbEntity
  8
0
100
AcDbCircle
 62
7
  6
BYLAYER
 10
38.7042845955
 20
70.7340590869
 40
1.9999621332
100
AcDbArc
 50
149.724630272
 51
179.4363915059
  0
ARC
  5
2F9
100
AcDbEntity
  8
0
100
AcDbCircle
 62
7
  6
BYLAYER
 10
38.702821949
 20
71.0137446799
 40
1.9984606147
100
AcDbArc
 50
18.262480248
 51
198.2158606999
  0
ARC
  5
2FA
100
AcDbEntity
  8
0
100
AcDbCircle
 62
7
  6
BYLAYER
 10
38.7078416011
 20
70.735310216
 40
1.9974699637
100
AcDbArc
 50
25.4016284175
 51
51.138118713
  0
ARC
  5
2FB
100
AcDbEntity
  8
0
100
AcDbCircle
 62
7
  6
BYLAYER
 10
38.7067598435
 20
70.736410667
 40
1.9972188077
100
AcDbArc
 50
67.2530186552
 51
71.8777395217
  0
ARC
  5
2FC
100
AcDbEntity
  8
0
100
AcDbCircle
 62
7
  6
BYLAYER
 10
38.711361453
 20
70.7402188106
 40
1.9914991545
100
AcDbArc
 50
51.1464865458
 51
52.1049700117
  0
ARC
  5
2FD
100
AcDbEntity
  8
0
100
AcDbCircle
 62
7
  6
BYLAYER
 10
38.7137750873
 20
70.7368377563
 40
1.9914551947
100
AcDbArc
 50
18.2432067547
 51
25.4351570752
  0
ARC
  5
2FE
100
AcDbEntity
  8
0
100
AcDbCircle
 62
7
  6
BYLAYER
 10
38.6931150356
 20
70.7406389733
 40
1.9869986719
100
AcDbArc
 50
148.7949026558
 51
149.7261085389
  0
ARC
  5
2FF
100
AcDbEntity
  8
0
100
AcDbCircle
 62
7
  6
BYLAYER
 10
38.7050940785
 20
70.7954651069
 40
1.9506541007
100
AcDbArc
 50
72.0835884204
 51
174.2308950926
  0
ARC
  5
300
100
AcDbEntity
  8
0
100
AcDbCircle
 62
7
  6
BYLAYER
 10
38.7054566388
 20
70.7962039607
 40
1.9498635441
100
AcDbArc
 50
22.9765156517
 51
50.9130320382
  0
ARC
  5
301
100
AcDbEntity
  8
0
100
AcDbCircle
 62
7
  6
BYLAYER
 10
38.7053051346
 20
70.7971473416
 40
1.9496718236
100
AcDbArc
 50
13.0113145035
 51
19.0408276767
  0
ARC
  5
302
100
AcDbEntity
  8
0
100
AcDbCircle
 62
7
  6
BYLAYER
 10
38.7008966256
 20
70.7972337776
 40
1.9458602473
100
AcDbArc
 50
174.2441361715
 51
192.1510930278
  0
ARC
  5
303
100
AcDbEntity
  8
0
100
AcDbCircle
 62
7
  6
BYLAYER
 10
38.7114338204
 20
70.7989228393
 40
1.9432992455
100
AcDbArc
 50
19.0502943235
 51
22.9715045732
  0
ARC
  5
304
100
AcDbEntity
  8
0
100
AcDbCircle
 62
7
  6
BYLAYER
 10
38.7123690071
 20
70.8170699558
 40
1.9278554931
100
AcDbArc
 50
71.5911747503
 51
72.0917869272
  0
ARC
  5
305
100
AcDbEntity
  8
0
100
AcDbCircle
 62
7
  6
BYLAYER
 10
38.7022530736
 20
70.7612013484
 40
1.915827135
100
AcDbArc
 50
57.7590105083
 51
71.7931138658
  0
ARC
  5
306
100
AcDbEntity
  8
0
100
AcDbCircle
 62
7
  6
BYLAYER
 10
38.7041143343
 20
70.7660255229
 40
1.9107541048
100
AcDbArc
 50
51.3409021002
 51
57.729044595
  0
ARC
  5
307
100
AcDbEntity
  8
0
100
AcDbCircle
 62
7
  6
BYLAYER
 10
38.7033113432
 20
70.8068786572
 40
1.7526170034
100
AcDbArc
 50
300.5577307627
 51
331.2036939008
  0
ARC
  5
308
100
AcDbEntity
  8
0
100
AcDbCircle
 62
7
  6
BYLAYER
 10
38.7049898255
 20
70.8056470559
 40
1.7504612161
100
AcDbArc
 50
252.7837242196
 51
291.1575953031
  0
ARC
  5
309
100
AcDbEntity
  8
0
100
AcDbCircle
 62
7
  6
BYLAYER
 10
38.706618114
 20
70.8041143205
 40
1.7484091963
100
AcDbArc
 50
331.2308814204
 51
49.7254523853
  0
ARC
  5
30A
100
AcDbEntity
  8
0
100
AcDbCircle
 62
7
  6
BYLAYER
 10
38.7034268886
 20
70.8041526415
 40
1.7483449407
100
AcDbArc
 50
72.7846604388
 51
229.7269359521
  0
ARC
  5
30B
100
AcDbEntity
  8
0
100
AcDbCircle
 62
7
  6
BYLAYER
 10
39.4499699899
 20
63.5138003872
 40
0.2
100
AcDbArc
 50
270.0
 51
359.9999998753
  0
ARC
  5
30C
100
AcDbEntity
  8
0
100
AcDbCircle
 62
7
  6
BYLAYER
 10
39.4499699899
 20
65.1138003872
 40
0.2
100
AcDbArc
 50
359.9999998733
 51
90.0
  0
ARC
  5
30D
100
AcDbEntity
  8
0
100
AcDbCircle
 62
7
  6
BYLAYER
 10
38.7070765559
 20
88.4304015977
 40
2.0043959345
100
AcDbArc
 50
119.5799844838
 51
143.977337773
  0
ARC
  5
30E
100
AcDbEntity
  8
0
100
AcDbCircle
 62
7
  6
BYLAYER
 10
38.7047173323
 20
88.4332305488
 40
2.0011843561
100
AcDbArc
 50
25.4170439569
 51
46.1125328456
  0
ARC
  5
30F
100
AcDbEntity
  8
0
100
AcDbCircle
 62
7
  6
BYLAYER
 10
38.7049853645
 20
71.0154539863
 40
2.0010807068
100
AcDbArc
 50
198.2399862594
 51
341.7298871487
  0
ARC
  5
310
100
AcDbEntity
  8
0
100
AcDbCircle
 62
7
  6
BYLAYER
 10
38.7042566658
 20
88.4332925319
 40
2.0003457489
100
AcDbArc
 50
143.9795100566
 51
145.386489271
  0
ARC
  5
311
100
AcDbEntity
  8
0
100
AcDbCircle
 62
7
  6
BYLAYER
 10
38.7028219491
 20
88.7137446799
 40
1.9984606147
100
AcDbArc
 50
18.2624802439
 51
341.729887148
  0
ARC
  5
312
100
AcDbEntity
  8
0
100
AcDbCircle
 62
7
  6
BYLAYER
 10
38.7019066869
 20
88.4344542218
 40
1.9975458026
100
AcDbArc
 50
148.8003383115
 51
178.0470035433
  0
ARC
  5
313
100
AcDbEntity
  8
0
100
AcDbCircle
 62
7
  6
BYLAYER
 10
38.6975008117
 20
88.4346132126
 40
1.9931370684
100
AcDbArc
 50
178.0472550156
 51
179.442723965
  0
ARC
  5
314
100
AcDbEntity
  8
0
100
AcDbCircle
 62
7
  6
BYLAYER
 10
38.6977276888
 20
88.4377425694
 40
1.9924445958
100
AcDbArc
 50
145.3851574339
 51
148.7923859727
  0
ARC
  5
315
100
AcDbEntity
  8
0
100
AcDbCircle
 62
7
  6
BYLAYER
 10
38.7137750873
 20
88.4368377563
 40
1.9914551946
100
AcDbArc
 50
18.2432067545
 51
25.4351570753
  0
ARC
  5
316
100
AcDbEntity
  8
0
100
AcDbCircle
 62
7
  6
BYLAYER
 10
38.7111018962
 20
88.4977266545
 40
1.9555611232
100
AcDbArc
 50
180.0303236693
 51
192.1066062668
  0
ARC
  5
317
100
AcDbEntity
  8
0
100
AcDbCircle
 62
7
  6
BYLAYER
 10
38.7052599748
 20
88.4951045859
 40
1.9508898118
100
AcDbArc
 50
23.4059903758
 51
124.6395834316
  0
ARC
  5
318
100
AcDbEntity
  8
0
100
AcDbCircle
 62
7
  6
BYLAYER
 10
38.7040752157
 20
88.4967767009
 40
1.9488370174
100
AcDbArc
 50
145.326057849
 51
174.3836608388
  0
ARC
  5
319
100
AcDbEntity
  8
0
100
AcDbCircle
 62
7
  6
BYLAYER
 10
38.6983164745
 20
88.4976013123
 40
1.9430252359
100
AcDbArc
 50
174.3912411182
 51
180.0171544364
  0
ARC
  5
31A
100
AcDbEntity
  8
0
100
AcDbCircle
 62
7
  6
BYLAYER
 10
38.7044469607
 20
88.4683561351
 40
1.9077446191
100
AcDbArc
 50
124.4142846574
 51
144.7323489186
  0
ARC
  5
31B
100
AcDbEntity
  8
0
100
AcDbCircle
 62
7
  6
BYLAYER
 10
38.7053093723
 20
88.50601105
 40
1.7509066251
100
AcDbArc
 50
227.1748390371
 51
303.4428103311
  0
ARC
  5
31C
100
AcDbEntity
  8
0
100
AcDbCircle
 62
7
  6
BYLAYER
 10
38.7069776858
 20
88.5040348536
 40
1.7482835109
100
AcDbArc
 50
326.5223393683
 51
123.4428051654
  0
ARC
  5
31D
100
AcDbEntity
  8
0
100
AcDbCircle
 62
7
  6
BYLAYER
 10
38.7035857437
 20
88.5040389004
 40
1.7482835108
100
AcDbArc
 50
146.5223393634
 51
225.021880044
  0
ARC
  5
31E
100
AcDbEntity
  8
0
100
AcDbCircle
 62
7
  6
BYLAYER
 10
38.6943267494
 20
88.4946535741
 40
1.735100499
100
AcDbArc
 50
225.0190964646
 51
227.1858881858
  0
ARC
  5
31F
100
AcDbEntity
  8
0
100
AcDbCircle
 62
7
  6
BYLAYER
 10
37.5499699899
 20
82.8388003872
 40
0.2
100
AcDbArc
 50
90.0
 51
180.0
  0
ARC
  5
320
100
AcDbEntity
  8
0
100
AcDbCircle
 62
7
  6
BYLAYER
 10
39.4499699899
 20
82.8388003872
 40
0.2
100
AcDbArc
 50
0.0
 51
90.0
  0
ARC
  5
321
100
AcDbEntity
  8
0
100
AcDbCircle
 62
7
  6
BYLAYER
 10
39.4499699899
 20
81.2388003872
 40
0.2
100
AcDbArc
 50
269.9999999999
 51
360.0
  0
ARC
  5
322
100
AcDbEntity
  8
0
100
AcDbCircle
 62
7
  6
BYLAYER
 10
37.5499699899
 20
81.2388003872
 40
0.2
100
AcDbArc
 50
180.0000000027
 51
270.0
  0
ARC
  5
323
100
AcDbEntity
  8
0
100
AcDbCircle
 62
7
  6
BYLAYER
 10
48.0191274694
 20
63.7335379479
 40
11.9174657342
100
AcDbArc
 50
151.2252907914
 51
151.4904701876
  0
SPLINE
  5
324
100
AcDbEntity
  8
0
100
AcDbSpline
 62
7
  6
BYLAYER
 70
0
 71
3
 72
14
 73
10
 74
0
 42
0.0000001
 43
0.0000001
 44
0.0000000001
 40
0.0
 40
0.0
 40
0.0
 40
0.0
 40
0.3813078219
 40
0.5538919684
 40
0.7048626524
 40
0.828099883
 40
0.9212750851
 40
0.9819021646
 40
1.0
 40
1.0
 40
1.0
 40
1.0
 10
37.2453481233
 20
89.4684078949
 30
0.0
 10
37.227418982
 20
89.4863261143
 30
0.0
 10
37.2012078818
 20
89.5122940378
 30
0.0
 10
37.1677888137
 20
89.5448777737
 30
0.0
 10
37.1460665537
 20
89.565760772
 30
0.0
 10
37.1291876663
 20
89.5817166021
 30
0.0
 10
37.1134655838
 20
89.5961524122
 30
0.0
 10
37.1089067761
 20
89.599965841
 30
0.0
 10
37.1006973878
 20
89.6069774884
 30
0.0
 10
37.1010108371
 20
89.6058159627
 30
0.0
  0
SPLINE
  5
325
100
AcDbEntity
  8
0
100
AcDbSpline
 62
7
  6
BYLAYER
 70
0
 71
3
 72
14
 73
10
 74
0
 42
0.0000001
 43
0.0000001
 44
0.0000000001
 40
0.0
 40
0.0
 40
0.0
 40
0.0
 40
0.3809920782
 40
0.5534429734
 40
0.7041289839
 40
0.8289450941
 40
0.9240637972
 40
0.9836029916
 40
1.0
 40
1.0
 40
1.0
 40
1.0
 10
39.8368764564
 20
72.1380700507
 30
0.0
 10
39.8489934608
 20
72.1601338462
 30
0.0
 10
39.8667340168
 20
72.1922003515
 30
0.0
 10
39.8893698521
 20
72.232620067
 30
0.0
 10
39.9041904735
 20
72.258772626
 30
0.0
 10
39.9157145346
 20
72.2788859831
 30
0.0
 10
39.9266967618
 20
72.2975670489
 30
0.0
 10
39.9295968334
 20
72.3022396135
 30
0.0
 10
39.9352400117
 20
72.3112189496
 30
0.0
 10
39.9351055029
 20
72.3101439855
 30
0.0
  0
SPLINE
  5
326
100
AcDbEntity
  8
0
100
AcDbSpline
 62
7
  6
BYLAYER
 70
0
 71
3
 72
16
 73
12
 74
0
 42
0.0000001
 43
0.0000001
 44
0.0000000001
 40
0.0
 40
0.0
 40
0.0
 40
0.0
 40
0.3799606531
 40
0.5519161549
 40
0.7024826271
 40
0.8256030218
 40
0.9188946837
 40
0.9539639662
 40
0.980173659
 40
0.9959699784
 40
1.0
 40
1.0
 40
1.0
 40
1.0
 10
39.2232265006
 20
72.4746641272
 30
0.0
 10
39.2353134444
 20
72.4966731855
 30
0.0
 10
39.2529688278
 20
72.5285986974
 30
0.0
 10
39.2756431859
 20
72.5690842869
 30
0.0
 10
39.2901851713
 20
72.5947506708
 30
0.0
 10
39.3021708934
 20
72.6156754488
 30
0.0
 10
39.3107956689
 20
72.6302396454
 30
0.0
 10
39.3157775563
 20
72.6386450655
 30
0.0
 10
39.3190254363
 20
72.643555538
 30
0.0
 10
39.319753682
 20
72.6450535791
 30
0.0
 10
39.3214451728
 20
72.6470361726
 30
0.0
 10
39.3214498021
 20
72.6467698898
 30
0.0
  0
SPLINE
  5
327
100
AcDbEntity
  8
0
100
AcDbSpline
 62
7
  6
BYLAYER
 70
0
 71
3
 72
16
 73
12
 74
0
 42
0.0000001
 43
0.0000001
 44
0.0000000001
 40
0.0
 40
0.0
 40
0.0
 40
0.0
 40
0.3784753329
 40
0.5501604747
 40
0.7004795886
 40
0.8253458654
 40
0.9209569533
 40
0.9560832351
 40
0.9814943655
 40
0.9962642702
 40
1.0
 40
1.0
 40
1.0
 40
1.0
 10
37.7403228702
 20
89.9630811165
 30
0.0
 10
37.7225125045
 20
89.9808806325
 30
0.0
 10
37.6964994065
 20
90.0066403529
 30
0.0
 10
37.6631513508
 20
90.0391721226
 30
0.0
 10
37.6416834769
 20
90.059793694
 30
0.0
 10
37.6238795235
 20
90.0767174098
 30
0.0
 10
37.6110954675
 20
90.0882928307
 30
0.0
 10
37.6037086652
 20
90.0951036866
 30
0.0
 10
37.5992016534
 20
90.0984470819
 30
0.0
 10
37.5980176324
 20
90.1000307921
 30
0.0
 10
37.5959190488
 20
90.1008230889
 30
0.0
 10
37.5959587679
 20
90.1005777448
 30
0.0
  0
ENDSEC
  0
SECTION
  2
OBJECTS
  0
DICTIONARY
  5
C
100
AcDbDictionary
280
0
281
1
  3
ACAD_GROUP
350
D
  3
ACAD_MLINESTYLE
350
17
  3
ACAD_LAYOUT
350
1A
  3
ACAD_PLOTSETTINGS
350
19
  3
ACAD_PLOTSTYLENAME
350
E
  0
DICTIONARY
  5
D
102
{ACAD_REACTORS
330
C
102
}
100
AcDbDictionary
280
0
281
1
  0
ACDBDICTIONARYWDFLT
  5
E
102
{ACAD_REACTORS
330
C
102
}
100
AcDbDictionary
281
1
  3
Normal
350
F
100
AcDbDictionaryWithDefault
340
F
  0
DICTIONARY
  5
17
102
{ACAD_REACTORS
330
C
102
}
100
AcDbDictionary
280
0
281
1
  3
Standard
350
18
  0
DICTIONARY
  5
19
102
{ACAD_REACTORS
330
C
102
}
100
AcDbDictionary
281
1
  0
DICTIONARY
  5
1A
102
{ACAD_REACTORS
330
C
102
}
100
AcDbDictionary
281
1
  3
Model
350
328
  3
Layout1
350
329
  0
ACDBPLACEHOLDER
  5
F
102
{ACAD_REACTORS
330
E
102
}
  0
MLINESTYLE
  5
18
102
{ACAD_REACTORS
330
17
102
}
100
AcDbMlineStyle
  2
STANDARD
 70
0
  3

 62
256
 51
90.0
 52
90.0
 71
2
 49
0.5
 62
256
  6
BYLAYER
 49
-0.5
 62
256
  6
BYLAYER
  0
LAYOUT
  5
328
102
{ACAD_REACTORS
330
1A
102
}
100
AcDbPlotSettings
  1

  2
none_device
  4

  6

 40
0.0
 41
0.0
 42
0.0
 43
0.0
 44
210.0
 45
297.0
 46
0.0
 47
0.0
 48
0.0
 49
0.0
140
0.0
141
0.0
142
1.0
143
1.0
 70
1024
 72
1
 73
0
 74
0
  7

 75
0
147
1.0
148
0.0
149
0.0
100
AcDbLayout
  1
Model
 70
0
 71
0
 10
0.0
 20
0.0
 11
210.0
 21
297.0
 12
0.0
 22
0.0
 32
0.0
 14
0.0
 24
0.0
 34
0.0
 15
0.0
 25
0.0
 35
0.0
146
0.0
 13
0.0
 23
0.0
 33
0.0
 16
1.0
 26
0.0
 36
0.0
 17
0.0
 27
1.0
 37
0.0
 76
0
330
210
345
0
346
0
  0
LAYOUT
  5
329
102
{ACAD_REACTORS
330
1A
102
}
100
AcDbPlotSettings
  1

  2
none_device
  4

  6

 40
0.0
 41
0.0
 42
0.0
 43
0.0
 44
210.0
 45
297.0
 46
0.0
 47
0.0
 48
0.0
 49
0.0
140
0.0
141
0.0
142
1.0
143
1.0
 70
0
 72
1
 73
0
 74
0
  7

 75
0
147
1.0
148
0.0
149
0.0
100
AcDbLayout
  1
Layout1
 70
0
 71
1
 10
0.0
 20
0.0
 11
210.0
 21
297.0
 12
0.0
 22
0.0
 32
0.0
 14
0.0
 24
0.0
 34
0.0
 15
0.0
 25
0.0
 35
0.0
146
0.0
 13
0.0
 23
0.0
 33
0.0
 16
1.0
 26
0.0
 36
0.0
 17
0.0
 27
1.0
 37
0.0
 76
0
330
211
345
0
346
0
  0
ENDSEC
  0
EOF
