999
DXF file: C:\Users\sesa63760\OneDrive - Schneider Electric\Documents\7-Dev\_Creo\CAD\MCADUE0000163_3D-CAD\drw0001_4.dxf
999
Pro/ENGINEER 2019471 by Parametric Technology Corporation
  0
SECTION
  2
HEADER
  9
$ACADVER
  1
AC1024
  9
$DWGCODEPAGE
  3
ANSI_1252
  9
$EXTMAX
 10
54.1571969697
 20
76.59375
 30
0.0
  9
$EXTMIN
 10
0.0
 20
0.0
 30
0.0
  9
$LIMMIN
 10
0.0
 20
0.0
  9
$LIMMAX
 10
54.1571969697
 20
76.59375
  9
$VIEWCTR
 10
27.0785984849
 20
38.296875
  9
$VIEWSIZE
 40
76.59375
  9
$CLAYER
  8
0
  9
$LTSCALE
 40
4.9927777778
  9
$CELTYPE
  6
BYLAYER
  9
$DIMSCALE
 40
1.0
  9
$DIMASZ
 40
0.6447285354
  9
$DIMEXO
 40
1.0
  9
$DIMDLI
 40
3.4495555556
  9
$DIMEXE
 40
1.0
  9
$DIMCEN
 40
0.817
  9
$DIMLFAC
 40
1.0
  9
$DIMBLK
  1
_FILLED
  9
$DIMALT
 70
0
  9
$DIMALTF
 40
0.0393700787
  9
$DIMTXT
 40
0.9026199495
  9
$DIMTOL
 70
1
  9
$DIMLIM
 70
0
  9
$DIMTFAC
 40
1.0
  9
$DIMTP
 40
0.01
  9
$DIMTM
 40
0.01
  9
$DIMGAP
 40
0.625
  9
$DIMDSEP
 70
46
  9
$AUNITS
 70
0
  9
$PDMODE
 70
3
  9
$PDSIZE
 40
0.3125
  9
$HANDSEED
  5
2CE
  9
$TILEMODE
 70
1
  9
$MEASUREMENT
 70
1
  9
$INSUNITS
 70
4
  0
ENDSEC
  0
SECTION
  2
CLASSES
  0
CLASS
  1
ACDBDICTIONARYWDFLT
  2
AcDbDictionaryWithDefault
  3
AutoCAD 2000
 90
0
 91
1
280
0
281
0
  0
CLASS
  1
ACDBPLACEHOLDER
  2
AcDbPlaceHolder
  3
AutoCAD 2000
 90
0
 91
1
280
0
281
0
  0
CLASS
  1
LAYOUT
  2
AcDbLayout
  3
AutoCAD 2000
 90
0
 91
0
280
0
281
0
  0
ENDSEC
  0
SECTION
  2
TABLES
  0
TABLE
  2
VPORT
  5
8
100
AcDbSymbolTable
 70
2
  0
VPORT
  5
1F4
100
AcDbSymbolTableRecord
100
AcDbViewportTableRecord
  2
*ACTIVE
 70
0
 10
0.0
 20
0.0
 11
1.0
 21
1.0
 12
27.0785984849
 22
38.296875
 13
0.0
 23
0.0
 14
1.0
 24
1.0
 15
0.0
 25
0.0
 16
0.0
 26
0.0
 36
1.0
 17
0.0
 27
0.0
 37
0.0
 40
76.59375
 41
0.7070707071
 42
50.0
 43
0.0
 44
0.0
 50
0.0
 51
0.0
 71
0
 72
100
 73
1
 74
1
 75
0
 76
0
 77
0
 78
0
  0
ENDTAB
  0
TABLE
  2
LTYPE
  5
5
100
AcDbSymbolTable
 70
6
  0
LTYPE
  5
14
100
AcDbSymbolTableRecord
100
AcDbLinetypeTableRecord
  2
BYBLOCK
 70
0
  3

 72
65
 73
0
 40
0.0
  0
LTYPE
  5
15
100
AcDbSymbolTableRecord
100
AcDbLinetypeTableRecord
  2
BYLAYER
 70
0
  3

 72
65
 73
0
 40
0.0
  0
LTYPE
  5
16
100
AcDbSymbolTableRecord
100
AcDbLinetypeTableRecord
  2
CONTINUOUS
 70
64
  3
Solid line
 72
65
 73
0
 40
0.0
  0
LTYPE
  5
1F5
100
AcDbSymbolTableRecord
100
AcDbLinetypeTableRecord
  2
CENTER
 70
64
  3
____ _ ____ _ ____ _ ____ _ ____ _ ____ _ ____
 72
65
 73
4
 40
0.6
 49
0.375
 74
0
 49
-0.075
 74
0
 49
0.075
 74
0
 49
-0.075
 74
0
  0
LTYPE
  5
1F6
100
AcDbSymbolTableRecord
100
AcDbLinetypeTableRecord
  2
HIDDEN
 70
64
  3
- - - - - - - - - - - - - - - - - - - -
 72
65
 73
2
 40
0.2
 49
0.1
 74
0
 49
-0.1
 74
0
  0
LTYPE
  5
1F7
100
AcDbSymbolTableRecord
100
AcDbLinetypeTableRecord
  2
PHANTOM
 70
64
  3
_____ _ _ _____ _ _ _____ _ _ _____
 72
65
 73
6
 40
0.8
 49
0.45
 74
0
 49
-0.05
 74
0
 49
0.1
 74
0
 49
-0.05
 74
0
 49
0.1
 74
0
 49
-0.05
 74
0
  0
LTYPE
  5
1F8
100
AcDbSymbolTableRecord
100
AcDbLinetypeTableRecord
  2
DOT
 70
64
  3
. . . . . . . . . . . . . . . . . . . .
 72
65
 73
2
 40
0.2
 49
0.1
 74
0
 49
-0.1
 74
0
  0
LTYPE
  5
1F9
100
AcDbSymbolTableRecord
100
AcDbLinetypeTableRecord
  2
DASHED
 70
64
  3
- - - - - - - - - - - - - - - - - - - -
 72
65
 73
2
 40
0.2
 49
0.1
 74
0
 49
-0.1
 74
0
  0
ENDTAB
  0
TABLE
  2
LAYER
  5
2
100
AcDbSymbolTable
 70
36
  0
LAYER
  5
10
100
AcDbSymbolTableRecord
100
AcDbLayerTableRecord
  2
0
 70
0
 62
7
  6
CONTINUOUS
370
-3
390
F
  0
LAYER
  5
1FA
100
AcDbSymbolTableRecord
100
AcDbLayerTableRecord
  2
DEFAULT_1
 70
0
 62
7
  6
CENTER
370
-3
390
F
  0
LAYER
  5
1FB
100
AcDbSymbolTableRecord
100
AcDbLayerTableRecord
  2
DEFAULT_2
 70
0
 62
8
  6
HIDDEN
370
-3
390
F
  0
LAYER
  5
1FC
100
AcDbSymbolTableRecord
100
AcDbLayerTableRecord
  2
DEFAULT_3
 70
0
 62
7
  6
PHANTOM
370
-3
390
F
  0
LAYER
  5
1FD
100
AcDbSymbolTableRecord
100
AcDbLayerTableRecord
  2
00_COMPONENTS
 70
0
 62
7
  6
CONTINUOUS
370
-3
390
F
  0
LAYER
  5
1FE
100
AcDbSymbolTableRecord
100
AcDbLayerTableRecord
  2
01_1_DEFAULT_DATUMS
 70
0
 62
7
  6
CONTINUOUS
370
-3
390
F
  0
LAYER
  5
1FF
100
AcDbSymbolTableRecord
100
AcDbLayerTableRecord
  2
01_PLANES
 70
0
 62
7
  6
CONTINUOUS
370
-3
390
F
  0
LAYER
  5
200
100
AcDbSymbolTableRecord
100
AcDbLayerTableRecord
  2
02_COORD_SYS
 70
0
 62
7
  6
CONTINUOUS
370
-3
390
F
  0
LAYER
  5
201
100
AcDbSymbolTableRecord
100
AcDbLayerTableRecord
  2
03_AXES
 70
0
 62
7
  6
CONTINUOUS
370
-3
390
F
  0
LAYER
  5
202
100
AcDbSymbolTableRecord
100
AcDbLayerTableRecord
  2
04_POINTS
 70
0
 62
7
  6
CONTINUOUS
370
-3
390
F
  0
LAYER
  5
203
100
AcDbSymbolTableRecord
100
AcDbLayerTableRecord
  2
05_CURVES
 70
0
 62
7
  6
CONTINUOUS
370
-3
390
F
  0
LAYER
  5
204
100
AcDbSymbolTableRecord
100
AcDbLayerTableRecord
  2
06_SURFS
 70
0
 62
7
  6
CONTINUOUS
370
-3
390
F
  0
LAYER
  5
205
100
AcDbSymbolTableRecord
100
AcDbLayerTableRecord
  2
07_COSMETICS
 70
0
 62
7
  6
CONTINUOUS
370
-3
390
F
  0
LAYER
  5
206
100
AcDbSymbolTableRecord
100
AcDbLayerTableRecord
  2
10_NOTES
 70
0
 62
7
  6
CONTINUOUS
370
-3
390
F
  0
LAYER
  5
207
100
AcDbSymbolTableRecord
100
AcDbLayerTableRecord
  2
11_NOTES_PUB
 70
0
 62
7
  6
CONTINUOUS
370
-3
390
F
  0
LAYER
  5
208
100
AcDbSymbolTableRecord
100
AcDbLayerTableRecord
  2
13_REF_GTOL
 70
0
 62
7
  6
CONTINUOUS
370
-3
390
F
  0
LAYER
  5
209
100
AcDbSymbolTableRecord
100
AcDbLayerTableRecord
  2
16_MISC
 70
0
 62
7
  6
CONTINUOUS
370
-3
390
F
  0
LAYER
  5
20A
100
AcDbSymbolTableRecord
100
AcDbLayerTableRecord
  2
17_NO_PRINT
 70
0
 62
7
  6
CONTINUOUS
370
-3
390
F
  0
LAYER
  5
20B
100
AcDbSymbolTableRecord
100
AcDbLayerTableRecord
  2
18_DATUM_CAMS_JOINTS
 70
0
 62
7
  6
CONTINUOUS
370
-3
390
F
  0
LAYER
  5
20C
100
AcDbSymbolTableRecord
100
AcDbLayerTableRecord
  2
19_DATUM_FUNCTIONAL
 70
0
 62
7
  6
CONTINUOUS
370
-3
390
F
  0
LAYER
  5
20D
100
AcDbSymbolTableRecord
100
AcDbLayerTableRecord
  2
20_DATUM_KINEMATIC_SCHEME
 70
0
 62
7
  6
CONTINUOUS
370
-3
390
F
  0
ENDTAB
  0
TABLE
  2
STYLE
  5
3
100
AcDbSymbolTable
 70
1
  0
STYLE
  5
11
100
AcDbSymbolTableRecord
100
AcDbTextStyleTableRecord
  2
STANDARD
 70
0
 40
0.0
 41
0.8
 50
0.0
 71
0
 42
0.2
  3
txt
  4

  0
STYLE
  5
20E
100
AcDbSymbolTableRecord
100
AcDbTextStyleTableRecord
  2
TEXTSTYLE_1
 70
0
 40
0.0
 41
0.8
 50
0.0
 71
0
 42
0.2
  3
gdt
  4

  0
ENDTAB
  0
TABLE
  2
VIEW
  5
6
100
AcDbSymbolTable
 70
0
  0
ENDTAB
  0
TABLE
  2
UCS
  5
7
100
AcDbSymbolTable
 70
0
  0
ENDTAB
  0
TABLE
  2
APPID
  5
9
100
AcDbSymbolTable
 70
1
  0
APPID
  5
20F
100
AcDbSymbolTableRecord
100
AcDbRegAppTableRecord
  2
ACAD
 70
0
  0
ENDTAB
  0
TABLE
  2
BLOCK_RECORD
  5
1
100
AcDbSymbolTable
 70
0
  0
BLOCK_RECORD
  5
210
100
AcDbSymbolTableRecord
100
AcDbBlockTableRecord
  2
*Model_Space
  0
BLOCK_RECORD
  5
211
100
AcDbSymbolTableRecord
100
AcDbBlockTableRecord
  2
*Paper_Space
  0
BLOCK_RECORD
  5
212
100
AcDbSymbolTableRecord
100
AcDbBlockTableRecord
  2
_FILLED
  0
ENDTAB
  0
TABLE
  2
DIMSTYLE
  5
A
100
AcDbSymbolTable
 70
1
100
AcDbDimStyleTable
 71
0
  0
DIMSTYLE
105
213
100
AcDbSymbolTableRecord
100
AcDbDimStyleTableRecord
  2
STANDARD
 70
0
  3

  4

 40
1.0
 41
0.6447285354
 42
1.0
 43
0.38
 44
1.0
 45
0.0
 46
0.0
 47
0.01
 48
0.01
140
0.9026199495
141
0.09
142
0.0
143
25.4
144
1.0
145
0.0
146
1.0
147
0.625
 71
1
 72
0
 73
0
 74
0
 75
0
 76
0
 77
1
 78
8
 79
2
170
0
171
1
172
0
173
0
174
0
175
0
176
0
177
0
178
0
270
2
179
2
271
2
272
2
273
2
274
2
275
0
280
0
281
0
282
0
283
1
284
8
285
0
286
0
287
3
288
0
340
11
278
46
341
212
342
212
343
212
344
212
  0
ENDTAB
  0
ENDSEC
  0
SECTION
  2
BLOCKS
  0
BLOCK
  5
20
100
AcDbEntity
  8
0
100
AcDbBlockBegin
  2
*Model_Space
 70
0
 10
0.0
 20
0.0
 30
0.0
  3
*Model_Space
  1

  0
ENDBLK
  5
21
100
AcDbEntity
  8
0
100
AcDbBlockEnd
  0
BLOCK
  5
1C
100
AcDbEntity
  8
0
100
AcDbBlockBegin
  2
*Paper_Space
 70
0
 10
0.0
 20
0.0
 30
0.0
  3
*Paper_Space
  1

  0
ENDBLK
  5
1D
100
AcDbEntity
  8
0
100
AcDbBlockEnd
  0
BLOCK
  5
214
100
AcDbEntity
  8
0
100
AcDbBlockBegin
  2
_FILLED
 70
64
 10
0.0
 20
0.0
  3
_FILLED
  1

  0
SOLID
  5
215
100
AcDbEntity
  8
0
  6
BYBLOCK
 62
0
100
AcDbTrace
 10
0.0
 20
0.0
 11
-1.0
 21
0.25
 12
-1.0
 22
-0.25
 13
-1.0
 23
-0.25
  0
ENDBLK
  5
216
100
AcDbEntity
  8
0
  6
BYBLOCK
 62
0
100
AcDbBlockEnd
  0
ENDSEC
  0
SECTION
  2
ENTITIES
  0
LINE
  5
217
100
AcDbEntity
  8
0
100
AcDbLine
 62
7
  6
CONTINUOUS
 10
6.0317234849
 20
33.2129334619
 11
6.0317234849
 21
42.9120695708
  0
LINE
  5
218
100
AcDbEntity
  8
0
100
AcDbLine
 62
7
  6
CONTINUOUS
 10
8.0317234848
 20
31.499791245
 11
8.0317234849
 21
44.625208755
  0
LINE
  5
219
100
AcDbEntity
  8
0
100
AcDbLine
 62
7
  6
CONTINUOUS
 10
23.024416033
 20
18.0625
 11
49.0390309367
 21
18.0625
  0
LINE
  5
21A
100
AcDbEntity
  8
0
100
AcDbLine
 62
7
  6
CONTINUOUS
 10
48.9238922205
 20
18.3461736757
 11
23.1395556219
 21
18.3461748133
  0
LINE
  5
21B
100
AcDbEntity
  8
0
100
AcDbLine
 62
7
  6
CONTINUOUS
 10
22.7513200303
 20
20.0925
 11
49.3121269394
 21
20.0925
  0
LINE
  5
21C
100
AcDbEntity
  8
0
100
AcDbLine
 62
7
  6
CONTINUOUS
 10
11.8793322852
 20
29.8125
 11
11.8793322852
 21
30.0645717364
  0
LINE
  5
21D
100
AcDbEntity
  8
0
100
AcDbLine
 62
7
  6
CONTINUOUS
 10
11.8793322852
 20
46.0604284377
 11
11.8793322852
 21
46.3125
  0
LINE
  5
21E
100
AcDbEntity
  8
0
100
AcDbLine
 62
7
  6
CONTINUOUS
 10
49.1833745221
 20
21.8827679907
 11
22.8825530256
 21
21.8825
  0
LINE
  5
21F
100
AcDbEntity
  8
0
100
AcDbLine
 62
7
  6
CONTINUOUS
 10
22.8825529959
 20
21.882609086
 11
22.8800724477
 21
21.8827679907
  0
LINE
  5
220
100
AcDbEntity
  8
0
100
AcDbLine
 62
7
  6
CONTINUOUS
 10
49.0519749596
 20
23.662942915
 11
49.0487862906
 21
23.6628448323
  0
LINE
  5
221
100
AcDbEntity
  8
0
100
AcDbLine
 62
7
  6
CONTINUOUS
 10
23.0146609075
 20
23.6625
 11
49.0487860622
 21
23.6625
  0
LINE
  5
222
100
AcDbEntity
  8
0
100
AcDbLine
 62
7
  6
CONTINUOUS
 10
23.0146608766
 20
23.6626310155
 11
23.0114720101
 21
23.662942915
  0
LINE
  5
223
100
AcDbEntity
  8
0
100
AcDbLine
 62
7
  6
CONTINUOUS
 10
11.5373123556
 20
45.9956535826
 11
8.0317234849
 21
44.625208755
  0
LINE
  5
224
100
AcDbEntity
  8
0
100
AcDbLine
 62
7
  6
CONTINUOUS
 10
7.3476821268
 20
44.7914697752
 11
11.19529265
 21
46.1918854787
  0
LINE
  5
225
100
AcDbEntity
  8
0
100
AcDbLine
 62
7
  6
CONTINUOUS
 10
23.1455632867
 20
25.4425
 11
48.917883683
 21
25.4425
  0
LINE
  5
226
100
AcDbEntity
  8
0
100
AcDbLine
 62
7
  6
CONTINUOUS
 10
48.9198625448
 20
25.4426705418
 11
48.9178838544
 21
25.4427247518
  0
LINE
  5
227
100
AcDbEntity
  8
0
100
AcDbLine
 62
7
  6
CONTINUOUS
 10
23.1455632491
 20
25.4426064325
 11
23.143584425
 21
25.4426705418
  0
LINE
  5
228
100
AcDbEntity
  8
0
100
AcDbLine
 62
7
  6
CONTINUOUS
 10
11.195292133
 20
29.9331147095
 11
7.3476830445
 21
31.3335298908
  0
LINE
  5
229
100
AcDbEntity
  8
0
100
AcDbLine
 62
7
  6
CONTINUOUS
 10
8.0317234848
 20
31.499791245
 11
11.5373123556
 21
30.1293464174
  0
LINE
  5
22A
100
AcDbEntity
  8
0
100
AcDbLine
 62
7
  6
CONTINUOUS
 10
17.4459370472
 20
43.3340945209
 11
17.4459370472
 21
32.7909054791
  0
LINE
  5
22B
100
AcDbEntity
  8
0
100
AcDbLine
 62
7
  6
CONTINUOUS
 10
48.7880698449
 20
27.1625
 11
23.2753771248
 21
27.1625
  0
LINE
  5
22C
100
AcDbEntity
  8
0
100
AcDbLine
 62
7
  6
CONTINUOUS
 10
18.8601506096
 20
30.1015789543
 11
18.8601506096
 21
46.0234204581
  0
LINE
  5
22D
100
AcDbEntity
  8
0
100
AcDbLine
 62
7
  6
CONTINUOUS
 10
22.5317234849
 20
29.8125
 11
11.8793323043
 21
29.8125
  0
LINE
  5
22E
100
AcDbEntity
  8
0
100
AcDbLine
 62
7
  6
CONTINUOUS
 10
11.8793294886
 20
30.0645717364
 11
22.5317234849
 21
30.0645717364
  0
LINE
  5
22F
100
AcDbEntity
  8
0
100
AcDbLine
 62
7
  6
CONTINUOUS
 10
18.8601506096
 20
30.1015789543
 11
22.5317234849
 21
30.1015789543
  0
LINE
  5
230
100
AcDbEntity
  8
0
100
AcDbLine
 62
7
  6
CONTINUOUS
 10
18.8601506096
 20
31.5923315793
 11
22.5317234849
 21
31.5923557619
  0
LINE
  5
231
100
AcDbEntity
  8
0
100
AcDbLine
 62
7
  6
CONTINUOUS
 10
22.5317234849
 20
18.5645903334
 11
22.5317234849
 21
57.5604096666
  0
LINE
  5
232
100
AcDbEntity
  8
0
100
AcDbLine
 62
7
  6
CONTINUOUS
 10
23.2753771248
 20
27.1625
 11
23.2753771248
 21
48.9625
  0
LINE
  5
233
100
AcDbEntity
  8
0
100
AcDbLine
 62
7
  6
CONTINUOUS
 10
37.2817234849
 20
32.4375
 11
34.7817234849
 21
32.4375
  0
LINE
  5
234
100
AcDbEntity
  8
0
100
AcDbLine
 62
7
  6
CONTINUOUS
 10
8.0317234848
 20
35.6334803113
 11
13.893204816
 21
35.6334803113
  0
LINE
  5
235
100
AcDbEntity
  8
0
100
AcDbLine
 62
7
  6
CONTINUOUS
 10
28.2857567924
 20
36.0625
 11
28.3890799631
 21
36.0625
  0
LINE
  5
236
100
AcDbEntity
  8
0
100
AcDbLine
 62
7
  6
CONTINUOUS
 10
13.7678442735
 20
36.6562515864
 11
8.0317234848
 21
36.6562515864
  0
LINE
  5
237
100
AcDbEntity
  8
0
100
AcDbLine
 62
7
  6
CONTINUOUS
 10
13.7032995413
 20
38.0625
 11
15.1175114508
 21
38.0625
  0
LINE
  5
238
100
AcDbEntity
  8
0
100
AcDbLine
 62
7
  6
CONTINUOUS
 10
8.0317234848
 20
39.4687484616
 11
13.7678442703
 21
39.4687484616
  0
LINE
  5
239
100
AcDbEntity
  8
0
100
AcDbLine
 62
7
  6
CONTINUOUS
 10
22.5317234849
 20
18.5645903334
 11
22.6414594595
 21
18.8349513969
  0
LINE
  5
23A
100
AcDbEntity
  8
0
100
AcDbLine
 62
7
  6
CONTINUOUS
 10
23.1395556219
 20
18.3461748133
 11
23.024416033
 21
18.0625
  0
LINE
  5
23B
100
AcDbEntity
  8
0
100
AcDbLine
 62
7
  6
CONTINUOUS
 10
8.0317234849
 20
40.4915196797
 11
13.8932048195
 21
40.4915196797
  0
LINE
  5
23C
100
AcDbEntity
  8
0
100
AcDbLine
 62
7
  6
CONTINUOUS
 10
22.6414594588
 20
57.2900486049
 11
22.5317234849
 21
57.5604096666
  0
LINE
  5
23D
100
AcDbEntity
  8
0
100
AcDbLine
 62
7
  6
CONTINUOUS
 10
23.024416033
 20
58.0625
 11
23.1395547471
 21
57.7788263243
  0
LINE
  5
23E
100
AcDbEntity
  8
0
100
AcDbLine
 62
7
  6
CONTINUOUS
 10
37.2817234849
 20
43.6875
 11
34.7817234849
 21
43.6875
  0
LINE
  5
23F
100
AcDbEntity
  8
0
100
AcDbLine
 62
7
  6
CONTINUOUS
 10
34.7817234849
 20
43.6875
 11
34.7817234849
 21
32.4375
  0
LINE
  5
240
100
AcDbEntity
  8
0
100
AcDbLine
 62
7
  6
CONTINUOUS
 10
22.5317234849
 20
44.5326443805
 11
18.8601506096
 21
44.5326684207
  0
LINE
  5
241
100
AcDbEntity
  8
0
100
AcDbLine
 62
7
  6
CONTINUOUS
 10
18.8601476919
 20
46.0234204581
 11
22.5317234849
 21
46.0234204581
  0
LINE
  5
242
100
AcDbEntity
  8
0
100
AcDbLine
 62
7
  6
CONTINUOUS
 10
22.5317234849
 20
46.0604282636
 11
11.8793294895
 21
46.0604282636
  0
LINE
  5
243
100
AcDbEntity
  8
0
100
AcDbLine
 62
7
  6
CONTINUOUS
 10
37.2817234849
 20
32.4375
 11
37.2817234849
 21
37.1691635057
  0
LINE
  5
244
100
AcDbEntity
  8
0
100
AcDbLine
 62
7
  6
CONTINUOUS
 10
37.2817234849
 20
38.9558364943
 11
37.2817234849
 21
43.6875
  0
LINE
  5
245
100
AcDbEntity
  8
0
100
AcDbLine
 62
7
  6
CONTINUOUS
 10
22.5317234849
 20
46.3125
 11
11.8793323229
 21
46.3125
  0
LINE
  5
246
100
AcDbEntity
  8
0
100
AcDbLine
 62
7
  6
CONTINUOUS
 10
23.2753771248
 20
48.9625
 11
48.7880698449
 21
48.9625
  0
LINE
  5
247
100
AcDbEntity
  8
0
100
AcDbLine
 62
7
  6
CONTINUOUS
 10
48.9238917082
 20
57.7788251764
 11
49.0390309367
 21
58.0625
  0
LINE
  5
248
100
AcDbEntity
  8
0
100
AcDbLine
 62
7
  6
CONTINUOUS
 10
49.5317234849
 20
57.5604096666
 11
49.4219875103
 21
57.2900486032
  0
LINE
  5
249
100
AcDbEntity
  8
0
100
AcDbLine
 62
7
  6
CONTINUOUS
 10
48.917883683
 20
50.6825
 11
23.1455632867
 21
50.6825
  0
LINE
  5
24A
100
AcDbEntity
  8
0
100
AcDbLine
 62
7
  6
CONTINUOUS
 10
23.143584425
 20
50.6823294582
 11
23.1455631153
 21
50.6822752482
  0
LINE
  5
24B
100
AcDbEntity
  8
0
100
AcDbLine
 62
7
  6
CONTINUOUS
 10
48.9178837206
 20
50.6823935675
 11
48.9198625448
 21
50.6823294582
  0
LINE
  5
24C
100
AcDbEntity
  8
0
100
AcDbLine
 62
7
  6
CONTINUOUS
 10
49.0390309367
 20
18.0625
 11
48.9238922205
 21
18.3461736757
  0
LINE
  5
24D
100
AcDbEntity
  8
0
100
AcDbLine
 62
7
  6
CONTINUOUS
 10
49.4219875109
 20
18.8349513952
 11
49.5317234849
 21
18.5645903334
  0
LINE
  5
24E
100
AcDbEntity
  8
0
100
AcDbLine
 62
7
  6
CONTINUOUS
 10
23.0114720101
 20
52.462057085
 11
23.0146606791
 21
52.4621551677
  0
LINE
  5
24F
100
AcDbEntity
  8
0
100
AcDbLine
 62
7
  6
CONTINUOUS
 10
49.0487860622
 20
52.4625
 11
23.0146609075
 21
52.4625
  0
LINE
  5
250
100
AcDbEntity
  8
0
100
AcDbLine
 62
7
  6
CONTINUOUS
 10
49.3121269394
 20
56.0325
 11
22.7513200303
 21
56.0325
  0
LINE
  5
251
100
AcDbEntity
  8
0
100
AcDbLine
 62
7
  6
CONTINUOUS
 10
22.8800724477
 20
54.2422320093
 11
49.1808939441
 21
54.2425
  0
LINE
  5
252
100
AcDbEntity
  8
0
100
AcDbLine
 62
7
  6
CONTINUOUS
 10
49.1808939738
 20
54.242390914
 11
49.1833745221
 21
54.2422320093
  0
LINE
  5
253
100
AcDbEntity
  8
0
100
AcDbLine
 62
7
  6
CONTINUOUS
 10
49.0487860931
 20
52.4623689845
 11
49.0519749596
 21
52.462057085
  0
LINE
  5
254
100
AcDbEntity
  8
0
100
AcDbLine
 62
7
  6
CONTINUOUS
 10
23.1395547471
 20
57.7788263243
 11
48.9238917082
 21
57.7788251764
  0
LINE
  5
255
100
AcDbEntity
  8
0
100
AcDbLine
 62
7
  6
CONTINUOUS
 10
48.7880698449
 20
48.9625
 11
48.7880698449
 21
27.1625
  0
LINE
  5
256
100
AcDbEntity
  8
0
100
AcDbLine
 62
7
  6
CONTINUOUS
 10
49.5317234849
 20
57.5604096666
 11
49.5317234849
 21
18.5645903334
  0
LINE
  5
257
100
AcDbEntity
  8
0
100
AcDbLine
 62
7
  6
CONTINUOUS
 10
49.0390309367
 20
58.0625
 11
23.024416033
 21
58.0625
  0
ARC
  5
258
100
AcDbEntity
  8
0
100
AcDbCircle
 62
7
  6
CONTINUOUS
 10
-2.0710875708
 20
19.8145314644
 40
25.2796927522
100
AcDbArc
 50
359.9953957377
 51
0.6310251049
  0
ARC
  5
259
100
AcDbEntity
  8
0
100
AcDbCircle
 62
7
  6
CONTINUOUS
 10
5.874051366
 20
26.9376606329
 40
17.4027782525
100
AcDbArc
 50
0.0159326888
 51
0.7402671591
  0
ARC
  5
25A
100
AcDbEntity
  8
0
100
AcDbCircle
 62
7
  6
CONTINUOUS
 10
6.0377401264
 20
25.1593903858
 40
17.1081897585
100
AcDbArc
 50
0.0104111723
 51
0.948756084
  0
ARC
  5
25B
100
AcDbEntity
  8
0
100
AcDbCircle
 62
7
  6
CONTINUOUS
 10
5.9168326552
 20
23.3795514719
 40
17.0969881963
100
AcDbArc
 50
0.0098782371
 51
0.9497507435
  0
ARC
  5
25C
100
AcDbEntity
  8
0
100
AcDbCircle
 62
7
  6
CONTINUOUS
 10
29.0645756416
 20
38.0620203051
 40
15.3612761078
100
AcDbArc
 50
174.7457064841
 51
179.9982107937
  0
ARC
  5
25D
100
AcDbEntity
  8
0
100
AcDbCircle
 62
7
  6
CONTINUOUS
 10
29.0518519273
 20
38.0623956742
 40
15.3485523861
100
AcDbArc
 50
179.9996105543
 51
185.2564721354
  0
ARC
  5
25E
100
AcDbEntity
  8
0
100
AcDbCircle
 62
7
  6
CONTINUOUS
 10
26.9564553961
 20
35.2118965304
 40
12.5067731196
100
AcDbArc
 50
139.501923134
 51
158.6567975202
  0
ARC
  5
25F
100
AcDbEntity
  8
0
100
AcDbCircle
 62
7
  6
CONTINUOUS
 10
26.1279064616
 20
38.0619357775
 40
11.0103944167
100
AcDbArc
 50
173.7929293116
 51
179.9970639047
  0
ARC
  5
260
100
AcDbEntity
  8
0
100
AcDbCircle
 62
7
  6
CONTINUOUS
 10
13.0785533546
 20
19.8481696094
 40
9.6315531441
100
AcDbArc
 50
1.4930918192
 51
2.0567742523
  0
ARC
  5
261
100
AcDbEntity
  8
0
100
AcDbCircle
 62
7
  6
CONTINUOUS
 10
17.1779033513
 20
37.09080232
 40
2.0077386467
100
AcDbArc
 50
186.2393361193
 51
201.3084730354
  0
ARC
  5
262
100
AcDbEntity
  8
0
100
AcDbCircle
 62
7
  6
CONTINUOUS
 10
11.8793322852
 20
31.8125
 40
2.0
100
AcDbArc
 50
250.0000166502
 51
270.0
  0
ARC
  5
263
100
AcDbEntity
  8
0
100
AcDbCircle
 62
7
  6
CONTINUOUS
 10
8.0317234849
 20
33.2129150764
 40
2.0
100
AcDbArc
 50
179.9996830554
 51
249.9999976459
  0
ARC
  5
264
100
AcDbEntity
  8
0
100
AcDbCircle
 62
7
  6
CONTINUOUS
 10
7.3343541263
 20
33.2119851685
 40
1.3025761777
100
AcDbArc
 50
185.3067871365
 51
186.4215994072
  0
ARC
  5
265
100
AcDbEntity
  8
0
100
AcDbCircle
 62
7
  6
CONTINUOUS
 10
6.2289400574
 20
33.0771863593
 40
0.1921144128
100
AcDbArc
 50
175.7206846595
 51
184.2776055479
  0
ARC
  5
266
100
AcDbEntity
  8
0
100
AcDbCircle
 62
7
  6
CONTINUOUS
 10
-2.025105593
 20
56.3105048609
 40
25.233711959
100
AcDbArc
 50
359.3677425101
 51
0.0045301719
  0
ARC
  5
267
100
AcDbEntity
  8
0
100
AcDbCircle
 62
7
  6
CONTINUOUS
 10
5.2071404979
 20
49.1917404349
 40
18.0696908104
100
AcDbArc
 50
359.2730998055
 51
359.9707003466
  0
ARC
  5
268
100
AcDbEntity
  8
0
100
AcDbCircle
 62
7
  6
CONTINUOUS
 10
5.5193357311
 20
50.9699489227
 40
17.626595445
100
AcDbArc
 50
359.065042773
 51
359.9757899707
  0
ARC
  5
269
100
AcDbEntity
  8
0
100
AcDbCircle
 62
7
  6
CONTINUOUS
 10
5.4113188851
 20
52.7496819726
 40
17.6025031771
100
AcDbArc
 50
359.0637453436
 51
359.9766256757
  0
ARC
  5
26A
100
AcDbEntity
  8
0
100
AcDbCircle
 62
7
  6
CONTINUOUS
 10
5.3962603316
 20
54.5485854301
 40
17.4864958905
100
AcDbArc
 50
358.9961593107
 51
359.9472797337
  0
ARC
  5
26B
100
AcDbEntity
  8
0
100
AcDbCircle
 62
7
  6
CONTINUOUS
 10
26.9616236076
 20
40.9162377348
 40
12.5127699881
100
AcDbArc
 50
201.3479569347
 51
220.4936216469
  0
ARC
  5
26C
100
AcDbEntity
  8
0
100
AcDbCircle
 62
7
  6
CONTINUOUS
 10
26.1278649921
 20
38.063061973
 40
11.0103529471
100
AcDbArc
 50
180.0029244004
 51
186.2070823838
  0
ARC
  5
26D
100
AcDbEntity
  8
0
100
AcDbCircle
 62
7
  6
CONTINUOUS
 10
13.2805781293
 20
56.2705696804
 40
9.42943388
100
AcDbArc
 50
357.9371862605
 51
358.5129451676
  0
CIRCLE
  5
26E
100
AcDbEntity
  8
0
100
AcDbCircle
 62
7
  6
CONTINUOUS
 10
36.0317234849
 20
38.0625
 40
8.0
  0
CIRCLE
  5
26F
100
AcDbEntity
  8
0
100
AcDbCircle
 62
7
  6
CONTINUOUS
 10
36.0317234849
 20
38.0625
 40
7.9
  0
CIRCLE
  5
270
100
AcDbEntity
  8
0
100
AcDbCircle
 62
7
  6
CONTINUOUS
 10
36.0317234849
 20
38.0625
 40
7.4
  0
ARC
  5
271
100
AcDbEntity
  8
0
100
AcDbCircle
 62
7
  6
CONTINUOUS
 10
35.2191740547
 20
38.0625
 40
4.0625189074
100
AcDbArc
 50
300.5108380167
 51
59.4891619833
  0
ARC
  5
272
100
AcDbEntity
  8
0
100
AcDbCircle
 62
7
  6
CONTINUOUS
 10
17.1782770319
 20
39.0341060757
 40
2.0081200701
100
AcDbArc
 50
158.6929663891
 51
173.7592244559
  0
ARC
  5
273
100
AcDbEntity
  8
0
100
AcDbCircle
 62
7
  6
CONTINUOUS
 10
11.8793322852
 20
44.3125
 40
2.0
100
AcDbArc
 50
89.999979547
 51
109.9999999999
  0
ARC
  5
274
100
AcDbEntity
  8
0
100
AcDbCircle
 62
7
  6
CONTINUOUS
 10
8.0317234849
 20
42.9120849236
 40
2.0
100
AcDbArc
 50
110.0000159811
 51
180.0002836314
  0
ARC
  5
275
100
AcDbEntity
  8
0
100
AcDbCircle
 62
7
  6
CONTINUOUS
 10
7.4727955444
 20
42.9040184783
 40
1.4412609501
100
AcDbArc
 50
174.8462797414
 51
176.5164063874
  0
ARC
  5
276
100
AcDbEntity
  8
0
100
AcDbCircle
 62
7
  6
CONTINUOUS
 10
7.3621973898
 20
42.9104756738
 40
1.3304748261
100
AcDbArc
 50
176.5045645551
 51
179.932683908
  0
ARC
  5
277
100
AcDbEntity
  8
0
100
AcDbCircle
 62
7
  6
CONTINUOUS
 10
7.3343555699
 20
42.9130145849
 40
1.3025776334
100
AcDbArc
 50
173.5777992224
 51
174.6932095527
  0
ARC
  5
278
100
AcDbEntity
  8
0
100
AcDbCircle
 62
7
  6
CONTINUOUS
 10
6.2280949593
 20
43.0478141278
 40
0.1912716427
100
AcDbArc
 50
175.703496054
 51
184.2982179415
  0
ARC
  5
279
100
AcDbEntity
  8
0
100
AcDbCircle
 62
7
  6
CONTINUOUS
 10
74.1364317222
 20
19.8144339316
 40
25.2815908353
100
AcDbArc
 50
179.3688012203
 51
180.0043828775
  0
ARC
  5
27A
100
AcDbEntity
  8
0
100
AcDbCircle
 62
7
  6
CONTINUOUS
 10
66.8563064721
 20
26.9332595651
 40
18.0696908107
100
AcDbArc
 50
179.2730998055
 51
179.9707003466
  0
ARC
  5
27B
100
AcDbEntity
  8
0
100
AcDbCircle
 62
7
  6
CONTINUOUS
 10
66.5441112388
 20
25.1550510773
 40
17.6265954451
100
AcDbArc
 50
179.065042773
 51
179.9757899707
  0
ARC
  5
27C
100
AcDbEntity
  8
0
100
AcDbCircle
 62
7
  6
CONTINUOUS
 10
66.6521280849
 20
23.3753180274
 40
17.6025031774
100
AcDbArc
 50
179.0637453436
 51
179.9766256757
  0
ARC
  5
27D
100
AcDbEntity
  8
0
100
AcDbCircle
 62
7
  6
CONTINUOUS
 10
58.7828688418
 20
19.8544303196
 40
9.4294338813
100
AcDbArc
 50
177.9371862606
 51
178.5129451675
  0
ARC
  5
27E
100
AcDbEntity
  8
0
100
AcDbCircle
 62
7
  6
CONTINUOUS
 10
74.1346650714
 20
56.3104699831
 40
25.2798233256
100
AcDbArc
 50
179.9953990421
 51
180.6310251273
  0
ARC
  5
27F
100
AcDbEntity
  8
0
100
AcDbCircle
 62
7
  6
CONTINUOUS
 10
66.1893956034
 20
49.1873393671
 40
17.4027782522
100
AcDbArc
 50
180.0159326888
 51
180.7402671591
  0
ARC
  5
280
100
AcDbEntity
  8
0
100
AcDbCircle
 62
7
  6
CONTINUOUS
 10
66.0257068427
 20
50.9656096142
 40
17.1081897579
100
AcDbArc
 50
180.0104111723
 51
180.948756084
  0
ARC
  5
281
100
AcDbEntity
  8
0
100
AcDbCircle
 62
7
  6
CONTINUOUS
 10
66.1466143151
 20
52.7454485281
 40
17.0969881969
100
AcDbArc
 50
180.0098782371
 51
180.9497507435
  0
ARC
  5
282
100
AcDbEntity
  8
0
100
AcDbCircle
 62
7
  6
CONTINUOUS
 10
58.9848936158
 20
56.2768303906
 40
9.6315531449
100
AcDbArc
 50
181.4930918192
 51
182.0567742522
  0
ARC
  5
283
100
AcDbEntity
  8
0
100
AcDbCircle
 62
7
  6
CONTINUOUS
 10
40.1380469041
 20
38.0624999999
 40
4.1900827023
100
AcDbArc
 50
132.9763051004
 51
227.0235357176
  0
ARC
  5
284
100
AcDbEntity
  8
0
100
AcDbCircle
 62
7
  6
CONTINUOUS
 10
38.4475875016
 20
38.0624999999
 40
1.9010100312
100
AcDbArc
 50
127.8269443593
 51
232.1730556387
  0
ARC
  5
285
100
AcDbEntity
  8
0
100
AcDbCircle
 62
7
  6
CONTINUOUS
 10
36.8189912062
 20
38.0625000255
 40
1.0061515782
100
AcDbArc
 50
297.3809627221
 51
62.6190372781
  0
SPLINE
  5
286
100
AcDbEntity
  8
0
100
AcDbSpline
 62
7
  6
CONTINUOUS
 70
0
 71
3
 72
14
 73
10
 74
0
 42
0.0000001
 43
0.0000001
 44
0.0000000001
 40
0.0
 40
0.0
 40
0.0
 40
0.0
 40
0.0540124238
 40
0.1205224097
 40
0.2067020567
 40
0.3157900793
 40
0.4492547156
 40
0.6077540808
 40
1.0
 40
1.0
 40
1.0
 40
1.0
 10
22.7513200305
 20
20.0925016255
 30
0.0
 10
22.749230259
 20
20.09250215
 30
0.0
 10
22.7445505874
 20
20.0939047943
 30
0.0
 10
22.7384267942
 20
20.0992418429
 30
0.0
 10
22.7324846216
 20
20.1075008417
 30
0.0
 10
22.7266054078
 20
20.1188123168
 30
0.0
 10
22.7207579683
 20
20.1332006718
 30
0.0
 10
22.7124253298
 20
20.1583411625
 30
0.0
 10
22.7072436239
 20
20.1790402465
 30
0.0
 10
22.7039014145
 20
20.1938438694
 30
0.0
  0
SPLINE
  5
287
100
AcDbEntity
  8
0
100
AcDbSpline
 62
7
  6
CONTINUOUS
 70
0
 71
3
 72
14
 73
10
 74
0
 42
0.0000001
 43
0.0000001
 44
0.0000000001
 40
0.0
 40
0.0
 40
0.0
 40
0.0
 40
0.0540124238
 40
0.1205224097
 40
0.2067020567
 40
0.3157900793
 40
0.4492547156
 40
0.6077540808
 40
1.0
 40
1.0
 40
1.0
 40
1.0
 10
49.3121269392
 20
56.0324983745
 30
0.0
 10
49.3142167107
 20
56.03249785
 30
0.0
 10
49.3188963824
 20
56.0310952057
 30
0.0
 10
49.3250201755
 20
56.0257581572
 30
0.0
 10
49.3309623481
 20
56.0174991584
 30
0.0
 10
49.3368415619
 20
56.0061876832
 30
0.0
 10
49.3426890014
 20
55.9917993283
 30
0.0
 10
49.35102164
 20
55.9666588376
 30
0.0
 10
49.3562033458
 20
55.9459597535
 30
0.0
 10
49.3595455552
 20
55.9311561307
 30
0.0
  0
SPLINE
  5
288
100
AcDbEntity
  8
0
100
AcDbSpline
 62
7
  6
CONTINUOUS
 70
0
 71
3
 72
11
 73
7
 74
0
 42
0.0000001
 43
0.0000001
 44
0.0000000001
 40
0.0
 40
0.0
 40
0.0
 40
0.0
 40
0.2501185622
 40
0.5001353231
 40
0.7500973511
 40
1.0
 40
1.0
 40
1.0
 40
1.0
 10
49.5317234849
 20
57.5604096666
 30
0.0
 10
49.5317234849
 20
57.6251926541
 30
0.0
 10
49.5071536342
 20
57.7561597929
 30
0.0
 10
49.3989167574
 20
57.9233063275
 30
0.0
 10
49.2348199091
 20
58.0365048812
 30
0.0
 10
49.1037580007
 20
58.0624999589
 30
0.0
 10
49.0390309367
 20
58.0625
 30
0.0
  0
SPLINE
  5
289
100
AcDbEntity
  8
0
100
AcDbSpline
 62
7
  6
CONTINUOUS
 70
0
 71
3
 72
11
 73
7
 74
0
 42
0.0000001
 43
0.0000001
 44
0.0000000001
 40
0.0
 40
0.0
 40
0.0
 40
0.0
 40
0.2499776379
 40
0.4999428797
 40
0.7499374764
 40
1.0
 40
1.0
 40
1.0
 40
1.0
 10
23.024416033
 20
58.0625
 30
0.0
 10
22.9596694514
 20
58.0624999557
 30
0.0
 10
22.8285838048
 20
58.0364985911
 30
0.0
 10
22.6644933027
 20
57.9232631234
 30
0.0
 10
22.5562833271
 20
57.7561249174
 30
0.0
 10
22.5317234849
 20
57.6251782344
 30
0.0
 10
22.5317234849
 20
57.5604096666
 30
0.0
  0
SPLINE
  5
28A
100
AcDbEntity
  8
0
100
AcDbSpline
 62
7
  6
CONTINUOUS
 70
0
 71
3
 72
11
 73
7
 74
0
 42
0.0000001
 43
0.0000001
 44
0.0000000001
 40
0.0
 40
0.0
 40
0.0
 40
0.0
 40
0.2501185623
 40
0.5001353242
 40
0.7500973502
 40
1.0
 40
1.0
 40
1.0
 40
1.0
 10
22.5317234849
 20
18.5645903334
 30
0.0
 10
22.5317234849
 20
18.4998073459
 30
0.0
 10
22.556293336
 20
18.3688402083
 30
0.0
 10
22.664530211
 20
18.2016936682
 30
0.0
 10
22.8286270621
 20
18.088495134
 30
0.0
 10
22.9596889688
 20
18.0625000171
 30
0.0
 10
23.024416033
 20
18.0625
 30
0.0
  0
SPLINE
  5
28B
100
AcDbEntity
  8
0
100
AcDbSpline
 62
7
  6
CONTINUOUS
 70
0
 71
3
 72
11
 73
7
 74
0
 42
0.0000001
 43
0.0000001
 44
0.0000000001
 40
0.0
 40
0.0
 40
0.0
 40
0.0
 40
0.2499776379
 40
0.4999428797
 40
0.7499374764
 40
1.0
 40
1.0
 40
1.0
 40
1.0
 10
49.0390309367
 20
18.0625
 30
0.0
 10
49.1037775183
 20
18.0625000442
 30
0.0
 10
49.2348631649
 20
18.0885014091
 30
0.0
 10
49.398953667
 20
18.2017368766
 30
0.0
 10
49.5071636427
 20
18.3688750827
 30
0.0
 10
49.5317234849
 20
18.4998217656
 30
0.0
 10
49.5317234849
 20
18.5645903334
 30
0.0
  0
SPLINE
  5
28C
100
AcDbEntity
  8
0
100
AcDbSpline
 62
7
  6
CONTINUOUS
 70
0
 71
3
 72
14
 73
10
 74
0
 42
0.0000001
 43
0.0000001
 44
0.0000000001
 40
0.0
 40
0.0
 40
0.0
 40
0.0
 40
0.3922458869
 40
0.5507453245
 40
0.6842100193
 40
0.7932980424
 40
0.8794776942
 40
0.9459876426
 40
1.0
 40
1.0
 40
1.0
 40
1.0
 10
49.3595455552
 20
20.1938438694
 30
0.0
 10
49.3562033459
 20
20.1790402472
 30
0.0
 10
49.3510216387
 20
20.1583411611
 30
0.0
 10
49.3426889989
 20
20.1332006658
 30
0.0
 10
49.3368415564
 20
20.1188123059
 30
0.0
 10
49.3309623366
 20
20.1075008303
 30
0.0
 10
49.3250201657
 20
20.0992418327
 30
0.0
 10
49.3188963786
 20
20.093904781
 30
0.0
 10
49.3142167083
 20
20.092502143
 30
0.0
 10
49.3121269393
 20
20.0925016208
 30
0.0
  0
SPLINE
  5
28D
100
AcDbEntity
  8
0
100
AcDbSpline
 62
7
  6
CONTINUOUS
 70
0
 71
3
 72
14
 73
10
 74
0
 42
0.0000001
 43
0.0000001
 44
0.0000000001
 40
0.0
 40
0.0
 40
0.0
 40
0.0
 40
0.3922458869
 40
0.5507453245
 40
0.6842100193
 40
0.7932980424
 40
0.8794776942
 40
0.9459876426
 40
1.0
 40
1.0
 40
1.0
 40
1.0
 10
22.7039014145
 20
55.9311561307
 30
0.0
 10
22.7072436238
 20
55.9459597528
 30
0.0
 10
22.712425331
 20
55.9666588389
 30
0.0
 10
22.7207579709
 20
55.9917993342
 30
0.0
 10
22.7266054133
 20
56.0061876941
 30
0.0
 10
22.7324846332
 20
56.0174991697
 30
0.0
 10
22.7384268041
 20
56.0257581674
 30
0.0
 10
22.7445505911
 20
56.031095219
 30
0.0
 10
22.7492302615
 20
56.032497857
 30
0.0
 10
22.7513200304
 20
56.0324983792
 30
0.0
  0
SPLINE
  5
28E
100
AcDbEntity
  8
0
100
AcDbSpline
 62
7
  6
CONTINUOUS
 70
0
 71
3
 72
9
 73
5
 74
0
 42
0.0000001
 43
0.0000001
 44
0.0000000001
 40
0.0
 40
0.0
 40
0.0
 40
0.0
 40
0.2550756354
 40
1.0
 40
1.0
 40
1.0
 40
1.0
 10
11.8793294895
 20
46.0604282977
 30
0.0
 10
11.8496357764
 20
46.0604282046
 30
0.0
 10
11.733290108
 20
46.0546125698
 30
0.0
 10
11.6180776962
 20
46.0272274338
 30
0.0
 10
11.5373122464
 20
45.9956537075
 30
0.0
  0
SPLINE
  5
28F
100
AcDbEntity
  8
0
100
AcDbSpline
 62
7
  6
CONTINUOUS
 70
0
 71
3
 72
14
 73
10
 74
0
 42
0.0000001
 43
0.0000001
 44
0.0000000001
 40
0.0
 40
0.0
 40
0.0
 40
0.0
 40
0.1203623676
 40
0.2409894074
 40
0.3625333728
 40
0.4858510199
 40
0.6115852082
 40
0.7396149689
 40
1.0
 40
1.0
 40
1.0
 40
1.0
 10
16.0317235488
 20
44.6330750425
 30
0.0
 10
16.109520698
 20
44.7387261228
 30
0.0
 10
16.2771348146
 20
44.9418504334
 30
0.0
 10
16.5625843361
 20
45.2163936473
 30
0.0
 10
16.8813001377
 20
45.4571089003
 30
0.0
 10
17.2320427227
 20
45.6596011673
 30
0.0
 10
17.6115956274
 20
45.8201756911
 30
0.0
 10
18.1507300386
 20
45.9765502899
 30
0.0
 10
18.5763080213
 20
46.0234207875
 30
0.0
 10
18.8601476919
 20
46.0234210041
 30
0.0
  0
SPLINE
  5
290
100
AcDbEntity
  8
0
100
AcDbSpline
 62
7
  6
CONTINUOUS
 70
0
 71
3
 72
9
 73
5
 74
0
 42
0.0000001
 43
0.0000001
 44
0.0000000001
 40
0.0
 40
0.0
 40
0.0
 40
0.0
 40
0.5190516061
 40
1.0
 40
1.0
 40
1.0
 40
1.0
 10
13.8932047905
 20
40.4915196881
 30
0.0
 10
14.1513537369
 20
41.2580817935
 30
0.0
 10
14.7622445
 20
42.6994720096
 30
0.0
 10
15.5873190012
 20
44.0295591651
 30
0.0
 10
16.0317235123
 20
44.633075058
 30
0.0
  0
SPLINE
  5
291
100
AcDbEntity
  8
0
100
AcDbSpline
 62
7
  6
CONTINUOUS
 70
0
 71
3
 72
14
 73
10
 74
0
 42
0.0000001
 43
0.0000001
 44
0.0000000001
 40
0.0
 40
0.0
 40
0.0
 40
0.0
 40
0.0843810359
 40
0.1755194724
 40
0.2773911134
 40
0.392865144
 40
0.5236515843
 40
0.6694411635
 40
1.0
 40
1.0
 40
1.0
 40
1.0
 10
11.1952920161
 20
46.191885248
 30
0.0
 10
11.2062890139
 20
46.1958878274
 30
0.0
 10
11.2305001258
 20
46.2008418854
 30
0.0
 10
11.2692461813
 20
46.1984655865
 30
0.0
 10
11.3106487686
 20
46.1866378653
 30
0.0
 10
11.3542114855
 20
46.1653616144
 30
0.0
 10
11.3993257612
 20
46.134760764
 30
0.0
 10
11.463677154
 20
46.0802936985
 30
0.0
 10
11.5083755796
 20
46.0312126088
 30
0.0
 10
11.5373122591
 20
45.9956537125
 30
0.0
  0
SPLINE
  5
292
100
AcDbEntity
  8
0
100
AcDbSpline
 62
7
  6
CONTINUOUS
 70
0
 71
3
 72
14
 73
10
 74
0
 42
0.0000001
 43
0.0000001
 44
0.0000000001
 40
0.0
 40
0.0
 40
0.0
 40
0.0
 40
0.0675959353
 40
0.1458231529
 40
0.2404649666
 40
0.354798266
 40
0.4901639841
 40
0.6448585447
 40
1.0
 40
1.0
 40
1.0
 40
1.0
 10
7.6897031756
 20
44.9159552564
 30
0.0
 10
7.6996990782
 20
44.9195934664
 30
0.0
 10
7.723164198
 20
44.9225743194
 30
0.0
 10
7.7605151298
 20
44.913859599
 30
0.0
 10
7.8010397986
 20
44.893163025
 30
0.0
 10
7.8444603967
 20
44.8604173325
 30
0.0
 10
7.8900757133
 20
44.8158700506
 30
0.0
 10
7.9562117057
 20
44.738721844
 30
0.0
 10
8.0019755175
 20
44.6725221625
 30
0.0
 10
8.0317238991
 20
44.6252095911
 30
0.0
  0
SPLINE
  5
293
100
AcDbEntity
  8
0
100
AcDbSpline
 62
7
  6
CONTINUOUS
 70
0
 71
3
 72
22
 73
18
 74
0
 42
0.0000001
 43
0.0000001
 44
0.0000000001
 40
0.0
 40
0.0
 40
0.0
 40
0.0
 40
0.0043916917
 40
0.0099110672
 40
0.017163026
 40
0.0264103506
 40
0.0377701528
 40
0.0512850984
 40
0.0847820143
 40
0.1267980404
 40
0.1770278796
 40
0.235062479
 40
0.3003964536
 40
0.4504243877
 40
0.6214509814
 40
0.807034289
 40
1.0
 40
1.0
 40
1.0
 40
1.0
 10
23.1455631174
 20
50.6824987052
 30
0.0
 10
23.1477866575
 20
50.6824960213
 30
0.0
 10
23.1528098607
 20
50.6808664641
 30
0.0
 10
23.1592627802
 20
50.6748477525
 30
0.0
 10
23.1655483743
 20
50.665584528
 30
0.0
 10
23.1717661087
 20
50.6528885873
 30
0.0
 10
23.1779438256
 20
50.6367395218
 30
0.0
 10
23.1867395361
 20
50.6085097877
 30
0.0
 10
23.1970729962
 20
50.564588755
 30
0.0
 10
23.2084173665
 20
50.5019306042
 30
0.0
 10
23.2192438527
 20
50.426602527
 30
0.0
 10
23.2294331047
 20
50.3392939659
 30
0.0
 10
23.2426089393
 20
50.2014920821
 30
0.0
 10
23.2562025779
 20
50.006303517
 30
0.0
 10
23.2679301834
 20
49.750040576
 30
0.0
 10
23.2751644001
 20
49.4718653981
 30
0.0
 10
23.2768289456
 20
49.2801998177
 30
0.0
 10
23.2768289456
 20
49.1825000396
 30
0.0
  0
SPLINE
  5
294
100
AcDbEntity
  8
0
100
AcDbSpline
 62
7
  6
CONTINUOUS
 70
0
 71
3
 72
22
 73
18
 74
0
 42
0.0000001
 43
0.0000001
 44
0.0000000001
 40
0.0
 40
0.0
 40
0.0
 40
0.0
 40
0.0043920822
 40
0.0099112636
 40
0.0171626864
 40
0.0264097474
 40
0.0377695802
 40
0.0512838454
 40
0.0847785174
 40
0.1267915817
 40
0.1770167211
 40
0.2350509221
 40
0.3003832509
 40
0.4504120605
 40
0.6214395988
 40
0.8070307282
 40
1.0
 40
1.0
 40
1.0
 40
1.0
 10
49.1808941423
 20
21.8825019431
 30
0.0
 10
49.1786704066
 20
21.8825050917
 30
0.0
 10
49.1736473249
 20
21.8841345162
 30
0.0
 10
49.1671937784
 20
21.8901523555
 30
0.0
 10
49.1609080787
 20
21.8994149567
 30
0.0
 10
49.1546907921
 20
21.9121106933
 30
0.0
 10
49.1485139505
 20
21.9282595757
 30
0.0
 10
49.1397185262
 20
21.9564878219
 30
0.0
 10
49.1293854564
 20
22.0004058621
 30
0.0
 10
49.1180416162
 20
22.0630589548
 30
0.0
 10
49.1072146217
 20
22.1383827908
 30
0.0
 10
49.0970267128
 20
22.225688013
 30
0.0
 10
49.0838494382
 20
22.3634890535
 30
0.0
 10
49.0702557395
 20
22.5586775948
 30
0.0
 10
49.0585279577
 20
22.8149452233
 30
0.0
 10
49.051292695
 20
23.0931264127
 30
0.0
 10
49.0496263723
 20
23.2847976128
 30
0.0
 10
49.0496263723
 20
23.3824991254
 30
0.0
  0
SPLINE
  5
295
100
AcDbEntity
  8
0
100
AcDbSpline
 62
7
  6
CONTINUOUS
 70
0
 71
3
 72
9
 73
5
 74
0
 42
0.0000001
 43
0.0000001
 44
0.0000000001
 40
0.0
 40
0.0
 40
0.0
 40
0.0
 40
0.2443753074
 40
1.0
 40
1.0
 40
1.0
 40
1.0
 10
11.5373122464
 20
30.1293462925
 30
0.0
 10
11.5638043903
 20
30.1189896895
 30
0.0
 10
11.674121465
 20
30.0817118837
 30
0.0
 10
11.7913770228
 20
30.0645719783
 30
0.0
 10
11.8793294886
 20
30.0645717023
 30
0.0
  0
SPLINE
  5
296
100
AcDbEntity
  8
0
100
AcDbSpline
 62
7
  6
CONTINUOUS
 70
0
 71
3
 72
9
 73
5
 74
0
 42
0.0000001
 43
0.0000001
 44
0.0000000001
 40
0.0
 40
0.0
 40
0.0
 40
0.0
 40
0.4809483939
 40
1.0
 40
1.0
 40
1.0
 40
1.0
 10
16.0317235123
 20
31.491924942
 30
0.0
 10
15.5873190012
 20
32.0954408349
 30
0.0
 10
14.7622445
 20
33.4255279904
 30
0.0
 10
14.1513537369
 20
34.8669182065
 30
0.0
 10
13.8932047905
 20
35.6334803119
 30
0.0
  0
SPLINE
  5
297
100
AcDbEntity
  8
0
100
AcDbSpline
 62
7
  6
CONTINUOUS
 70
0
 71
3
 72
14
 73
10
 74
0
 42
0.0000001
 43
0.0000001
 44
0.0000000001
 40
0.0
 40
0.0
 40
0.0
 40
0.0
 40
0.2603850316
 40
0.3884147873
 40
0.5141489712
 40
0.6374666164
 40
0.7590105839
 40
0.8796376277
 40
1.0
 40
1.0
 40
1.0
 40
1.0
 10
18.8601445537
 20
30.1015789543
 30
0.0
 10
18.5763051487
 20
30.1015794039
 30
0.0
 10
18.1507276107
 20
30.1484501551
 30
0.0
 10
17.6115938073
 20
30.3048249217
 30
0.0
 10
17.2320413501
 20
30.4653994757
 30
0.0
 10
16.8812991799
 20
30.6678916891
 30
0.0
 10
16.5625837399
 20
30.908606804
 30
0.0
 10
16.2771345208
 20
31.1831498115
 30
0.0
 10
16.1095205649
 20
31.3862739454
 30
0.0
 10
16.0317234848
 20
31.4919249303
 30
0.0
  0
SPLINE
  5
298
100
AcDbEntity
  8
0
100
AcDbSpline
 62
7
  6
CONTINUOUS
 70
0
 71
3
 72
14
 73
10
 74
0
 42
0.0000001
 43
0.0000001
 44
0.0000000001
 40
0.0
 40
0.0
 40
0.0
 40
0.0
 40
0.3305588366
 40
0.4763484158
 40
0.6071348561
 40
0.7226088866
 40
0.8244805276
 40
0.9156189641
 40
1.0
 40
1.0
 40
1.0
 40
1.0
 10
11.5373122591
 20
30.1293462875
 30
0.0
 10
11.5083755795
 20
30.0937873911
 30
0.0
 10
11.4636771539
 20
30.0447063014
 30
0.0
 10
11.399325761
 20
29.990239236
 30
0.0
 10
11.3542114853
 20
29.9596383855
 30
0.0
 10
11.3106487684
 20
29.9383621346
 30
0.0
 10
11.2692461811
 20
29.9265344135
 30
0.0
 10
11.2305001255
 20
29.9241581147
 30
0.0
 10
11.2062890137
 20
29.9291121727
 30
0.0
 10
11.1952920159
 20
29.9331147521
 30
0.0
  0
SPLINE
  5
299
100
AcDbEntity
  8
0
100
AcDbSpline
 62
7
  6
CONTINUOUS
 70
0
 71
3
 72
22
 73
18
 74
0
 42
0.0000001
 43
0.0000001
 44
0.0000000001
 40
0.0
 40
0.0
 40
0.0
 40
0.0
 40
0.0043927063
 40
0.0099119597
 40
0.0171631547
 40
0.0264103727
 40
0.0377706746
 40
0.0512848724
 40
0.084779301
 40
0.1267928842
 40
0.1770178236
 40
0.2350533521
 40
0.3003859037
 40
0.4504150571
 40
0.6214414665
 40
0.8070326846
 40
1.0
 40
1.0
 40
1.0
 40
1.0
 10
23.0146606835
 20
52.4624969219
 30
0.0
 10
23.016884733
 20
52.4624931525
 30
0.0
 10
23.0219078371
 20
52.4608635866
 30
0.0
 10
23.028362267
 20
52.4548463045
 30
0.0
 10
23.0346483084
 20
52.4455838647
 30
0.0
 10
23.0408652675
 20
52.4328877319
 30
0.0
 10
23.047041485
 20
52.4167383294
 30
0.0
 10
23.0558368806
 20
52.3885100228
 30
0.0
 10
23.0661698641
 20
52.3445918668
 30
0.0
 10
23.0775134485
 20
52.2819387326
 30
0.0
 10
23.0883408707
 20
52.2066141557
 30
0.0
 10
23.0985282603
 20
52.1193082296
 30
0.0
 10
23.1117059297
 20
51.9815063454
 30
0.0
 10
23.1252993624
 20
51.786318167
 30
0.0
 10
23.1370267922
 20
51.5300510191
 30
0.0
 10
23.1442621905
 20
51.2518715106
 30
0.0
 10
23.1459296025
 20
51.0602013671
 30
0.0
 10
23.1459296025
 20
50.9625008981
 30
0.0
  0
SPLINE
  5
29A
100
AcDbEntity
  8
0
100
AcDbSpline
 62
7
  6
CONTINUOUS
 70
0
 71
3
 72
22
 73
18
 74
0
 42
0.0000001
 43
0.0000001
 44
0.0000000001
 40
0.0
 40
0.0
 40
0.0
 40
0.0
 40
0.0043920822
 40
0.0099112636
 40
0.0171626864
 40
0.0264097474
 40
0.0377695802
 40
0.0512838454
 40
0.0847785174
 40
0.1267915817
 40
0.1770167211
 40
0.2350509221
 40
0.3003832509
 40
0.4504120605
 40
0.6214395988
 40
0.8070307282
 40
1.0
 40
1.0
 40
1.0
 40
1.0
 10
22.8825528275
 20
54.242498057
 30
0.0
 10
22.8847765631
 20
54.2424949084
 30
0.0
 10
22.8897996449
 20
54.2408654839
 30
0.0
 10
22.8962531913
 20
54.2348476446
 30
0.0
 10
22.902538891
 20
54.2255850433
 30
0.0
 10
22.9087561777
 20
54.2128893067
 30
0.0
 10
22.9149330193
 20
54.1967404244
 30
0.0
 10
22.9237284436
 20
54.1685121781
 30
0.0
 10
22.9340615134
 20
54.1245941379
 30
0.0
 10
22.9454053535
 20
54.0619410453
 30
0.0
 10
22.956232348
 20
53.9866172093
 30
0.0
 10
22.9664202569
 20
53.899311987
 30
0.0
 10
22.9795975316
 20
53.7615109465
 30
0.0
 10
22.9931912302
 20
53.5663224052
 30
0.0
 10
23.004919012
 20
53.3100547767
 30
0.0
 10
23.0121542747
 20
53.0318735874
 30
0.0
 10
23.0138205974
 20
52.8402023872
 30
0.0
 10
23.0138205974
 20
52.7425008746
 30
0.0
  0
SPLINE
  5
29B
100
AcDbEntity
  8
0
100
AcDbSpline
 62
7
  6
CONTINUOUS
 70
0
 71
3
 72
22
 73
18
 74
0
 42
0.0000001
 43
0.0000001
 44
0.0000000001
 40
0.0
 40
0.0
 40
0.0
 40
0.0
 40
0.0043927063
 40
0.0099119597
 40
0.0171631547
 40
0.0264103727
 40
0.0377706746
 40
0.0512848724
 40
0.084779301
 40
0.1267928842
 40
0.1770178236
 40
0.2350533521
 40
0.3003859037
 40
0.4504150571
 40
0.6214414665
 40
0.8070326846
 40
1.0
 40
1.0
 40
1.0
 40
1.0
 10
49.0487862862
 20
23.6625030781
 30
0.0
 10
49.0465622368
 20
23.6625068476
 30
0.0
 10
49.0415391326
 20
23.6641364134
 30
0.0
 10
49.0350847027
 20
23.6701536955
 30
0.0
 10
49.0287986613
 20
23.6794161354
 30
0.0
 10
49.0225817022
 20
23.6921122682
 30
0.0
 10
49.0164054847
 20
23.7082616706
 30
0.0
 10
49.0076100891
 20
23.7364899773
 30
0.0
 10
48.9972771056
 20
23.7804081333
 30
0.0
 10
48.9859335212
 20
23.8430612674
 30
0.0
 10
48.975106099
 20
23.9183858443
 30
0.0
 10
48.9649187095
 20
24.0056917704
 30
0.0
 10
48.95174104
 20
24.1434936546
 30
0.0
 10
48.9381476073
 20
24.3386818331
 30
0.0
 10
48.9264201775
 20
24.594948981
 30
0.0
 10
48.9191847793
 20
24.8731284894
 30
0.0
 10
48.9175173673
 20
25.0647986329
 30
0.0
 10
48.9175173673
 20
25.162499102
 30
0.0
  0
SPLINE
  5
29C
100
AcDbEntity
  8
0
100
AcDbSpline
 62
7
  6
CONTINUOUS
 70
0
 71
3
 72
22
 73
18
 74
0
 42
0.0000001
 43
0.0000001
 44
0.0000000001
 40
0.0
 40
0.0
 40
0.0
 40
0.0
 40
0.0043942323
 40
0.0099122787
 40
0.0171651042
 40
0.0264161385
 40
0.0377785907
 40
0.0512946735
 40
0.0848079237
 40
0.1268378769
 40
0.1770818087
 40
0.2351188601
 40
0.3004324515
 40
0.4504267679
 40
0.6214721964
 40
0.8070836679
 40
1.0
 40
1.0
 40
1.0
 40
1.0
 10
22.7513200304
 20
56.0324983792
 30
0.0
 10
22.7535448818
 20
56.0324989351
 30
0.0
 10
22.7585733766
 20
56.0308819807
 30
0.0
 10
22.7650290307
 20
56.024860686
 30
0.0
 10
22.7713099734
 20
56.015592877
 30
0.0
 10
22.7775221913
 20
56.0028898549
 30
0.0
 10
22.783698999
 20
55.9867364798
 30
0.0
 10
22.7925000469
 20
55.958497345
 30
0.0
 10
22.8028343222
 20
55.9145595985
 30
0.0
 10
22.8141854646
 20
55.8518792485
 30
0.0
 10
22.8250097749
 20
55.7765343616
 30
0.0
 10
22.835196638
 20
55.6892266358
 30
0.0
 10
22.8483731219
 20
55.5514494815
 30
0.0
 10
22.8619518233
 20
55.3562761111
 30
0.0
 10
22.873726266
 20
55.1000046712
 30
0.0
 10
22.8807914411
 20
54.8218250984
 30
0.0
 10
22.8827488195
 20
54.6301711722
 30
0.0
 10
22.8827488195
 20
54.5324953691
 30
0.0
  0
SPLINE
  5
29D
100
AcDbEntity
  8
0
100
AcDbSpline
 62
7
  6
CONTINUOUS
 70
0
 71
3
 72
22
 73
18
 74
0
 42
0.0000001
 43
0.0000001
 44
0.0000000001
 40
0.0
 40
0.0
 40
0.0
 40
0.0
 40
0.0043942323
 40
0.0099122787
 40
0.0171651042
 40
0.0264161385
 40
0.0377785907
 40
0.0512946735
 40
0.0848079237
 40
0.1268378769
 40
0.1770818088
 40
0.2351188602
 40
0.3004324516
 40
0.450426768
 40
0.6214721966
 40
0.807083668
 40
1.0
 40
1.0
 40
1.0
 40
1.0
 10
49.3121269393
 20
20.0925016208
 30
0.0
 10
49.309902088
 20
20.092501065
 30
0.0
 10
49.3048735931
 20
20.0941180193
 30
0.0
 10
49.298417939
 20
20.100139314
 30
0.0
 10
49.2921369963
 20
20.109407123
 30
0.0
 10
49.2859247784
 20
20.1221101452
 30
0.0
 10
49.2797479707
 20
20.1382635203
 30
0.0
 10
49.2709469228
 20
20.1665026553
 30
0.0
 10
49.2606126474
 20
20.2104404019
 30
0.0
 10
49.2492615051
 20
20.2731207521
 30
0.0
 10
49.2384371948
 20
20.3484656392
 30
0.0
 10
49.2282503317
 20
20.4357733652
 30
0.0
 10
49.2150738477
 20
20.5735505198
 30
0.0
 10
49.2014951464
 20
20.7687238907
 30
0.0
 10
49.1897207036
 20
21.0249953311
 30
0.0
 10
49.1826555286
 20
21.3031749044
 30
0.0
 10
49.1806981502
 20
21.494828831
 30
0.0
 10
49.1806981502
 20
21.5925046343
 30
0.0
  0
SPLINE
  5
29E
100
AcDbEntity
  8
0
100
AcDbSpline
 62
7
  6
CONTINUOUS
 70
0
 71
3
 72
15
 73
11
 74
0
 42
0.0000001
 43
0.0000001
 44
0.0000000001
 40
0.0
 40
0.0
 40
0.0
 40
0.0
 40
0.3403186014
 40
0.4981644283
 40
0.6416895349
 40
0.7668431902
 40
0.8700259963
 40
0.9484335768
 40
0.9776671171
 40
1.0
 40
1.0
 40
1.0
 40
1.0
 10
23.2086062871
 20
56.3125
 30
0.0
 10
23.2086088979
 20
56.4791975338
 30
0.0
 10
23.2063156658
 20
56.7232243477
 30
0.0
 10
23.1981836622
 20
57.0374428018
 30
0.0
 10
23.190108296
 20
57.2462154804
 30
0.0
 10
23.1802301802
 20
57.4281107284
 30
0.0
 10
23.1687980767
 20
57.5779291702
 30
0.0
 10
23.1577305265
 20
57.6806580743
 30
0.0
 10
23.1476572535
 20
57.7435278974
 30
0.0
 10
23.1424100281
 20
57.7682656455
 30
0.0
 10
23.139554896
 20
57.7788257503
 30
0.0
  0
SPLINE
  5
29F
100
AcDbEntity
  8
0
100
AcDbSpline
 62
7
  6
CONTINUOUS
 70
0
 71
3
 72
13
 73
9
 74
0
 42
0.0000001
 43
0.0000001
 44
0.0000000001
 40
0.0
 40
0.0
 40
0.0
 40
0.0
 40
0.2412069653
 40
0.3709699166
 40
0.5030061992
 40
0.6345414722
 40
0.7629400195
 40
1.0
 40
1.0
 40
1.0
 40
1.0
 10
23.1395564751
 20
57.7788223557
 30
0.0
 10
23.0778281852
 20
57.7777099224
 30
0.0
 10
22.9820317142
 20
57.7583092071
 30
0.0
 10
22.8675164663
 20
57.6982451952
 30
0.0
 10
22.7881634569
 20
57.6351414178
 30
0.0
 10
22.7237623213
 20
57.5572768327
 30
0.0
 10
22.662556087
 20
57.4451041806
 30
0.0
 10
22.6425948654
 20
57.3507148517
 30
0.0
 10
22.6414594577
 20
57.2900486075
 30
0.0
  0
SPLINE
  5
2A0
100
AcDbEntity
  8
0
100
AcDbSpline
 62
7
  6
CONTINUOUS
 70
0
 71
3
 72
15
 73
11
 74
0
 42
0.0000001
 43
0.0000001
 44
0.0000000001
 40
0.0
 40
0.0
 40
0.0
 40
0.0
 40
0.3403170295
 40
0.4981616003
 40
0.6416860931
 40
0.766839419
 40
0.8700235289
 40
0.9484325636
 40
0.9776668111
 40
1.0
 40
1.0
 40
1.0
 40
1.0
 10
48.8548418273
 20
56.3125
 30
0.0
 10
48.8548392166
 20
56.4791967211
 30
0.0
 10
48.8571321775
 20
56.7232220707
 30
0.0
 10
48.8652618041
 20
57.0374388289
 30
0.0
 10
48.8733399669
 20
57.2462102906
 30
0.0
 10
48.8832215306
 20
57.4281054625
 30
0.0
 10
48.89465238
 20
57.577925123
 30
0.0
 10
48.9057179421
 20
57.6806559141
 30
0.0
 10
48.9157898283
 20
57.7435271591
 30
0.0
 10
48.9210366869
 20
57.7682655035
 30
0.0
 10
48.9238918571
 20
57.7788257503
 30
0.0
  0
SPLINE
  5
2A1
100
AcDbEntity
  8
0
100
AcDbSpline
 62
7
  6
CONTINUOUS
 70
0
 71
3
 72
13
 73
9
 74
0
 42
0.0000001
 43
0.0000001
 44
0.0000000001
 40
0.0
 40
0.0
 40
0.0
 40
0.0
 40
0.2370599811
 40
0.365458529
 40
0.4969938028
 40
0.6290300853
 40
0.7587930369
 40
1.0
 40
1.0
 40
1.0
 40
1.0
 10
49.4219875099
 20
57.2900486023
 30
0.0
 10
49.4208521021
 20
57.3507148484
 30
0.0
 10
49.4008908791
 20
57.4451041805
 30
0.0
 10
49.3396846397
 20
57.5572768347
 30
0.0
 10
49.2752835002
 20
57.6351414208
 30
0.0
 10
49.1959304859
 20
57.6982451974
 30
0.0
 10
49.0814152327
 20
57.7583092063
 30
0.0
 10
48.9856187586
 20
57.7777099175
 30
0.0
 10
48.9238904674
 20
57.7788223483
 30
0.0
  0
SPLINE
  5
2A2
100
AcDbEntity
  8
0
100
AcDbSpline
 62
7
  6
CONTINUOUS
 70
0
 71
3
 72
22
 73
18
 74
0
 42
0.0000001
 43
0.0000001
 44
0.0000000001
 40
0.0
 40
0.0
 40
0.0
 40
0.0
 40
0.0043916917
 40
0.0099110672
 40
0.017163026
 40
0.0264103506
 40
0.0377701528
 40
0.0512850984
 40
0.0847820143
 40
0.1267980404
 40
0.1770278796
 40
0.235062479
 40
0.3003964536
 40
0.4504243877
 40
0.6214509814
 40
0.807034289
 40
1.0
 40
1.0
 40
1.0
 40
1.0
 10
48.9178838524
 20
25.4425012948
 30
0.0
 10
48.9156603123
 20
25.4425039787
 30
0.0
 10
48.910637109
 20
25.4441335359
 30
0.0
 10
48.9041841896
 20
25.4501522475
 30
0.0
 10
48.8978985954
 20
25.459415472
 30
0.0
 10
48.891680861
 20
25.4721114128
 30
0.0
 10
48.8855031441
 20
25.4882604782
 30
0.0
 10
48.8767074336
 20
25.5164902123
 30
0.0
 10
48.8663739735
 20
25.5604112451
 30
0.0
 10
48.8550296032
 20
25.6230693959
 30
0.0
 10
48.844203117
 20
25.6983974731
 30
0.0
 10
48.8340138651
 20
25.7857060341
 30
0.0
 10
48.8208380305
 20
25.9235079179
 30
0.0
 10
48.8072443918
 20
26.118696483
 30
0.0
 10
48.7955167863
 20
26.374959424
 30
0.0
 10
48.7882825696
 20
26.6531346019
 30
0.0
 10
48.7866180241
 20
26.8448001823
 30
0.0
 10
48.7866180241
 20
26.9424999605
 30
0.0
  0
SPLINE
  5
2A3
100
AcDbEntity
  8
0
100
AcDbSpline
 62
7
  6
CONTINUOUS
 70
0
 71
3
 72
16
 73
12
 74
0
 42
0.0000001
 43
0.0000001
 44
0.0000000001
 40
0.0
 40
0.0
 40
0.0
 40
0.0
 40
0.3220075372
 40
0.4802424341
 40
0.6277445923
 40
0.7582553598
 40
0.8664054373
 40
0.9107454457
 40
0.947986206
 40
0.9778085461
 40
1.0
 40
1.0
 40
1.0
 40
1.0
 10
22.7068363057
 20
56.0258656
 30
0.0
 10
22.7103916765
 20
56.1620180349
 30
0.0
 10
22.7117900908
 20
56.3652010784
 30
0.0
 10
22.7065958321
 20
56.6306745535
 30
0.0
 10
22.6993549189
 20
56.8150683324
 30
0.0
 10
22.689081707
 20
56.97809227
 30
0.0
 10
22.6779040619
 20
57.0973098259
 30
0.0
 10
22.6673046763
 20
57.1768644395
 30
0.0
 10
22.6594772214
 20
57.2233500485
 30
0.0
 10
22.6513579456
 20
57.2602217127
 30
0.0
 10
22.6449886587
 20
57.2813510846
 30
0.0
 10
22.6414594588
 20
57.2900486049
 30
0.0
  0
SPLINE
  5
2A4
100
AcDbEntity
  8
0
100
AcDbSpline
 62
7
  6
CONTINUOUS
 70
0
 71
3
 72
16
 73
12
 74
0
 42
0.0000001
 43
0.0000001
 44
0.0000000001
 40
0.0
 40
0.0
 40
0.0
 40
0.0
 40
0.0221914218
 40
0.0520136852
 40
0.0892543736
 40
0.1335943159
 40
0.2417443757
 40
0.3722552981
 40
0.5197576358
 40
0.677992711
 40
1.0
 40
1.0
 40
1.0
 40
1.0
 10
22.6414594595
 20
18.8349513969
 30
0.0
 10
22.6449886511
 20
18.8436488977
 30
0.0
 10
22.6513579335
 20
18.8647782039
 30
0.0
 10
22.6594772006
 20
18.9016497619
 30
0.0
 10
22.6673046368
 20
18.9481352438
 30
0.0
 10
22.6779040296
 20
19.0276897258
 30
0.0
 10
22.6890816924
 20
19.1469072156
 30
0.0
 10
22.6993549035
 20
19.3099311579
 30
0.0
 10
22.7065958376
 20
19.4943250067
 30
0.0
 10
22.7117901011
 20
19.7597983179
 30
0.0
 10
22.7103916925
 20
19.9629811708
 30
0.0
 10
22.7068363349
 20
20.0991333931
 30
0.0
  0
SPLINE
  5
2A5
100
AcDbEntity
  8
0
100
AcDbSpline
 62
7
  6
CONTINUOUS
 70
0
 71
3
 72
13
 73
9
 74
0
 42
0.0000001
 43
0.0000001
 44
0.0000000001
 40
0.0
 40
0.0
 40
0.0
 40
0.0
 40
0.2370599901
 40
0.3654585441
 40
0.4969938231
 40
0.6290301071
 40
0.758793057
 40
1.0
 40
1.0
 40
1.0
 40
1.0
 10
22.6414594598
 20
18.8349513978
 30
0.0
 10
22.6425948679
 20
18.7742851352
 30
0.0
 10
22.6625561013
 20
18.6798957765
 30
0.0
 10
22.7237623732
 20
18.5677230998
 30
0.0
 10
22.7881635434
 20
18.4898585039
 30
0.0
 10
22.8675165925
 20
18.4267547304
 30
0.0
 10
22.9820318845
 20
18.3666907411
 30
0.0
 10
23.0778283825
 20
18.347290058
 30
0.0
 10
23.1395566832
 20
18.3461776485
 30
0.0
  0
SPLINE
  5
2A6
100
AcDbEntity
  8
0
100
AcDbSpline
 62
7
  6
CONTINUOUS
 70
0
 71
3
 72
15
 73
11
 74
0
 42
0.0000001
 43
0.0000001
 44
0.0000000001
 40
0.0
 40
0.0
 40
0.0
 40
0.0
 40
0.3403170424
 40
0.4981616191
 40
0.6416861169
 40
0.7668394479
 40
0.8700235621
 40
0.9484325857
 40
0.9776668201
 40
1.0
 40
1.0
 40
1.0
 40
1.0
 10
23.2086050998
 20
19.8125
 30
0.0
 10
23.2086077106
 20
19.6458032786
 30
0.0
 10
23.2063147516
 20
19.4017779287
 30
0.0
 10
23.1981851388
 20
19.0875611697
 30
0.0
 10
23.1901070013
 20
18.8787897071
 30
0.0
 10
23.1802254376
 20
18.6968945337
 30
0.0
 10
23.1687944895
 20
18.5470748876
 30
0.0
 10
23.1577290993
 20
18.4443440961
 30
0.0
 10
23.1476574356
 20
18.3814728356
 30
0.0
 10
23.1424106434
 20
18.3567344867
 30
0.0
 10
23.1395554744
 20
18.3461742446
 30
0.0
  0
SPLINE
  5
2A7
100
AcDbEntity
  8
0
100
AcDbSpline
 62
7
  6
CONTINUOUS
 70
0
 71
3
 72
16
 73
12
 74
0
 42
0.0000001
 43
0.0000001
 44
0.0000000001
 40
0.0
 40
0.0
 40
0.0
 40
0.0
 40
0.0477719698
 40
0.0771909341
 40
0.1117311105
 40
0.1984413953
 40
0.310870516
 40
0.4497030745
 40
0.6128564115
 40
0.7973434851
 40
1.0
 40
1.0
 40
1.0
 40
1.0
 10
7.3476823456
 20
44.7914698548
 30
0.0
 10
7.3424834529
 20
44.7895775887
 30
0.0
 10
7.3352726967
 20
44.7832847682
 30
0.0
 10
7.3288503891
 20
44.7720614205
 30
0.0
 10
7.3226385773
 20
44.7556675667
 30
0.0
 10
7.3179573684
 20
44.7288384513
 30
0.0
 10
7.3163637754
 20
44.6896799894
 30
0.0
 10
7.3187565607
 20
44.6416943346
 30
0.0
 10
7.3248786483
 20
44.5856694083
 30
0.0
 10
7.3345901991
 20
44.5226657467
 30
0.0
 10
7.3429677393
 20
44.4786109071
 30
0.0
 10
7.3476820642
 20
44.4556192548
 30
0.0
  0
SPLINE
  5
2A8
100
AcDbEntity
  8
0
100
AcDbSpline
 62
7
  6
CONTINUOUS
 70
0
 71
3
 72
15
 73
11
 74
0
 42
0.0000001
 43
0.0000001
 44
0.0000000001
 40
0.0
 40
0.0
 40
0.0
 40
0.0
 40
0.3403186032
 40
0.4981644316
 40
0.6416895394
 40
0.766843194
 40
0.8700259995
 40
0.9484335786
 40
0.9776671179
 40
1.0
 40
1.0
 40
1.0
 40
1.0
 10
48.8548409609
 20
19.8125
 30
0.0
 10
48.8548383501
 20
19.6458024651
 30
0.0
 10
48.8571311431
 20
19.4017756442
 30
0.0
 10
48.8652633493
 20
19.0875571912
 30
0.0
 10
48.8733387233
 20
18.8787845125
 30
0.0
 10
48.8832167836
 20
18.6968892611
 30
0.0
 10
48.8946488888
 20
18.5470708202
 30
0.0
 10
48.9057164439
 20
18.444341918
 30
0.0
 10
48.915789716
 20
18.3814720963
 30
0.0
 10
48.9210369408
 20
18.356734349
 30
0.0
 10
48.9238920729
 20
18.3461742446
 30
0.0
  0
SPLINE
  5
2A9
100
AcDbEntity
  8
0
100
AcDbSpline
 62
7
  6
CONTINUOUS
 70
0
 71
3
 72
13
 73
9
 74
0
 42
0.0000001
 43
0.0000001
 44
0.0000000001
 40
0.0
 40
0.0
 40
0.0
 40
0.0
 40
0.2412069652
 40
0.3709699165
 40
0.5030061991
 40
0.6345414721
 40
0.7629400195
 40
1.0
 40
1.0
 40
1.0
 40
1.0
 10
48.9238904936
 20
18.3461776444
 30
0.0
 10
48.9856187835
 20
18.3472900775
 30
0.0
 10
49.0814152546
 20
18.3666907926
 30
0.0
 10
49.1959305028
 20
18.4267548044
 30
0.0
 10
49.2752835124
 20
18.4898585818
 30
0.0
 10
49.3396846481
 20
18.5677231669
 30
0.0
 10
49.4008908827
 20
18.6798958192
 30
0.0
 10
49.4208521044
 20
18.7742851483
 30
0.0
 10
49.421987512
 20
18.8349513926
 30
0.0
  0
SPLINE
  5
2AA
100
AcDbEntity
  8
0
100
AcDbSpline
 62
7
  6
CONTINUOUS
 70
0
 71
3
 72
22
 73
18
 74
0
 42
0.0000001
 43
0.0000001
 44
0.0000000001
 40
0.0
 40
0.0
 40
0.0
 40
0.0
 40
0.1929162341
 40
0.3785276959
 40
0.5495731501
 40
0.6995674617
 40
0.7648810551
 40
0.8229183396
 40
0.873162098
 40
0.9151920302
 40
0.9487054046
 40
0.9622214698
 40
0.9735838869
 40
0.9828349039
 40
0.990087722
 40
0.9956057668
 40
1.0
 40
1.0
 40
1.0
 40
1.0
 10
22.8827488195
 20
21.5925046343
 30
0.0
 10
22.8827488195
 20
21.4948288806
 30
0.0
 10
22.8807914537
 20
21.3031750085
 30
0.0
 10
22.8737262598
 20
21.024995477
 30
0.0
 10
22.8619518186
 20
20.7687240317
 30
0.0
 10
22.8483731615
 20
20.5735506454
 30
0.0
 10
22.83519662
 20
20.4357733793
 30
0.0
 10
22.8250097779
 20
20.34846562
 30
0.0
 10
22.8141854756
 20
20.2731207109
 30
0.0
 10
22.8028342962
 20
20.2104404046
 30
0.0
 10
22.7925000454
 20
20.1665026077
 30
0.0
 10
22.7836989806
 20
20.1382634394
 30
0.0
 10
22.7775221709
 20
20.1221101032
 30
0.0
 10
22.7713099648
 20
20.1094071092
 30
0.0
 10
22.7650290283
 20
20.1001393125
 30
0.0
 10
22.7585733787
 20
20.0941180188
 30
0.0
 10
22.7535448823
 20
20.0925010671
 30
0.0
 10
22.7513200305
 20
20.0925016255
 30
0.0
  0
SPLINE
  5
2AB
100
AcDbEntity
  8
0
100
AcDbSpline
 62
7
  6
CONTINUOUS
 70
0
 71
3
 72
9
 73
5
 74
0
 42
0.0000001
 43
0.0000001
 44
0.0000000001
 40
0.0
 40
0.0
 40
0.0
 40
0.0
 40
0.5021720272
 40
1.0
 40
1.0
 40
1.0
 40
1.0
 10
49.1806981502
 20
21.5925046343
 30
0.0
 10
49.1806981502
 20
21.6410943718
 30
0.0
 10
49.1814477741
 20
21.7378521666
 30
0.0
 10
49.1825434207
 20
21.8346057505
 30
0.0
 10
49.1833745221
 20
21.8827679907
 30
0.0
  0
SPLINE
  5
2AC
100
AcDbEntity
  8
0
100
AcDbSpline
 62
7
  6
CONTINUOUS
 70
0
 71
3
 72
9
 73
5
 74
0
 42
0.0000001
 43
0.0000001
 44
0.0000000001
 40
0.0
 40
0.0
 40
0.0
 40
0.0
 40
0.4978268598
 40
1.0
 40
1.0
 40
1.0
 40
1.0
 10
22.8800724477
 20
21.8827679907
 30
0.0
 10
22.8809035472
 20
21.834605858
 30
0.0
 10
22.881999575
 20
21.7378522778
 30
0.0
 10
22.8827488195
 20
21.6410944798
 30
0.0
 10
22.8827488195
 20
21.5925046343
 30
0.0
  0
SPLINE
  5
2AD
100
AcDbEntity
  8
0
100
AcDbSpline
 62
7
  6
CONTINUOUS
 70
0
 71
3
 72
22
 73
18
 74
0
 42
0.0000001
 43
0.0000001
 44
0.0000000001
 40
0.0
 40
0.0
 40
0.0
 40
0.0
 40
0.1930035539
 40
0.3786317131
 40
0.5496565806
 40
0.6996838098
 40
0.7650062921
 40
0.823037828
 40
0.8732494878
 40
0.9152505675
 40
0.9487337654
 40
0.9622428177
 40
0.9735996961
 40
0.9828442436
 40
0.9900923857
 40
0.9956088933
 40
1.0
 40
1.0
 40
1.0
 40
1.0
 10
23.0138205974
 20
23.3824991254
 30
0.0
 10
23.0138205974
 20
23.2847800929
 30
0.0
 10
23.0121561934
 20
23.0930724374
 30
0.0
 10
23.004914921
 20
22.814856131
 30
0.0
 10
22.9931842549
 20
22.5585716726
 30
0.0
 10
22.9795917442
 20
22.3633897729
 30
0.0
 10
22.9664085548
 20
22.2255962613
 30
0.0
 10
22.9562234543
 20
22.138303813
 30
0.0
 10
22.9453951183
 20
22.0629944001
 30
0.0
 10
22.9340518658
 20
22.0003601156
 30
0.0
 10
22.923719455
 20
21.9564567208
 30
0.0
 10
22.914924594
 20
21.9282386867
 30
0.0
 10
22.9087500683
 20
21.9120947508
 30
0.0
 10
22.9025356676
 20
21.8994024648
 30
0.0
 10
22.8962514464
 20
21.8901439202
 30
0.0
 10
22.8897981599
 20
21.8841305118
 30
0.0
 10
22.884776243
 20
21.8825043264
 30
0.0
 10
22.8825529969
 20
21.8825016482
 30
0.0
  0
SPLINE
  5
2AE
100
AcDbEntity
  8
0
100
AcDbSpline
 62
7
  6
CONTINUOUS
 70
0
 71
3
 72
14
 73
10
 74
0
 42
0.0000001
 43
0.0000001
 44
0.0000000001
 40
0.0
 40
0.0
 40
0.0
 40
0.0
 40
0.2792807583
 40
0.4118562282
 40
0.5389087866
 40
0.6603648897
 40
0.7770830412
 40
0.8900010664
 40
1.0
 40
1.0
 40
1.0
 40
1.0
 10
7.3476712429
 20
44.4556298366
 30
0.0
 10
7.1676090123
 20
44.4009837927
 30
0.0
 10
6.9104763475
 20
44.2858670307
 30
0.0
 10
6.6146571714
 20
44.0739855001
 30
0.0
 10
6.4275913585
 20
43.8967549262
 30
0.0
 10
6.2751852284
 20
43.7023959442
 30
0.0
 10
6.1584933671
 20
43.4955486687
 30
0.0
 10
6.0778258377
 20
43.2804420266
 30
0.0
 10
6.0482412173
 20
43.132362352
 30
0.0
 10
6.0399520632
 20
43.0587130849
 30
0.0
  0
SPLINE
  5
2AF
100
AcDbEntity
  8
0
100
AcDbSpline
 62
7
  6
CONTINUOUS
 70
0
 71
3
 72
9
 73
5
 74
0
 42
0.0000001
 43
0.0000001
 44
0.0000000001
 40
0.0
 40
0.0
 40
0.0
 40
0.0
 40
0.4934241606
 40
1.0
 40
1.0
 40
1.0
 40
1.0
 10
8.0317238704
 20
44.6252078254
 30
0.0
 10
7.9179257844
 20
44.6029643024
 30
0.0
 10
7.6883952379
 20
44.5521254641
 30
0.0
 10
7.4615848673
 20
44.4901856382
 30
0.0
 10
7.3476727429
 20
44.4556158565
 30
0.0
  0
SPLINE
  5
2B0
100
AcDbEntity
  8
0
100
AcDbSpline
 62
7
  6
CONTINUOUS
 70
0
 71
3
 72
19
 73
15
 74
0
 42
0.0000001
 43
0.0000001
 44
0.0000000001
 40
0.0
 40
0.0
 40
0.0
 40
0.0
 40
0.172795013
 40
0.3398731022
 40
0.4957582278
 40
0.6357537027
 40
0.6986232526
 40
0.7562673065
 40
0.8085242848
 40
0.8553876828
 40
0.8971329374
 40
0.9343765429
 40
0.9681642538
 40
1.0
 40
1.0
 40
1.0
 40
1.0
 10
8.0317234849
 20
40.4915196887
 30
0.0
 10
7.9015908611
 20
40.4915196887
 30
0.0
 10
7.6455360798
 20
40.4824883332
 30
0.0
 10
7.273998861
 20
40.4422210996
 30
0.0
 10
6.9311245281
 20
40.3768497346
 30
0.0
 10
6.6711134885
 20
40.3012100486
 30
0.0
 10
6.4886962509
 20
40.2286135049
 30
0.0
 10
6.3715566389
 20
40.1716539788
 30
0.0
 10
6.2701577291
 20
40.1108278165
 30
0.0
 10
6.1854223895
 20
40.0465711039
 30
0.0
 10
6.1180912069
 20
39.9793528164
 30
0.0
 10
6.068877165
 20
39.9094693686
 30
0.0
 10
6.0386741066
 20
39.8373785915
 30
0.0
 10
6.0317214979
 20
39.7877418327
 30
0.0
 10
6.0317234858
 20
39.7637662034
 30
0.0
  0
SPLINE
  5
2B1
100
AcDbEntity
  8
0
100
AcDbSpline
 62
7
  6
CONTINUOUS
 70
0
 71
3
 72
22
 73
18
 74
0
 42
0.0000001
 43
0.0000001
 44
0.0000000001
 40
0.0
 40
0.0
 40
0.0
 40
0.0
 40
0.1930013962
 40
0.3786299055
 40
0.549653764
 40
0.6996816256
 40
0.7650042101
 40
0.8230371619
 40
0.8732488943
 40
0.9152500751
 40
0.9487330542
 40
0.9622418785
 40
0.9735990096
 40
0.9828438992
 40
0.990091863
 40
0.9956083721
 40
1.0
 40
1.0
 40
1.0
 40
1.0
 10
23.1459296025
 20
25.1624991019
 30
0.0
 10
23.1459296025
 20
25.0647812013
 30
0.0
 10
23.1442641896
 20
24.8730745441
 30
0.0
 10
23.137022673
 20
24.5948597905
 30
0.0
 10
23.1252923528
 20
24.3385754388
 30
0.0
 10
23.1117001686
 20
24.1433937235
 30
0.0
 10
23.0985164786
 20
24.0055992261
 30
0.0
 10
23.0883317571
 20
23.9183059586
 30
0.0
 10
23.0775032044
 20
23.8429957904
 30
0.0
 10
23.0661599823
 20
23.7803615554
 30
0.0
 10
23.0558277619
 20
23.7364583109
 30
0.0
 10
23.0470329027
 20
23.7082403911
 30
0.0
 10
23.0408586857
 20
23.6920961707
 30
0.0
 10
23.0346449083
 20
23.6794033394
 30
0.0
 10
23.0283604216
 20
23.6701448005
 30
0.0
 10
23.0219063304
 20
23.6641319255
 30
0.0
 10
23.0168843864
 20
23.662505774
 30
0.0
 10
23.014660878
 20
23.6625025962
 30
0.0
  0
SPLINE
  5
2B2
100
AcDbEntity
  8
0
100
AcDbSpline
 62
7
  6
CONTINUOUS
 70
0
 71
3
 72
23
 73
19
 74
0
 42
0.0000001
 43
0.0000001
 44
0.0000000001
 40
0.0
 40
0.0
 40
0.0
 40
0.0
 40
0.0053395614
 40
0.0116353451
 40
0.0194855042
 40
0.0291957724
 40
0.040919215
 40
0.0547258318
 40
0.0886418239
 40
0.1309090755
 40
0.1812558744
 40
0.2392685141
 40
0.3044520451
 40
0.3762052697
 40
0.4538820015
 40
0.6239630806
 40
0.8083706606
 40
1.0
 40
1.0
 40
1.0
 40
1.0
 10
6.0317234849
 20
39.2524021378
 30
0.0
 10
6.0317234219
 20
39.2560263584
 30
0.0
 10
6.0337234372
 20
39.2639699794
 30
0.0
 10
6.0416830792
 20
39.2747758442
 30
0.0
 10
6.054144135
 20
39.2852546741
 30
0.0
 10
6.0711824095
 20
39.2955901498
 30
0.0
 10
6.0928327184
 20
39.3058262829
 30
0.0
 10
6.130513938
 20
39.3203275595
 30
0.0
 10
6.1892499921
 20
39.3374050341
 30
0.0
 10
6.2730889854
 20
39.3561442641
 30
0.0
 10
6.3737827647
 20
39.3740063642
 30
0.0
 10
6.4903853605
 20
39.3908042862
 30
0.0
 10
6.6218054092
 20
39.4063262516
 30
0.0
 10
6.7667984157
 20
39.420428821
 30
0.0
 10
6.9829914022
 20
39.4376343117
 30
0.0
 10
7.2758980351
 20
39.4541641155
 30
0.0
 10
7.6464113874
 20
39.4660780642
 30
0.0
 10
7.9016553091
 20
39.4687484616
 30
0.0
 10
8.0317234849
 20
39.4687484616
 30
0.0
  0
SPLINE
  5
2B3
100
AcDbEntity
  8
0
100
AcDbSpline
 62
7
  6
CONTINUOUS
 70
0
 71
3
 72
22
 73
18
 74
0
 42
0.0000001
 43
0.0000001
 44
0.0000000001
 40
0.0
 40
0.0
 40
0.0
 40
0.0
 40
0.1929609095
 40
0.3786456233
 40
0.5496462715
 40
0.6997037163
 40
0.7650293986
 40
0.823049185
 40
0.8732771399
 40
0.9152685143
 40
0.9487490979
 40
0.9622557167
 40
0.9736052758
 40
0.9828456615
 40
0.9900938205
 40
0.9956109083
 40
1.0
 40
1.0
 40
1.0
 40
1.0
 10
23.2768289456
 20
26.9424999605
 30
0.0
 10
23.2768289456
 20
26.8448028847
 30
0.0
 10
23.2751708889
 20
26.653088836
 30
0.0
 10
23.2679243319
 20
26.3748788955
 30
0.0
 10
23.256193588
 20
26.1185637056
 30
0.0
 10
23.2426012975
 20
25.9233779449
 30
0.0
 10
23.2294192668
 20
25.7855736801
 30
0.0
 10
23.2192224222
 20
25.6982790953
 30
0.0
 10
23.2084043535
 20
25.6229711366
 30
0.0
 10
23.1970572155
 20
25.5603356634
 30
0.0
 10
23.1867271906
 20
25.5164396655
 30
0.0
 10
23.1779332656
 20
25.4882278519
 30
0.0
 10
23.1717537855
 20
25.4720932994
 30
0.0
 10
23.1655370196
 20
25.4594088888
 30
0.0
 10
23.1592539309
 20
25.4501521037
 30
0.0
 10
23.1528054458
 20
25.4441358112
 30
0.0
 10
23.147785467
 20
25.4425048304
 30
0.0
 10
23.1455632503
 20
25.4425015553
 30
0.0
  0
SPLINE
  5
2B4
100
AcDbEntity
  8
0
100
AcDbSpline
 62
7
  6
CONTINUOUS
 70
0
 71
3
 72
9
 73
5
 74
0
 42
0.0000001
 43
0.0000001
 44
0.0000000001
 40
0.0
 40
0.0
 40
0.0
 40
0.0
 40
0.5129114283
 40
1.0
 40
1.0
 40
1.0
 40
1.0
 10
13.7678438477
 20
39.4687484844
 30
0.0
 10
13.7774201207
 20
39.6447643236
 30
0.0
 10
13.8077427749
 20
39.9873979978
 30
0.0
 10
13.8611144889
 20
40.3272228749
 30
0.0
 10
13.89320525
 20
40.4915196064
 30
0.0
  0
SPLINE
  5
2B5
100
AcDbEntity
  8
0
100
AcDbSpline
 62
7
  6
CONTINUOUS
 70
0
 71
3
 72
11
 73
7
 74
0
 42
0.0000001
 43
0.0000001
 44
0.0000000001
 40
0.0
 40
0.0
 40
0.0
 40
0.0
 40
0.2723769649
 40
0.5399021972
 40
0.7866956735
 40
1.0
 40
1.0
 40
1.0
 40
1.0
 10
13.7678438438
 20
39.4687484136
 30
0.0
 10
13.8970443535
 20
39.4548544188
 30
0.0
 10
14.1528542466
 20
39.4245625168
 30
0.0
 10
14.5245975789
 20
39.3726507143
 30
0.0
 10
14.8671117345
 20
39.3159983027
 30
0.0
 10
15.0826216725
 20
39.2740419446
 30
0.0
 10
15.1820573774
 20
39.2524024503
 30
0.0
  0
SPLINE
  5
2B6
100
AcDbEntity
  8
0
100
AcDbSpline
 62
7
  6
CONTINUOUS
 70
0
 71
3
 72
22
 73
18
 74
0
 42
0.0000001
 43
0.0000001
 44
0.0000000001
 40
0.0
 40
0.0
 40
0.0
 40
0.0
 40
0.1929609095
 40
0.3786456233
 40
0.5496462715
 40
0.6997037163
 40
0.7650293986
 40
0.823049185
 40
0.8732771399
 40
0.9152685143
 40
0.9487490979
 40
0.9622557167
 40
0.9736052758
 40
0.9828456615
 40
0.9900938205
 40
0.9956109083
 40
1.0
 40
1.0
 40
1.0
 40
1.0
 10
48.7866180241
 20
49.1825000396
 30
0.0
 10
48.7866180241
 20
49.2801971154
 30
0.0
 10
48.7882760808
 20
49.471911164
 30
0.0
 10
48.7955226379
 20
49.7501211045
 30
0.0
 10
48.8072533817
 20
50.0064362944
 30
0.0
 10
48.8208456723
 20
50.2016220552
 30
0.0
 10
48.834027703
 20
50.33942632
 30
0.0
 10
48.8442245475
 20
50.4267209047
 30
0.0
 10
48.8550426162
 20
50.5020288634
 30
0.0
 10
48.8663897543
 20
50.5646643366
 30
0.0
 10
48.8767197791
 20
50.6085603346
 30
0.0
 10
48.8855137041
 20
50.6367721482
 30
0.0
 10
48.8916931842
 20
50.6529067007
 30
0.0
 10
48.8979099501
 20
50.6655911113
 30
0.0
 10
48.9041930388
 20
50.6748478964
 30
0.0
 10
48.9106415239
 20
50.6808641888
 30
0.0
 10
48.9156615028
 20
50.6824951696
 30
0.0
 10
48.9178837195
 20
50.6824984448
 30
0.0
  0
SPLINE
  5
2B7
100
AcDbEntity
  8
0
100
AcDbSpline
 62
7
  6
CONTINUOUS
 70
0
 71
3
 72
11
 73
7
 74
0
 42
0.0000001
 43
0.0000001
 44
0.0000000001
 40
0.0
 40
0.0
 40
0.0
 40
0.0
 40
0.2133043265
 40
0.4600978027
 40
0.7276230351
 40
1.0
 40
1.0
 40
1.0
 40
1.0
 10
15.1820573773
 20
36.8725975504
 30
0.0
 10
15.0826216725
 20
36.8509580562
 30
0.0
 10
14.8671117345
 20
36.8090016982
 30
0.0
 10
14.5245975791
 20
36.7523492868
 30
0.0
 10
14.152854247
 20
36.7004374845
 30
0.0
 10
13.897044354
 20
36.6701455827
 30
0.0
 10
13.7678438443
 20
36.6562515879
 30
0.0
  0
SPLINE
  5
2B8
100
AcDbEntity
  8
0
100
AcDbSpline
 62
7
  6
CONTINUOUS
 70
0
 71
3
 72
12
 73
8
 74
0
 42
0.0000001
 43
0.0000001
 44
0.0000000001
 40
0.0
 40
0.0
 40
0.0
 40
0.0
 40
0.1064736893
 40
0.2216850622
 40
0.4718037723
 40
0.7367413233
 40
1.0
 40
1.0
 40
1.0
 40
1.0
 10
15.3074183547
 20
36.3612118654
 30
0.0
 10
15.2627544235
 20
36.3263164838
 30
0.0
 10
15.1674942367
 20
36.2565379266
 30
0.0
 10
14.9576604947
 20
36.1183883819
 30
0.0
 10
14.665140077
 20
35.9531210264
 30
0.0
 10
14.2888919563
 20
35.7788059908
 30
0.0
 10
14.025930089
 20
35.6784640144
 30
0.0
 10
13.8932047878
 20
35.6334803199
 30
0.0
  0
SPLINE
  5
2B9
100
AcDbEntity
  8
0
100
AcDbSpline
 62
7
  6
CONTINUOUS
 70
0
 71
3
 72
22
 73
18
 74
0
 42
0.0000001
 43
0.0000001
 44
0.0000000001
 40
0.0
 40
0.0
 40
0.0
 40
0.0
 40
0.1930013962
 40
0.3786299055
 40
0.549653764
 40
0.6996816256
 40
0.7650042101
 40
0.8230371619
 40
0.8732488943
 40
0.9152500751
 40
0.9487330542
 40
0.9622418785
 40
0.9735990096
 40
0.9828438992
 40
0.990091863
 40
0.9956083721
 40
1.0
 40
1.0
 40
1.0
 40
1.0
 10
48.9175173673
 20
50.9625008981
 30
0.0
 10
48.9175173673
 20
51.0602187988
 30
0.0
 10
48.9191827802
 20
51.251925456
 30
0.0
 10
48.9264242967
 20
51.5301402095
 30
0.0
 10
48.9381546169
 20
51.7864245613
 30
0.0
 10
48.9517468011
 20
51.9816062765
 30
0.0
 10
48.9649304911
 20
52.1194007739
 30
0.0
 10
48.9751152126
 20
52.2066940414
 30
0.0
 10
48.9859437653
 20
52.2820042096
 30
0.0
 10
48.9972869874
 20
52.3446384447
 30
0.0
 10
49.0076192078
 20
52.3885416892
 30
0.0
 10
49.016414067
 20
52.4167596089
 30
0.0
 10
49.022588284
 20
52.4329038294
 30
0.0
 10
49.0288020614
 20
52.4455966606
 30
0.0
 10
49.0350865481
 20
52.4548551996
 30
0.0
 10
49.0415406394
 20
52.4608680745
 30
0.0
 10
49.0465625833
 20
52.4624942261
 30
0.0
 10
49.0487860917
 20
52.4624974038
 30
0.0
  0
SPLINE
  5
2BA
100
AcDbEntity
  8
0
100
AcDbSpline
 62
7
  6
CONTINUOUS
 70
0
 71
3
 72
9
 73
5
 74
0
 42
0.0000001
 43
0.0000001
 44
0.0000000001
 40
0.0
 40
0.0
 40
0.0
 40
0.0
 40
0.4870885713
 40
1.0
 40
1.0
 40
1.0
 40
1.0
 10
13.8932052522
 20
35.6334803852
 30
0.0
 10
13.8611144892
 20
35.7977771254
 30
0.0
 10
13.8077427726
 20
36.1376020212
 30
0.0
 10
13.7774201181
 20
36.4802357143
 30
0.0
 10
13.7678438457
 20
36.6562515634
 30
0.0
  0
SPLINE
  5
2BB
100
AcDbEntity
  8
0
100
AcDbSpline
 62
7
  6
CONTINUOUS
 70
0
 71
3
 72
22
 73
18
 74
0
 42
0.0000001
 43
0.0000001
 44
0.0000000001
 40
0.0
 40
0.0
 40
0.0
 40
0.0
 40
0.1930035539
 40
0.3786317131
 40
0.5496565806
 40
0.6996838098
 40
0.7650062921
 40
0.823037828
 40
0.8732494878
 40
0.9152505675
 40
0.9487337654
 40
0.9622428177
 40
0.9735996961
 40
0.9828442436
 40
0.9900923857
 40
0.9956088933
 40
1.0
 40
1.0
 40
1.0
 40
1.0
 10
49.0496263723
 20
52.7425008747
 30
0.0
 10
49.0496263723
 20
52.8402199071
 30
0.0
 10
49.0512907763
 20
53.0319275626
 30
0.0
 10
49.0585320487
 20
53.310143869
 30
0.0
 10
49.0702627148
 20
53.5664283274
 30
0.0
 10
49.0838552256
 20
53.7616102271
 30
0.0
 10
49.0970384149
 20
53.8994037387
 30
0.0
 10
49.1072235155
 20
53.986696187
 30
0.0
 10
49.1180518514
 20
54.0620055999
 30
0.0
 10
49.1293951039
 20
54.1246398845
 30
0.0
 10
49.1397275147
 20
54.1685432793
 30
0.0
 10
49.1485223757
 20
54.1967613133
 30
0.0
 10
49.1546969014
 20
54.2129052492
 30
0.0
 10
49.1609113021
 20
54.2255975352
 30
0.0
 10
49.1671955233
 20
54.2348560798
 30
0.0
 10
49.1736488098
 20
54.2408694882
 30
0.0
 10
49.1786707268
 20
54.2424956737
 30
0.0
 10
49.1808939728
 20
54.2424983518
 30
0.0
  0
SPLINE
  5
2BC
100
AcDbEntity
  8
0
100
AcDbSpline
 62
7
  6
CONTINUOUS
 70
0
 71
3
 72
23
 73
19
 74
0
 42
0.0000001
 43
0.0000001
 44
0.0000000001
 40
0.0
 40
0.0
 40
0.0
 40
0.0
 40
0.1916088646
 40
0.3759675141
 40
0.5460293832
 40
0.6236999086
 40
0.6954581535
 40
0.7606537258
 40
0.8186806745
 40
0.8690484568
 40
0.9113283955
 40
0.9452595206
 40
0.9590717858
 40
0.9707984191
 40
0.9805112719
 40
0.9883633682
 40
0.9946602173
 40
1.0
 40
1.0
 40
1.0
 40
1.0
 10
8.0317234847
 20
36.6562515384
 30
0.0
 10
7.9016693049
 20
36.6562515384
 30
0.0
 10
7.6464726649
 20
36.6589201827
 30
0.0
 10
7.2760197426
 20
36.6708318053
 30
0.0
 10
6.9831633968
 20
36.6873528793
 30
0.0
 10
6.7669842026
 20
36.7045551952
 30
0.0
 10
6.6219836627
 20
36.7186548902
 30
0.0
 10
6.4905419026
 20
36.7341741981
 30
0.0
 10
6.3739076546
 20
36.7509765372
 30
0.0
 10
6.2731801697
 20
36.7688348765
 30
0.0
 10
6.1893087588
 20
36.7875807995
 30
0.0
 10
6.1305497885
 20
36.8046603935
 30
0.0
 10
6.0928523759
 20
36.8191650598
 30
0.0
 10
6.0711954137
 20
36.8294052593
 30
0.0
 10
6.0541523432
 20
36.8397428027
 30
0.0
 10
6.0416874186
 20
36.8502228189
 30
0.0
 10
6.0337246844
 20
36.8610290787
 30
0.0
 10
6.0317234219
 20
36.8689734941
 30
0.0
 10
6.0317234849
 20
36.8725978622
 30
0.0
  0
SPLINE
  5
2BD
100
AcDbEntity
  8
0
100
AcDbSpline
 62
7
  6
CONTINUOUS
 70
0
 71
3
 72
9
 73
5
 74
0
 42
0.0000001
 43
0.0000001
 44
0.0000000001
 40
0.0
 40
0.0
 40
0.0
 40
0.0
 40
0.4978268598
 40
1.0
 40
1.0
 40
1.0
 40
1.0
 10
49.1833745221
 20
54.2422320093
 30
0.0
 10
49.1825434226
 20
54.2903941421
 30
0.0
 10
49.1814473947
 20
54.3871477222
 30
0.0
 10
49.1806981502
 20
54.4839055202
 30
0.0
 10
49.1806981502
 20
54.5324953657
 30
0.0
  0
SPLINE
  5
2BE
100
AcDbEntity
  8
0
100
AcDbSpline
 62
7
  6
CONTINUOUS
 70
0
 71
3
 72
22
 73
18
 74
0
 42
0.0000001
 43
0.0000001
 44
0.0000000001
 40
0.0
 40
0.0
 40
0.0
 40
0.0
 40
0.1929162341
 40
0.3785276959
 40
0.5495731501
 40
0.6995674617
 40
0.7648810551
 40
0.8229183396
 40
0.873162098
 40
0.9151920302
 40
0.9487054046
 40
0.9622214698
 40
0.9735838869
 40
0.9828349039
 40
0.990087722
 40
0.9956057668
 40
1.0
 40
1.0
 40
1.0
 40
1.0
 10
49.1806981502
 20
54.5324953657
 30
0.0
 10
49.1806981502
 20
54.6301711194
 30
0.0
 10
49.182655516
 20
54.8218249915
 30
0.0
 10
49.1897207099
 20
55.100004523
 30
0.0
 10
49.2014951511
 20
55.3562759683
 30
0.0
 10
49.2150738083
 20
55.5514493546
 30
0.0
 10
49.2282503497
 20
55.6892266208
 30
0.0
 10
49.2384371918
 20
55.7765343801
 30
0.0
 10
49.2492614941
 20
55.8518792891
 30
0.0
 10
49.2606126735
 20
55.9145595955
 30
0.0
 10
49.2709469243
 20
55.9584973924
 30
0.0
 10
49.2797479891
 20
55.9867365607
 30
0.0
 10
49.2859247988
 20
56.0028898968
 30
0.0
 10
49.2921370049
 20
56.0155928909
 30
0.0
 10
49.2984179415
 20
56.0248606876
 30
0.0
 10
49.304873591
 20
56.0308819812
 30
0.0
 10
49.3099020875
 20
56.0324989329
 30
0.0
 10
49.3121269392
 20
56.0324983745
 30
0.0
  0
SPLINE
  5
2BF
100
AcDbEntity
  8
0
100
AcDbSpline
 62
7
  6
CONTINUOUS
 70
0
 71
3
 72
16
 73
12
 74
0
 42
0.0000001
 43
0.0000001
 44
0.0000000001
 40
0.0
 40
0.0
 40
0.0
 40
0.0
 40
0.3220075372
 40
0.4802424341
 40
0.6277445923
 40
0.7582553598
 40
0.8664054373
 40
0.9107454457
 40
0.947986206
 40
0.9778085461
 40
1.0
 40
1.0
 40
1.0
 40
1.0
 10
49.356610664
 20
20.0991344
 30
0.0
 10
49.3530552932
 20
19.9629819651
 30
0.0
 10
49.3516568789
 20
19.7597989216
 30
0.0
 10
49.3568511376
 20
19.4943254465
 30
0.0
 10
49.3640920508
 20
19.3099316676
 30
0.0
 10
49.3743652627
 20
19.14690773
 30
0.0
 10
49.3855429079
 20
19.0276901741
 30
0.0
 10
49.3961422934
 20
18.9481355605
 30
0.0
 10
49.4039697483
 20
18.9016499516
 30
0.0
 10
49.4120890242
 20
18.8647782874
 30
0.0
 10
49.418458311
 20
18.8436489154
 30
0.0
 10
49.4219875109
 20
18.8349513952
 30
0.0
  0
SPLINE
  5
2C0
100
AcDbEntity
  8
0
100
AcDbSpline
 62
7
  6
CONTINUOUS
 70
0
 71
3
 72
19
 73
15
 74
0
 42
0.0000001
 43
0.0000001
 44
0.0000000001
 40
0.0
 40
0.0
 40
0.0
 40
0.0
 40
0.0318340609
 40
0.0656157798
 40
0.1028485139
 40
0.1445797772
 40
0.1914320184
 40
0.243672314
 40
0.3013042578
 40
0.3641644581
 40
0.5041631261
 40
0.6600664635
 40
0.8271879533
 40
1.0
 40
1.0
 40
1.0
 40
1.0
 10
6.0317234849
 20
36.3612132099
 30
0.0
 10
6.031723361
 20
36.3372390536
 30
0.0
 10
6.0386750278
 20
36.2876089025
 30
0.0
 10
6.0688727185
 20
36.2155313638
 30
0.0
 10
6.1180759641
 20
36.1456704885
 30
0.0
 10
6.1853786012
 20
36.0784634367
 30
0.0
 10
6.2700891513
 20
36.0142278735
 30
0.0
 10
6.3714477426
 20
35.9533956052
 30
0.0
 10
6.4885612265
 20
35.8964494086
 30
0.0
 10
6.6709561239
 20
35.8238396323
 30
0.0
 10
6.9309724911
 20
35.748191175
 30
0.0
 10
7.2738879105
 20
35.6827916723
 30
0.0
 10
7.6454812545
 20
35.6425171074
 30
0.0
 10
7.9015791391
 20
35.6334803113
 30
0.0
 10
8.0317234847
 20
35.6334803113
 30
0.0
  0
SPLINE
  5
2C1
100
AcDbEntity
  8
0
100
AcDbSpline
 62
7
  6
CONTINUOUS
 70
0
 71
3
 72
16
 73
12
 74
0
 42
0.0000001
 43
0.0000001
 44
0.0000000001
 40
0.0
 40
0.0
 40
0.0
 40
0.0
 40
0.0221914218
 40
0.0520136852
 40
0.0892543736
 40
0.1335943159
 40
0.2417443757
 40
0.3722552981
 40
0.5197576358
 40
0.677992711
 40
1.0
 40
1.0
 40
1.0
 40
1.0
 10
49.4219875103
 20
57.2900486032
 30
0.0
 10
49.4184583186
 20
57.2813511023
 30
0.0
 10
49.4120890362
 20
57.2602217961
 30
0.0
 10
49.4039697691
 20
57.2233502382
 30
0.0
 10
49.3961423329
 20
57.1768647562
 30
0.0
 10
49.3855429401
 20
57.0973102742
 30
0.0
 10
49.3743652773
 20
56.9780927845
 30
0.0
 10
49.3640920662
 20
56.8150688422
 30
0.0
 10
49.3568511321
 20
56.6306749934
 30
0.0
 10
49.3516568686
 20
56.3652016821
 30
0.0
 10
49.3530552772
 20
56.1620188292
 30
0.0
 10
49.3566106349
 20
56.0258666069
 30
0.0
  0
SPLINE
  5
2C2
100
AcDbEntity
  8
0
100
AcDbSpline
 62
7
  6
CONTINUOUS
 70
0
 71
3
 72
14
 73
10
 74
0
 42
0.0000001
 43
0.0000001
 44
0.0000000001
 40
0.0
 40
0.0
 40
0.0
 40
0.0
 40
0.1099989003
 40
0.2229168673
 40
0.3396349535
 40
0.4610909957
 40
0.5881435285
 40
0.7207190315
 40
1.0
 40
1.0
 40
1.0
 40
1.0
 10
6.039950537
 20
33.0663004173
 30
0.0
 10
6.0482389789
 20
32.9926505308
 30
0.0
 10
6.0778223904
 20
32.8445695006
 30
0.0
 10
6.1584887891
 20
32.6294606805
 30
0.0
 10
6.275180137
 20
32.4226111855
 30
0.0
 10
6.4275863626
 20
32.2282500233
 30
0.0
 10
6.6146529178
 20
32.0510174363
 30
0.0
 10
6.9104739521
 20
31.8391335153
 30
0.0
 10
7.1676087055
 20
31.7240156372
 30
0.0
 10
7.3476724541
 20
31.669369227
 30
0.0
  0
SPLINE
  5
2C3
100
AcDbEntity
  8
0
100
AcDbSpline
 62
7
  6
CONTINUOUS
 70
0
 71
3
 72
9
 73
5
 74
0
 42
0.0000001
 43
0.0000001
 44
0.0000000001
 40
0.0
 40
0.0
 40
0.0
 40
0.0
 40
0.2444651218
 40
1.0
 40
1.0
 40
1.0
 40
1.0
 10
6.0317234819
 20
33.2129614712
 30
0.0
 10
6.0317239152
 20
33.2030526188
 30
0.0
 10
6.0322219027
 20
33.1625206968
 30
0.0
 10
6.0346139605
 20
33.1220176004
 30
0.0
 10
6.0373612553
 20
33.0915171468
 30
0.0
  0
SPLINE
  5
2C4
100
AcDbEntity
  8
0
100
AcDbSpline
 62
7
  6
CONTINUOUS
 70
0
 71
3
 72
9
 73
5
 74
0
 42
0.0000001
 43
0.0000001
 44
0.0000000001
 40
0.0
 40
0.0
 40
0.0
 40
0.0
 40
0.5065758479
 40
1.0
 40
1.0
 40
1.0
 40
1.0
 10
7.3476740117
 20
31.6693837432
 30
0.0
 10
7.4615859303
 20
31.6348140501
 30
0.0
 10
7.6883958807
 20
31.5728743723
 30
0.0
 10
7.9179259958
 20
31.5220356398
 30
0.0
 10
8.031723865
 20
31.4997921587
 30
0.0
  0
SPLINE
  5
2C5
100
AcDbEntity
  8
0
100
AcDbSpline
 62
7
  6
CONTINUOUS
 70
0
 71
3
 72
16
 73
12
 74
0
 42
0.0000001
 43
0.0000001
 44
0.0000000001
 40
0.0
 40
0.0
 40
0.0
 40
0.0
 40
0.2026568281
 40
0.387144157
 40
0.550297678
 40
0.6891303329
 40
0.8015594434
 40
0.8882695931
 40
0.9228096476
 40
0.952228451
 40
1.0
 40
1.0
 40
1.0
 40
1.0
 10
7.3476845665
 20
31.6693798959
 30
0.0
 10
7.3429702029
 20
31.6463882503
 30
0.0
 10
7.3345925824
 20
31.6023334272
 30
0.0
 10
7.3248808944
 20
31.5393297953
 30
0.0
 10
7.3187586611
 20
31.4833049076
 30
0.0
 10
7.3163657231
 20
31.4353193017
 30
0.0
 10
7.3179591577
 20
31.3961608987
 30
0.0
 10
7.3226402195
 20
31.3693318324
 30
0.0
 10
7.3288519159
 20
31.3529380143
 30
0.0
 10
7.3352741103
 20
31.3417147201
 30
0.0
 10
7.3424847861
 20
31.3354219207
 30
0.0
 10
7.347683627
 20
31.3335296788
 30
0.0
  0
SPLINE
  5
2C6
100
AcDbEntity
  8
0
100
AcDbSpline
 62
7
  6
CONTINUOUS
 70
0
 71
3
 72
14
 73
10
 74
0
 42
0.0000001
 43
0.0000001
 44
0.0000000001
 40
0.0
 40
0.0
 40
0.0
 40
0.0
 40
0.3551414553
 40
0.5098360159
 40
0.645201734
 40
0.7595350334
 40
0.8541768471
 40
0.9324040647
 40
1.0
 40
1.0
 40
1.0
 40
1.0
 10
8.0317238991
 20
31.4997904089
 30
0.0
 10
8.0019755175
 20
31.4524778376
 30
0.0
 10
7.9562117057
 20
31.386278156
 30
0.0
 10
7.8900757133
 20
31.3091299494
 30
0.0
 10
7.8444603967
 20
31.2645826675
 30
0.0
 10
7.8010397986
 20
31.2318369751
 30
0.0
 10
7.7605151298
 20
31.211140401
 30
0.0
 10
7.723164198
 20
31.2024256806
 30
0.0
 10
7.6996990782
 20
31.2054065336
 30
0.0
 10
7.6897031756
 20
31.2090447436
 30
0.0
  0
SPLINE
  5
2C7
100
AcDbEntity
  8
0
100
AcDbSpline
 62
7
  6
CONTINUOUS
 70
0
 71
3
 72
11
 73
7
 74
0
 42
0.0000001
 43
0.0000001
 44
0.0000000001
 40
0.0
 40
0.0
 40
0.0
 40
0.0
 40
0.2445595756
 40
0.494219445
 40
0.7467570059
 40
1.0
 40
1.0
 40
1.0
 40
1.0
 10
17.4459370472
 20
32.7909054791
 30
0.0
 10
17.3658802567
 20
32.6541401839
 30
0.0
 10
17.1791282446
 20
32.3919820639
 30
0.0
 10
16.8440650253
 20
32.0409793464
 30
0.0
 10
16.461296671
 20
31.7336650454
 30
0.0
 10
16.1788592294
 20
31.5645883377
 30
0.0
 10
16.0317234849
 20
31.4919249303
 30
0.0
  0
SPLINE
  5
2C8
100
AcDbEntity
  8
0
100
AcDbSpline
 62
7
  6
CONTINUOUS
 70
0
 71
3
 72
19
 73
15
 74
0
 42
0.0000001
 43
0.0000001
 44
0.0000000001
 40
0.0
 40
0.0
 40
0.0
 40
0.0
 40
0.121636587
 40
0.2437524688
 40
0.3048427478
 40
0.3659991042
 40
0.4888348782
 40
0.5508088691
 40
0.6132450085
 40
0.6762075
 40
0.7398658336
 40
0.8041707583
 40
0.8691071868
 40
1.0
 40
1.0
 40
1.0
 40
1.0
 10
17.4459370472
 20
32.7909054791
 30
0.0
 10
17.4788965333
 20
32.7183764521
 30
0.0
 10
17.5470365894
 20
32.5739510775
 30
0.0
 10
17.6435667418
 20
32.3988942277
 30
0.0
 10
17.7310544872
 20
32.2647755468
 30
0.0
 10
17.8265874701
 20
32.1356882548
 30
0.0
 10
17.9345352203
 20
32.0153992213
 30
0.0
 10
18.0539906499
 20
31.9059326515
 30
0.0
 10
18.150138692
 20
31.8294685036
 30
0.0
 10
18.2534622971
 20
31.7608980424
 30
0.0
 10
18.3641749941
 20
31.7023123409
 30
0.0
 10
18.4815667835
 20
31.6549147604
 30
0.0
 10
18.645921156
 20
31.6089753992
 30
0.0
 10
18.7744467652
 20
31.5944147134
 30
0.0
 10
18.8601506096
 20
31.5923315793
 30
0.0
  0
SPLINE
  5
2C9
100
AcDbEntity
  8
0
100
AcDbSpline
 62
7
  6
CONTINUOUS
 70
0
 71
3
 72
17
 73
13
 74
0
 42
0.0000001
 43
0.0000001
 44
0.0000000001
 40
0.0
 40
0.0
 40
0.0
 40
0.0
 40
0.2437762862
 40
0.3659877395
 40
0.4889282021
 40
0.6133134389
 40
0.6763362955
 40
0.7399602167
 40
0.8042314552
 40
0.8690899019
 40
0.9344181115
 40
1.0
 40
1.0
 40
1.0
 40
1.0
 10
17.4459370472
 20
43.3340945209
 30
0.0
 10
17.5088414605
 20
43.4808390567
 30
0.0
 10
17.6174135675
 20
43.6959947
 30
0.0
 10
17.8004960212
 20
43.9593593406
 30
0.0
 10
17.9615222064
 20
44.1409171148
 30
0.0
 10
18.1169537266
 20
44.2732413784
 30
0.0
 10
18.2545013897
 20
44.3636622179
 30
0.0
 10
18.3652368133
 20
44.4221819913
 30
0.0
 10
18.4823293289
 20
44.4699149429
 30
0.0
 10
18.6047875422
 20
44.5057925538
 30
0.0
 10
18.731373196
 20
44.5278417124
 30
0.0
 10
18.8171984257
 20
44.5326684207
 30
0.0
 10
18.8601506096
 20
44.5326684207
 30
0.0
  0
SPLINE
  5
2CA
100
AcDbEntity
  8
0
100
AcDbSpline
 62
7
  6
CONTINUOUS
 70
0
 71
3
 72
12
 73
8
 74
0
 42
0.0000001
 43
0.0000001
 44
0.0000000001
 40
0.0
 40
0.0
 40
0.0
 40
0.0
 40
0.2632586767
 40
0.5281962277
 40
0.7783149378
 40
0.8935263107
 40
1.0
 40
1.0
 40
1.0
 40
1.0
 10
13.8932047878
 20
40.4915196801
 30
0.0
 10
14.025930089
 20
40.4465359856
 30
0.0
 10
14.2888919563
 20
40.3461940092
 30
0.0
 10
14.665140077
 20
40.1718789736
 30
0.0
 10
14.9576604947
 20
40.0066116181
 30
0.0
 10
15.1674942367
 20
39.8684620734
 30
0.0
 10
15.2627544235
 20
39.7986835162
 30
0.0
 10
15.3074183547
 20
39.7637881346
 30
0.0
  0
SPLINE
  5
2CB
100
AcDbEntity
  8
0
100
AcDbSpline
 62
7
  6
CONTINUOUS
 70
0
 71
3
 72
14
 73
10
 74
0
 42
0.0000001
 43
0.0000001
 44
0.0000000001
 40
0.0
 40
0.0
 40
0.0
 40
0.0
 40
0.1144821073
 40
0.2362789045
 40
0.3636629525
 40
0.4943135379
 40
0.6257471421
 40
0.7554171317
 40
1.0
 40
1.0
 40
1.0
 40
1.0
 10
17.4459370726
 20
43.3340944775
 30
0.0
 10
17.4084425501
 20
43.3981483777
 30
0.0
 10
17.3253693573
 20
43.5270775073
 30
0.0
 10
17.1828253735
 20
43.7151381918
 30
0.0
 10
17.0197991573
 20
43.8999897248
 30
0.0
 10
16.8398145197
 20
44.0773662467
 30
0.0
 10
16.6466371934
 20
44.2426113426
 30
0.0
 10
16.3833892788
 20
44.4382624331
 30
0.0
 10
16.1738985999
 20
44.5628614816
 30
0.0
 10
16.0317235113
 20
44.6330750566
 30
0.0
  0
ENDSEC
  0
SECTION
  2
OBJECTS
  0
DICTIONARY
  5
C
100
AcDbDictionary
280
0
281
1
  3
ACAD_GROUP
350
D
  3
ACAD_MLINESTYLE
350
17
  3
ACAD_LAYOUT
350
1A
  3
ACAD_PLOTSETTINGS
350
19
  3
ACAD_PLOTSTYLENAME
350
E
  0
DICTIONARY
  5
D
102
{ACAD_REACTORS
330
C
102
}
100
AcDbDictionary
280
0
281
1
  0
ACDBDICTIONARYWDFLT
  5
E
102
{ACAD_REACTORS
330
C
102
}
100
AcDbDictionary
281
1
  3
Normal
350
F
100
AcDbDictionaryWithDefault
340
F
  0
DICTIONARY
  5
17
102
{ACAD_REACTORS
330
C
102
}
100
AcDbDictionary
280
0
281
1
  3
Standard
350
18
  0
DICTIONARY
  5
19
102
{ACAD_REACTORS
330
C
102
}
100
AcDbDictionary
281
1
  0
DICTIONARY
  5
1A
102
{ACAD_REACTORS
330
C
102
}
100
AcDbDictionary
281
1
  3
Model
350
2CC
  3
Layout1
350
2CD
  0
ACDBPLACEHOLDER
  5
F
102
{ACAD_REACTORS
330
E
102
}
  0
MLINESTYLE
  5
18
102
{ACAD_REACTORS
330
17
102
}
100
AcDbMlineStyle
  2
STANDARD
 70
0
  3

 62
256
 51
90.0
 52
90.0
 71
2
 49
0.5
 62
256
  6
BYLAYER
 49
-0.5
 62
256
  6
BYLAYER
  0
LAYOUT
  5
2CC
102
{ACAD_REACTORS
330
1A
102
}
100
AcDbPlotSettings
  1

  2
none_device
  4

  6

 40
0.0
 41
0.0
 42
0.0
 43
0.0
 44
210.0
 45
297.0
 46
0.0
 47
0.0
 48
0.0
 49
0.0
140
0.0
141
0.0
142
1.0
143
1.0
 70
1024
 72
1
 73
0
 74
0
  7

 75
0
147
1.0
148
0.0
149
0.0
100
AcDbLayout
  1
Model
 70
0
 71
0
 10
0.0
 20
0.0
 11
210.0
 21
297.0
 12
0.0
 22
0.0
 32
0.0
 14
0.0
 24
0.0
 34
0.0
 15
0.0
 25
0.0
 35
0.0
146
0.0
 13
0.0
 23
0.0
 33
0.0
 16
1.0
 26
0.0
 36
0.0
 17
0.0
 27
1.0
 37
0.0
 76
0
330
210
345
0
346
0
  0
LAYOUT
  5
2CD
102
{ACAD_REACTORS
330
1A
102
}
100
AcDbPlotSettings
  1

  2
none_device
  4

  6

 40
0.0
 41
0.0
 42
0.0
 43
0.0
 44
210.0
 45
297.0
 46
0.0
 47
0.0
 48
0.0
 49
0.0
140
0.0
141
0.0
142
1.0
143
1.0
 70
0
 72
1
 73
0
 74
0
  7

 75
0
147
1.0
148
0.0
149
0.0
100
AcDbLayout
  1
Layout1
 70
0
 71
1
 10
0.0
 20
0.0
 11
210.0
 21
297.0
 12
0.0
 22
0.0
 32
0.0
 14
0.0
 24
0.0
 34
0.0
 15
0.0
 25
0.0
 35
0.0
146
0.0
 13
0.0
 23
0.0
 33
0.0
 16
1.0
 26
0.0
 36
0.0
 17
0.0
 27
1.0
 37
0.0
 76
0
330
211
345
0
346
0
  0
ENDSEC
  0
EOF
