999
DXF file: C:\Users\sesa63760\Dev\_Creo\CAD\MCADID0005800_3D-CAD\mcadid0005800_3d-simplified_2.dxf
999
Pro/ENGINEER 2019471 by Parametric Technology Corporation
  0
SECTION
  2
HEADER
  9
$ACADVER
  1
AC1024
  9
$DWGCODEPAGE
  3
ANSI_1252
  9
$EXTMAX
 10
50.3441301654
 20
71.2009840911
 30
0.0
  9
$EXTMIN
 10
0.0
 20
0.0
 30
0.0
  9
$LIMMIN
 10
0.0
 20
0.0
  9
$LIMMAX
 10
50.3441301654
 20
71.2009840911
  9
$VIEWCTR
 10
25.1720650827
 20
35.6004920456
  9
$VIEWSIZE
 40
71.2009840911
  9
$CLAYER
  8
0
  9
$LTSCALE
 40
4.6412493333
  9
$CELTYPE
  6
BYLAYER
  9
$DIMSCALE
 40
1.0
  9
$DIMASZ
 40
0.5993348829
  9
$DIMEXO
 40
1.0
  9
$DIMDLI
 40
3.2066813576
  9
$DIMEXE
 40
1.0
  9
$DIMCEN
 40
0.7594771636
  9
$DIMLFAC
 40
1.0
  9
$DIMBLK
  1
_FILLED
  9
$DIMALT
 70
0
  9
$DIMALTF
 40
0.0393700787
  9
$DIMTXT
 40
0.8390688361
  9
$DIMTOL
 70
1
  9
$DIMLIM
 70
0
  9
$DIMTFAC
 40
1.0
  9
$DIMTP
 40
0.01
  9
$DIMTM
 40
0.01
  9
$DIMGAP
 40
0.625
  9
$DIMDSEP
 70
46
  9
$AUNITS
 70
0
  9
$PDMODE
 70
3
  9
$PDSIZE
 40
0.3125
  9
$HANDSEED
  5
265
  9
$TILEMODE
 70
1
  9
$MEASUREMENT
 70
1
  9
$INSUNITS
 70
4
  0
ENDSEC
  0
SECTION
  2
CLASSES
  0
CLASS
  1
ACDBDICTIONARYWDFLT
  2
AcDbDictionaryWithDefault
  3
AutoCAD 2000
 90
0
 91
1
280
0
281
0
  0
CLASS
  1
ACDBPLACEHOLDER
  2
AcDbPlaceHolder
  3
AutoCAD 2000
 90
0
 91
1
280
0
281
0
  0
CLASS
  1
LAYOUT
  2
AcDbLayout
  3
AutoCAD 2000
 90
0
 91
0
280
0
281
0
  0
ENDSEC
  0
SECTION
  2
TABLES
  0
TABLE
  2
VPORT
  5
8
100
AcDbSymbolTable
 70
2
  0
VPORT
  5
1F4
100
AcDbSymbolTableRecord
100
AcDbViewportTableRecord
  2
*ACTIVE
 70
0
 10
0.0
 20
0.0
 11
1.0
 21
1.0
 12
25.1720650827
 22
35.6004920456
 13
0.0
 23
0.0
 14
1.0
 24
1.0
 15
0.0
 25
0.0
 16
0.0
 26
0.0
 36
1.0
 17
0.0
 27
0.0
 37
0.0
 40
71.2009840911
 41
0.7070707071
 42
50.0
 43
0.0
 44
0.0
 50
0.0
 51
0.0
 71
0
 72
100
 73
1
 74
1
 75
0
 76
0
 77
0
 78
0
  0
ENDTAB
  0
TABLE
  2
LTYPE
  5
5
100
AcDbSymbolTable
 70
6
  0
LTYPE
  5
14
100
AcDbSymbolTableRecord
100
AcDbLinetypeTableRecord
  2
BYBLOCK
 70
0
  3

 72
65
 73
0
 40
0.0
  0
LTYPE
  5
15
100
AcDbSymbolTableRecord
100
AcDbLinetypeTableRecord
  2
BYLAYER
 70
0
  3

 72
65
 73
0
 40
0.0
  0
LTYPE
  5
16
100
AcDbSymbolTableRecord
100
AcDbLinetypeTableRecord
  2
CONTINUOUS
 70
64
  3
Solid line
 72
65
 73
0
 40
0.0
  0
LTYPE
  5
1F5
100
AcDbSymbolTableRecord
100
AcDbLinetypeTableRecord
  2
CENTER
 70
64
  3
____ _ ____ _ ____ _ ____ _ ____ _ ____ _ ____
 72
65
 73
4
 40
0.6
 49
0.375
 74
0
 49
-0.075
 74
0
 49
0.075
 74
0
 49
-0.075
 74
0
  0
LTYPE
  5
1F6
100
AcDbSymbolTableRecord
100
AcDbLinetypeTableRecord
  2
HIDDEN
 70
64
  3
- - - - - - - - - - - - - - - - - - - -
 72
65
 73
2
 40
0.2
 49
0.1
 74
0
 49
-0.1
 74
0
  0
LTYPE
  5
1F7
100
AcDbSymbolTableRecord
100
AcDbLinetypeTableRecord
  2
PHANTOM
 70
64
  3
_____ _ _ _____ _ _ _____ _ _ _____
 72
65
 73
6
 40
0.8
 49
0.45
 74
0
 49
-0.05
 74
0
 49
0.1
 74
0
 49
-0.05
 74
0
 49
0.1
 74
0
 49
-0.05
 74
0
  0
LTYPE
  5
1F8
100
AcDbSymbolTableRecord
100
AcDbLinetypeTableRecord
  2
DOT
 70
64
  3
. . . . . . . . . . . . . . . . . . . .
 72
65
 73
2
 40
0.2
 49
0.1
 74
0
 49
-0.1
 74
0
  0
LTYPE
  5
1F9
100
AcDbSymbolTableRecord
100
AcDbLinetypeTableRecord
  2
DASHED
 70
64
  3
- - - - - - - - - - - - - - - - - - - -
 72
65
 73
2
 40
0.2
 49
0.1
 74
0
 49
-0.1
 74
0
  0
ENDTAB
  0
TABLE
  2
LAYER
  5
2
100
AcDbSymbolTable
 70
36
  0
LAYER
  5
10
100
AcDbSymbolTableRecord
100
AcDbLayerTableRecord
  2
0
 70
0
 62
7
  6
CONTINUOUS
370
-3
390
F
  0
LAYER
  5
1FA
100
AcDbSymbolTableRecord
100
AcDbLayerTableRecord
  2
DEFAULT_1
 70
0
 62
7
  6
CENTER
370
-3
390
F
  0
LAYER
  5
1FB
100
AcDbSymbolTableRecord
100
AcDbLayerTableRecord
  2
DEFAULT_2
 70
0
 62
7
  6
HIDDEN
370
-3
390
F
  0
LAYER
  5
1FC
100
AcDbSymbolTableRecord
100
AcDbLayerTableRecord
  2
DEFAULT_3
 70
0
 62
7
  6
PHANTOM
370
-3
390
F
  0
LAYER
  5
1FD
100
AcDbSymbolTableRecord
100
AcDbLayerTableRecord
  2
00_COMPONENTS
 70
0
 62
7
  6
CONTINUOUS
370
-3
390
F
  0
LAYER
  5
1FE
100
AcDbSymbolTableRecord
100
AcDbLayerTableRecord
  2
01_1_DEFAULT_DATUMS
 70
0
 62
7
  6
CONTINUOUS
370
-3
390
F
  0
LAYER
  5
1FF
100
AcDbSymbolTableRecord
100
AcDbLayerTableRecord
  2
01_PLANES
 70
0
 62
7
  6
CONTINUOUS
370
-3
390
F
  0
LAYER
  5
200
100
AcDbSymbolTableRecord
100
AcDbLayerTableRecord
  2
02_COORD_SYS
 70
0
 62
7
  6
CONTINUOUS
370
-3
390
F
  0
LAYER
  5
201
100
AcDbSymbolTableRecord
100
AcDbLayerTableRecord
  2
03_AXES
 70
0
 62
7
  6
CONTINUOUS
370
-3
390
F
  0
LAYER
  5
202
100
AcDbSymbolTableRecord
100
AcDbLayerTableRecord
  2
04_POINTS
 70
0
 62
7
  6
CONTINUOUS
370
-3
390
F
  0
LAYER
  5
203
100
AcDbSymbolTableRecord
100
AcDbLayerTableRecord
  2
05_CURVES
 70
0
 62
7
  6
CONTINUOUS
370
-3
390
F
  0
LAYER
  5
204
100
AcDbSymbolTableRecord
100
AcDbLayerTableRecord
  2
06_SURFS
 70
0
 62
7
  6
CONTINUOUS
370
-3
390
F
  0
LAYER
  5
205
100
AcDbSymbolTableRecord
100
AcDbLayerTableRecord
  2
07_COSMETICS
 70
0
 62
7
  6
CONTINUOUS
370
-3
390
F
  0
LAYER
  5
206
100
AcDbSymbolTableRecord
100
AcDbLayerTableRecord
  2
10_NOTES
 70
0
 62
7
  6
CONTINUOUS
370
-3
390
F
  0
LAYER
  5
207
100
AcDbSymbolTableRecord
100
AcDbLayerTableRecord
  2
11_NOTES_PUB
 70
0
 62
7
  6
CONTINUOUS
370
-3
390
F
  0
LAYER
  5
208
100
AcDbSymbolTableRecord
100
AcDbLayerTableRecord
  2
13_REF_GTOL
 70
0
 62
7
  6
CONTINUOUS
370
-3
390
F
  0
LAYER
  5
209
100
AcDbSymbolTableRecord
100
AcDbLayerTableRecord
  2
16_MISC
 70
0
 62
7
  6
CONTINUOUS
370
-3
390
F
  0
LAYER
  5
20A
100
AcDbSymbolTableRecord
100
AcDbLayerTableRecord
  2
17_NO_PRINT
 70
0
 62
7
  6
CONTINUOUS
370
-3
390
F
  0
LAYER
  5
20B
100
AcDbSymbolTableRecord
100
AcDbLayerTableRecord
  2
18_DATUM_CAMS_JOINTS
 70
0
 62
7
  6
CONTINUOUS
370
-3
390
F
  0
LAYER
  5
20C
100
AcDbSymbolTableRecord
100
AcDbLayerTableRecord
  2
19_DATUM_FUNCTIONAL
 70
0
 62
7
  6
CONTINUOUS
370
-3
390
F
  0
LAYER
  5
20D
100
AcDbSymbolTableRecord
100
AcDbLayerTableRecord
  2
20_DATUM_KINEMATIC_SCHEME
 70
0
 62
7
  6
CONTINUOUS
370
-3
390
F
  0
ENDTAB
  0
TABLE
  2
STYLE
  5
3
100
AcDbSymbolTable
 70
1
  0
STYLE
  5
11
100
AcDbSymbolTableRecord
100
AcDbTextStyleTableRecord
  2
STANDARD
 70
0
 40
0.0
 41
1.0
 50
0.0
 71
0
 42
0.2
  3
ARIAL.TTF
  4

  0
STYLE
  5
20E
100
AcDbSymbolTableRecord
100
AcDbTextStyleTableRecord
  2
TEXTSTYLE_1
 70
0
 40
0.0
 41
0.8
 50
0.0
 71
0
 42
0.2
  3
gdt
  4

  0
ENDTAB
  0
TABLE
  2
VIEW
  5
6
100
AcDbSymbolTable
 70
0
  0
ENDTAB
  0
TABLE
  2
UCS
  5
7
100
AcDbSymbolTable
 70
0
  0
ENDTAB
  0
TABLE
  2
APPID
  5
9
100
AcDbSymbolTable
 70
1
  0
APPID
  5
20F
100
AcDbSymbolTableRecord
100
AcDbRegAppTableRecord
  2
ACAD
 70
0
  0
ENDTAB
  0
TABLE
  2
BLOCK_RECORD
  5
1
100
AcDbSymbolTable
 70
0
  0
BLOCK_RECORD
  5
210
100
AcDbSymbolTableRecord
100
AcDbBlockTableRecord
  2
*Model_Space
  0
BLOCK_RECORD
  5
211
100
AcDbSymbolTableRecord
100
AcDbBlockTableRecord
  2
*Paper_Space
  0
BLOCK_RECORD
  5
212
100
AcDbSymbolTableRecord
100
AcDbBlockTableRecord
  2
_FILLED
  0
ENDTAB
  0
TABLE
  2
DIMSTYLE
  5
A
100
AcDbSymbolTable
 70
1
100
AcDbDimStyleTable
 71
0
  0
DIMSTYLE
105
213
100
AcDbSymbolTableRecord
100
AcDbDimStyleTableRecord
  2
STANDARD
 70
0
  3

  4

 40
1.0
 41
0.5993348829
 42
1.0
 43
0.38
 44
1.0
 45
0.0
 46
0.0
 47
0.01
 48
0.01
140
0.8390688361
141
0.09
142
0.0
143
25.4
144
1.0
145
0.0
146
1.0
147
0.625
 71
1
 72
0
 73
0
 74
0
 75
0
 76
0
 77
1
 78
8
 79
2
170
0
171
1
172
0
173
0
174
0
175
0
176
0
177
0
178
0
270
2
179
2
271
2
272
2
273
2
274
2
275
0
280
0
281
0
282
0
283
1
284
8
285
0
286
0
287
3
288
0
340
11
278
46
341
212
342
212
343
212
344
212
  0
ENDTAB
  0
ENDSEC
  0
SECTION
  2
BLOCKS
  0
BLOCK
  5
20
100
AcDbEntity
  8
0
100
AcDbBlockBegin
  2
*Model_Space
 70
0
 10
0.0
 20
0.0
 30
0.0
  3
*Model_Space
  1

  0
ENDBLK
  5
21
100
AcDbEntity
  8
0
100
AcDbBlockEnd
  0
BLOCK
  5
1C
100
AcDbEntity
  8
0
100
AcDbBlockBegin
  2
*Paper_Space
 70
0
 10
0.0
 20
0.0
 30
0.0
  3
*Paper_Space
  1

  0
ENDBLK
  5
1D
100
AcDbEntity
  8
0
100
AcDbBlockEnd
  0
BLOCK
  5
214
100
AcDbEntity
  8
0
100
AcDbBlockBegin
  2
_FILLED
 70
64
 10
0.0
 20
0.0
  3
_FILLED
  1

  0
SOLID
  5
215
100
AcDbEntity
  8
0
  6
BYBLOCK
 62
0
100
AcDbTrace
 10
0.0
 20
0.0
 11
-1.0
 21
0.25
 12
-1.0
 22
-0.25
 13
-1.0
 23
-0.25
  0
ENDBLK
  5
216
100
AcDbEntity
  8
0
  6
BYBLOCK
 62
0
100
AcDbBlockEnd
  0
ENDSEC
  0
SECTION
  2
ENTITIES
  0
LINE
  5
217
100
AcDbEntity
  8
0
100
AcDbLine
 62
7
  6
BYLAYER
 10
11.7206623121
 20
53.6104810793
 11
14.8383537657
 21
55.4104810793
  0
LINE
  5
218
100
AcDbEntity
  8
0
100
AcDbLine
 62
7
  6
BYLAYER
 10
11.6206623121
 20
15.6104810793
 11
39.4206623121
 21
15.6104810793
  0
LINE
  5
219
100
AcDbEntity
  8
0
100
AcDbLine
 62
7
  6
BYLAYER
 10
38.9206623121
 20
16.4921159829
 11
32.0206623121
 21
16.4921159829
  0
LINE
  5
21A
100
AcDbEntity
  8
0
100
AcDbLine
 62
7
  6
BYLAYER
 10
30.5206623121
 20
16.4921159829
 11
20.5206623121
 21
16.4921159829
  0
LINE
  5
21B
100
AcDbEntity
  8
0
100
AcDbLine
 62
7
  6
BYLAYER
 10
19.0206623121
 20
16.4921159829
 11
12.1206623121
 21
16.4921159829
  0
LINE
  5
21C
100
AcDbEntity
  8
0
100
AcDbLine
 62
7
  6
BYLAYER
 10
39.4206623121
 20
16.7566064539
 11
11.6206623121
 21
16.7566064539
  0
LINE
  5
21D
100
AcDbEntity
  8
0
100
AcDbLine
 62
7
  6
BYLAYER
 10
40.3956623121
 20
18.1104810793
 11
30.5956623121
 21
18.1104810793
  0
LINE
  5
21E
100
AcDbEntity
  8
0
100
AcDbLine
 62
7
  6
BYLAYER
 10
40.3956623121
 20
19.6104810793
 11
30.5956623121
 21
19.6104810793
  0
LINE
  5
21F
100
AcDbEntity
  8
0
100
AcDbLine
 62
7
  6
BYLAYER
 10
10.6206623121
 20
21.4104810793
 11
10.6206623121
 21
44.6104810793
  0
LINE
  5
220
100
AcDbEntity
  8
0
100
AcDbLine
 62
7
  6
BYLAYER
 10
11.4706623121
 20
21.4104810793
 11
11.4706623121
 21
29.2104810793
  0
LINE
  5
221
100
AcDbEntity
  8
0
100
AcDbLine
 62
7
  6
BYLAYER
 10
11.6206623121
 20
15.6104810793
 11
11.6206623121
 21
21.4104810793
  0
LINE
  5
222
100
AcDbEntity
  8
0
100
AcDbLine
 62
7
  6
BYLAYER
 10
11.7206623121
 20
44.6104810793
 11
11.7206623121
 21
53.6104810793
  0
LINE
  5
223
100
AcDbEntity
  8
0
100
AcDbLine
 62
7
  6
BYLAYER
 10
12.1206623121
 20
15.6104810793
 11
12.1206623121
 21
16.4921159829
  0
LINE
  5
224
100
AcDbEntity
  8
0
100
AcDbLine
 62
7
  6
BYLAYER
 10
11.6206623121
 20
20.7175971566
 11
19.5706623121
 21
20.7175971566
  0
LINE
  5
225
100
AcDbEntity
  8
0
100
AcDbLine
 62
7
  6
BYLAYER
 10
21.4706623121
 20
20.7175971566
 11
29.5706623121
 21
20.7175971566
  0
LINE
  5
226
100
AcDbEntity
  8
0
100
AcDbLine
 62
7
  6
BYLAYER
 10
40.4206623121
 20
21.4104810793
 11
40.3956623121
 21
21.4104810793
  0
LINE
  5
227
100
AcDbEntity
  8
0
100
AcDbLine
 62
7
  6
BYLAYER
 10
10.6206623121
 20
21.4104810793
 11
11.6206623121
 21
21.4104810793
  0
LINE
  5
228
100
AcDbEntity
  8
0
100
AcDbLine
 62
7
  6
BYLAYER
 10
19.5706623121
 20
22.0104810793
 11
11.4706623121
 21
22.0104810793
  0
LINE
  5
229
100
AcDbEntity
  8
0
100
AcDbLine
 62
7
  6
BYLAYER
 10
21.4706623121
 20
22.0104810793
 11
29.5706623121
 21
22.0104810793
  0
LINE
  5
22A
100
AcDbEntity
  8
0
100
AcDbLine
 62
7
  6
BYLAYER
 10
19.5706623121
 20
25.0175971566
 11
21.0104558901
 21
25.0175971566
  0
LINE
  5
22B
100
AcDbEntity
  8
0
100
AcDbLine
 62
7
  6
BYLAYER
 10
30.030868734
 20
25.0175971566
 11
30.5956623121
 21
25.0175971566
  0
LINE
  5
22C
100
AcDbEntity
  8
0
100
AcDbLine
 62
7
  6
BYLAYER
 10
10.6206623121
 20
26.7550347178
 11
11.4706623121
 21
26.7550347178
  0
LINE
  5
22D
100
AcDbEntity
  8
0
100
AcDbLine
 62
7
  6
BYLAYER
 10
40.3956623121
 20
26.7550347178
 11
40.4206623121
 21
26.7550347178
  0
LINE
  5
22E
100
AcDbEntity
  8
0
100
AcDbLine
 62
7
  6
BYLAYER
 10
19.0206623121
 20
16.4921159829
 11
19.0206623121
 21
15.6104810793
  0
LINE
  5
22F
100
AcDbEntity
  8
0
100
AcDbLine
 62
7
  6
BYLAYER
 10
19.5706623121
 20
20.7175971566
 11
19.5706623121
 21
25.8873429922
  0
LINE
  5
230
100
AcDbEntity
  8
0
100
AcDbLine
 62
7
  6
BYLAYER
 10
10.6206623121
 20
29.2104810793
 11
11.4706623121
 21
29.2104810793
  0
LINE
  5
231
100
AcDbEntity
  8
0
100
AcDbLine
 62
7
  6
BYLAYER
 10
40.3956623121
 20
29.2104810793
 11
40.4206623121
 21
29.2104810793
  0
LINE
  5
232
100
AcDbEntity
  8
0
100
AcDbLine
 62
7
  6
BYLAYER
 10
20.5206623121
 20
15.6104810793
 11
20.5206623121
 21
16.4921159829
  0
LINE
  5
233
100
AcDbEntity
  8
0
100
AcDbLine
 62
7
  6
BYLAYER
 10
21.4706623121
 20
24.8034944564
 11
21.4706623121
 21
20.7175971566
  0
LINE
  5
234
100
AcDbEntity
  8
0
100
AcDbLine
 62
7
  6
BYLAYER
 10
29.5706623121
 20
20.7175971566
 11
29.5706623121
 21
24.8034944564
  0
LINE
  5
235
100
AcDbEntity
  8
0
100
AcDbLine
 62
7
  6
BYLAYER
 10
30.5206623121
 20
16.4921159829
 11
30.5206623121
 21
15.6104810793
  0
LINE
  5
236
100
AcDbEntity
  8
0
100
AcDbLine
 62
7
  6
BYLAYER
 10
30.5956623121
 20
50.1104810793
 11
30.5956623121
 21
18.1104810793
  0
LINE
  5
237
100
AcDbEntity
  8
0
100
AcDbLine
 62
7
  6
BYLAYER
 10
32.0206623121
 20
15.6104810793
 11
32.0206623121
 21
16.4921159829
  0
LINE
  5
238
100
AcDbEntity
  8
0
100
AcDbLine
 62
7
  6
BYLAYER
 10
10.6206623121
 20
44.6104810793
 11
11.7206623121
 21
44.6104810793
  0
LINE
  5
239
100
AcDbEntity
  8
0
100
AcDbLine
 62
7
  6
BYLAYER
 10
40.3956623121
 20
44.6104810793
 11
40.4206623121
 21
44.6104810793
  0
LINE
  5
23A
100
AcDbEntity
  8
0
100
AcDbLine
 62
7
  6
BYLAYER
 10
11.7206623121
 20
46.2104810793
 11
30.5956623121
 21
46.2104810793
  0
LINE
  5
23B
100
AcDbEntity
  8
0
100
AcDbLine
 62
7
  6
BYLAYER
 10
11.7206623121
 20
46.6104810793
 11
30.5956623121
 21
46.6104810793
  0
LINE
  5
23C
100
AcDbEntity
  8
0
100
AcDbLine
 62
7
  6
BYLAYER
 10
38.9206623121
 20
16.4921159829
 11
38.9206623121
 21
15.6104810793
  0
LINE
  5
23D
100
AcDbEntity
  8
0
100
AcDbLine
 62
7
  6
BYLAYER
 10
39.3206623121
 20
50.1104810793
 11
39.3206623121
 21
53.6104810793
  0
LINE
  5
23E
100
AcDbEntity
  8
0
100
AcDbLine
 62
7
  6
BYLAYER
 10
39.4206623121
 20
15.6104810793
 11
39.4206623121
 21
18.1104810793
  0
LINE
  5
23F
100
AcDbEntity
  8
0
100
AcDbLine
 62
7
  6
BYLAYER
 10
30.5956623121
 20
48.6104810793
 11
40.3956623121
 21
48.6104810793
  0
LINE
  5
240
100
AcDbEntity
  8
0
100
AcDbLine
 62
7
  6
BYLAYER
 10
40.3956623121
 20
18.1104810793
 11
40.3956623121
 21
50.1104810793
  0
LINE
  5
241
100
AcDbEntity
  8
0
100
AcDbLine
 62
7
  6
BYLAYER
 10
40.4206623121
 20
21.4104810793
 11
40.4206623121
 21
44.6104810793
  0
LINE
  5
242
100
AcDbEntity
  8
0
100
AcDbLine
 62
7
  6
BYLAYER
 10
40.3956623121
 20
50.1104810793
 11
30.5956623121
 21
50.1104810793
  0
LINE
  5
243
100
AcDbEntity
  8
0
100
AcDbLine
 62
7
  6
BYLAYER
 10
11.7206623121
 20
52.1384060609
 11
39.3206623121
 21
52.1384060609
  0
LINE
  5
244
100
AcDbEntity
  8
0
100
AcDbLine
 62
7
  6
BYLAYER
 10
11.7206623121
 20
53.4104810793
 11
39.3206623121
 21
53.4104810793
  0
LINE
  5
245
100
AcDbEntity
  8
0
100
AcDbLine
 62
7
  6
BYLAYER
 10
36.2029708584
 20
55.4104810793
 11
29.3380567114
 21
55.4104810793
  0
LINE
  5
246
100
AcDbEntity
  8
0
100
AcDbLine
 62
7
  6
BYLAYER
 10
21.7032679127
 20
55.4104810793
 11
14.8383537657
 21
55.4104810793
  0
LINE
  5
247
100
AcDbEntity
  8
0
100
AcDbLine
 62
7
  6
BYLAYER
 10
36.2029708584
 20
55.4104810793
 11
39.3206623121
 21
53.6104810793
  0
ARC
  5
248
100
AcDbEntity
  8
0
100
AcDbCircle
 62
7
  6
BYLAYER
 10
25.5206623121
 20
34.110512342
 40
20.0007660329
100
AcDbArc
 50
134.3143121922
 51
225.2788901569
  0
ARC
  5
249
100
AcDbEntity
  8
0
100
AcDbCircle
 62
7
  6
BYLAYER
 10
25.5206623121
 20
34.110512342
 40
20.0007660329
100
AcDbArc
 50
318.6873869394
 51
41.3126130606
  0
ARC
  5
24A
100
AcDbEntity
  8
0
100
AcDbCircle
 62
7
  6
BYLAYER
 10
25.5206623121
 20
34.110512342
 40
20.0007660329
100
AcDbArc
 50
248.6936888439
 51
291.3063111561
  0
ARC
  5
24B
100
AcDbEntity
  8
0
100
AcDbCircle
 62
7
  6
BYLAYER
 10
25.5206623121
 20
34.110512342
 40
17.5007517516
100
AcDbArc
 50
329.1929235618
 51
30.8031902045
  0
ARC
  5
24C
100
AcDbEntity
  8
0
100
AcDbCircle
 62
7
  6
BYLAYER
 10
25.5206623121
 20
34.110512342
 40
17.5007517463
100
AcDbArc
 50
149.3739505834
 51
210.6210799943
  0
ARC
  5
24D
100
AcDbEntity
  8
0
100
AcDbCircle
 62
7
  6
BYLAYER
 10
25.5206623121
 20
34.110512342
 40
17.5007517463
100
AcDbArc
 50
142.3338537456
 51
143.0164380974
  0
ARC
  5
24E
100
AcDbEntity
  8
0
100
AcDbCircle
 62
7
  6
BYLAYER
 10
25.5206623121
 20
34.110512342
 40
14.9998635028
100
AcDbArc
 50
171.1616774956
 51
188.8383225044
  0
ARC
  5
24F
100
AcDbEntity
  8
0
100
AcDbCircle
 62
7
  6
BYLAYER
 10
25.5206623121
 20
34.110512342
 40
14.9998635028
100
AcDbArc
 50
351.1616774956
 51
8.8383225044
  0
ARC
  5
250
100
AcDbEntity
  8
0
100
AcDbCircle
 62
7
  6
BYLAYER
 10
25.5206623121
 20
34.1104810793
 40
10.15
100
AcDbArc
 50
60.0
 51
300.0074175533
  0
ARC
  5
251
100
AcDbEntity
  8
0
100
AcDbCircle
 62
7
  6
BYLAYER
 10
25.5206623121
 20
51.1104810793
 40
5.75
100
AcDbArc
 50
48.4024161073
 51
131.5975838927
  0
ARC
  5
252
100
AcDbEntity
  8
0
100
AcDbCircle
 62
7
  6
BYLAYER
 10
35.4186071515
 20
24.8539956524
 40
2.923164285
100
AcDbArc
 50
163.7332503342
 51
171.4798201053
  0
ARC
  5
253
100
AcDbEntity
  8
0
100
AcDbCircle
 62
7
  6
BYLAYER
 10
35.5733776951
 20
24.854120523
 40
2.9224943492
100
AcDbArc
 50
8.4214558606
 51
16.2420428757
  0
ARC
  5
254
100
AcDbEntity
  8
0
100
AcDbCircle
 62
7
  6
BYLAYER
 10
35.6001885222
 20
42.9330283455
 40
2.8957803317
100
AcDbArc
 50
346.042226315
 51
351.4503643881
  0
ARC
  5
255
100
AcDbEntity
  8
0
100
AcDbCircle
 62
7
  6
BYLAYER
 10
35.3914609789
 20
42.9490814801
 40
2.8957718418
100
AcDbArc
 50
180.610838958
 51
185.2559496707
  0
ARC
  5
256
100
AcDbEntity
  8
0
100
AcDbCircle
 62
7
  6
BYLAYER
 10
35.3815688404
 20
42.948252054
 40
2.8858453171
100
AcDbArc
 50
185.2575425806
 51
187.2215820682
  0
SPLINE
  5
257
100
AcDbEntity
  8
0
100
AcDbSpline
 62
7
  6
BYLAYER
 70
0
 71
3
 72
15
 73
11
 74
0
 42
0.0000001
 43
0.0000001
 44
0.0000000001
 40
0.0
 40
0.0
 40
0.0
 40
0.0
 40
0.1250056601
 40
0.2500105771
 40
0.3750224373
 40
0.500022409
 40
0.6250246916
 40
0.750009393
 40
0.8750323851
 40
1.0
 40
1.0
 40
1.0
 40
1.0
 10
32.495702912
 20
25.7241348447
 30
0.0
 10
32.4957038838
 20
25.5265789414
 30
0.0
 10
32.5337588061
 20
25.1304215755
 30
0.0
 10
32.7031532849
 20
24.5588093997
 30
0.0
 10
32.9792318319
 20
24.0301222185
 30
0.0
 10
33.3523182037
 20
23.5647739132
 30
0.0
 10
33.8090443139
 20
23.1811532863
 30
0.0
 10
34.3323942656
 20
22.8946914603
 30
0.0
 10
34.9019531415
 20
22.7178134932
 30
0.0
 10
35.2981665345
 20
22.6778553633
 30
0.0
 10
35.495662312
 20
22.6778553633
 30
0.0
  0
SPLINE
  5
258
100
AcDbEntity
  8
0
100
AcDbSpline
 62
7
  6
BYLAYER
 70
0
 71
3
 72
15
 73
11
 74
0
 42
0.0000001
 43
0.0000001
 44
0.0000000001
 40
0.0
 40
0.0
 40
0.0
 40
0.0
 40
0.1250023332
 40
0.2500066749
 40
0.3750093107
 40
0.5000075701
 40
0.6250124271
 40
0.7500038714
 40
0.8750240404
 40
1.0
 40
1.0
 40
1.0
 40
1.0
 10
38.4479846926
 20
42.2113510386
 30
0.0
 10
38.4642906156
 20
42.4182676095
 30
0.0
 10
38.4554754065
 20
42.8365750047
 30
0.0
 10
38.3175307104
 20
43.4479044203
 30
0.0
 10
38.0597714244
 20
44.0194678815
 30
0.0
 10
37.6915950947
 20
44.527043098
 30
0.0
 10
37.2271785536
 20
44.9484700141
 30
0.0
 10
36.6854188358
 20
45.2647485259
 30
0.0
 10
36.0897183145
 20
45.4606433834
 30
0.0
 10
35.6732853141
 20
45.5049077668
 30
0.0
 10
35.4657710404
 20
45.5049073006
 30
0.0
  0
SPLINE
  5
259
100
AcDbEntity
  8
0
100
AcDbSpline
 62
7
  6
BYLAYER
 70
0
 71
3
 72
15
 73
11
 74
0
 42
0.0000001
 43
0.0000001
 44
0.0000000001
 40
0.0
 40
0.0
 40
0.0
 40
0.0
 40
0.1249707246
 40
0.2500069802
 40
0.3749886673
 40
0.4999930618
 40
0.6249877092
 40
0.7499870732
 40
0.8749924147
 40
1.0
 40
1.0
 40
1.0
 40
1.0
 10
35.4657710404
 20
45.5049073006
 30
0.0
 10
35.2774859895
 20
45.5049068775
 30
0.0
 10
34.8998357968
 20
45.46847767
 30
0.0
 10
34.3549046732
 20
45.3073525601
 30
0.0
 10
33.8501300786
 20
45.0459482806
 30
0.0
 10
33.4032608977
 20
44.6949140879
 30
0.0
 10
33.0292114185
 20
44.2671666545
 30
0.0
 10
32.7399607858
 20
43.7780971701
 30
0.0
 10
32.544471347
 20
43.2448076516
 30
0.0
 10
32.4805123419
 20
42.8711096453
 30
0.0
 10
32.4657161594
 20
42.683351158
 30
0.0
  0
SPLINE
  5
25A
100
AcDbEntity
  8
0
100
AcDbSpline
 62
7
  6
BYLAYER
 70
0
 71
3
 72
15
 73
11
 74
0
 42
0.0000001
 43
0.0000001
 44
0.0000000001
 40
0.0
 40
0.0
 40
0.0
 40
0.0
 40
0.1249709812
 40
0.2499946879
 40
0.3749805204
 40
0.4999848773
 40
0.6249862598
 40
0.7499945551
 40
0.8749945375
 40
1.0
 40
1.0
 40
1.0
 40
1.0
 10
35.495662312
 20
22.6778553633
 30
0.0
 10
35.6931634246
 20
22.6778553633
 30
0.0
 10
36.0893831892
 20
22.7178159729
 30
0.0
 10
36.658949903
 20
22.8946964168
 30
0.0
 10
37.1823034624
 20
23.1811663568
 30
0.0
 10
37.6390268288
 20
23.5648007851
 30
0.0
 10
38.0121117557
 20
24.0301517983
 30
0.0
 10
38.2881629772
 20
24.5588381044
 30
0.0
 10
38.4575874305
 20
25.1304270694
 30
0.0
 10
38.495622684
 20
25.5265799472
 30
0.0
 10
38.4956217121
 20
25.7241355533
 30
0.0
  0
SPLINE
  5
25B
100
AcDbEntity
  8
0
100
AcDbSpline
 62
7
  6
BYLAYER
 70
0
 71
3
 72
15
 73
11
 74
0
 42
0.0000001
 43
0.0000001
 44
0.0000000001
 40
0.0
 40
0.0
 40
0.0
 40
0.0
 40
0.125924852
 40
0.2518464271
 40
0.3774692108
 40
0.502775713
 40
0.6276658576
 40
0.7521307053
 40
0.8762131172
 40
1.0
 40
1.0
 40
1.0
 40
1.0
 10
35.4957450286
 20
39.9959204896
 30
0.0
 10
35.3151351376
 20
39.9964479013
 30
0.0
 10
34.9532087515
 20
40.0297570164
 30
0.0
 10
34.4286558002
 20
40.1743508061
 30
0.0
 10
33.9386741767
 20
40.4093341108
 30
0.0
 10
33.4994276896
 20
40.7267178365
 30
0.0
 10
33.1252258412
 20
41.1164459761
 30
0.0
 10
32.8283050518
 20
41.5658106144
 30
0.0
 10
32.618384413
 20
42.0599411971
 30
0.0
 10
32.5409358792
 20
42.4093456514
 30
0.0
 10
32.5186157203
 20
42.5854812913
 30
0.0
  0
SPLINE
  5
25C
100
AcDbEntity
  8
0
100
AcDbSpline
 62
7
  6
BYLAYER
 70
0
 71
3
 72
15
 73
11
 74
0
 42
0.0000001
 43
0.0000001
 44
0.0000000001
 40
0.0
 40
0.0
 40
0.0
 40
0.0
 40
0.1256955475
 40
0.2514149043
 40
0.3768618284
 40
0.5020721244
 40
0.6269895199
 40
0.7515945864
 40
0.8759163791
 40
1.0
 40
1.0
 40
1.0
 40
1.0
 10
35.4956814441
 20
27.8109811623
 30
0.0
 10
35.6568418542
 20
27.8109809095
 30
0.0
 10
35.9797682063
 20
27.7851963755
 30
0.0
 10
36.4512009797
 20
27.6706947807
 30
0.0
 10
36.8979854764
 20
27.482872245
 30
0.0
 10
37.3082336613
 20
27.2268113724
 30
0.0
 10
37.6714781755
 20
26.9091697432
 30
0.0
 10
37.9782158586
 20
26.5380792677
 30
0.0
 10
38.2203267544
 20
26.123304455
 30
0.0
 10
38.3347336403
 20
25.8242735996
 30
0.0
 10
38.3792315167
 20
25.6715295718
 30
0.0
  0
SPLINE
  5
25D
100
AcDbEntity
  8
0
100
AcDbSpline
 62
7
  6
BYLAYER
 70
0
 71
3
 72
15
 73
11
 74
0
 42
0.0000001
 43
0.0000001
 44
0.0000000001
 40
0.0
 40
0.0
 40
0.0
 40
0.0
 40
0.1249707458
 40
0.2500070303
 40
0.374988723
 40
0.4999931125
 40
0.6249877424
 40
0.7499870923
 40
0.8749924236
 40
1.0
 40
1.0
 40
1.0
 40
1.0
 10
35.4479218405
 20
39.3897949025
 30
0.0
 10
35.6362072535
 20
39.3897949025
 30
0.0
 10
36.0138582721
 20
39.4262232074
 30
0.0
 10
36.5587908213
 20
39.587347385
 30
0.0
 10
37.0635668022
 20
39.8487512849
 30
0.0
 10
37.5104372523
 20
40.1997854509
 30
0.0
 10
37.8844878116
 20
40.6275332054
 30
0.0
 10
38.1737393006
 20
41.1166032786
 30
0.0
 10
38.3692293194
 20
41.6498936033
 30
0.0
 10
38.4331884848
 20
42.0235922355
 30
0.0
 10
38.4479846926
 20
42.2113510386
 30
0.0
  0
SPLINE
  5
25E
100
AcDbEntity
  8
0
100
AcDbSpline
 62
7
  6
BYLAYER
 70
0
 71
3
 72
15
 73
11
 74
0
 42
0.0000001
 43
0.0000001
 44
0.0000000001
 40
0.0
 40
0.0
 40
0.0
 40
0.0
 40
0.1249709797
 40
0.2499946923
 40
0.3749805196
 40
0.4999848787
 40
0.6249862603
 40
0.7499945555
 40
0.8749945377
 40
1.0
 40
1.0
 40
1.0
 40
1.0
 10
35.495662312
 20
28.7704150347
 30
0.0
 10
35.2981612015
 20
28.7704153541
 30
0.0
 10
34.9019414073
 20
28.7304544033
 30
0.0
 10
34.332374757
 20
28.5535739357
 30
0.0
 10
33.809021138
 20
28.2671040667
 30
0.0
 10
33.3522978055
 20
27.8834696043
 30
0.0
 10
32.9792128652
 20
27.418118602
 30
0.0
 10
32.7031616476
 20
26.889432293
 30
0.0
 10
32.5337371934
 20
26.3178433288
 30
0.0
 10
32.4957019401
 20
25.9216904507
 30
0.0
 10
32.495702912
 20
25.7241348447
 30
0.0
  0
SPLINE
  5
25F
100
AcDbEntity
  8
0
100
AcDbSpline
 62
7
  6
BYLAYER
 70
0
 71
3
 72
15
 73
11
 74
0
 42
0.0000001
 43
0.0000001
 44
0.0000000001
 40
0.0
 40
0.0
 40
0.0
 40
0.0
 40
0.1238745946
 40
0.2479929131
 40
0.3724380755
 40
0.4972712606
 40
0.6224977135
 40
0.7480626897
 40
0.8739976188
 40
1.0
 40
1.0
 40
1.0
 40
1.0
 10
38.4104673382
 20
42.234546631
 30
0.0
 10
38.3710688272
 20
42.0760193499
 30
0.0
 10
38.2650314221
 20
41.7647126201
 30
0.0
 10
38.0295988446
 20
41.3311650746
 30
0.0
 10
37.7240558431
 20
40.9420622711
 30
0.0
 10
37.3569673619
 20
40.6083032885
 30
0.0
 10
36.9385350769
 20
40.3390315409
 30
0.0
 10
36.4801743173
 20
40.1416284189
 30
0.0
 10
35.9948296204
 20
40.0217596354
 30
0.0
 10
35.6618999213
 20
39.995435289
 30
0.0
 10
35.4957450286
 20
39.9959204896
 30
0.0
  0
SPLINE
  5
260
100
AcDbEntity
  8
0
100
AcDbSpline
 62
7
  6
BYLAYER
 70
0
 71
3
 72
15
 73
11
 74
0
 42
0.0000001
 43
0.0000001
 44
0.0000000001
 40
0.0
 40
0.0
 40
0.0
 40
0.0
 40
0.1250056603
 40
0.2500105775
 40
0.3750224378
 40
0.5000224104
 40
0.6250246907
 40
0.7500093976
 40
0.8750323836
 40
1.0
 40
1.0
 40
1.0
 40
1.0
 10
38.4956217121
 20
25.7241355533
 30
0.0
 10
38.4956207403
 20
25.9216914566
 30
0.0
 10
38.4575658179
 20
26.3178488223
 30
0.0
 10
38.2881713399
 20
26.8894609989
 30
0.0
 10
38.0120927891
 20
27.4181481772
 30
0.0
 10
37.6390064307
 20
27.8834964936
 30
0.0
 10
37.1822802861
 20
28.2671170855
 30
0.0
 10
36.6589303951
 20
28.5535789852
 30
0.0
 10
36.0893714544
 20
28.7304569241
 30
0.0
 10
35.6931580917
 20
28.7704147152
 30
0.0
 10
35.495662312
 20
28.7704150347
 30
0.0
  0
SPLINE
  5
261
100
AcDbEntity
  8
0
100
AcDbSpline
 62
7
  6
BYLAYER
 70
0
 71
3
 72
15
 73
11
 74
0
 42
0.0000001
 43
0.0000001
 44
0.0000000001
 40
0.0
 40
0.0
 40
0.0
 40
0.0
 40
0.1240799751
 40
0.2483995266
 40
0.3730054865
 40
0.4979253166
 40
0.6231374965
 40
0.7485868777
 40
0.874307323
 40
1.0
 40
1.0
 40
1.0
 40
1.0
 10
32.6124629528
 20
25.6728022063
 30
0.0
 10
32.657012303
 20
25.8254710091
 30
0.0
 10
32.7715141196
 20
26.1243417013
 30
0.0
 10
33.013684039
 20
26.5388860166
 30
0.0
 10
33.3204321978
 20
26.9097603089
 30
0.0
 10
33.6836436232
 20
27.2272023468
 30
0.0
 10
34.0938072941
 20
27.4831070678
 30
0.0
 10
34.5404766378
 20
27.6708016353
 30
0.0
 10
35.0117626329
 20
27.7852186266
 30
0.0
 10
35.3345785409
 20
27.8109814151
 30
0.0
 10
35.4956814441
 20
27.8109811623
 30
0.0
  0
SPLINE
  5
262
100
AcDbEntity
  8
0
100
AcDbSpline
 62
7
  6
BYLAYER
 70
0
 71
3
 72
15
 73
11
 74
0
 42
0.0000001
 43
0.0000001
 44
0.0000000001
 40
0.0
 40
0.0
 40
0.0
 40
0.0
 40
0.1250023434
 40
0.2500066971
 40
0.3750093449
 40
0.5000076191
 40
0.6250124822
 40
0.7500039222
 40
0.8750240625
 40
1.0
 40
1.0
 40
1.0
 40
1.0
 10
32.4657161594
 20
42.683351158
 30
0.0
 10
32.4494102615
 20
42.4764348991
 30
0.0
 10
32.4582253919
 20
42.0581281402
 30
0.0
 10
32.5961696064
 20
41.4467995916
 30
0.0
 10
32.8539280673
 20
40.8752367943
 30
0.0
 10
33.2221032997
 20
40.3676619646
 30
0.0
 10
33.6865185014
 20
39.9462350347
 30
0.0
 10
34.2282767672
 20
39.629956133
 30
0.0
 10
34.8239757894
 20
39.4340602953
 30
0.0
 10
35.2404079334
 20
39.3897949025
 30
0.0
 10
35.4479218405
 20
39.3897949025
 30
0.0
  0
ENDSEC
  0
SECTION
  2
OBJECTS
  0
DICTIONARY
  5
C
100
AcDbDictionary
280
0
281
1
  3
ACAD_GROUP
350
D
  3
ACAD_MLINESTYLE
350
17
  3
ACAD_LAYOUT
350
1A
  3
ACAD_PLOTSETTINGS
350
19
  3
ACAD_PLOTSTYLENAME
350
E
  0
DICTIONARY
  5
D
102
{ACAD_REACTORS
330
C
102
}
100
AcDbDictionary
280
0
281
1
  0
ACDBDICTIONARYWDFLT
  5
E
102
{ACAD_REACTORS
330
C
102
}
100
AcDbDictionary
281
1
  3
Normal
350
F
100
AcDbDictionaryWithDefault
340
F
  0
DICTIONARY
  5
17
102
{ACAD_REACTORS
330
C
102
}
100
AcDbDictionary
280
0
281
1
  3
Standard
350
18
  0
DICTIONARY
  5
19
102
{ACAD_REACTORS
330
C
102
}
100
AcDbDictionary
281
1
  0
DICTIONARY
  5
1A
102
{ACAD_REACTORS
330
C
102
}
100
AcDbDictionary
281
1
  3
Model
350
263
  3
Layout1
350
264
  0
ACDBPLACEHOLDER
  5
F
102
{ACAD_REACTORS
330
E
102
}
  0
MLINESTYLE
  5
18
102
{ACAD_REACTORS
330
17
102
}
100
AcDbMlineStyle
  2
STANDARD
 70
0
  3

 62
256
 51
90.0
 52
90.0
 71
2
 49
0.5
 62
256
  6
BYLAYER
 49
-0.5
 62
256
  6
BYLAYER
  0
LAYOUT
  5
263
102
{ACAD_REACTORS
330
1A
102
}
100
AcDbPlotSettings
  1

  2
none_device
  4

  6

 40
0.0
 41
0.0
 42
0.0
 43
0.0
 44
210.0
 45
297.0
 46
0.0
 47
0.0
 48
0.0
 49
0.0
140
0.0
141
0.0
142
1.0
143
1.0
 70
1024
 72
1
 73
0
 74
0
  7

 75
0
147
1.0
148
0.0
149
0.0
100
AcDbLayout
  1
Model
 70
0
 71
0
 10
0.0
 20
0.0
 11
210.0
 21
297.0
 12
0.0
 22
0.0
 32
0.0
 14
0.0
 24
0.0
 34
0.0
 15
0.0
 25
0.0
 35
0.0
146
0.0
 13
0.0
 23
0.0
 33
0.0
 16
1.0
 26
0.0
 36
0.0
 17
0.0
 27
1.0
 37
0.0
 76
0
330
210
345
0
346
0
  0
LAYOUT
  5
264
102
{ACAD_REACTORS
330
1A
102
}
100
AcDbPlotSettings
  1

  2
none_device
  4

  6

 40
0.0
 41
0.0
 42
0.0
 43
0.0
 44
210.0
 45
297.0
 46
0.0
 47
0.0
 48
0.0
 49
0.0
140
0.0
141
0.0
142
1.0
143
1.0
 70
0
 72
1
 73
0
 74
0
  7

 75
0
147
1.0
148
0.0
149
0.0
100
AcDbLayout
  1
Layout1
 70
0
 71
1
 10
0.0
 20
0.0
 11
210.0
 21
297.0
 12
0.0
 22
0.0
 32
0.0
 14
0.0
 24
0.0
 34
0.0
 15
0.0
 25
0.0
 35
0.0
146
0.0
 13
0.0
 23
0.0
 33
0.0
 16
1.0
 26
0.0
 36
0.0
 17
0.0
 27
1.0
 37
0.0
 76
0
330
211
345
0
346
0
  0
ENDSEC
  0
EOF
