  0
SECTION
  2
HEADER
  9
$ACADVER
  1
AC1009
  9
$DWGCODEPAGE
  3
ansi_1250
  9
$INSBASE
 10
0.0
 20
0.0
 30
0.0
  9
$EXTMIN
 10
-0.354331
 20
-0.354331
 30
0.0
  9
$EXTMAX
 10
0.354331
 20
0.354331
 30
0.0
  9
$LIMMIN
 10
0.0
 20
0.0
  9
$LIMMAX
 10
0.0
 20
0.0
  9
$ORTHOMODE
 70
     0
  9
$REGENMODE
 70
     1
  9
$FILLMODE
 70
     1
  9
$QTEXTMODE
 70
     0
  9
$MIRRTEXT
 70
     1
  9
$DRAGMODE
 70
     2
  9
$LTSCALE
 40
1.0
  9
$OSMODE
 70
     0
  9
$ATTMODE
 70
     1
  9
$TEXTSIZE
 40
0.2
  9
$TRACEWID
 40
0.05
  9
$TEXTSTYLE
  7
STANDARD
  9
$CLAYER
  8
0
  9
$CELTYPE
  6
CONTINUOUS
  9
$CECOLOR
 62
   256
  9
$DIMSCALE
 40
1.0
  9
$DIMASZ
 40
0.18
  9
$DIMEXO
 40
0.0625
  9
$DIMDLI
 40
0.38
  9
$DIMRND
 40
0.0
  9
$DIMDLE
 40
0.0
  9
$DIMEXE
 40
0.18
  9
$DIMTP
 40
0.0
  9
$DIMTM
 40
0.0
  9
$DIMTXT
 40
0.18
  9
$DIMCEN
 40
0.09
  9
$DIMTSZ
 40
0.0
  9
$DIMTOL
 70
     0
  9
$DIMLIM
 70
     0
  9
$DIMTIH
 70
     1
  9
$DIMTOH
 70
     1
  9
$DIMSE1
 70
     0
  9
$DIMSE2
 70
     0
  9
$DIMTAD
 70
     0
  9
$DIMZIN
 70
     0
  9
$DIMBLK
  1

  9
$DIMASO
 70
     1
  9
$DIMSHO
 70
     1
  9
$DIMPOST
  1

  9
$DIMAPOST
  1

  9
$DIMALT
 70
     0
  9
$DIMALTD
 70
     2
  9
$DIMALTF
 40
25.4
  9
$DIMLFAC
 40
1.0
  9
$DIMTOFL
 70
     0
  9
$DIMTVP
 40
0.0
  9
$DIMTIX
 70
     0
  9
$DIMSOXD
 70
     0
  9
$DIMSAH
 70
     0
  9
$DIMBLK1
  1

  9
$DIMBLK2
  1

  9
$DIMSTYLE
  2
STANDARD
  9
$DIMCLRD
 70
     0
  9
$DIMCLRE
 70
     0
  9
$DIMCLRT
 70
     0
  9
$DIMTFAC
 40
1.0
  9
$DIMGAP
 40
0.09
  9
$LUNITS
 70
     2
  9
$LUPREC
 70
     4
  9
$AXISMODE
 70
     0
  9
$AXISUNIT
 10
0.0
 20
0.0
  9
$SKETCHINC
 40
0.1
  9
$FILLETRAD
 40
0.0
  9
$AUNITS
 70
     0
  9
$AUPREC
 70
     0
  9
$MENU
  1
acad
  9
$ELEVATION
 40
0.0
  9
$PELEVATION
 40
0.0
  9
$THICKNESS
 40
0.0
  9
$LIMCHECK
 70
     0
  9
$BLIPMODE
 70
     1
  9
$CHAMFERA
 40
0.0
  9
$CHAMFERB
 40
0.0
  9
$SKPOLY
 70
     0
  9
$TDCREATE
 40
0.000000000
  9
$TDUPDATE
 40
0.000000000
  9
$TDINDWG
 40
0.0000000000
  9
$TDUSRTIMER
 40
0.0000000000
  9
$USRTIMER
 70
     1
  9
$ANGBASE
 50
0.0
  9
$ANGDIR
 70
     0
  9
$PDMODE
 70
     0
  9
$PDSIZE
 40
0.0
  9
$PLINEWID
 40
0.0
  9
$COORDS
 70
     0
  9
$SPLFRAME
 70
     0
  9
$SPLINETYPE
 70
     6
  9
$SPLINESEGS
 70
     8
  9
$ATTDIA
 70
     0
  9
$ATTREQ
 70
     1
  9
$HANDLING
 70
     1
  9
$HANDSEED
  5
406
  9
$SURFTAB1
 70
     6
  9
$SURFTAB2
 70
     6
  9
$SURFTYPE
 70
     6
  9
$SURFU
 70
     6
  9
$SURFV
 70
     6
  9
$UCSNAME
  2

  9
$UCSORG
 10
0.0
 20
0.0
 30
0.0
  9
$UCSXDIR
 10
1.0
 20
0.0
 30
0.0
  9
$UCSYDIR
 10
0.0
 20
1.0
 30
0.0
  9
$PUCSNAME
  2

  9
$PUCSORG
 10
0.0
 20
0.0
 30
0.0
  9
$PUCSXDIR
 10
1.0
 20
0.0
 30
0.0
  9
$PUCSYDIR
 10
0.0
 20
1.0
 30
0.0
  9
$USERI1
 70
     0
  9
$USERI2
 70
     0
  9
$USERI3
 70
     0
  9
$USERI4
 70
     0
  9
$USERI5
 70
     0
  9
$USERR1
 40
0.0
  9
$USERR2
 40
0.0
  9
$USERR3
 40
0.0
  9
$USERR4
 40
0.0
  9
$USERR5
 40
0.0
  9
$WORLDVIEW
 70
     1
  9
$SHADEDGE
 70
     3
  9
$SHADEDIF
 70
    70
  9
$TILEMODE
 70
     1
  9
$MAXACTVP
 70
    16
  9
$PINSBASE
 10
0.0
 20
0.0
 30
0.0
  9
$PLIMCHECK
 70
     0
  9
$PEXTMIN
 10
1.000000E+20
 20
1.000000E+20
 30
1.000000E+20
  9
$PEXTMAX
 10
-1.000000E+20
 20
-1.000000E+20
 30
-1.000000E+20
  9
$PLIMMIN
 10
0.0
 20
0.0
  9
$PLIMMAX
 10
12.0
 20
9.0
  9
$UNITMODE
 70
     0
  9
$VISRETAIN
 70
     0
  9
$PLINEGEN
 70
     1
  9
$PSLTSCALE
 70
     0
  9
$TREEDEPTH
 70
  3020
  0
ENDSEC
  0
SECTION
  2
TABLES
  0
TABLE
  2
VPORT
 70
     1
  0
VPORT
  2
*ACTIVE
 70
     0
 10
0.0
 20
0.0
 11
1.0
 21
1.0
 12
6.591288
 22
4.579184
 13
0.0
 23
0.0
 14
1.0
 24
1.0
 15
0.0
 25
0.0
 16
0.0
 26
0.0
 36
1.0
 17
0.0
 27
0.0
 37
0.0
 40
9.158369
 41
0.688564
 42
50.0
 43
0.0
 44
0.0
 50
0.0
 51
0.0
 71
     0
 72
   100
 73
     1
 74
     1
 75
     0
 76
     0
 77
     0
 78
     0
  0
ENDTAB
  0
TABLE
  2
LTYPE
 70
     5
  0
LTYPE
  2
CONTINUOUS
 70
    64
  3
Solid line
 72
    65
 73
     0
 40
0.0
  0
LTYPE
  2
CENTER
 70
    64
  3
Center ____ _ ____ _ ____ _ ____ _ ____ _ ____
 72
    65
 73
     4
 40
50.8
 49
31.75
 49
-6.35
 49
6.35
 49
-6.35
  0
LTYPE
  2
HIDDEN
 70
    64
  3
Hidden __ __ __ __ __ __ __ __ __ __ __ __ __ __
 72
    65
 73
     2
 40
9.525
 49
6.35
 49
-3.175
  0
LTYPE
  2
CENTER2
 70
    64
  3
Center (.5x) ___ _ ___ _ ___ _ ___ _ ___ _ ___
 72
    65
 73
     4
 40
28.575
 49
19.05
 49
-3.175
 49
3.175
 49
-3.175
  0
LTYPE
  2
HIDDEN2
 70
    64
  3
Hidden (.5x) _ _ _ _ _ _ _ _ _ _ _ _ _ _ _ _ _
 72
    65
 73
     2
 40
4.7625
 49
3.175
 49
-1.5875
  0
ENDTAB
  0
TABLE
  2
LAYER
 70
     1
  0
LAYER
  2
0
 70
     0
 62
     7
  6
CONTINUOUS
  0
ENDTAB
  0
TABLE
  2
STYLE
 70
     1
  0
STYLE
  2
STANDARD
 70
     0
 40
0.0
 41
1.0
 50
0.0
 71
     0
 42
0.0
  3
txt
  4

  0
ENDTAB
  0
TABLE
  2
VIEW
 70
     0
  0
ENDTAB
  0
TABLE
  2
UCS
 70
     0
  0
ENDTAB
  0
TABLE
  2
APPID
 70
     1
  0
APPID
  2
ACAD
 70
     0
  0
ENDTAB
  0
TABLE
  2
DIMSTYLE
 70
     1
  0
DIMSTYLE
  2
STANDARD
 70
     0
  3

  4

  5

  6

  7

 40
1.0
 41
0.18
 42
0.0625
 43
0.38
 44
0.18
 45
0.0
 46
0.0
 47
0.0
 48
0.0
 71
     0
 72
     0
 73
     1
 74
     1
 75
     0
 76
     0
 77
     0
 78
     0
140
0.18
141
0.09
142
0.0
143
25.4
144
1.0
145
0.0
146
1.0
147
0.09
170
     0
171
     2
172
     0
173
     0
174
     0
175
     0
176
     0
177
     0
178
     0
  0
ENDTAB
  0
ENDSEC
  0
SECTION
  2
BLOCKS
  0
ENDSEC
  0
SECTION
  2
ENTITIES
  0
CIRCLE
  8
0
  6
CONTINUOUS
 62
     7
  5
246
 10
0.0
 20
0.0
 30
0.0
 40
0.183869
  0
CIRCLE
  8
0
  6
CONTINUOUS
 62
     7
  5
247
 10
0.0
 20
0.0
 30
0.0
 40
0.309055
  0
LINE
  8
0
  6
CONTINUOUS
 62
     7
  5
248
 10
0.232283
 20
0.206833
 30
0.0
 11
0.240501
 21
0.197218
 31
0.0
  0
LINE
  8
0
  6
CONTINUOUS
 62
     7
  5
249
 10
0.240501
 20
0.197218
 30
0.0
 11
0.248397
 21
0.187175
 31
0.0
  0
LINE
  8
0
  6
CONTINUOUS
 62
     7
  5
24A
 10
0.248397
 20
0.187175
 30
0.0
 11
0.255934
 21
0.176729
 31
0.0
  0
LINE
  8
0
  6
CONTINUOUS
 62
     7
  5
24B
 10
0.255934
 20
0.176729
 30
0.0
 11
0.263079
 21
0.165907
 31
0.0
  0
LINE
  8
0
  6
CONTINUOUS
 62
     7
  5
24C
 10
0.263079
 20
0.165907
 30
0.0
 11
0.2698
 21
0.154738
 31
0.0
  0
LINE
  8
0
  6
CONTINUOUS
 62
     7
  5
24D
 10
0.2698
 20
0.154738
 30
0.0
 11
0.276069
 21
0.143254
 31
0.0
  0
LINE
  8
0
  6
CONTINUOUS
 62
     7
  5
24E
 10
0.276069
 20
0.143254
 30
0.0
 11
0.281863
 21
0.131488
 31
0.0
  0
LINE
  8
0
  6
CONTINUOUS
 62
     7
  5
24F
 10
0.281863
 20
0.131488
 30
0.0
 11
0.287161
 21
0.119475
 31
0.0
  0
LINE
  8
0
  6
CONTINUOUS
 62
     7
  5
250
 10
0.287161
 20
0.119475
 30
0.0
 11
0.291948
 21
0.107247
 31
0.0
  0
LINE
  8
0
  6
CONTINUOUS
 62
     7
  5
251
 10
0.291948
 20
0.107247
 30
0.0
 11
0.296212
 21
0.094837
 31
0.0
  0
LINE
  8
0
  6
CONTINUOUS
 62
     7
  5
252
 10
0.296212
 20
0.094837
 30
0.0
 11
0.299943
 21
0.082281
 31
0.0
  0
LINE
  8
0
  6
CONTINUOUS
 62
     7
  5
253
 10
0.299943
 20
0.082281
 30
0.0
 11
0.303132
 21
0.069619
 31
0.0
  0
LINE
  8
0
  6
CONTINUOUS
 62
     7
  5
254
 10
0.303132
 20
0.069619
 30
0.0
 11
0.305776
 21
0.056892
 31
0.0
  0
LINE
  8
0
  6
CONTINUOUS
 62
     7
  5
255
 10
0.305776
 20
0.056892
 30
0.0
 11
0.307875
 21
0.044145
 31
0.0
  0
LINE
  8
0
  6
CONTINUOUS
 62
     7
  5
256
 10
0.307875
 20
0.044145
 30
0.0
 11
0.309432
 21
0.031421
 31
0.0
  0
LINE
  8
0
  6
CONTINUOUS
 62
     7
  5
257
 10
0.309432
 20
0.031421
 30
0.0
 11
0.310457
 21
0.018765
 31
0.0
  0
LINE
  8
0
  6
CONTINUOUS
 62
     7
  5
258
 10
0.310457
 20
0.018765
 30
0.0
 11
0.310961
 21
0.006219
 31
0.0
  0
LINE
  8
0
  6
CONTINUOUS
 62
     7
  5
259
 10
0.310961
 20
0.006219
 30
0.0
 11
0.310961
 21
-0.006219
 31
0.0
  0
LINE
  8
0
  6
CONTINUOUS
 62
     7
  5
25A
 10
0.310961
 20
-0.006219
 30
0.0
 11
0.310457
 21
-0.018765
 31
0.0
  0
LINE
  8
0
  6
CONTINUOUS
 62
     7
  5
25B
 10
0.310457
 20
-0.018765
 30
0.0
 11
0.309432
 21
-0.031421
 31
0.0
  0
LINE
  8
0
  6
CONTINUOUS
 62
     7
  5
25C
 10
0.309432
 20
-0.031421
 30
0.0
 11
0.307875
 21
-0.044145
 31
0.0
  0
LINE
  8
0
  6
CONTINUOUS
 62
     7
  5
25D
 10
0.307875
 20
-0.044145
 30
0.0
 11
0.305776
 21
-0.056892
 31
0.0
  0
LINE
  8
0
  6
CONTINUOUS
 62
     7
  5
25E
 10
0.305776
 20
-0.056892
 30
0.0
 11
0.303132
 21
-0.069619
 31
0.0
  0
LINE
  8
0
  6
CONTINUOUS
 62
     7
  5
25F
 10
0.303132
 20
-0.069619
 30
0.0
 11
0.299943
 21
-0.082281
 31
0.0
  0
LINE
  8
0
  6
CONTINUOUS
 62
     7
  5
260
 10
0.299943
 20
-0.082281
 30
0.0
 11
0.296212
 21
-0.094837
 31
0.0
  0
LINE
  8
0
  6
CONTINUOUS
 62
     7
  5
261
 10
0.296212
 20
-0.094837
 30
0.0
 11
0.291948
 21
-0.107247
 31
0.0
  0
LINE
  8
0
  6
CONTINUOUS
 62
     7
  5
262
 10
0.291948
 20
-0.107247
 30
0.0
 11
0.287161
 21
-0.119475
 31
0.0
  0
LINE
  8
0
  6
CONTINUOUS
 62
     7
  5
263
 10
0.287161
 20
-0.119475
 30
0.0
 11
0.281863
 21
-0.131488
 31
0.0
  0
LINE
  8
0
  6
CONTINUOUS
 62
     7
  5
264
 10
0.281863
 20
-0.131488
 30
0.0
 11
0.276069
 21
-0.143254
 31
0.0
  0
LINE
  8
0
  6
CONTINUOUS
 62
     7
  5
265
 10
0.276069
 20
-0.143254
 30
0.0
 11
0.2698
 21
-0.154738
 31
0.0
  0
LINE
  8
0
  6
CONTINUOUS
 62
     7
  5
266
 10
0.2698
 20
-0.154738
 30
0.0
 11
0.263079
 21
-0.165907
 31
0.0
  0
LINE
  8
0
  6
CONTINUOUS
 62
     7
  5
267
 10
0.263079
 20
-0.165907
 30
0.0
 11
0.255934
 21
-0.176729
 31
0.0
  0
LINE
  8
0
  6
CONTINUOUS
 62
     7
  5
268
 10
0.255934
 20
-0.176729
 30
0.0
 11
0.248397
 21
-0.187175
 31
0.0
  0
LINE
  8
0
  6
CONTINUOUS
 62
     7
  5
269
 10
0.248397
 20
-0.187175
 30
0.0
 11
0.240501
 21
-0.197218
 31
0.0
  0
LINE
  8
0
  6
CONTINUOUS
 62
     7
  5
26A
 10
0.240501
 20
-0.197218
 30
0.0
 11
0.232283
 21
-0.206833
 31
0.0
  0
LINE
  8
0
  6
CONTINUOUS
 62
     7
  5
26B
 10
-0.232283
 20
0.206833
 30
0.0
 11
-0.222469
 21
0.217355
 31
0.0
  0
LINE
  8
0
  6
CONTINUOUS
 62
     7
  5
26C
 10
-0.222469
 20
0.217355
 30
0.0
 11
-0.212249
 21
0.227345
 31
0.0
  0
LINE
  8
0
  6
CONTINUOUS
 62
     7
  5
26D
 10
-0.212249
 20
0.227345
 30
0.0
 11
-0.201418
 21
0.236995
 31
0.0
  0
LINE
  8
0
  6
CONTINUOUS
 62
     7
  5
26E
 10
-0.201418
 20
0.236995
 30
0.0
 11
-0.18999
 21
0.246251
 31
0.0
  0
LINE
  8
0
  6
CONTINUOUS
 62
     7
  5
26F
 10
-0.18999
 20
0.246251
 30
0.0
 11
-0.177999
 21
0.255053
 31
0.0
  0
LINE
  8
0
  6
CONTINUOUS
 62
     7
  5
270
 10
-0.177999
 20
0.255053
 30
0.0
 11
-0.165482
 21
0.263347
 31
0.0
  0
LINE
  8
0
  6
CONTINUOUS
 62
     7
  5
271
 10
-0.165482
 20
0.263347
 30
0.0
 11
-0.152484
 21
0.27108
 31
0.0
  0
LINE
  8
0
  6
CONTINUOUS
 62
     7
  5
272
 10
-0.152484
 20
0.27108
 30
0.0
 11
-0.139051
 21
0.27821
 31
0.0
  0
LINE
  8
0
  6
CONTINUOUS
 62
     7
  5
273
 10
-0.139051
 20
0.27821
 30
0.0
 11
-0.125232
 21
0.284698
 31
0.0
  0
LINE
  8
0
  6
CONTINUOUS
 62
     7
  5
274
 10
-0.125232
 20
0.284698
 30
0.0
 11
-0.111076
 21
0.290513
 31
0.0
  0
LINE
  8
0
  6
CONTINUOUS
 62
     7
  5
275
 10
-0.111076
 20
0.290513
 30
0.0
 11
-0.096632
 21
0.295632
 31
0.0
  0
LINE
  8
0
  6
CONTINUOUS
 62
     7
  5
276
 10
-0.096632
 20
0.295632
 30
0.0
 11
-0.081954
 21
0.300032
 31
0.0
  0
LINE
  8
0
  6
CONTINUOUS
 62
     7
  5
277
 10
-0.081954
 20
0.300032
 30
0.0
 11
-0.067104
 21
0.303698
 31
0.0
  0
LINE
  8
0
  6
CONTINUOUS
 62
     7
  5
278
 10
-0.067104
 20
0.303698
 30
0.0
 11
-0.05215
 21
0.30662
 31
0.0
  0
LINE
  8
0
  6
CONTINUOUS
 62
     7
  5
279
 10
-0.05215
 20
0.30662
 30
0.0
 11
-0.037161
 21
0.308796
 31
0.0
  0
LINE
  8
0
  6
CONTINUOUS
 62
     7
  5
27A
 10
-0.037161
 20
0.308796
 30
0.0
 11
-0.022209
 21
0.31023
 31
0.0
  0
LINE
  8
0
  6
CONTINUOUS
 62
     7
  5
27B
 10
-0.022209
 20
0.31023
 30
0.0
 11
-0.007363
 21
0.310936
 31
0.0
  0
LINE
  8
0
  6
CONTINUOUS
 62
     7
  5
27C
 10
-0.007363
 20
0.310936
 30
0.0
 11
0.007363
 21
0.310936
 31
0.0
  0
LINE
  8
0
  6
CONTINUOUS
 62
     7
  5
27D
 10
0.007363
 20
0.310936
 30
0.0
 11
0.022209
 21
0.31023
 31
0.0
  0
LINE
  8
0
  6
CONTINUOUS
 62
     7
  5
27E
 10
0.022209
 20
0.31023
 30
0.0
 11
0.037161
 21
0.308796
 31
0.0
  0
LINE
  8
0
  6
CONTINUOUS
 62
     7
  5
27F
 10
0.037161
 20
0.308796
 30
0.0
 11
0.05215
 21
0.30662
 31
0.0
  0
LINE
  8
0
  6
CONTINUOUS
 62
     7
  5
280
 10
0.05215
 20
0.30662
 30
0.0
 11
0.067104
 21
0.303698
 31
0.0
  0
LINE
  8
0
  6
CONTINUOUS
 62
     7
  5
281
 10
0.067104
 20
0.303698
 30
0.0
 11
0.081954
 21
0.300032
 31
0.0
  0
LINE
  8
0
  6
CONTINUOUS
 62
     7
  5
282
 10
0.081954
 20
0.300032
 30
0.0
 11
0.096632
 21
0.295632
 31
0.0
  0
LINE
  8
0
  6
CONTINUOUS
 62
     7
  5
283
 10
0.096632
 20
0.295632
 30
0.0
 11
0.111076
 21
0.290513
 31
0.0
  0
LINE
  8
0
  6
CONTINUOUS
 62
     7
  5
284
 10
0.111076
 20
0.290513
 30
0.0
 11
0.125232
 21
0.284698
 31
0.0
  0
LINE
  8
0
  6
CONTINUOUS
 62
     7
  5
285
 10
0.125232
 20
0.284698
 30
0.0
 11
0.139051
 21
0.27821
 31
0.0
  0
LINE
  8
0
  6
CONTINUOUS
 62
     7
  5
286
 10
0.139051
 20
0.27821
 30
0.0
 11
0.152484
 21
0.27108
 31
0.0
  0
LINE
  8
0
  6
CONTINUOUS
 62
     7
  5
287
 10
0.152484
 20
0.27108
 30
0.0
 11
0.165482
 21
0.263347
 31
0.0
  0
LINE
  8
0
  6
CONTINUOUS
 62
     7
  5
288
 10
0.165482
 20
0.263347
 30
0.0
 11
0.177999
 21
0.255053
 31
0.0
  0
LINE
  8
0
  6
CONTINUOUS
 62
     7
  5
289
 10
0.177999
 20
0.255053
 30
0.0
 11
0.18999
 21
0.246251
 31
0.0
  0
LINE
  8
0
  6
CONTINUOUS
 62
     7
  5
28A
 10
0.18999
 20
0.246251
 30
0.0
 11
0.201418
 21
0.236995
 31
0.0
  0
LINE
  8
0
  6
CONTINUOUS
 62
     7
  5
28B
 10
0.201418
 20
0.236995
 30
0.0
 11
0.212249
 21
0.227345
 31
0.0
  0
LINE
  8
0
  6
CONTINUOUS
 62
     7
  5
28C
 10
0.212249
 20
0.227345
 30
0.0
 11
0.222469
 21
0.217355
 31
0.0
  0
LINE
  8
0
  6
CONTINUOUS
 62
     7
  5
28D
 10
0.222469
 20
0.217355
 30
0.0
 11
0.232283
 21
0.206833
 31
0.0
  0
LINE
  8
0
  6
CONTINUOUS
 62
     7
  5
28E
 10
-0.232283
 20
-0.206833
 30
0.0
 11
-0.240501
 21
-0.197218
 31
0.0
  0
LINE
  8
0
  6
CONTINUOUS
 62
     7
  5
28F
 10
-0.240501
 20
-0.197218
 30
0.0
 11
-0.248397
 21
-0.187175
 31
0.0
  0
LINE
  8
0
  6
CONTINUOUS
 62
     7
  5
290
 10
-0.248397
 20
-0.187175
 30
0.0
 11
-0.255934
 21
-0.176729
 31
0.0
  0
LINE
  8
0
  6
CONTINUOUS
 62
     7
  5
291
 10
-0.255934
 20
-0.176729
 30
0.0
 11
-0.263079
 21
-0.165907
 31
0.0
  0
LINE
  8
0
  6
CONTINUOUS
 62
     7
  5
292
 10
-0.263079
 20
-0.165907
 30
0.0
 11
-0.2698
 21
-0.154738
 31
0.0
  0
LINE
  8
0
  6
CONTINUOUS
 62
     7
  5
293
 10
-0.2698
 20
-0.154738
 30
0.0
 11
-0.276069
 21
-0.143254
 31
0.0
  0
LINE
  8
0
  6
CONTINUOUS
 62
     7
  5
294
 10
-0.276069
 20
-0.143254
 30
0.0
 11
-0.281863
 21
-0.131488
 31
0.0
  0
LINE
  8
0
  6
CONTINUOUS
 62
     7
  5
295
 10
-0.281863
 20
-0.131488
 30
0.0
 11
-0.287161
 21
-0.119475
 31
0.0
  0
LINE
  8
0
  6
CONTINUOUS
 62
     7
  5
296
 10
-0.287161
 20
-0.119475
 30
0.0
 11
-0.291948
 21
-0.107247
 31
0.0
  0
LINE
  8
0
  6
CONTINUOUS
 62
     7
  5
297
 10
-0.291948
 20
-0.107247
 30
0.0
 11
-0.296212
 21
-0.094837
 31
0.0
  0
LINE
  8
0
  6
CONTINUOUS
 62
     7
  5
298
 10
-0.296212
 20
-0.094837
 30
0.0
 11
-0.299943
 21
-0.082281
 31
0.0
  0
LINE
  8
0
  6
CONTINUOUS
 62
     7
  5
299
 10
-0.299943
 20
-0.082281
 30
0.0
 11
-0.303132
 21
-0.069619
 31
0.0
  0
LINE
  8
0
  6
CONTINUOUS
 62
     7
  5
29A
 10
-0.303132
 20
-0.069619
 30
0.0
 11
-0.305776
 21
-0.056892
 31
0.0
  0
LINE
  8
0
  6
CONTINUOUS
 62
     7
  5
29B
 10
-0.305776
 20
-0.056892
 30
0.0
 11
-0.307875
 21
-0.044145
 31
0.0
  0
LINE
  8
0
  6
CONTINUOUS
 62
     7
  5
29C
 10
-0.307875
 20
-0.044145
 30
0.0
 11
-0.309432
 21
-0.031421
 31
0.0
  0
LINE
  8
0
  6
CONTINUOUS
 62
     7
  5
29D
 10
-0.309432
 20
-0.031421
 30
0.0
 11
-0.310457
 21
-0.018765
 31
0.0
  0
LINE
  8
0
  6
CONTINUOUS
 62
     7
  5
29E
 10
-0.310457
 20
-0.018765
 30
0.0
 11
-0.310961
 21
-0.006219
 31
0.0
  0
LINE
  8
0
  6
CONTINUOUS
 62
     7
  5
29F
 10
-0.310961
 20
-0.006219
 30
0.0
 11
-0.310961
 21
0.006219
 31
0.0
  0
LINE
  8
0
  6
CONTINUOUS
 62
     7
  5
2A0
 10
-0.310961
 20
0.006219
 30
0.0
 11
-0.310457
 21
0.018765
 31
0.0
  0
LINE
  8
0
  6
CONTINUOUS
 62
     7
  5
2A1
 10
-0.310457
 20
0.018765
 30
0.0
 11
-0.309432
 21
0.031421
 31
0.0
  0
LINE
  8
0
  6
CONTINUOUS
 62
     7
  5
2A2
 10
-0.309432
 20
0.031421
 30
0.0
 11
-0.307875
 21
0.044145
 31
0.0
  0
LINE
  8
0
  6
CONTINUOUS
 62
     7
  5
2A3
 10
-0.307875
 20
0.044145
 30
0.0
 11
-0.305776
 21
0.056892
 31
0.0
  0
LINE
  8
0
  6
CONTINUOUS
 62
     7
  5
2A4
 10
-0.305776
 20
0.056892
 30
0.0
 11
-0.303132
 21
0.069619
 31
0.0
  0
LINE
  8
0
  6
CONTINUOUS
 62
     7
  5
2A5
 10
-0.303132
 20
0.069619
 30
0.0
 11
-0.299943
 21
0.082281
 31
0.0
  0
LINE
  8
0
  6
CONTINUOUS
 62
     7
  5
2A6
 10
-0.299943
 20
0.082281
 30
0.0
 11
-0.296212
 21
0.094837
 31
0.0
  0
LINE
  8
0
  6
CONTINUOUS
 62
     7
  5
2A7
 10
-0.296212
 20
0.094837
 30
0.0
 11
-0.291948
 21
0.107247
 31
0.0
  0
LINE
  8
0
  6
CONTINUOUS
 62
     7
  5
2A8
 10
-0.291948
 20
0.107247
 30
0.0
 11
-0.287161
 21
0.119475
 31
0.0
  0
LINE
  8
0
  6
CONTINUOUS
 62
     7
  5
2A9
 10
-0.287161
 20
0.119475
 30
0.0
 11
-0.281863
 21
0.131488
 31
0.0
  0
LINE
  8
0
  6
CONTINUOUS
 62
     7
  5
2AA
 10
-0.281863
 20
0.131488
 30
0.0
 11
-0.276069
 21
0.143254
 31
0.0
  0
LINE
  8
0
  6
CONTINUOUS
 62
     7
  5
2AB
 10
-0.276069
 20
0.143254
 30
0.0
 11
-0.2698
 21
0.154738
 31
0.0
  0
LINE
  8
0
  6
CONTINUOUS
 62
     7
  5
2AC
 10
-0.2698
 20
0.154738
 30
0.0
 11
-0.263079
 21
0.165907
 31
0.0
  0
LINE
  8
0
  6
CONTINUOUS
 62
     7
  5
2AD
 10
-0.263079
 20
0.165907
 30
0.0
 11
-0.255934
 21
0.176729
 31
0.0
  0
LINE
  8
0
  6
CONTINUOUS
 62
     7
  5
2AE
 10
-0.255934
 20
0.176729
 30
0.0
 11
-0.248397
 21
0.187175
 31
0.0
  0
LINE
  8
0
  6
CONTINUOUS
 62
     7
  5
2AF
 10
-0.248397
 20
0.187175
 30
0.0
 11
-0.240501
 21
0.197218
 31
0.0
  0
LINE
  8
0
  6
CONTINUOUS
 62
     7
  5
2B0
 10
-0.240501
 20
0.197218
 30
0.0
 11
-0.232283
 21
0.206833
 31
0.0
  0
LINE
  8
0
  6
CONTINUOUS
 62
     7
  5
2B1
 10
0.232283
 20
-0.206833
 30
0.0
 11
0.222469
 21
-0.217355
 31
0.0
  0
LINE
  8
0
  6
CONTINUOUS
 62
     7
  5
2B2
 10
0.222469
 20
-0.217355
 30
0.0
 11
0.212249
 21
-0.227345
 31
0.0
  0
LINE
  8
0
  6
CONTINUOUS
 62
     7
  5
2B3
 10
0.212249
 20
-0.227345
 30
0.0
 11
0.201418
 21
-0.236995
 31
0.0
  0
LINE
  8
0
  6
CONTINUOUS
 62
     7
  5
2B4
 10
0.201418
 20
-0.236995
 30
0.0
 11
0.18999
 21
-0.246251
 31
0.0
  0
LINE
  8
0
  6
CONTINUOUS
 62
     7
  5
2B5
 10
0.18999
 20
-0.246251
 30
0.0
 11
0.177999
 21
-0.255053
 31
0.0
  0
LINE
  8
0
  6
CONTINUOUS
 62
     7
  5
2B6
 10
0.177999
 20
-0.255053
 30
0.0
 11
0.165482
 21
-0.263347
 31
0.0
  0
LINE
  8
0
  6
CONTINUOUS
 62
     7
  5
2B7
 10
0.165482
 20
-0.263347
 30
0.0
 11
0.152484
 21
-0.27108
 31
0.0
  0
LINE
  8
0
  6
CONTINUOUS
 62
     7
  5
2B8
 10
0.152484
 20
-0.27108
 30
0.0
 11
0.139051
 21
-0.27821
 31
0.0
  0
LINE
  8
0
  6
CONTINUOUS
 62
     7
  5
2B9
 10
0.139051
 20
-0.27821
 30
0.0
 11
0.125232
 21
-0.284698
 31
0.0
  0
LINE
  8
0
  6
CONTINUOUS
 62
     7
  5
2BA
 10
0.125232
 20
-0.284698
 30
0.0
 11
0.111076
 21
-0.290513
 31
0.0
  0
LINE
  8
0
  6
CONTINUOUS
 62
     7
  5
2BB
 10
0.111076
 20
-0.290513
 30
0.0
 11
0.096632
 21
-0.295632
 31
0.0
  0
LINE
  8
0
  6
CONTINUOUS
 62
     7
  5
2BC
 10
0.096632
 20
-0.295632
 30
0.0
 11
0.081954
 21
-0.300032
 31
0.0
  0
LINE
  8
0
  6
CONTINUOUS
 62
     7
  5
2BD
 10
0.081954
 20
-0.300032
 30
0.0
 11
0.067104
 21
-0.303698
 31
0.0
  0
LINE
  8
0
  6
CONTINUOUS
 62
     7
  5
2BE
 10
0.067104
 20
-0.303698
 30
0.0
 11
0.05215
 21
-0.30662
 31
0.0
  0
LINE
  8
0
  6
CONTINUOUS
 62
     7
  5
2BF
 10
0.05215
 20
-0.30662
 30
0.0
 11
0.037161
 21
-0.308796
 31
0.0
  0
LINE
  8
0
  6
CONTINUOUS
 62
     7
  5
2C0
 10
0.037161
 20
-0.308796
 30
0.0
 11
0.022209
 21
-0.31023
 31
0.0
  0
LINE
  8
0
  6
CONTINUOUS
 62
     7
  5
2C1
 10
0.022209
 20
-0.31023
 30
0.0
 11
0.007363
 21
-0.310936
 31
0.0
  0
LINE
  8
0
  6
CONTINUOUS
 62
     7
  5
2C2
 10
0.007363
 20
-0.310936
 30
0.0
 11
-0.007363
 21
-0.310936
 31
0.0
  0
LINE
  8
0
  6
CONTINUOUS
 62
     7
  5
2C3
 10
-0.007363
 20
-0.310936
 30
0.0
 11
-0.022209
 21
-0.31023
 31
0.0
  0
LINE
  8
0
  6
CONTINUOUS
 62
     7
  5
2C4
 10
-0.022209
 20
-0.31023
 30
0.0
 11
-0.037161
 21
-0.308796
 31
0.0
  0
LINE
  8
0
  6
CONTINUOUS
 62
     7
  5
2C5
 10
-0.037161
 20
-0.308796
 30
0.0
 11
-0.05215
 21
-0.30662
 31
0.0
  0
LINE
  8
0
  6
CONTINUOUS
 62
     7
  5
2C6
 10
-0.05215
 20
-0.30662
 30
0.0
 11
-0.067104
 21
-0.303698
 31
0.0
  0
LINE
  8
0
  6
CONTINUOUS
 62
     7
  5
2C7
 10
-0.067104
 20
-0.303698
 30
0.0
 11
-0.081954
 21
-0.300032
 31
0.0
  0
LINE
  8
0
  6
CONTINUOUS
 62
     7
  5
2C8
 10
-0.081954
 20
-0.300032
 30
0.0
 11
-0.096632
 21
-0.295632
 31
0.0
  0
LINE
  8
0
  6
CONTINUOUS
 62
     7
  5
2C9
 10
-0.096632
 20
-0.295632
 30
0.0
 11
-0.111076
 21
-0.290513
 31
0.0
  0
LINE
  8
0
  6
CONTINUOUS
 62
     7
  5
2CA
 10
-0.111076
 20
-0.290513
 30
0.0
 11
-0.125232
 21
-0.284698
 31
0.0
  0
LINE
  8
0
  6
CONTINUOUS
 62
     7
  5
2CB
 10
-0.125232
 20
-0.284698
 30
0.0
 11
-0.139051
 21
-0.27821
 31
0.0
  0
LINE
  8
0
  6
CONTINUOUS
 62
     7
  5
2CC
 10
-0.139051
 20
-0.27821
 30
0.0
 11
-0.152484
 21
-0.27108
 31
0.0
  0
LINE
  8
0
  6
CONTINUOUS
 62
     7
  5
2CD
 10
-0.152484
 20
-0.27108
 30
0.0
 11
-0.165482
 21
-0.263347
 31
0.0
  0
LINE
  8
0
  6
CONTINUOUS
 62
     7
  5
2CE
 10
-0.165482
 20
-0.263347
 30
0.0
 11
-0.177999
 21
-0.255053
 31
0.0
  0
LINE
  8
0
  6
CONTINUOUS
 62
     7
  5
2CF
 10
-0.177999
 20
-0.255053
 30
0.0
 11
-0.18999
 21
-0.246251
 31
0.0
  0
LINE
  8
0
  6
CONTINUOUS
 62
     7
  5
2D0
 10
-0.18999
 20
-0.246251
 30
0.0
 11
-0.201418
 21
-0.236995
 31
0.0
  0
LINE
  8
0
  6
CONTINUOUS
 62
     7
  5
2D1
 10
-0.201418
 20
-0.236995
 30
0.0
 11
-0.212249
 21
-0.227345
 31
0.0
  0
LINE
  8
0
  6
CONTINUOUS
 62
     7
  5
2D2
 10
-0.212249
 20
-0.227345
 30
0.0
 11
-0.222469
 21
-0.217355
 31
0.0
  0
LINE
  8
0
  6
CONTINUOUS
 62
     7
  5
2D3
 10
-0.222469
 20
-0.217355
 30
0.0
 11
-0.232283
 21
-0.206833
 31
0.0
  0
LINE
  8
0
  6
CONTINUOUS
 62
     7
  5
2D4
 10
-0.232283
 20
0.264959
 30
0.0
 11
-0.232283
 21
0.206833
 31
0.0
  0
LINE
  8
0
  6
CONTINUOUS
 62
     7
  5
2D5
 10
-0.352362
 20
0.0
 30
0.0
 11
-0.352265
 21
0.008295
 31
0.0
  0
LINE
  8
0
  6
CONTINUOUS
 62
     7
  5
2D6
 10
-0.352265
 20
0.008295
 30
0.0
 11
-0.351969
 21
0.016648
 31
0.0
  0
LINE
  8
0
  6
CONTINUOUS
 62
     7
  5
2D7
 10
-0.351969
 20
0.016648
 30
0.0
 11
-0.351471
 21
0.025049
 31
0.0
  0
LINE
  8
0
  6
CONTINUOUS
 62
     7
  5
2D8
 10
-0.351471
 20
0.025049
 30
0.0
 11
-0.350767
 21
0.033488
 31
0.0
  0
LINE
  8
0
  6
CONTINUOUS
 62
     7
  5
2D9
 10
-0.350767
 20
0.033488
 30
0.0
 11
-0.349855
 21
0.041956
 31
0.0
  0
LINE
  8
0
  6
CONTINUOUS
 62
     7
  5
2DA
 10
-0.349855
 20
0.041956
 30
0.0
 11
-0.348733
 21
0.050442
 31
0.0
  0
LINE
  8
0
  6
CONTINUOUS
 62
     7
  5
2DB
 10
-0.348733
 20
0.050442
 30
0.0
 11
-0.347398
 21
0.058937
 31
0.0
  0
LINE
  8
0
  6
CONTINUOUS
 62
     7
  5
2DC
 10
-0.347398
 20
0.058937
 30
0.0
 11
-0.34585
 21
0.067429
 31
0.0
  0
LINE
  8
0
  6
CONTINUOUS
 62
     7
  5
2DD
 10
-0.34585
 20
0.067429
 30
0.0
 11
-0.344088
 21
0.07591
 31
0.0
  0
LINE
  8
0
  6
CONTINUOUS
 62
     7
  5
2DE
 10
-0.344088
 20
0.07591
 30
0.0
 11
-0.342113
 21
0.084368
 31
0.0
  0
LINE
  8
0
  6
CONTINUOUS
 62
     7
  5
2DF
 10
-0.342113
 20
0.084368
 30
0.0
 11
-0.339924
 21
0.092795
 31
0.0
  0
LINE
  8
0
  6
CONTINUOUS
 62
     7
  5
2E0
 10
-0.339924
 20
0.092795
 30
0.0
 11
-0.337523
 21
0.10118
 31
0.0
  0
LINE
  8
0
  6
CONTINUOUS
 62
     7
  5
2E1
 10
-0.337523
 20
0.10118
 30
0.0
 11
-0.334912
 21
0.109514
 31
0.0
  0
LINE
  8
0
  6
CONTINUOUS
 62
     7
  5
2E2
 10
-0.334912
 20
0.109514
 30
0.0
 11
-0.332092
 21
0.117789
 31
0.0
  0
LINE
  8
0
  6
CONTINUOUS
 62
     7
  5
2E3
 10
-0.332092
 20
0.117789
 30
0.0
 11
-0.329066
 21
0.125995
 31
0.0
  0
LINE
  8
0
  6
CONTINUOUS
 62
     7
  5
2E4
 10
-0.329066
 20
0.125995
 30
0.0
 11
-0.325837
 21
0.134126
 31
0.0
  0
LINE
  8
0
  6
CONTINUOUS
 62
     7
  5
2E5
 10
-0.325837
 20
0.134126
 30
0.0
 11
-0.322407
 21
0.142172
 31
0.0
  0
LINE
  8
0
  6
CONTINUOUS
 62
     7
  5
2E6
 10
-0.322407
 20
0.142172
 30
0.0
 11
-0.31878
 21
0.150127
 31
0.0
  0
LINE
  8
0
  6
CONTINUOUS
 62
     7
  5
2E7
 10
-0.31878
 20
0.150127
 30
0.0
 11
-0.31496
 21
0.157984
 31
0.0
  0
LINE
  8
0
  6
CONTINUOUS
 62
     7
  5
2E8
 10
-0.31496
 20
0.157984
 30
0.0
 11
-0.310952
 21
0.165735
 31
0.0
  0
LINE
  8
0
  6
CONTINUOUS
 62
     7
  5
2E9
 10
-0.310952
 20
0.165735
 30
0.0
 11
-0.306759
 21
0.173372
 31
0.0
  0
LINE
  8
0
  6
CONTINUOUS
 62
     7
  5
2EA
 10
-0.306759
 20
0.173372
 30
0.0
 11
-0.302388
 21
0.180888
 31
0.0
  0
LINE
  8
0
  6
CONTINUOUS
 62
     7
  5
2EB
 10
-0.302388
 20
0.180888
 30
0.0
 11
-0.297845
 21
0.188275
 31
0.0
  0
LINE
  8
0
  6
CONTINUOUS
 62
     7
  5
2EC
 10
-0.297845
 20
0.188275
 30
0.0
 11
-0.293136
 21
0.195526
 31
0.0
  0
LINE
  8
0
  6
CONTINUOUS
 62
     7
  5
2ED
 10
-0.293136
 20
0.195526
 30
0.0
 11
-0.288268
 21
0.202634
 31
0.0
  0
LINE
  8
0
  6
CONTINUOUS
 62
     7
  5
2EE
 10
-0.288268
 20
0.202634
 30
0.0
 11
-0.283249
 21
0.209593
 31
0.0
  0
LINE
  8
0
  6
CONTINUOUS
 62
     7
  5
2EF
 10
-0.283249
 20
0.209593
 30
0.0
 11
-0.278086
 21
0.216396
 31
0.0
  0
LINE
  8
0
  6
CONTINUOUS
 62
     7
  5
2F0
 10
-0.278086
 20
0.216396
 30
0.0
 11
-0.272788
 21
0.223037
 31
0.0
  0
LINE
  8
0
  6
CONTINUOUS
 62
     7
  5
2F1
 10
-0.272788
 20
0.223037
 30
0.0
 11
-0.267364
 21
0.229512
 31
0.0
  0
LINE
  8
0
  6
CONTINUOUS
 62
     7
  5
2F2
 10
-0.267364
 20
0.229512
 30
0.0
 11
-0.261823
 21
0.235814
 31
0.0
  0
LINE
  8
0
  6
CONTINUOUS
 62
     7
  5
2F3
 10
-0.261823
 20
0.235814
 30
0.0
 11
-0.256173
 21
0.241939
 31
0.0
  0
LINE
  8
0
  6
CONTINUOUS
 62
     7
  5
2F4
 10
-0.256173
 20
0.241939
 30
0.0
 11
-0.250424
 21
0.247885
 31
0.0
  0
LINE
  8
0
  6
CONTINUOUS
 62
     7
  5
2F5
 10
-0.250424
 20
0.247885
 30
0.0
 11
-0.244556
 21
0.253676
 31
0.0
  0
LINE
  8
0
  6
CONTINUOUS
 62
     7
  5
2F6
 10
-0.244556
 20
0.253676
 30
0.0
 11
-0.238509
 21
0.25937
 31
0.0
  0
LINE
  8
0
  6
CONTINUOUS
 62
     7
  5
2F7
 10
-0.238509
 20
0.25937
 30
0.0
 11
-0.232283
 21
0.264959
 31
0.0
  0
LINE
  8
0
  6
CONTINUOUS
 62
     7
  5
2F8
 10
-0.232283
 20
-0.264959
 30
0.0
 11
-0.238509
 21
-0.25937
 31
0.0
  0
LINE
  8
0
  6
CONTINUOUS
 62
     7
  5
2F9
 10
-0.238509
 20
-0.25937
 30
0.0
 11
-0.244556
 21
-0.253676
 31
0.0
  0
LINE
  8
0
  6
CONTINUOUS
 62
     7
  5
2FA
 10
-0.244556
 20
-0.253676
 30
0.0
 11
-0.250424
 21
-0.247885
 31
0.0
  0
LINE
  8
0
  6
CONTINUOUS
 62
     7
  5
2FB
 10
-0.250424
 20
-0.247885
 30
0.0
 11
-0.256173
 21
-0.241939
 31
0.0
  0
LINE
  8
0
  6
CONTINUOUS
 62
     7
  5
2FC
 10
-0.256173
 20
-0.241939
 30
0.0
 11
-0.261823
 21
-0.235814
 31
0.0
  0
LINE
  8
0
  6
CONTINUOUS
 62
     7
  5
2FD
 10
-0.261823
 20
-0.235814
 30
0.0
 11
-0.267364
 21
-0.229512
 31
0.0
  0
LINE
  8
0
  6
CONTINUOUS
 62
     7
  5
2FE
 10
-0.267364
 20
-0.229512
 30
0.0
 11
-0.272788
 21
-0.223037
 31
0.0
  0
LINE
  8
0
  6
CONTINUOUS
 62
     7
  5
2FF
 10
-0.272788
 20
-0.223037
 30
0.0
 11
-0.278086
 21
-0.216396
 31
0.0
  0
LINE
  8
0
  6
CONTINUOUS
 62
     7
  5
300
 10
-0.278086
 20
-0.216396
 30
0.0
 11
-0.283249
 21
-0.209593
 31
0.0
  0
LINE
  8
0
  6
CONTINUOUS
 62
     7
  5
301
 10
-0.283249
 20
-0.209593
 30
0.0
 11
-0.288268
 21
-0.202634
 31
0.0
  0
LINE
  8
0
  6
CONTINUOUS
 62
     7
  5
302
 10
-0.288268
 20
-0.202634
 30
0.0
 11
-0.293136
 21
-0.195526
 31
0.0
  0
LINE
  8
0
  6
CONTINUOUS
 62
     7
  5
303
 10
-0.293136
 20
-0.195526
 30
0.0
 11
-0.297845
 21
-0.188275
 31
0.0
  0
LINE
  8
0
  6
CONTINUOUS
 62
     7
  5
304
 10
-0.297845
 20
-0.188275
 30
0.0
 11
-0.302388
 21
-0.180888
 31
0.0
  0
LINE
  8
0
  6
CONTINUOUS
 62
     7
  5
305
 10
-0.302388
 20
-0.180888
 30
0.0
 11
-0.306759
 21
-0.173372
 31
0.0
  0
LINE
  8
0
  6
CONTINUOUS
 62
     7
  5
306
 10
-0.306759
 20
-0.173372
 30
0.0
 11
-0.310952
 21
-0.165735
 31
0.0
  0
LINE
  8
0
  6
CONTINUOUS
 62
     7
  5
307
 10
-0.310952
 20
-0.165735
 30
0.0
 11
-0.31496
 21
-0.157984
 31
0.0
  0
LINE
  8
0
  6
CONTINUOUS
 62
     7
  5
308
 10
-0.31496
 20
-0.157984
 30
0.0
 11
-0.31878
 21
-0.150127
 31
0.0
  0
LINE
  8
0
  6
CONTINUOUS
 62
     7
  5
309
 10
-0.31878
 20
-0.150127
 30
0.0
 11
-0.322407
 21
-0.142172
 31
0.0
  0
LINE
  8
0
  6
CONTINUOUS
 62
     7
  5
30A
 10
-0.322407
 20
-0.142172
 30
0.0
 11
-0.325837
 21
-0.134126
 31
0.0
  0
LINE
  8
0
  6
CONTINUOUS
 62
     7
  5
30B
 10
-0.325837
 20
-0.134126
 30
0.0
 11
-0.329066
 21
-0.125995
 31
0.0
  0
LINE
  8
0
  6
CONTINUOUS
 62
     7
  5
30C
 10
-0.329066
 20
-0.125995
 30
0.0
 11
-0.332092
 21
-0.117789
 31
0.0
  0
LINE
  8
0
  6
CONTINUOUS
 62
     7
  5
30D
 10
-0.332092
 20
-0.117789
 30
0.0
 11
-0.334912
 21
-0.109514
 31
0.0
  0
LINE
  8
0
  6
CONTINUOUS
 62
     7
  5
30E
 10
-0.334912
 20
-0.109514
 30
0.0
 11
-0.337523
 21
-0.10118
 31
0.0
  0
LINE
  8
0
  6
CONTINUOUS
 62
     7
  5
30F
 10
-0.337523
 20
-0.10118
 30
0.0
 11
-0.339924
 21
-0.092795
 31
0.0
  0
LINE
  8
0
  6
CONTINUOUS
 62
     7
  5
310
 10
-0.339924
 20
-0.092795
 30
0.0
 11
-0.342113
 21
-0.084368
 31
0.0
  0
LINE
  8
0
  6
CONTINUOUS
 62
     7
  5
311
 10
-0.342113
 20
-0.084368
 30
0.0
 11
-0.344088
 21
-0.07591
 31
0.0
  0
LINE
  8
0
  6
CONTINUOUS
 62
     7
  5
312
 10
-0.344088
 20
-0.07591
 30
0.0
 11
-0.34585
 21
-0.067429
 31
0.0
  0
LINE
  8
0
  6
CONTINUOUS
 62
     7
  5
313
 10
-0.34585
 20
-0.067429
 30
0.0
 11
-0.347398
 21
-0.058937
 31
0.0
  0
LINE
  8
0
  6
CONTINUOUS
 62
     7
  5
314
 10
-0.347398
 20
-0.058937
 30
0.0
 11
-0.348733
 21
-0.050442
 31
0.0
  0
LINE
  8
0
  6
CONTINUOUS
 62
     7
  5
315
 10
-0.348733
 20
-0.050442
 30
0.0
 11
-0.349855
 21
-0.041956
 31
0.0
  0
LINE
  8
0
  6
CONTINUOUS
 62
     7
  5
316
 10
-0.349855
 20
-0.041956
 30
0.0
 11
-0.350767
 21
-0.033488
 31
0.0
  0
LINE
  8
0
  6
CONTINUOUS
 62
     7
  5
317
 10
-0.350767
 20
-0.033488
 30
0.0
 11
-0.351471
 21
-0.025049
 31
0.0
  0
LINE
  8
0
  6
CONTINUOUS
 62
     7
  5
318
 10
-0.351471
 20
-0.025049
 30
0.0
 11
-0.351969
 21
-0.016648
 31
0.0
  0
LINE
  8
0
  6
CONTINUOUS
 62
     7
  5
319
 10
-0.351969
 20
-0.016648
 30
0.0
 11
-0.352265
 21
-0.008295
 31
0.0
  0
LINE
  8
0
  6
CONTINUOUS
 62
     7
  5
31A
 10
-0.352265
 20
-0.008295
 30
0.0
 11
-0.352362
 21
0.0
 31
0.0
  0
LINE
  8
0
  6
CONTINUOUS
 62
     7
  5
31B
 10
-0.232283
 20
-0.206833
 30
0.0
 11
-0.232283
 21
-0.264959
 31
0.0
  0
LINE
  8
0
  6
CONTINUOUS
 62
     7
  5
31C
 10
0.0
 20
0.352362
 30
0.0
 11
0.007098
 21
0.352291
 31
0.0
  0
LINE
  8
0
  6
CONTINUOUS
 62
     7
  5
31D
 10
0.007098
 20
0.352291
 30
0.0
 11
0.014229
 21
0.352075
 31
0.0
  0
LINE
  8
0
  6
CONTINUOUS
 62
     7
  5
31E
 10
0.014229
 20
0.352075
 30
0.0
 11
0.021389
 21
0.351712
 31
0.0
  0
LINE
  8
0
  6
CONTINUOUS
 62
     7
  5
31F
 10
0.021389
 20
0.351712
 30
0.0
 11
0.028571
 21
0.351202
 31
0.0
  0
LINE
  8
0
  6
CONTINUOUS
 62
     7
  5
320
 10
0.028571
 20
0.351202
 30
0.0
 11
0.03577
 21
0.350542
 31
0.0
  0
LINE
  8
0
  6
CONTINUOUS
 62
     7
  5
321
 10
0.03577
 20
0.350542
 30
0.0
 11
0.04298
 21
0.349731
 31
0.0
  0
LINE
  8
0
  6
CONTINUOUS
 62
     7
  5
322
 10
0.04298
 20
0.349731
 30
0.0
 11
0.050195
 21
0.348769
 31
0.0
  0
LINE
  8
0
  6
CONTINUOUS
 62
     7
  5
323
 10
0.050195
 20
0.348769
 30
0.0
 11
0.057408
 21
0.347654
 31
0.0
  0
LINE
  8
0
  6
CONTINUOUS
 62
     7
  5
324
 10
0.057408
 20
0.347654
 30
0.0
 11
0.064614
 21
0.346387
 31
0.0
  0
LINE
  8
0
  6
CONTINUOUS
 62
     7
  5
325
 10
0.064614
 20
0.346387
 30
0.0
 11
0.071806
 21
0.344968
 31
0.0
  0
LINE
  8
0
  6
CONTINUOUS
 62
     7
  5
326
 10
0.071806
 20
0.344968
 30
0.0
 11
0.078978
 21
0.343397
 31
0.0
  0
LINE
  8
0
  6
CONTINUOUS
 62
     7
  5
327
 10
0.078978
 20
0.343397
 30
0.0
 11
0.086124
 21
0.341675
 31
0.0
  0
LINE
  8
0
  6
CONTINUOUS
 62
     7
  5
328
 10
0.086124
 20
0.341675
 30
0.0
 11
0.093238
 21
0.339802
 31
0.0
  0
LINE
  8
0
  6
CONTINUOUS
 62
     7
  5
329
 10
0.093238
 20
0.339802
 30
0.0
 11
0.100316
 21
0.337781
 31
0.0
  0
LINE
  8
0
  6
CONTINUOUS
 62
     7
  5
32A
 10
0.100316
 20
0.337781
 30
0.0
 11
0.10735
 21
0.335611
 31
0.0
  0
LINE
  8
0
  6
CONTINUOUS
 62
     7
  5
32B
 10
0.10735
 20
0.335611
 30
0.0
 11
0.114337
 21
0.333296
 31
0.0
  0
LINE
  8
0
  6
CONTINUOUS
 62
     7
  5
32C
 10
0.114337
 20
0.333296
 30
0.0
 11
0.12127
 21
0.330836
 31
0.0
  0
LINE
  8
0
  6
CONTINUOUS
 62
     7
  5
32D
 10
0.12127
 20
0.330836
 30
0.0
 11
0.128146
 21
0.328234
 31
0.0
  0
LINE
  8
0
  6
CONTINUOUS
 62
     7
  5
32E
 10
0.128146
 20
0.328234
 30
0.0
 11
0.13496
 21
0.325492
 31
0.0
  0
LINE
  8
0
  6
CONTINUOUS
 62
     7
  5
32F
 10
0.13496
 20
0.325492
 30
0.0
 11
0.141709
 21
0.322611
 31
0.0
  0
LINE
  8
0
  6
CONTINUOUS
 62
     7
  5
330
 10
0.141709
 20
0.322611
 30
0.0
 11
0.148387
 21
0.319594
 31
0.0
  0
LINE
  8
0
  6
CONTINUOUS
 62
     7
  5
331
 10
0.148387
 20
0.319594
 30
0.0
 11
0.154992
 21
0.316444
 31
0.0
  0
LINE
  8
0
  6
CONTINUOUS
 62
     7
  5
332
 10
0.154992
 20
0.316444
 30
0.0
 11
0.161519
 21
0.313162
 31
0.0
  0
LINE
  8
0
  6
CONTINUOUS
 62
     7
  5
333
 10
0.161519
 20
0.313162
 30
0.0
 11
0.167963
 21
0.309754
 31
0.0
  0
LINE
  8
0
  6
CONTINUOUS
 62
     7
  5
334
 10
0.167963
 20
0.309754
 30
0.0
 11
0.174321
 21
0.306221
 31
0.0
  0
LINE
  8
0
  6
CONTINUOUS
 62
     7
  5
335
 10
0.174321
 20
0.306221
 30
0.0
 11
0.180587
 21
0.302568
 31
0.0
  0
LINE
  8
0
  6
CONTINUOUS
 62
     7
  5
336
 10
0.180587
 20
0.302568
 30
0.0
 11
0.186759
 21
0.298798
 31
0.0
  0
LINE
  8
0
  6
CONTINUOUS
 62
     7
  5
337
 10
0.186759
 20
0.298798
 30
0.0
 11
0.192832
 21
0.294915
 31
0.0
  0
LINE
  8
0
  6
CONTINUOUS
 62
     7
  5
338
 10
0.192832
 20
0.294915
 30
0.0
 11
0.198802
 21
0.290924
 31
0.0
  0
LINE
  8
0
  6
CONTINUOUS
 62
     7
  5
339
 10
0.198802
 20
0.290924
 30
0.0
 11
0.204666
 21
0.286829
 31
0.0
  0
LINE
  8
0
  6
CONTINUOUS
 62
     7
  5
33A
 10
0.204666
 20
0.286829
 30
0.0
 11
0.210421
 21
0.282635
 31
0.0
  0
LINE
  8
0
  6
CONTINUOUS
 62
     7
  5
33B
 10
0.210421
 20
0.282635
 30
0.0
 11
0.216062
 21
0.278345
 31
0.0
  0
LINE
  8
0
  6
CONTINUOUS
 62
     7
  5
33C
 10
0.216062
 20
0.278345
 30
0.0
 11
0.221589
 21
0.273966
 31
0.0
  0
LINE
  8
0
  6
CONTINUOUS
 62
     7
  5
33D
 10
0.221589
 20
0.273966
 30
0.0
 11
0.226996
 21
0.269503
 31
0.0
  0
LINE
  8
0
  6
CONTINUOUS
 62
     7
  5
33E
 10
0.226996
 20
0.269503
 30
0.0
 11
0.232283
 21
0.264959
 31
0.0
  0
LINE
  8
0
  6
CONTINUOUS
 62
     7
  5
33F
 10
-0.232283
 20
0.264959
 30
0.0
 11
-0.226996
 21
0.269503
 31
0.0
  0
LINE
  8
0
  6
CONTINUOUS
 62
     7
  5
340
 10
-0.226996
 20
0.269503
 30
0.0
 11
-0.221589
 21
0.273966
 31
0.0
  0
LINE
  8
0
  6
CONTINUOUS
 62
     7
  5
341
 10
-0.221589
 20
0.273966
 30
0.0
 11
-0.216062
 21
0.278345
 31
0.0
  0
LINE
  8
0
  6
CONTINUOUS
 62
     7
  5
342
 10
-0.216062
 20
0.278345
 30
0.0
 11
-0.210421
 21
0.282635
 31
0.0
  0
LINE
  8
0
  6
CONTINUOUS
 62
     7
  5
343
 10
-0.210421
 20
0.282635
 30
0.0
 11
-0.204666
 21
0.286829
 31
0.0
  0
LINE
  8
0
  6
CONTINUOUS
 62
     7
  5
344
 10
-0.204666
 20
0.286829
 30
0.0
 11
-0.198802
 21
0.290924
 31
0.0
  0
LINE
  8
0
  6
CONTINUOUS
 62
     7
  5
345
 10
-0.198802
 20
0.290924
 30
0.0
 11
-0.192832
 21
0.294915
 31
0.0
  0
LINE
  8
0
  6
CONTINUOUS
 62
     7
  5
346
 10
-0.192832
 20
0.294915
 30
0.0
 11
-0.186759
 21
0.298798
 31
0.0
  0
LINE
  8
0
  6
CONTINUOUS
 62
     7
  5
347
 10
-0.186759
 20
0.298798
 30
0.0
 11
-0.180587
 21
0.302568
 31
0.0
  0
LINE
  8
0
  6
CONTINUOUS
 62
     7
  5
348
 10
-0.180587
 20
0.302568
 30
0.0
 11
-0.174321
 21
0.306221
 31
0.0
  0
LINE
  8
0
  6
CONTINUOUS
 62
     7
  5
349
 10
-0.174321
 20
0.306221
 30
0.0
 11
-0.167963
 21
0.309754
 31
0.0
  0
LINE
  8
0
  6
CONTINUOUS
 62
     7
  5
34A
 10
-0.167963
 20
0.309754
 30
0.0
 11
-0.161519
 21
0.313162
 31
0.0
  0
LINE
  8
0
  6
CONTINUOUS
 62
     7
  5
34B
 10
-0.161519
 20
0.313162
 30
0.0
 11
-0.154992
 21
0.316444
 31
0.0
  0
LINE
  8
0
  6
CONTINUOUS
 62
     7
  5
34C
 10
-0.154992
 20
0.316444
 30
0.0
 11
-0.148387
 21
0.319594
 31
0.0
  0
LINE
  8
0
  6
CONTINUOUS
 62
     7
  5
34D
 10
-0.148387
 20
0.319594
 30
0.0
 11
-0.141709
 21
0.322611
 31
0.0
  0
LINE
  8
0
  6
CONTINUOUS
 62
     7
  5
34E
 10
-0.141709
 20
0.322611
 30
0.0
 11
-0.13496
 21
0.325492
 31
0.0
  0
LINE
  8
0
  6
CONTINUOUS
 62
     7
  5
34F
 10
-0.13496
 20
0.325492
 30
0.0
 11
-0.128146
 21
0.328234
 31
0.0
  0
LINE
  8
0
  6
CONTINUOUS
 62
     7
  5
350
 10
-0.128146
 20
0.328234
 30
0.0
 11
-0.12127
 21
0.330836
 31
0.0
  0
LINE
  8
0
  6
CONTINUOUS
 62
     7
  5
351
 10
-0.12127
 20
0.330836
 30
0.0
 11
-0.114337
 21
0.333296
 31
0.0
  0
LINE
  8
0
  6
CONTINUOUS
 62
     7
  5
352
 10
-0.114337
 20
0.333296
 30
0.0
 11
-0.10735
 21
0.335611
 31
0.0
  0
LINE
  8
0
  6
CONTINUOUS
 62
     7
  5
353
 10
-0.10735
 20
0.335611
 30
0.0
 11
-0.100316
 21
0.337781
 31
0.0
  0
LINE
  8
0
  6
CONTINUOUS
 62
     7
  5
354
 10
-0.100316
 20
0.337781
 30
0.0
 11
-0.093238
 21
0.339802
 31
0.0
  0
LINE
  8
0
  6
CONTINUOUS
 62
     7
  5
355
 10
-0.093238
 20
0.339802
 30
0.0
 11
-0.086124
 21
0.341675
 31
0.0
  0
LINE
  8
0
  6
CONTINUOUS
 62
     7
  5
356
 10
-0.086124
 20
0.341675
 30
0.0
 11
-0.078978
 21
0.343397
 31
0.0
  0
LINE
  8
0
  6
CONTINUOUS
 62
     7
  5
357
 10
-0.078978
 20
0.343397
 30
0.0
 11
-0.071806
 21
0.344968
 31
0.0
  0
LINE
  8
0
  6
CONTINUOUS
 62
     7
  5
358
 10
-0.071806
 20
0.344968
 30
0.0
 11
-0.064614
 21
0.346387
 31
0.0
  0
LINE
  8
0
  6
CONTINUOUS
 62
     7
  5
359
 10
-0.064614
 20
0.346387
 30
0.0
 11
-0.057408
 21
0.347654
 31
0.0
  0
LINE
  8
0
  6
CONTINUOUS
 62
     7
  5
35A
 10
-0.057408
 20
0.347654
 30
0.0
 11
-0.050195
 21
0.348769
 31
0.0
  0
LINE
  8
0
  6
CONTINUOUS
 62
     7
  5
35B
 10
-0.050195
 20
0.348769
 30
0.0
 11
-0.04298
 21
0.349731
 31
0.0
  0
LINE
  8
0
  6
CONTINUOUS
 62
     7
  5
35C
 10
-0.04298
 20
0.349731
 30
0.0
 11
-0.03577
 21
0.350542
 31
0.0
  0
LINE
  8
0
  6
CONTINUOUS
 62
     7
  5
35D
 10
-0.03577
 20
0.350542
 30
0.0
 11
-0.028571
 21
0.351202
 31
0.0
  0
LINE
  8
0
  6
CONTINUOUS
 62
     7
  5
35E
 10
-0.028571
 20
0.351202
 30
0.0
 11
-0.021389
 21
0.351712
 31
0.0
  0
LINE
  8
0
  6
CONTINUOUS
 62
     7
  5
35F
 10
-0.021389
 20
0.351712
 30
0.0
 11
-0.014229
 21
0.352075
 31
0.0
  0
LINE
  8
0
  6
CONTINUOUS
 62
     7
  5
360
 10
-0.014229
 20
0.352075
 30
0.0
 11
-0.007098
 21
0.352291
 31
0.0
  0
LINE
  8
0
  6
CONTINUOUS
 62
     7
  5
361
 10
-0.007098
 20
0.352291
 30
0.0
 11
0.0
 21
0.352362
 31
0.0
  0
LINE
  8
0
  6
CONTINUOUS
 62
     7
  5
362
 10
0.232283
 20
0.206833
 30
0.0
 11
0.232283
 21
0.264959
 31
0.0
  0
LINE
  8
0
  6
CONTINUOUS
 62
     7
  5
363
 10
0.232283
 20
-0.264959
 30
0.0
 11
0.232283
 21
-0.206833
 31
0.0
  0
LINE
  8
0
  6
CONTINUOUS
 62
     7
  5
364
 10
0.352362
 20
0.0
 30
0.0
 11
0.352265
 21
-0.008295
 31
0.0
  0
LINE
  8
0
  6
CONTINUOUS
 62
     7
  5
365
 10
0.352265
 20
-0.008295
 30
0.0
 11
0.351969
 21
-0.016648
 31
0.0
  0
LINE
  8
0
  6
CONTINUOUS
 62
     7
  5
366
 10
0.351969
 20
-0.016648
 30
0.0
 11
0.351471
 21
-0.025049
 31
0.0
  0
LINE
  8
0
  6
CONTINUOUS
 62
     7
  5
367
 10
0.351471
 20
-0.025049
 30
0.0
 11
0.350767
 21
-0.033488
 31
0.0
  0
LINE
  8
0
  6
CONTINUOUS
 62
     7
  5
368
 10
0.350767
 20
-0.033488
 30
0.0
 11
0.349855
 21
-0.041956
 31
0.0
  0
LINE
  8
0
  6
CONTINUOUS
 62
     7
  5
369
 10
0.349855
 20
-0.041956
 30
0.0
 11
0.348733
 21
-0.050442
 31
0.0
  0
LINE
  8
0
  6
CONTINUOUS
 62
     7
  5
36A
 10
0.348733
 20
-0.050442
 30
0.0
 11
0.347398
 21
-0.058937
 31
0.0
  0
LINE
  8
0
  6
CONTINUOUS
 62
     7
  5
36B
 10
0.347398
 20
-0.058937
 30
0.0
 11
0.34585
 21
-0.067429
 31
0.0
  0
LINE
  8
0
  6
CONTINUOUS
 62
     7
  5
36C
 10
0.34585
 20
-0.067429
 30
0.0
 11
0.344088
 21
-0.07591
 31
0.0
  0
LINE
  8
0
  6
CONTINUOUS
 62
     7
  5
36D
 10
0.344088
 20
-0.07591
 30
0.0
 11
0.342113
 21
-0.084368
 31
0.0
  0
LINE
  8
0
  6
CONTINUOUS
 62
     7
  5
36E
 10
0.342113
 20
-0.084368
 30
0.0
 11
0.339924
 21
-0.092795
 31
0.0
  0
LINE
  8
0
  6
CONTINUOUS
 62
     7
  5
36F
 10
0.339924
 20
-0.092795
 30
0.0
 11
0.337523
 21
-0.10118
 31
0.0
  0
LINE
  8
0
  6
CONTINUOUS
 62
     7
  5
370
 10
0.337523
 20
-0.10118
 30
0.0
 11
0.334912
 21
-0.109514
 31
0.0
  0
LINE
  8
0
  6
CONTINUOUS
 62
     7
  5
371
 10
0.334912
 20
-0.109514
 30
0.0
 11
0.332092
 21
-0.117789
 31
0.0
  0
LINE
  8
0
  6
CONTINUOUS
 62
     7
  5
372
 10
0.332092
 20
-0.117789
 30
0.0
 11
0.329066
 21
-0.125995
 31
0.0
  0
LINE
  8
0
  6
CONTINUOUS
 62
     7
  5
373
 10
0.329066
 20
-0.125995
 30
0.0
 11
0.325837
 21
-0.134126
 31
0.0
  0
LINE
  8
0
  6
CONTINUOUS
 62
     7
  5
374
 10
0.325837
 20
-0.134126
 30
0.0
 11
0.322407
 21
-0.142172
 31
0.0
  0
LINE
  8
0
  6
CONTINUOUS
 62
     7
  5
375
 10
0.322407
 20
-0.142172
 30
0.0
 11
0.31878
 21
-0.150127
 31
0.0
  0
LINE
  8
0
  6
CONTINUOUS
 62
     7
  5
376
 10
0.31878
 20
-0.150127
 30
0.0
 11
0.31496
 21
-0.157984
 31
0.0
  0
LINE
  8
0
  6
CONTINUOUS
 62
     7
  5
377
 10
0.31496
 20
-0.157984
 30
0.0
 11
0.310952
 21
-0.165735
 31
0.0
  0
LINE
  8
0
  6
CONTINUOUS
 62
     7
  5
378
 10
0.310952
 20
-0.165735
 30
0.0
 11
0.306759
 21
-0.173372
 31
0.0
  0
LINE
  8
0
  6
CONTINUOUS
 62
     7
  5
379
 10
0.306759
 20
-0.173372
 30
0.0
 11
0.302388
 21
-0.180888
 31
0.0
  0
LINE
  8
0
  6
CONTINUOUS
 62
     7
  5
37A
 10
0.302388
 20
-0.180888
 30
0.0
 11
0.297845
 21
-0.188275
 31
0.0
  0
LINE
  8
0
  6
CONTINUOUS
 62
     7
  5
37B
 10
0.297845
 20
-0.188275
 30
0.0
 11
0.293136
 21
-0.195526
 31
0.0
  0
LINE
  8
0
  6
CONTINUOUS
 62
     7
  5
37C
 10
0.293136
 20
-0.195526
 30
0.0
 11
0.288268
 21
-0.202634
 31
0.0
  0
LINE
  8
0
  6
CONTINUOUS
 62
     7
  5
37D
 10
0.288268
 20
-0.202634
 30
0.0
 11
0.283249
 21
-0.209593
 31
0.0
  0
LINE
  8
0
  6
CONTINUOUS
 62
     7
  5
37E
 10
0.283249
 20
-0.209593
 30
0.0
 11
0.278086
 21
-0.216396
 31
0.0
  0
LINE
  8
0
  6
CONTINUOUS
 62
     7
  5
37F
 10
0.278086
 20
-0.216396
 30
0.0
 11
0.272788
 21
-0.223037
 31
0.0
  0
LINE
  8
0
  6
CONTINUOUS
 62
     7
  5
380
 10
0.272788
 20
-0.223037
 30
0.0
 11
0.267364
 21
-0.229512
 31
0.0
  0
LINE
  8
0
  6
CONTINUOUS
 62
     7
  5
381
 10
0.267364
 20
-0.229512
 30
0.0
 11
0.261823
 21
-0.235814
 31
0.0
  0
LINE
  8
0
  6
CONTINUOUS
 62
     7
  5
382
 10
0.261823
 20
-0.235814
 30
0.0
 11
0.256173
 21
-0.241939
 31
0.0
  0
LINE
  8
0
  6
CONTINUOUS
 62
     7
  5
383
 10
0.256173
 20
-0.241939
 30
0.0
 11
0.250424
 21
-0.247885
 31
0.0
  0
LINE
  8
0
  6
CONTINUOUS
 62
     7
  5
384
 10
0.250424
 20
-0.247885
 30
0.0
 11
0.244556
 21
-0.253676
 31
0.0
  0
LINE
  8
0
  6
CONTINUOUS
 62
     7
  5
385
 10
0.244556
 20
-0.253676
 30
0.0
 11
0.238509
 21
-0.25937
 31
0.0
  0
LINE
  8
0
  6
CONTINUOUS
 62
     7
  5
386
 10
0.238509
 20
-0.25937
 30
0.0
 11
0.232283
 21
-0.264959
 31
0.0
  0
LINE
  8
0
  6
CONTINUOUS
 62
     7
  5
387
 10
0.232283
 20
0.264959
 30
0.0
 11
0.238509
 21
0.25937
 31
0.0
  0
LINE
  8
0
  6
CONTINUOUS
 62
     7
  5
388
 10
0.238509
 20
0.25937
 30
0.0
 11
0.244556
 21
0.253676
 31
0.0
  0
LINE
  8
0
  6
CONTINUOUS
 62
     7
  5
389
 10
0.244556
 20
0.253676
 30
0.0
 11
0.250424
 21
0.247885
 31
0.0
  0
LINE
  8
0
  6
CONTINUOUS
 62
     7
  5
38A
 10
0.250424
 20
0.247885
 30
0.0
 11
0.256173
 21
0.241939
 31
0.0
  0
LINE
  8
0
  6
CONTINUOUS
 62
     7
  5
38B
 10
0.256173
 20
0.241939
 30
0.0
 11
0.261823
 21
0.235814
 31
0.0
  0
LINE
  8
0
  6
CONTINUOUS
 62
     7
  5
38C
 10
0.261823
 20
0.235814
 30
0.0
 11
0.267364
 21
0.229512
 31
0.0
  0
LINE
  8
0
  6
CONTINUOUS
 62
     7
  5
38D
 10
0.267364
 20
0.229512
 30
0.0
 11
0.272788
 21
0.223037
 31
0.0
  0
LINE
  8
0
  6
CONTINUOUS
 62
     7
  5
38E
 10
0.272788
 20
0.223037
 30
0.0
 11
0.278086
 21
0.216396
 31
0.0
  0
LINE
  8
0
  6
CONTINUOUS
 62
     7
  5
38F
 10
0.278086
 20
0.216396
 30
0.0
 11
0.283249
 21
0.209593
 31
0.0
  0
LINE
  8
0
  6
CONTINUOUS
 62
     7
  5
390
 10
0.283249
 20
0.209593
 30
0.0
 11
0.288268
 21
0.202634
 31
0.0
  0
LINE
  8
0
  6
CONTINUOUS
 62
     7
  5
391
 10
0.288268
 20
0.202634
 30
0.0
 11
0.293136
 21
0.195526
 31
0.0
  0
LINE
  8
0
  6
CONTINUOUS
 62
     7
  5
392
 10
0.293136
 20
0.195526
 30
0.0
 11
0.297845
 21
0.188275
 31
0.0
  0
LINE
  8
0
  6
CONTINUOUS
 62
     7
  5
393
 10
0.297845
 20
0.188275
 30
0.0
 11
0.302388
 21
0.180888
 31
0.0
  0
LINE
  8
0
  6
CONTINUOUS
 62
     7
  5
394
 10
0.302388
 20
0.180888
 30
0.0
 11
0.306759
 21
0.173372
 31
0.0
  0
LINE
  8
0
  6
CONTINUOUS
 62
     7
  5
395
 10
0.306759
 20
0.173372
 30
0.0
 11
0.310952
 21
0.165735
 31
0.0
  0
LINE
  8
0
  6
CONTINUOUS
 62
     7
  5
396
 10
0.310952
 20
0.165735
 30
0.0
 11
0.31496
 21
0.157984
 31
0.0
  0
LINE
  8
0
  6
CONTINUOUS
 62
     7
  5
397
 10
0.31496
 20
0.157984
 30
0.0
 11
0.31878
 21
0.150127
 31
0.0
  0
LINE
  8
0
  6
CONTINUOUS
 62
     7
  5
398
 10
0.31878
 20
0.150127
 30
0.0
 11
0.322407
 21
0.142172
 31
0.0
  0
LINE
  8
0
  6
CONTINUOUS
 62
     7
  5
399
 10
0.322407
 20
0.142172
 30
0.0
 11
0.325837
 21
0.134126
 31
0.0
  0
LINE
  8
0
  6
CONTINUOUS
 62
     7
  5
39A
 10
0.325837
 20
0.134126
 30
0.0
 11
0.329066
 21
0.125995
 31
0.0
  0
LINE
  8
0
  6
CONTINUOUS
 62
     7
  5
39B
 10
0.329066
 20
0.125995
 30
0.0
 11
0.332092
 21
0.117789
 31
0.0
  0
LINE
  8
0
  6
CONTINUOUS
 62
     7
  5
39C
 10
0.332092
 20
0.117789
 30
0.0
 11
0.334912
 21
0.109514
 31
0.0
  0
LINE
  8
0
  6
CONTINUOUS
 62
     7
  5
39D
 10
0.334912
 20
0.109514
 30
0.0
 11
0.337523
 21
0.10118
 31
0.0
  0
LINE
  8
0
  6
CONTINUOUS
 62
     7
  5
39E
 10
0.337523
 20
0.10118
 30
0.0
 11
0.339924
 21
0.092795
 31
0.0
  0
LINE
  8
0
  6
CONTINUOUS
 62
     7
  5
39F
 10
0.339924
 20
0.092795
 30
0.0
 11
0.342113
 21
0.084368
 31
0.0
  0
LINE
  8
0
  6
CONTINUOUS
 62
     7
  5
3A0
 10
0.342113
 20
0.084368
 30
0.0
 11
0.344088
 21
0.07591
 31
0.0
  0
LINE
  8
0
  6
CONTINUOUS
 62
     7
  5
3A1
 10
0.344088
 20
0.07591
 30
0.0
 11
0.34585
 21
0.067429
 31
0.0
  0
LINE
  8
0
  6
CONTINUOUS
 62
     7
  5
3A2
 10
0.34585
 20
0.067429
 30
0.0
 11
0.347398
 21
0.058937
 31
0.0
  0
LINE
  8
0
  6
CONTINUOUS
 62
     7
  5
3A3
 10
0.347398
 20
0.058937
 30
0.0
 11
0.348733
 21
0.050442
 31
0.0
  0
LINE
  8
0
  6
CONTINUOUS
 62
     7
  5
3A4
 10
0.348733
 20
0.050442
 30
0.0
 11
0.349855
 21
0.041956
 31
0.0
  0
LINE
  8
0
  6
CONTINUOUS
 62
     7
  5
3A5
 10
0.349855
 20
0.041956
 30
0.0
 11
0.350767
 21
0.033488
 31
0.0
  0
LINE
  8
0
  6
CONTINUOUS
 62
     7
  5
3A6
 10
0.350767
 20
0.033488
 30
0.0
 11
0.351471
 21
0.025049
 31
0.0
  0
LINE
  8
0
  6
CONTINUOUS
 62
     7
  5
3A7
 10
0.351471
 20
0.025049
 30
0.0
 11
0.351969
 21
0.016648
 31
0.0
  0
LINE
  8
0
  6
CONTINUOUS
 62
     7
  5
3A8
 10
0.351969
 20
0.016648
 30
0.0
 11
0.352265
 21
0.008295
 31
0.0
  0
LINE
  8
0
  6
CONTINUOUS
 62
     7
  5
3A9
 10
0.352265
 20
0.008295
 30
0.0
 11
0.352362
 21
0.0
 31
0.0
  0
LINE
  8
0
  6
CONTINUOUS
 62
     7
  5
3AA
 10
0.232283
 20
-0.264959
 30
0.0
 11
0.226996
 21
-0.269503
 31
0.0
  0
LINE
  8
0
  6
CONTINUOUS
 62
     7
  5
3AB
 10
0.226996
 20
-0.269503
 30
0.0
 11
0.221589
 21
-0.273966
 31
0.0
  0
LINE
  8
0
  6
CONTINUOUS
 62
     7
  5
3AC
 10
0.221589
 20
-0.273966
 30
0.0
 11
0.216062
 21
-0.278345
 31
0.0
  0
LINE
  8
0
  6
CONTINUOUS
 62
     7
  5
3AD
 10
0.216062
 20
-0.278345
 30
0.0
 11
0.210421
 21
-0.282635
 31
0.0
  0
LINE
  8
0
  6
CONTINUOUS
 62
     7
  5
3AE
 10
0.210421
 20
-0.282635
 30
0.0
 11
0.204666
 21
-0.286829
 31
0.0
  0
LINE
  8
0
  6
CONTINUOUS
 62
     7
  5
3AF
 10
0.204666
 20
-0.286829
 30
0.0
 11
0.198802
 21
-0.290924
 31
0.0
  0
LINE
  8
0
  6
CONTINUOUS
 62
     7
  5
3B0
 10
0.198802
 20
-0.290924
 30
0.0
 11
0.192832
 21
-0.294915
 31
0.0
  0
LINE
  8
0
  6
CONTINUOUS
 62
     7
  5
3B1
 10
0.192832
 20
-0.294915
 30
0.0
 11
0.186759
 21
-0.298798
 31
0.0
  0
LINE
  8
0
  6
CONTINUOUS
 62
     7
  5
3B2
 10
0.186759
 20
-0.298798
 30
0.0
 11
0.180587
 21
-0.302568
 31
0.0
  0
LINE
  8
0
  6
CONTINUOUS
 62
     7
  5
3B3
 10
0.180587
 20
-0.302568
 30
0.0
 11
0.174321
 21
-0.306221
 31
0.0
  0
LINE
  8
0
  6
CONTINUOUS
 62
     7
  5
3B4
 10
0.174321
 20
-0.306221
 30
0.0
 11
0.167963
 21
-0.309754
 31
0.0
  0
LINE
  8
0
  6
CONTINUOUS
 62
     7
  5
3B5
 10
0.167963
 20
-0.309754
 30
0.0
 11
0.161519
 21
-0.313162
 31
0.0
  0
LINE
  8
0
  6
CONTINUOUS
 62
     7
  5
3B6
 10
0.161519
 20
-0.313162
 30
0.0
 11
0.154992
 21
-0.316444
 31
0.0
  0
LINE
  8
0
  6
CONTINUOUS
 62
     7
  5
3B7
 10
0.154992
 20
-0.316444
 30
0.0
 11
0.148387
 21
-0.319594
 31
0.0
  0
LINE
  8
0
  6
CONTINUOUS
 62
     7
  5
3B8
 10
0.148387
 20
-0.319594
 30
0.0
 11
0.141709
 21
-0.322611
 31
0.0
  0
LINE
  8
0
  6
CONTINUOUS
 62
     7
  5
3B9
 10
0.141709
 20
-0.322611
 30
0.0
 11
0.13496
 21
-0.325492
 31
0.0
  0
LINE
  8
0
  6
CONTINUOUS
 62
     7
  5
3BA
 10
0.13496
 20
-0.325492
 30
0.0
 11
0.128146
 21
-0.328234
 31
0.0
  0
LINE
  8
0
  6
CONTINUOUS
 62
     7
  5
3BB
 10
0.128146
 20
-0.328234
 30
0.0
 11
0.12127
 21
-0.330836
 31
0.0
  0
LINE
  8
0
  6
CONTINUOUS
 62
     7
  5
3BC
 10
0.12127
 20
-0.330836
 30
0.0
 11
0.114337
 21
-0.333296
 31
0.0
  0
LINE
  8
0
  6
CONTINUOUS
 62
     7
  5
3BD
 10
0.114337
 20
-0.333296
 30
0.0
 11
0.10735
 21
-0.335611
 31
0.0
  0
LINE
  8
0
  6
CONTINUOUS
 62
     7
  5
3BE
 10
0.10735
 20
-0.335611
 30
0.0
 11
0.100316
 21
-0.337781
 31
0.0
  0
LINE
  8
0
  6
CONTINUOUS
 62
     7
  5
3BF
 10
0.100316
 20
-0.337781
 30
0.0
 11
0.093238
 21
-0.339802
 31
0.0
  0
LINE
  8
0
  6
CONTINUOUS
 62
     7
  5
3C0
 10
0.093238
 20
-0.339802
 30
0.0
 11
0.086124
 21
-0.341675
 31
0.0
  0
LINE
  8
0
  6
CONTINUOUS
 62
     7
  5
3C1
 10
0.086124
 20
-0.341675
 30
0.0
 11
0.078978
 21
-0.343397
 31
0.0
  0
LINE
  8
0
  6
CONTINUOUS
 62
     7
  5
3C2
 10
0.078978
 20
-0.343397
 30
0.0
 11
0.071806
 21
-0.344968
 31
0.0
  0
LINE
  8
0
  6
CONTINUOUS
 62
     7
  5
3C3
 10
0.071806
 20
-0.344968
 30
0.0
 11
0.064614
 21
-0.346387
 31
0.0
  0
LINE
  8
0
  6
CONTINUOUS
 62
     7
  5
3C4
 10
0.064614
 20
-0.346387
 30
0.0
 11
0.057408
 21
-0.347654
 31
0.0
  0
LINE
  8
0
  6
CONTINUOUS
 62
     7
  5
3C5
 10
0.057408
 20
-0.347654
 30
0.0
 11
0.050195
 21
-0.348769
 31
0.0
  0
LINE
  8
0
  6
CONTINUOUS
 62
     7
  5
3C6
 10
0.050195
 20
-0.348769
 30
0.0
 11
0.04298
 21
-0.349731
 31
0.0
  0
LINE
  8
0
  6
CONTINUOUS
 62
     7
  5
3C7
 10
0.04298
 20
-0.349731
 30
0.0
 11
0.03577
 21
-0.350542
 31
0.0
  0
LINE
  8
0
  6
CONTINUOUS
 62
     7
  5
3C8
 10
0.03577
 20
-0.350542
 30
0.0
 11
0.028571
 21
-0.351202
 31
0.0
  0
LINE
  8
0
  6
CONTINUOUS
 62
     7
  5
3C9
 10
0.028571
 20
-0.351202
 30
0.0
 11
0.021389
 21
-0.351712
 31
0.0
  0
LINE
  8
0
  6
CONTINUOUS
 62
     7
  5
3CA
 10
0.021389
 20
-0.351712
 30
0.0
 11
0.014229
 21
-0.352075
 31
0.0
  0
LINE
  8
0
  6
CONTINUOUS
 62
     7
  5
3CB
 10
0.014229
 20
-0.352075
 30
0.0
 11
0.007098
 21
-0.352291
 31
0.0
  0
LINE
  8
0
  6
CONTINUOUS
 62
     7
  5
3CC
 10
0.007098
 20
-0.352291
 30
0.0
 11
0.0
 21
-0.352362
 31
0.0
  0
LINE
  8
0
  6
CONTINUOUS
 62
     7
  5
3CD
 10
0.0
 20
-0.352362
 30
0.0
 11
-0.007098
 21
-0.352291
 31
0.0
  0
LINE
  8
0
  6
CONTINUOUS
 62
     7
  5
3CE
 10
-0.007098
 20
-0.352291
 30
0.0
 11
-0.014229
 21
-0.352075
 31
0.0
  0
LINE
  8
0
  6
CONTINUOUS
 62
     7
  5
3CF
 10
-0.014229
 20
-0.352075
 30
0.0
 11
-0.021389
 21
-0.351712
 31
0.0
  0
LINE
  8
0
  6
CONTINUOUS
 62
     7
  5
3D0
 10
-0.021389
 20
-0.351712
 30
0.0
 11
-0.028571
 21
-0.351202
 31
0.0
  0
LINE
  8
0
  6
CONTINUOUS
 62
     7
  5
3D1
 10
-0.028571
 20
-0.351202
 30
0.0
 11
-0.03577
 21
-0.350542
 31
0.0
  0
LINE
  8
0
  6
CONTINUOUS
 62
     7
  5
3D2
 10
-0.03577
 20
-0.350542
 30
0.0
 11
-0.04298
 21
-0.349731
 31
0.0
  0
LINE
  8
0
  6
CONTINUOUS
 62
     7
  5
3D3
 10
-0.04298
 20
-0.349731
 30
0.0
 11
-0.050195
 21
-0.348769
 31
0.0
  0
LINE
  8
0
  6
CONTINUOUS
 62
     7
  5
3D4
 10
-0.050195
 20
-0.348769
 30
0.0
 11
-0.057408
 21
-0.347654
 31
0.0
  0
LINE
  8
0
  6
CONTINUOUS
 62
     7
  5
3D5
 10
-0.057408
 20
-0.347654
 30
0.0
 11
-0.064614
 21
-0.346387
 31
0.0
  0
LINE
  8
0
  6
CONTINUOUS
 62
     7
  5
3D6
 10
-0.064614
 20
-0.346387
 30
0.0
 11
-0.071806
 21
-0.344968
 31
0.0
  0
LINE
  8
0
  6
CONTINUOUS
 62
     7
  5
3D7
 10
-0.071806
 20
-0.344968
 30
0.0
 11
-0.078978
 21
-0.343397
 31
0.0
  0
LINE
  8
0
  6
CONTINUOUS
 62
     7
  5
3D8
 10
-0.078978
 20
-0.343397
 30
0.0
 11
-0.086124
 21
-0.341675
 31
0.0
  0
LINE
  8
0
  6
CONTINUOUS
 62
     7
  5
3D9
 10
-0.086124
 20
-0.341675
 30
0.0
 11
-0.093238
 21
-0.339802
 31
0.0
  0
LINE
  8
0
  6
CONTINUOUS
 62
     7
  5
3DA
 10
-0.093238
 20
-0.339802
 30
0.0
 11
-0.100316
 21
-0.337781
 31
0.0
  0
LINE
  8
0
  6
CONTINUOUS
 62
     7
  5
3DB
 10
-0.100316
 20
-0.337781
 30
0.0
 11
-0.10735
 21
-0.335611
 31
0.0
  0
LINE
  8
0
  6
CONTINUOUS
 62
     7
  5
3DC
 10
-0.10735
 20
-0.335611
 30
0.0
 11
-0.114337
 21
-0.333296
 31
0.0
  0
LINE
  8
0
  6
CONTINUOUS
 62
     7
  5
3DD
 10
-0.114337
 20
-0.333296
 30
0.0
 11
-0.12127
 21
-0.330836
 31
0.0
  0
LINE
  8
0
  6
CONTINUOUS
 62
     7
  5
3DE
 10
-0.12127
 20
-0.330836
 30
0.0
 11
-0.128146
 21
-0.328234
 31
0.0
  0
LINE
  8
0
  6
CONTINUOUS
 62
     7
  5
3DF
 10
-0.128146
 20
-0.328234
 30
0.0
 11
-0.13496
 21
-0.325492
 31
0.0
  0
LINE
  8
0
  6
CONTINUOUS
 62
     7
  5
3E0
 10
-0.13496
 20
-0.325492
 30
0.0
 11
-0.141709
 21
-0.322611
 31
0.0
  0
LINE
  8
0
  6
CONTINUOUS
 62
     7
  5
3E1
 10
-0.141709
 20
-0.322611
 30
0.0
 11
-0.148387
 21
-0.319594
 31
0.0
  0
LINE
  8
0
  6
CONTINUOUS
 62
     7
  5
3E2
 10
-0.148387
 20
-0.319594
 30
0.0
 11
-0.154992
 21
-0.316444
 31
0.0
  0
LINE
  8
0
  6
CONTINUOUS
 62
     7
  5
3E3
 10
-0.154992
 20
-0.316444
 30
0.0
 11
-0.161519
 21
-0.313162
 31
0.0
  0
LINE
  8
0
  6
CONTINUOUS
 62
     7
  5
3E4
 10
-0.161519
 20
-0.313162
 30
0.0
 11
-0.167963
 21
-0.309754
 31
0.0
  0
LINE
  8
0
  6
CONTINUOUS
 62
     7
  5
3E5
 10
-0.167963
 20
-0.309754
 30
0.0
 11
-0.174321
 21
-0.306221
 31
0.0
  0
LINE
  8
0
  6
CONTINUOUS
 62
     7
  5
3E6
 10
-0.174321
 20
-0.306221
 30
0.0
 11
-0.180587
 21
-0.302568
 31
0.0
  0
LINE
  8
0
  6
CONTINUOUS
 62
     7
  5
3E7
 10
-0.180587
 20
-0.302568
 30
0.0
 11
-0.186759
 21
-0.298798
 31
0.0
  0
LINE
  8
0
  6
CONTINUOUS
 62
     7
  5
3E8
 10
-0.186759
 20
-0.298798
 30
0.0
 11
-0.192832
 21
-0.294915
 31
0.0
  0
LINE
  8
0
  6
CONTINUOUS
 62
     7
  5
3E9
 10
-0.192832
 20
-0.294915
 30
0.0
 11
-0.198802
 21
-0.290924
 31
0.0
  0
LINE
  8
0
  6
CONTINUOUS
 62
     7
  5
3EA
 10
-0.198802
 20
-0.290924
 30
0.0
 11
-0.204666
 21
-0.286829
 31
0.0
  0
LINE
  8
0
  6
CONTINUOUS
 62
     7
  5
3EB
 10
-0.204666
 20
-0.286829
 30
0.0
 11
-0.210421
 21
-0.282635
 31
0.0
  0
LINE
  8
0
  6
CONTINUOUS
 62
     7
  5
3EC
 10
-0.210421
 20
-0.282635
 30
0.0
 11
-0.216062
 21
-0.278345
 31
0.0
  0
LINE
  8
0
  6
CONTINUOUS
 62
     7
  5
3ED
 10
-0.216062
 20
-0.278345
 30
0.0
 11
-0.221589
 21
-0.273966
 31
0.0
  0
LINE
  8
0
  6
CONTINUOUS
 62
     7
  5
3EE
 10
-0.221589
 20
-0.273966
 30
0.0
 11
-0.226996
 21
-0.269503
 31
0.0
  0
LINE
  8
0
  6
CONTINUOUS
 62
     7
  5
3EF
 10
-0.226996
 20
-0.269503
 30
0.0
 11
-0.232283
 21
-0.264959
 31
0.0
  0
LINE
  8
0
  6
CONTINUOUS
 62
     7
  5
3F0
 10
0.244094
 20
-0.354331
 30
0.0
 11
-0.244094
 21
-0.354331
 31
0.0
  0
LINE
  8
0
  6
CONTINUOUS
 62
     7
  5
3F1
 10
0.354331
 20
-0.244094
 30
0.0
 11
0.244094
 21
-0.354331
 31
0.0
  0
LINE
  8
0
  6
CONTINUOUS
 62
     7
  5
3F2
 10
0.354331
 20
0.244094
 30
0.0
 11
0.354331
 21
-0.244094
 31
0.0
  0
LINE
  8
0
  6
CONTINUOUS
 62
     7
  5
3F3
 10
0.244094
 20
0.354331
 30
0.0
 11
0.354331
 21
0.244094
 31
0.0
  0
LINE
  8
0
  6
CONTINUOUS
 62
     7
  5
3F4
 10
-0.244094
 20
0.354331
 30
0.0
 11
0.244094
 21
0.354331
 31
0.0
  0
LINE
  8
0
  6
CONTINUOUS
 62
     7
  5
3F5
 10
-0.354331
 20
0.244094
 30
0.0
 11
-0.244094
 21
0.354331
 31
0.0
  0
LINE
  8
0
  6
CONTINUOUS
 62
     7
  5
3F6
 10
-0.354331
 20
-0.244094
 30
0.0
 11
-0.354331
 21
0.244094
 31
0.0
  0
LINE
  8
0
  6
CONTINUOUS
 62
     7
  5
3F7
 10
-0.244094
 20
-0.354331
 30
0.0
 11
-0.354331
 21
-0.244094
 31
0.0
  0
LINE
  8
0
  6
CONTINUOUS
 62
     7
  5
3F8
 10
0.354331
 20
-0.354331
 30
0.0
 11
0.244094
 21
-0.354331
 31
0.0
  0
LINE
  8
0
  6
CONTINUOUS
 62
     7
  5
3F9
 10
0.354331
 20
-0.244094
 30
0.0
 11
0.354331
 21
-0.354331
 31
0.0
  0
LINE
  8
0
  6
CONTINUOUS
 62
     7
  5
3FA
 10
0.354331
 20
0.354331
 30
0.0
 11
0.354331
 21
0.244094
 31
0.0
  0
LINE
  8
0
  6
CONTINUOUS
 62
     7
  5
3FB
 10
-0.244094
 20
-0.354331
 30
0.0
 11
-0.354331
 21
-0.354331
 31
0.0
  0
LINE
  8
0
  6
CONTINUOUS
 62
     7
  5
3FC
 10
-0.354331
 20
-0.354331
 30
0.0
 11
-0.354331
 21
-0.244094
 31
0.0
  0
LINE
  8
0
  6
CONTINUOUS
 62
     7
  5
3FD
 10
-0.354331
 20
0.244094
 30
0.0
 11
-0.354331
 21
0.354331
 31
0.0
  0
LINE
  8
0
  6
CONTINUOUS
 62
     7
  5
3FE
 10
-0.354331
 20
0.354331
 30
0.0
 11
-0.244094
 21
0.354331
 31
0.0
  0
LINE
  8
0
  6
CONTINUOUS
 62
     7
  5
3FF
 10
0.244094
 20
0.354331
 30
0.0
 11
0.354331
 21
0.354331
 31
0.0
  0
LINE
  8
0
  6
CONTINUOUS
 62
     3
  5
400
 10
-0.354331
 20
0.0
 30
0.0
 11
0.354331
 21
0.0
 31
0.0
  0
LINE
  8
0
  6
CONTINUOUS
 62
     3
  5
401
 10
0.0
 20
-0.354331
 30
0.0
 11
0.0
 21
0.354331
 31
0.0
  0
LINE
  8
0
  6
CONTINUOUS
 62
     3
  5
402
 10
0.088583
 20
-0.19685
 30
0.0
 11
0.108268
 21
-0.19685
 31
0.0
  0
LINE
  8
0
  6
CONTINUOUS
 62
     3
  5
403
 10
0.088583
 20
0.19685
 30
0.0
 11
0.108268
 21
0.19685
 31
0.0
  0
ENDSEC
  0
EOF
