999
DXF file: C:\Users\sesa63760\Dev\_Creo\CAD\MCADPP0003199_3D-CAD\drw0001_3.dxf
999
Pro/ENGINEER 2019471 by Parametric Technology Corporation
  0
SECTION
  2
HEADER
  9
$ACADVER
  1
AC1024
  9
$DWGCODEPAGE
  3
ANSI_1252
  9
$EXTMAX
 10
133.9906725902
 20
189.5010940919
 30
0.0
  9
$EXTMIN
 10
0.0
 20
0.0
 30
0.0
  9
$LIMMIN
 10
0.0
 20
0.0
  9
$LIMMAX
 10
133.9906725902
 20
189.5010940919
  9
$VIEWCTR
 10
66.9953362951
 20
94.750547046
  9
$VIEWSIZE
 40
189.5010940919
  9
$CLAYER
  8
0
  9
$LTSCALE
 40
12.3526639112
  9
$CELTYPE
  6
BYLAYER
  9
$DIMSCALE
 40
1.0
  9
$DIMASZ
 40
1.5951270546
  9
$DIMEXO
 40
1.0
  9
$DIMDLI
 40
8.5345677932
  9
$DIMEXE
 40
1.0
  9
$DIMCEN
 40
2.0213450036
  9
$DIMLFAC
 40
1.0
  9
$DIMBLK
  1
_FILLED
  9
$DIMALT
 70
0
  9
$DIMALTF
 40
0.0393700787
  9
$DIMTXT
 40
2.2331778765
  9
$DIMTOL
 70
1
  9
$DIMLIM
 70
0
  9
$DIMTFAC
 40
1.0
  9
$DIMTP
 40
0.01
  9
$DIMTM
 40
0.01
  9
$DIMGAP
 40
0.625
  9
$DIMDSEP
 70
46
  9
$AUNITS
 70
0
  9
$PDMODE
 70
3
  9
$PDSIZE
 40
0.3125
  9
$HANDSEED
  5
33F
  9
$TILEMODE
 70
1
  9
$MEASUREMENT
 70
1
  9
$INSUNITS
 70
4
  0
ENDSEC
  0
SECTION
  2
CLASSES
  0
CLASS
  1
ACDBDICTIONARYWDFLT
  2
AcDbDictionaryWithDefault
  3
AutoCAD 2000
 90
0
 91
1
280
0
281
0
  0
CLASS
  1
ACDBPLACEHOLDER
  2
AcDbPlaceHolder
  3
AutoCAD 2000
 90
0
 91
1
280
0
281
0
  0
CLASS
  1
LAYOUT
  2
AcDbLayout
  3
AutoCAD 2000
 90
0
 91
0
280
0
281
0
  0
ENDSEC
  0
SECTION
  2
TABLES
  0
TABLE
  2
VPORT
  5
8
100
AcDbSymbolTable
 70
2
  0
VPORT
  5
1F4
100
AcDbSymbolTableRecord
100
AcDbViewportTableRecord
  2
*ACTIVE
 70
0
 10
0.0
 20
0.0
 11
1.0
 21
1.0
 12
66.9953362951
 22
94.750547046
 13
0.0
 23
0.0
 14
1.0
 24
1.0
 15
0.0
 25
0.0
 16
0.0
 26
0.0
 36
1.0
 17
0.0
 27
0.0
 37
0.0
 40
189.5010940919
 41
0.7070707071
 42
50.0
 43
0.0
 44
0.0
 50
0.0
 51
0.0
 71
0
 72
100
 73
1
 74
1
 75
0
 76
0
 77
0
 78
0
  0
ENDTAB
  0
TABLE
  2
LTYPE
  5
5
100
AcDbSymbolTable
 70
6
  0
LTYPE
  5
14
100
AcDbSymbolTableRecord
100
AcDbLinetypeTableRecord
  2
BYBLOCK
 70
0
  3

 72
65
 73
0
 40
0.0
  0
LTYPE
  5
15
100
AcDbSymbolTableRecord
100
AcDbLinetypeTableRecord
  2
BYLAYER
 70
0
  3

 72
65
 73
0
 40
0.0
  0
LTYPE
  5
16
100
AcDbSymbolTableRecord
100
AcDbLinetypeTableRecord
  2
CONTINUOUS
 70
64
  3
Solid line
 72
65
 73
0
 40
0.0
  0
LTYPE
  5
1F5
100
AcDbSymbolTableRecord
100
AcDbLinetypeTableRecord
  2
CENTER
 70
64
  3
____ _ ____ _ ____ _ ____ _ ____ _ ____ _ ____
 72
65
 73
4
 40
0.6
 49
0.375
 74
0
 49
-0.075
 74
0
 49
0.075
 74
0
 49
-0.075
 74
0
  0
LTYPE
  5
1F6
100
AcDbSymbolTableRecord
100
AcDbLinetypeTableRecord
  2
HIDDEN
 70
64
  3
- - - - - - - - - - - - - - - - - - - -
 72
65
 73
2
 40
0.2
 49
0.1
 74
0
 49
-0.1
 74
0
  0
LTYPE
  5
1F7
100
AcDbSymbolTableRecord
100
AcDbLinetypeTableRecord
  2
PHANTOM
 70
64
  3
_____ _ _ _____ _ _ _____ _ _ _____
 72
65
 73
6
 40
0.8
 49
0.45
 74
0
 49
-0.05
 74
0
 49
0.1
 74
0
 49
-0.05
 74
0
 49
0.1
 74
0
 49
-0.05
 74
0
  0
LTYPE
  5
1F8
100
AcDbSymbolTableRecord
100
AcDbLinetypeTableRecord
  2
DOT
 70
64
  3
. . . . . . . . . . . . . . . . . . . .
 72
65
 73
2
 40
0.2
 49
0.1
 74
0
 49
-0.1
 74
0
  0
LTYPE
  5
1F9
100
AcDbSymbolTableRecord
100
AcDbLinetypeTableRecord
  2
DASHED
 70
64
  3
- - - - - - - - - - - - - - - - - - - -
 72
65
 73
2
 40
0.2
 49
0.1
 74
0
 49
-0.1
 74
0
  0
ENDTAB
  0
TABLE
  2
LAYER
  5
2
100
AcDbSymbolTable
 70
36
  0
LAYER
  5
10
100
AcDbSymbolTableRecord
100
AcDbLayerTableRecord
  2
0
 70
0
 62
7
  6
CONTINUOUS
370
-3
390
F
  0
LAYER
  5
1FA
100
AcDbSymbolTableRecord
100
AcDbLayerTableRecord
  2
DEFAULT_1
 70
0
 62
7
  6
CENTER
370
-3
390
F
  0
LAYER
  5
1FB
100
AcDbSymbolTableRecord
100
AcDbLayerTableRecord
  2
DEFAULT_2
 70
0
 62
8
  6
HIDDEN
370
-3
390
F
  0
LAYER
  5
1FC
100
AcDbSymbolTableRecord
100
AcDbLayerTableRecord
  2
DEFAULT_3
 70
0
 62
7
  6
PHANTOM
370
-3
390
F
  0
LAYER
  5
1FD
100
AcDbSymbolTableRecord
100
AcDbLayerTableRecord
  2
00_COMPONENTS
 70
0
 62
7
  6
CONTINUOUS
370
-3
390
F
  0
LAYER
  5
1FE
100
AcDbSymbolTableRecord
100
AcDbLayerTableRecord
  2
01_1_DEFAULT_DATUMS
 70
0
 62
7
  6
CONTINUOUS
370
-3
390
F
  0
LAYER
  5
1FF
100
AcDbSymbolTableRecord
100
AcDbLayerTableRecord
  2
01_PLANES
 70
0
 62
7
  6
CONTINUOUS
370
-3
390
F
  0
LAYER
  5
200
100
AcDbSymbolTableRecord
100
AcDbLayerTableRecord
  2
02_COORD_SYS
 70
0
 62
7
  6
CONTINUOUS
370
-3
390
F
  0
LAYER
  5
201
100
AcDbSymbolTableRecord
100
AcDbLayerTableRecord
  2
03_AXES
 70
0
 62
7
  6
CONTINUOUS
370
-3
390
F
  0
LAYER
  5
202
100
AcDbSymbolTableRecord
100
AcDbLayerTableRecord
  2
04_POINTS
 70
0
 62
7
  6
CONTINUOUS
370
-3
390
F
  0
LAYER
  5
203
100
AcDbSymbolTableRecord
100
AcDbLayerTableRecord
  2
05_CURVES
 70
0
 62
7
  6
CONTINUOUS
370
-3
390
F
  0
LAYER
  5
204
100
AcDbSymbolTableRecord
100
AcDbLayerTableRecord
  2
06_SURFS
 70
0
 62
7
  6
CONTINUOUS
370
-3
390
F
  0
LAYER
  5
205
100
AcDbSymbolTableRecord
100
AcDbLayerTableRecord
  2
07_COSMETICS
 70
0
 62
7
  6
CONTINUOUS
370
-3
390
F
  0
LAYER
  5
206
100
AcDbSymbolTableRecord
100
AcDbLayerTableRecord
  2
10_NOTES
 70
0
 62
7
  6
CONTINUOUS
370
-3
390
F
  0
LAYER
  5
207
100
AcDbSymbolTableRecord
100
AcDbLayerTableRecord
  2
11_NOTES_PUB
 70
0
 62
7
  6
CONTINUOUS
370
-3
390
F
  0
LAYER
  5
208
100
AcDbSymbolTableRecord
100
AcDbLayerTableRecord
  2
13_REF_GTOL
 70
0
 62
7
  6
CONTINUOUS
370
-3
390
F
  0
LAYER
  5
209
100
AcDbSymbolTableRecord
100
AcDbLayerTableRecord
  2
16_MISC
 70
0
 62
7
  6
CONTINUOUS
370
-3
390
F
  0
LAYER
  5
20A
100
AcDbSymbolTableRecord
100
AcDbLayerTableRecord
  2
17_NO_PRINT
 70
0
 62
7
  6
CONTINUOUS
370
-3
390
F
  0
LAYER
  5
20B
100
AcDbSymbolTableRecord
100
AcDbLayerTableRecord
  2
18_DATUM_CAMS_JOINTS
 70
0
 62
7
  6
CONTINUOUS
370
-3
390
F
  0
LAYER
  5
20C
100
AcDbSymbolTableRecord
100
AcDbLayerTableRecord
  2
19_DATUM_FUNCTIONAL
 70
0
 62
7
  6
CONTINUOUS
370
-3
390
F
  0
LAYER
  5
20D
100
AcDbSymbolTableRecord
100
AcDbLayerTableRecord
  2
20_DATUM_KINEMATIC_SCHEME
 70
0
 62
7
  6
CONTINUOUS
370
-3
390
F
  0
ENDTAB
  0
TABLE
  2
STYLE
  5
3
100
AcDbSymbolTable
 70
1
  0
STYLE
  5
11
100
AcDbSymbolTableRecord
100
AcDbTextStyleTableRecord
  2
STANDARD
 70
0
 40
0.0
 41
0.8
 50
0.0
 71
0
 42
0.2
  3
txt
  4

  0
STYLE
  5
20E
100
AcDbSymbolTableRecord
100
AcDbTextStyleTableRecord
  2
TEXTSTYLE_1
 70
0
 40
0.0
 41
0.8
 50
0.0
 71
0
 42
0.2
  3
gdt
  4

  0
ENDTAB
  0
TABLE
  2
VIEW
  5
6
100
AcDbSymbolTable
 70
0
  0
ENDTAB
  0
TABLE
  2
UCS
  5
7
100
AcDbSymbolTable
 70
0
  0
ENDTAB
  0
TABLE
  2
APPID
  5
9
100
AcDbSymbolTable
 70
1
  0
APPID
  5
20F
100
AcDbSymbolTableRecord
100
AcDbRegAppTableRecord
  2
ACAD
 70
0
  0
ENDTAB
  0
TABLE
  2
BLOCK_RECORD
  5
1
100
AcDbSymbolTable
 70
0
  0
BLOCK_RECORD
  5
210
100
AcDbSymbolTableRecord
100
AcDbBlockTableRecord
  2
*Model_Space
  0
BLOCK_RECORD
  5
211
100
AcDbSymbolTableRecord
100
AcDbBlockTableRecord
  2
*Paper_Space
  0
BLOCK_RECORD
  5
212
100
AcDbSymbolTableRecord
100
AcDbBlockTableRecord
  2
_FILLED
  0
ENDTAB
  0
TABLE
  2
DIMSTYLE
  5
A
100
AcDbSymbolTable
 70
1
100
AcDbDimStyleTable
 71
0
  0
DIMSTYLE
105
213
100
AcDbSymbolTableRecord
100
AcDbDimStyleTableRecord
  2
STANDARD
 70
0
  3

  4

 40
1.0
 41
1.5951270546
 42
1.0
 43
0.38
 44
1.0
 45
0.0
 46
0.0
 47
0.01
 48
0.01
140
2.2331778765
141
0.09
142
0.0
143
25.4
144
1.0
145
0.0
146
1.0
147
0.625
 71
1
 72
0
 73
0
 74
0
 75
0
 76
0
 77
1
 78
8
 79
2
170
0
171
1
172
0
173
0
174
0
175
0
176
0
177
0
178
0
270
2
179
2
271
2
272
2
273
2
274
2
275
0
280
0
281
0
282
0
283
1
284
8
285
0
286
0
287
3
288
0
340
11
278
46
341
212
342
212
343
212
344
212
  0
ENDTAB
  0
ENDSEC
  0
SECTION
  2
BLOCKS
  0
BLOCK
  5
20
100
AcDbEntity
  8
0
100
AcDbBlockBegin
  2
*Model_Space
 70
0
 10
0.0
 20
0.0
 30
0.0
  3
*Model_Space
  1

  0
ENDBLK
  5
21
100
AcDbEntity
  8
0
100
AcDbBlockEnd
  0
BLOCK
  5
1C
100
AcDbEntity
  8
0
100
AcDbBlockBegin
  2
*Paper_Space
 70
0
 10
0.0
 20
0.0
 30
0.0
  3
*Paper_Space
  1

  0
ENDBLK
  5
1D
100
AcDbEntity
  8
0
100
AcDbBlockEnd
  0
BLOCK
  5
214
100
AcDbEntity
  8
0
100
AcDbBlockBegin
  2
_FILLED
 70
64
 10
0.0
 20
0.0
  3
_FILLED
  1

  0
SOLID
  5
215
100
AcDbEntity
  8
0
  6
BYBLOCK
 62
0
100
AcDbTrace
 10
0.0
 20
0.0
 11
-1.0
 21
0.25
 12
-1.0
 22
-0.25
 13
-1.0
 23
-0.25
  0
ENDBLK
  5
216
100
AcDbEntity
  8
0
  6
BYBLOCK
 62
0
100
AcDbBlockEnd
  0
ENDSEC
  0
SECTION
  2
ENTITIES
  0
LINE
  5
217
100
AcDbEntity
  8
0
100
AcDbLine
 62
7
  6
CONTINUOUS
 10
15.8509161638
 20
111.7044420131
 11
15.8509161638
 21
64.2044420131
  0
LINE
  5
218
100
AcDbEntity
  8
0
100
AcDbLine
 62
7
  6
CONTINUOUS
 10
16.3509161638
 20
126.7044420131
 11
16.3509161638
 21
111.7044420131
  0
LINE
  5
219
100
AcDbEntity
  8
0
100
AcDbLine
 62
7
  6
CONTINUOUS
 10
17.3509161638
 20
64.2044420131
 11
17.3509161638
 21
108.7044420131
  0
LINE
  5
21A
100
AcDbEntity
  8
0
100
AcDbLine
 62
7
  6
CONTINUOUS
 10
19.3509161638
 20
104.7195615806
 11
19.3509161638
 21
70.2044420131
  0
LINE
  5
21B
100
AcDbEntity
  8
0
100
AcDbLine
 62
7
  6
CONTINUOUS
 10
20.3509161638
 20
107.7044420131
 11
20.3509161638
 21
105.7044420131
  0
LINE
  5
21C
100
AcDbEntity
  8
0
100
AcDbLine
 62
7
  6
CONTINUOUS
 10
20.3509161638
 20
104.3044420131
 11
20.3509161638
 21
100.3044420131
  0
LINE
  5
21D
100
AcDbEntity
  8
0
100
AcDbLine
 62
7
  6
CONTINUOUS
 10
20.3509161638
 20
70.2044420131
 11
20.3509161638
 21
64.2044420131
  0
LINE
  5
21E
100
AcDbEntity
  8
0
100
AcDbLine
 62
7
  6
CONTINUOUS
 10
20.8094642795
 20
104.7044420131
 11
20.8094642795
 21
107.7044420131
  0
LINE
  5
21F
100
AcDbEntity
  8
0
100
AcDbLine
 62
7
  6
CONTINUOUS
 10
21.1009161638
 20
108.7044420131
 11
21.1009161638
 21
107.7044420131
  0
LINE
  5
220
100
AcDbEntity
  8
0
100
AcDbLine
 62
7
  6
CONTINUOUS
 10
21.1009161638
 20
92.3045064274
 11
21.1009161638
 21
104.7044420131
  0
LINE
  5
221
100
AcDbEntity
  8
0
100
AcDbLine
 62
7
  6
CONTINUOUS
 10
22.8301902217
 20
104.7044420131
 11
22.8301902217
 21
107.7044420131
  0
LINE
  5
222
100
AcDbEntity
  8
0
100
AcDbLine
 62
7
  6
CONTINUOUS
 10
22.9009161638
 20
92.3045067853
 11
22.9009161638
 21
104.3044420131
  0
LINE
  5
223
100
AcDbEntity
  8
0
100
AcDbLine
 62
7
  6
CONTINUOUS
 10
23.3509161638
 20
74.8044420131
 11
23.3509161638
 21
104.3044420131
  0
LINE
  5
224
100
AcDbEntity
  8
0
100
AcDbLine
 62
7
  6
CONTINUOUS
 10
26.871642106
 20
104.7044420131
 11
26.871642106
 21
107.7044420131
  0
LWPOLYLINE
  5
225
100
AcDbEntity
  8
0
100
AcDbPolyline
 62
7
  6
CONTINUOUS
 90
4
 70
0
 10
34.1092853162
 20
70.3924989187
 10
34.1804375997
 20
70.2783854259
 10
34.2680483655
 20
70.1274182077
 10
34.3690534812
 20
69.9408170188
  0
LINE
  5
226
100
AcDbEntity
  8
0
100
AcDbLine
 62
7
  6
CONTINUOUS
 10
28.6009161638
 20
108.7044420131
 11
28.6009161638
 21
107.7044420131
  0
LINE
  5
227
100
AcDbEntity
  8
0
100
AcDbLine
 62
7
  6
CONTINUOUS
 10
28.8923680482
 20
104.7044420131
 11
28.8923680482
 21
107.7044420131
  0
LINE
  5
228
100
AcDbEntity
  8
0
100
AcDbLine
 62
7
  6
CONTINUOUS
 10
32.1009161638
 20
119.7044420131
 11
32.1009161638
 21
111.7044420131
  0
LINE
  5
229
100
AcDbEntity
  8
0
100
AcDbLine
 62
7
  6
CONTINUOUS
 10
32.3509161638
 20
72.3044420131
 11
32.3509161638
 21
75.8044420131
  0
LINE
  5
22A
100
AcDbEntity
  8
0
100
AcDbLine
 62
7
  6
CONTINUOUS
 10
32.8509161638
 20
111.7044420131
 11
32.8509161638
 21
116.6044420131
  0
LINE
  5
22B
100
AcDbEntity
  8
0
100
AcDbLine
 62
7
  6
CONTINUOUS
 10
33.7509161638
 20
118.3044420131
 11
33.7509161638
 21
116.6044420131
  0
LINE
  5
22C
100
AcDbEntity
  8
0
100
AcDbLine
 62
7
  6
CONTINUOUS
 10
33.8009161638
 20
71.4044420131
 11
33.8009161638
 21
72.3044420131
  0
LINE
  5
22D
100
AcDbEntity
  8
0
100
AcDbLine
 62
7
  6
CONTINUOUS
 10
33.8509161638
 20
118.2044420131
 11
33.8509161638
 21
112.7044420131
  0
LINE
  5
22E
100
AcDbEntity
  8
0
100
AcDbLine
 62
7
  6
CONTINUOUS
 10
34.5509161638
 20
72.3044420131
 11
34.5509161638
 21
75.8044420131
  0
LINE
  5
22F
100
AcDbEntity
  8
0
100
AcDbLine
 62
7
  6
CONTINUOUS
 10
34.6509161638
 20
64.0444420131
 11
34.6509161638
 21
69.6301289041
  0
LINE
  5
230
100
AcDbEntity
  8
0
100
AcDbLine
 62
7
  6
CONTINUOUS
 10
34.8509161638
 20
118.3044420131
 11
34.8509161638
 21
119.2044420131
  0
LINE
  5
231
100
AcDbEntity
  8
0
100
AcDbLine
 62
7
  6
CONTINUOUS
 10
35.0509161638
 20
69.4031056028
 11
35.0509161638
 21
63.7244420131
  0
LWPOLYLINE
  5
232
100
AcDbEntity
  8
0
100
AcDbPolyline
 62
7
  6
CONTINUOUS
 90
4
 70
0
 10
45.7092853162
 20
70.3924989187
 10
45.7804375997
 20
70.2783854259
 10
45.8680483655
 20
70.1274182077
 10
45.9690534812
 20
69.9408170188
  0
LINE
  5
233
100
AcDbEntity
  8
0
100
AcDbLine
 62
7
  6
CONTINUOUS
 10
38.0509161638
 20
63.7244420131
 11
38.0509161638
 21
69.403097975
  0
LINE
  5
234
100
AcDbEntity
  8
0
100
AcDbLine
 62
7
  6
CONTINUOUS
 10
38.4509161638
 20
69.6301632536
 11
38.4509161638
 21
64.0444420131
  0
LINE
  5
235
100
AcDbEntity
  8
0
100
AcDbLine
 62
7
  6
CONTINUOUS
 10
38.5509161638
 20
74.8044420131
 11
38.5509161638
 21
74.0540337126
  0
LINE
  5
236
100
AcDbEntity
  8
0
100
AcDbLine
 62
7
  6
CONTINUOUS
 10
39.3009161638
 20
71.4044420131
 11
39.3009161638
 21
74.8044420131
  0
LINE
  5
237
100
AcDbEntity
  8
0
100
AcDbLine
 62
7
  6
CONTINUOUS
 10
39.8509161638
 20
119.7044420131
 11
39.8509161638
 21
119.2044420131
  0
LINE
  5
238
100
AcDbEntity
  8
0
100
AcDbLine
 62
7
  6
CONTINUOUS
 10
35.0509161638
 20
63.7244420131
 11
38.0509161638
 21
63.7244420131
  0
LINE
  5
239
100
AcDbEntity
  8
0
100
AcDbLine
 62
7
  6
CONTINUOUS
 10
46.6509161638
 20
63.7244420131
 11
49.6509161638
 21
63.7244420131
  0
LINE
  5
23A
100
AcDbEntity
  8
0
100
AcDbLine
 62
7
  6
CONTINUOUS
 10
58.2509161638
 20
63.7244420131
 11
61.2509161638
 21
63.7244420131
  0
LINE
  5
23B
100
AcDbEntity
  8
0
100
AcDbLine
 62
7
  6
CONTINUOUS
 10
15.8509161638
 20
64.2044420131
 11
20.3509161638
 21
64.2044420131
  0
LINE
  5
23C
100
AcDbEntity
  8
0
100
AcDbLine
 62
7
  6
CONTINUOUS
 10
64.3509161638
 20
64.2044420131
 11
73.3509161638
 21
64.2044420131
  0
LINE
  5
23D
100
AcDbEntity
  8
0
100
AcDbLine
 62
7
  6
CONTINUOUS
 10
117.3509161638
 20
64.2044420131
 11
121.8509161638
 21
64.2044420131
  0
LINE
  5
23E
100
AcDbEntity
  8
0
100
AcDbLine
 62
7
  6
CONTINUOUS
 10
41.8509161638
 20
112.7044420131
 11
41.8509161638
 21
111.7044420131
  0
LINE
  5
23F
100
AcDbEntity
  8
0
100
AcDbLine
 62
7
  6
CONTINUOUS
 10
42.8509161638
 20
111.7044420131
 11
42.8509161638
 21
112.7044420131
  0
LINE
  5
240
100
AcDbEntity
  8
0
100
AcDbLine
 62
7
  6
CONTINUOUS
 10
17.3509161638
 20
70.2044420131
 11
20.3509161638
 21
70.2044420131
  0
LINE
  5
241
100
AcDbEntity
  8
0
100
AcDbLine
 62
7
  6
CONTINUOUS
 10
64.3509161638
 20
70.2044420131
 11
67.3509161638
 21
70.2044420131
  0
LINE
  5
242
100
AcDbEntity
  8
0
100
AcDbLine
 62
7
  6
CONTINUOUS
 10
70.3509161638
 20
70.2044420131
 11
73.3509161638
 21
70.2044420131
  0
LINE
  5
243
100
AcDbEntity
  8
0
100
AcDbLine
 62
7
  6
CONTINUOUS
 10
117.3509161638
 20
70.2044420131
 11
120.3509161638
 21
70.2044420131
  0
LINE
  5
244
100
AcDbEntity
  8
0
100
AcDbLine
 62
7
  6
CONTINUOUS
 10
44.8509161638
 20
119.7044420131
 11
44.8509161638
 21
119.2044420131
  0
LINE
  5
245
100
AcDbEntity
  8
0
100
AcDbLine
 62
7
  6
CONTINUOUS
 10
45.4009161638
 20
71.4044420131
 11
45.4009161638
 21
74.8044420131
  0
LINE
  5
246
100
AcDbEntity
  8
0
100
AcDbLine
 62
7
  6
CONTINUOUS
 10
46.1509161638
 20
74.8044420131
 11
46.1509161638
 21
74.0541916234
  0
LINE
  5
247
100
AcDbEntity
  8
0
100
AcDbLine
 62
7
  6
CONTINUOUS
 10
46.2509161638
 20
64.0444420131
 11
46.2509161638
 21
69.6301289041
  0
LINE
  5
248
100
AcDbEntity
  8
0
100
AcDbLine
 62
7
  6
CONTINUOUS
 10
46.6509161638
 20
69.4031056028
 11
46.6509161638
 21
63.7244420131
  0
LINE
  5
249
100
AcDbEntity
  8
0
100
AcDbLine
 62
7
  6
CONTINUOUS
 10
32.3509161638
 20
72.3044420131
 11
34.5509161638
 21
72.3044420131
  0
LINE
  5
24A
100
AcDbEntity
  8
0
100
AcDbLine
 62
7
  6
CONTINUOUS
 10
50.1509161638
 20
72.3044420131
 11
52.3509161638
 21
72.3044420131
  0
LINE
  5
24B
100
AcDbEntity
  8
0
100
AcDbLine
 62
7
  6
CONTINUOUS
 10
15.8509161638
 20
72.7044420131
 11
17.3509161638
 21
72.7044420131
  0
LINE
  5
24C
100
AcDbEntity
  8
0
100
AcDbLine
 62
7
  6
CONTINUOUS
 10
67.3509161638
 20
72.7044420131
 11
68.8509161638
 21
72.7044420131
  0
LINE
  5
24D
100
AcDbEntity
  8
0
100
AcDbLine
 62
7
  6
CONTINUOUS
 10
23.3509161638
 20
74.8044420131
 11
32.3509161638
 21
74.8044420131
  0
LINE
  5
24E
100
AcDbEntity
  8
0
100
AcDbLine
 62
7
  6
CONTINUOUS
 10
34.5509161638
 20
74.8044420131
 11
50.1509161638
 21
74.8044420131
  0
LINE
  5
24F
100
AcDbEntity
  8
0
100
AcDbLine
 62
7
  6
CONTINUOUS
 10
52.3509161638
 20
74.8044420131
 11
61.3509161638
 21
74.8044420131
  0
LWPOLYLINE
  5
250
100
AcDbEntity
  8
0
100
AcDbPolyline
 62
7
  6
CONTINUOUS
 90
4
 70
0
 10
57.3092853162
 20
70.3924989187
 10
57.3804375997
 20
70.2783854259
 10
57.4680483655
 20
70.1274182077
 10
57.5690534812
 20
69.9408170188
  0
LINE
  5
251
100
AcDbEntity
  8
0
100
AcDbLine
 62
7
  6
CONTINUOUS
 10
49.6509161638
 20
63.7244420131
 11
49.6509161638
 21
69.403097975
  0
LINE
  5
252
100
AcDbEntity
  8
0
100
AcDbLine
 62
7
  6
CONTINUOUS
 10
49.8509161638
 20
118.3044420131
 11
49.8509161638
 21
119.2044420131
  0
LINE
  5
253
100
AcDbEntity
  8
0
100
AcDbLine
 62
7
  6
CONTINUOUS
 10
50.0509161638
 20
69.6301632536
 11
50.0509161638
 21
64.0444420131
  0
LINE
  5
254
100
AcDbEntity
  8
0
100
AcDbLine
 62
7
  6
CONTINUOUS
 10
50.1509161638
 20
72.3044420131
 11
50.1509161638
 21
75.8044420131
  0
LINE
  5
255
100
AcDbEntity
  8
0
100
AcDbLine
 62
7
  6
CONTINUOUS
 10
50.8509161638
 20
112.7044420131
 11
50.8509161638
 21
118.2044420131
  0
LINE
  5
256
100
AcDbEntity
  8
0
100
AcDbLine
 62
7
  6
CONTINUOUS
 10
50.9009161638
 20
71.4044420131
 11
50.9009161638
 21
72.3044420131
  0
LINE
  5
257
100
AcDbEntity
  8
0
100
AcDbLine
 62
7
  6
CONTINUOUS
 10
50.9509161638
 20
116.6044420131
 11
50.9509161638
 21
118.3044420131
  0
LINE
  5
258
100
AcDbEntity
  8
0
100
AcDbLine
 62
7
  6
CONTINUOUS
 10
51.8509161638
 20
116.6044420131
 11
51.8509161638
 21
111.7044420131
  0
LINE
  5
259
100
AcDbEntity
  8
0
100
AcDbLine
 62
7
  6
CONTINUOUS
 10
52.3509161638
 20
72.3044420131
 11
52.3509161638
 21
75.8044420131
  0
LINE
  5
25A
100
AcDbEntity
  8
0
100
AcDbLine
 62
7
  6
CONTINUOUS
 10
52.6009161638
 20
119.7044420131
 11
52.6009161638
 21
111.7044420131
  0
LINE
  5
25B
100
AcDbEntity
  8
0
100
AcDbLine
 62
7
  6
CONTINUOUS
 10
23.3509161638
 20
75.8044420131
 11
61.3509161638
 21
75.8044420131
  0
LINE
  5
25C
100
AcDbEntity
  8
0
100
AcDbLine
 62
7
  6
CONTINUOUS
 10
55.8094642795
 20
104.7044420131
 11
55.8094642795
 21
107.7044420131
  0
LINE
  5
25D
100
AcDbEntity
  8
0
100
AcDbLine
 62
7
  6
CONTINUOUS
 10
56.1009161638
 20
108.7044420131
 11
56.1009161638
 21
107.7044420131
  0
LINE
  5
25E
100
AcDbEntity
  8
0
100
AcDbLine
 62
7
  6
CONTINUOUS
 10
57.0009161638
 20
71.4044420131
 11
57.0009161638
 21
74.8044420131
  0
LWPOLYLINE
  5
25F
100
AcDbEntity
  8
0
100
AcDbPolyline
 62
7
  6
CONTINUOUS
 90
4
 70
0
 10
38.7328142335
 20
69.9410486103
 10
38.8320517141
 20
70.1244641522
 10
38.9208319102
 20
70.2773610539
 10
38.9928205535
 20
70.3927605975
  0
LINE
  5
260
100
AcDbEntity
  8
0
100
AcDbLine
 62
7
  6
CONTINUOUS
 10
57.7509161638
 20
74.8044420131
 11
57.7509161638
 21
74.0541916234
  0
LINE
  5
261
100
AcDbEntity
  8
0
100
AcDbLine
 62
7
  6
CONTINUOUS
 10
57.8301902217
 20
104.7044420131
 11
57.8301902217
 21
107.7044420131
  0
LINE
  5
262
100
AcDbEntity
  8
0
100
AcDbLine
 62
7
  6
CONTINUOUS
 10
57.8509161638
 20
64.0444420131
 11
57.8509161638
 21
69.6301289041
  0
LINE
  5
263
100
AcDbEntity
  8
0
100
AcDbLine
 62
7
  6
CONTINUOUS
 10
58.2509161638
 20
69.4031056028
 11
58.2509161638
 21
63.7244420131
  0
LINE
  5
264
100
AcDbEntity
  8
0
100
AcDbLine
 62
7
  6
CONTINUOUS
 10
68.8509161638
 20
85.7044420131
 11
70.3509161638
 21
85.7044420131
  0
LINE
  5
265
100
AcDbEntity
  8
0
100
AcDbLine
 62
7
  6
CONTINUOUS
 10
120.3509161638
 20
85.7044420131
 11
121.8509161638
 21
85.7044420131
  0
LINE
  5
266
100
AcDbEntity
  8
0
100
AcDbLine
 62
7
  6
CONTINUOUS
 10
61.2509161638
 20
63.7244420131
 11
61.2509161638
 21
69.403097975
  0
LINE
  5
267
100
AcDbEntity
  8
0
100
AcDbLine
 62
7
  6
CONTINUOUS
 10
61.3509161638
 20
74.8044420131
 11
61.3509161638
 21
104.3044420131
  0
LINE
  5
268
100
AcDbEntity
  8
0
100
AcDbLine
 62
7
  6
CONTINUOUS
 10
61.6509161638
 20
69.6301632536
 11
61.6509161638
 21
64.0444420131
  0
LINE
  5
269
100
AcDbEntity
  8
0
100
AcDbLine
 62
7
  6
CONTINUOUS
 10
61.7509161638
 20
92.9049758627
 11
61.7509161638
 21
74.0540337126
  0
LINE
  5
26A
100
AcDbEntity
  8
0
100
AcDbLine
 62
7
  6
CONTINUOUS
 10
61.8009161638
 20
104.3044420131
 11
61.8009161638
 21
92.3045064274
  0
LINE
  5
26B
100
AcDbEntity
  8
0
100
AcDbLine
 62
7
  6
CONTINUOUS
 10
61.871642106
 20
104.7044420131
 11
61.871642106
 21
107.7044420131
  0
LINE
  5
26C
100
AcDbEntity
  8
0
100
AcDbLine
 62
7
  6
CONTINUOUS
 10
62.5009161638
 20
71.4044420131
 11
62.5009161638
 21
75.0044420131
  0
LINE
  5
26D
100
AcDbEntity
  8
0
100
AcDbLine
 62
7
  6
CONTINUOUS
 10
63.6009161638
 20
108.7044420131
 11
63.6009161638
 21
107.7044420131
  0
LINE
  5
26E
100
AcDbEntity
  8
0
100
AcDbLine
 62
7
  6
CONTINUOUS
 10
63.6009161638
 20
92.3045067853
 11
63.6009161638
 21
104.7044420131
  0
LINE
  5
26F
100
AcDbEntity
  8
0
100
AcDbLine
 62
7
  6
CONTINUOUS
 10
63.7509161638
 20
108.7044420131
 11
63.7509161638
 21
107.7044420131
  0
LINE
  5
270
100
AcDbEntity
  8
0
100
AcDbLine
 62
7
  6
CONTINUOUS
 10
63.7509161638
 20
104.7044420131
 11
63.7509161638
 21
104.3044420131
  0
LINE
  5
271
100
AcDbEntity
  8
0
100
AcDbLine
 62
7
  6
CONTINUOUS
 10
63.7509161638
 20
100.3044420131
 11
63.7509161638
 21
96.2044420131
  0
LINE
  5
272
100
AcDbEntity
  8
0
100
AcDbLine
 62
7
  6
CONTINUOUS
 10
63.8923680482
 20
104.7044420131
 11
63.8923680482
 21
107.7044420131
  0
LINE
  5
273
100
AcDbEntity
  8
0
100
AcDbLine
 62
7
  6
CONTINUOUS
 10
64.3509161638
 20
70.2044420131
 11
64.3509161638
 21
64.2044420131
  0
LINE
  5
274
100
AcDbEntity
  8
0
100
AcDbLine
 62
7
  6
CONTINUOUS
 10
64.3509161638
 20
100.3044420131
 11
64.3509161638
 21
104.3044420131
  0
LINE
  5
275
100
AcDbEntity
  8
0
100
AcDbLine
 62
7
  6
CONTINUOUS
 10
64.3509161638
 20
105.7044420131
 11
64.3509161638
 21
107.7044420131
  0
LWPOLYLINE
  5
276
100
AcDbEntity
  8
0
100
AcDbPolyline
 62
7
  6
CONTINUOUS
 90
4
 70
0
 10
50.3328142335
 20
69.9410486103
 10
50.4320517141
 20
70.1244641522
 10
50.5208319102
 20
70.2773610539
 10
50.5928205535
 20
70.3927605975
  0
LINE
  5
277
100
AcDbEntity
  8
0
100
AcDbLine
 62
7
  6
CONTINUOUS
 10
61.3509161638
 20
90.8044420131
 11
23.3509161638
 21
90.8044420131
  0
LINE
  5
278
100
AcDbEntity
  8
0
100
AcDbLine
 62
7
  6
CONTINUOUS
 10
65.3509161638
 20
70.2044420131
 11
65.3509161638
 21
104.7195615806
  0
LINE
  5
279
100
AcDbEntity
  8
0
100
AcDbLine
 62
7
  6
CONTINUOUS
 10
67.3509161638
 20
108.7044420131
 11
67.3509161638
 21
64.2044420131
  0
LINE
  5
27A
100
AcDbEntity
  8
0
100
AcDbLine
 62
7
  6
CONTINUOUS
 10
68.3509161638
 20
126.7044420131
 11
68.3509161638
 21
111.7044420131
  0
LINE
  5
27B
100
AcDbEntity
  8
0
100
AcDbLine
 62
7
  6
CONTINUOUS
 10
68.8509161638
 20
64.2044420131
 11
68.8509161638
 21
110.2044420131
  0
LINE
  5
27C
100
AcDbEntity
  8
0
100
AcDbLine
 62
7
  6
CONTINUOUS
 10
69.3509161638
 20
126.7044420131
 11
69.3509161638
 21
111.7044420131
  0
LINE
  5
27D
100
AcDbEntity
  8
0
100
AcDbLine
 62
7
  6
CONTINUOUS
 10
21.1009161638
 20
92.3044420131
 11
22.9009161638
 21
92.3044420131
  0
LINE
  5
27E
100
AcDbEntity
  8
0
100
AcDbLine
 62
7
  6
CONTINUOUS
 10
61.8009161638
 20
92.3044420131
 11
63.6009161638
 21
92.3044420131
  0
LINE
  5
27F
100
AcDbEntity
  8
0
100
AcDbLine
 62
7
  6
CONTINUOUS
 10
21.1009161638
 20
92.9049758627
 11
22.9009161638
 21
92.9049758627
  0
LINE
  5
280
100
AcDbEntity
  8
0
100
AcDbLine
 62
7
  6
CONTINUOUS
 10
61.8009161638
 20
92.9049758627
 11
63.6009161638
 21
92.9049758627
  0
LINE
  5
281
100
AcDbEntity
  8
0
100
AcDbLine
 62
7
  6
CONTINUOUS
 10
61.3509161638
 20
93.1044420131
 11
61.8009161638
 21
93.1044420131
  0
LINE
  5
282
100
AcDbEntity
  8
0
100
AcDbLine
 62
7
  6
CONTINUOUS
 10
70.3509161638
 20
64.2044420131
 11
70.3509161638
 21
108.7044420131
  0
LINE
  5
283
100
AcDbEntity
  8
0
100
AcDbLine
 62
7
  6
CONTINUOUS
 10
72.3509161638
 20
104.7195615806
 11
72.3509161638
 21
70.2044420131
  0
LINE
  5
284
100
AcDbEntity
  8
0
100
AcDbLine
 62
7
  6
CONTINUOUS
 10
73.3509161638
 20
107.7044420131
 11
73.3509161638
 21
105.7044420131
  0
LINE
  5
285
100
AcDbEntity
  8
0
100
AcDbLine
 62
7
  6
CONTINUOUS
 10
73.3509161638
 20
70.2044420131
 11
73.3509161638
 21
64.2044420131
  0
LINE
  5
286
100
AcDbEntity
  8
0
100
AcDbLine
 62
7
  6
CONTINUOUS
 10
61.8009161638
 20
96.2044420131
 11
61.3509161638
 21
96.2044420131
  0
LINE
  5
287
100
AcDbEntity
  8
0
100
AcDbLine
 62
7
  6
CONTINUOUS
 10
63.6009161638
 20
96.2044420131
 11
63.7509161638
 21
96.2044420131
  0
LINE
  5
288
100
AcDbEntity
  8
0
100
AcDbLine
 62
7
  6
CONTINUOUS
 10
73.8094642795
 20
104.7044420131
 11
73.8094642795
 21
109.2044420131
  0
LINE
  5
289
100
AcDbEntity
  8
0
100
AcDbLine
 62
7
  6
CONTINUOUS
 10
74.1009161638
 20
110.2044420131
 11
74.1009161638
 21
109.2044420131
  0
LINE
  5
28A
100
AcDbEntity
  8
0
100
AcDbLine
 62
7
  6
CONTINUOUS
 10
75.8301902217
 20
104.7044420131
 11
75.8301902217
 21
109.2044420131
  0
LINE
  5
28B
100
AcDbEntity
  8
0
100
AcDbLine
 62
7
  6
CONTINUOUS
 10
76.1509161638
 20
104.4044420131
 11
76.1509161638
 21
104.7044420131
  0
LINE
  5
28C
100
AcDbEntity
  8
0
100
AcDbLine
 62
7
  6
CONTINUOUS
 10
76.1509161638
 20
106.0044420131
 11
76.1509161638
 21
106.2044420131
  0
LINE
  5
28D
100
AcDbEntity
  8
0
100
AcDbLine
 62
7
  6
CONTINUOUS
 10
77.1009161638
 20
104.2044420131
 11
77.1009161638
 21
104.4044420131
  0
LWPOLYLINE
  5
28E
100
AcDbEntity
  8
0
100
AcDbPolyline
 62
7
  6
CONTINUOUS
 90
4
 70
0
 10
61.9328142335
 20
69.9410486103
 10
62.0320517141
 20
70.1244641522
 10
62.1208319102
 20
70.2773610539
 10
62.1928205535
 20
70.3927605975
  0
LINE
  5
28F
100
AcDbEntity
  8
0
100
AcDbLine
 62
7
  6
CONTINUOUS
 10
64.3509161638
 20
100.3044420131
 11
63.6009161638
 21
100.3044420131
  0
LINE
  5
290
100
AcDbEntity
  8
0
100
AcDbLine
 62
7
  6
CONTINUOUS
 10
61.8009161638
 20
100.3044420131
 11
61.3509161638
 21
100.3044420131
  0
LINE
  5
291
100
AcDbEntity
  8
0
100
AcDbLine
 62
7
  6
CONTINUOUS
 10
20.3509161638
 20
100.3044420131
 11
21.1009161638
 21
100.3044420131
  0
LINE
  5
292
100
AcDbEntity
  8
0
100
AcDbLine
 62
7
  6
CONTINUOUS
 10
22.9009161638
 20
100.3044420131
 11
23.3509161638
 21
100.3044420131
  0
LINE
  5
293
100
AcDbEntity
  8
0
100
AcDbLine
 62
7
  6
CONTINUOUS
 10
79.5509161638
 20
104.4044420131
 11
79.5509161638
 21
104.7044420131
  0
LINE
  5
294
100
AcDbEntity
  8
0
100
AcDbLine
 62
7
  6
CONTINUOUS
 10
79.5509161638
 20
106.0044420131
 11
79.5509161638
 21
106.2044420131
  0
LINE
  5
295
100
AcDbEntity
  8
0
100
AcDbLine
 62
7
  6
CONTINUOUS
 10
79.871642106
 20
104.7044420131
 11
79.871642106
 21
109.2044420131
  0
LINE
  5
296
100
AcDbEntity
  8
0
100
AcDbLine
 62
7
  6
CONTINUOUS
 10
80.1009161638
 20
104.2044420131
 11
80.1009161638
 21
104.7044420131
  0
LINE
  5
297
100
AcDbEntity
  8
0
100
AcDbLine
 62
7
  6
CONTINUOUS
 10
81.6009161638
 20
110.2044420131
 11
81.6009161638
 21
109.2044420131
  0
LINE
  5
298
100
AcDbEntity
  8
0
100
AcDbLine
 62
7
  6
CONTINUOUS
 10
113.6009161638
 20
104.2044420131
 11
110.6009161638
 21
104.2044420131
  0
LINE
  5
299
100
AcDbEntity
  8
0
100
AcDbLine
 62
7
  6
CONTINUOUS
 10
77.1009161638
 20
104.2044420131
 11
80.1009161638
 21
104.2044420131
  0
LINE
  5
29A
100
AcDbEntity
  8
0
100
AcDbLine
 62
7
  6
CONTINUOUS
 10
20.3509161638
 20
104.3044420131
 11
64.3509161638
 21
104.3044420131
  0
LINE
  5
29B
100
AcDbEntity
  8
0
100
AcDbLine
 62
7
  6
CONTINUOUS
 10
76.1509161638
 20
104.4044420131
 11
79.5509161638
 21
104.4044420131
  0
LINE
  5
29C
100
AcDbEntity
  8
0
100
AcDbLine
 62
7
  6
CONTINUOUS
 10
111.1509161638
 20
104.4044420131
 11
114.5509161638
 21
104.4044420131
  0
LINE
  5
29D
100
AcDbEntity
  8
0
100
AcDbLine
 62
7
  6
CONTINUOUS
 10
20.8094642795
 20
104.7044420131
 11
28.8923680482
 21
104.7044420131
  0
LINE
  5
29E
100
AcDbEntity
  8
0
100
AcDbLine
 62
7
  6
CONTINUOUS
 10
55.8094642795
 20
104.7044420131
 11
63.8923680482
 21
104.7044420131
  0
LINE
  5
29F
100
AcDbEntity
  8
0
100
AcDbLine
 62
7
  6
CONTINUOUS
 10
73.8094642795
 20
104.7044420131
 11
81.8923680482
 21
104.7044420131
  0
LINE
  5
2A0
100
AcDbEntity
  8
0
100
AcDbLine
 62
7
  6
CONTINUOUS
 10
108.8094642795
 20
104.7044420131
 11
116.8923680481
 21
104.7044420131
  0
LINE
  5
2A1
100
AcDbEntity
  8
0
100
AcDbLine
 62
7
  6
CONTINUOUS
 10
120.3509161638
 20
105.2044420131
 11
121.8509161638
 21
105.2044420131
  0
LINE
  5
2A2
100
AcDbEntity
  8
0
100
AcDbLine
 62
7
  6
CONTINUOUS
 10
117.3509161638
 20
105.7044420131
 11
116.8923680481
 21
105.7044420131
  0
LINE
  5
2A3
100
AcDbEntity
  8
0
100
AcDbLine
 62
7
  6
CONTINUOUS
 10
108.8094642795
 20
105.7044420131
 11
107.3509161638
 21
105.7044420131
  0
LINE
  5
2A4
100
AcDbEntity
  8
0
100
AcDbLine
 62
7
  6
CONTINUOUS
 10
83.3509161638
 20
105.7044420131
 11
81.8923680482
 21
105.7044420131
  0
LINE
  5
2A5
100
AcDbEntity
  8
0
100
AcDbLine
 62
7
  6
CONTINUOUS
 10
73.8094642795
 20
105.7044420131
 11
73.3509161638
 21
105.7044420131
  0
LINE
  5
2A6
100
AcDbEntity
  8
0
100
AcDbLine
 62
7
  6
CONTINUOUS
 10
64.3509161638
 20
105.7044420131
 11
63.8923680482
 21
105.7044420131
  0
LINE
  5
2A7
100
AcDbEntity
  8
0
100
AcDbLine
 62
7
  6
CONTINUOUS
 10
20.8094642795
 20
105.7044420131
 11
20.3509161638
 21
105.7044420131
  0
LINE
  5
2A8
100
AcDbEntity
  8
0
100
AcDbLine
 62
7
  6
CONTINUOUS
 10
76.1509161638
 20
106.0044420131
 11
79.5509161638
 21
106.0044420131
  0
LINE
  5
2A9
100
AcDbEntity
  8
0
100
AcDbLine
 62
7
  6
CONTINUOUS
 10
111.1509161638
 20
106.0044420131
 11
114.5509161638
 21
106.0044420131
  0
LINE
  5
2AA
100
AcDbEntity
  8
0
100
AcDbLine
 62
7
  6
CONTINUOUS
 10
73.8094642795
 20
106.2044420131
 11
81.8923680482
 21
106.2044420131
  0
LINE
  5
2AB
100
AcDbEntity
  8
0
100
AcDbLine
 62
7
  6
CONTINUOUS
 10
108.8094642795
 20
106.2044420131
 11
116.8923680481
 21
106.2044420131
  0
LINE
  5
2AC
100
AcDbEntity
  8
0
100
AcDbLine
 62
7
  6
CONTINUOUS
 10
103.3509161638
 20
106.7044420131
 11
87.3509161638
 21
106.7044420131
  0
LINE
  5
2AD
100
AcDbEntity
  8
0
100
AcDbLine
 62
7
  6
CONTINUOUS
 10
117.3509161638
 20
107.7044420131
 11
116.8923680481
 21
107.7044420131
  0
LINE
  5
2AE
100
AcDbEntity
  8
0
100
AcDbLine
 62
7
  6
CONTINUOUS
 10
108.8094642795
 20
107.7044420131
 11
107.3509161638
 21
107.7044420131
  0
LINE
  5
2AF
100
AcDbEntity
  8
0
100
AcDbLine
 62
7
  6
CONTINUOUS
 10
83.3509161638
 20
107.7044420131
 11
81.8923680482
 21
107.7044420131
  0
LINE
  5
2B0
100
AcDbEntity
  8
0
100
AcDbLine
 62
7
  6
CONTINUOUS
 10
73.8094642795
 20
107.7044420131
 11
73.3509161638
 21
107.7044420131
  0
LINE
  5
2B1
100
AcDbEntity
  8
0
100
AcDbLine
 62
7
  6
CONTINUOUS
 10
20.3509161638
 20
107.7044420131
 11
28.8923680482
 21
107.7044420131
  0
LINE
  5
2B2
100
AcDbEntity
  8
0
100
AcDbLine
 62
7
  6
CONTINUOUS
 10
55.8094642795
 20
107.7044420131
 11
64.3509161638
 21
107.7044420131
  0
LINE
  5
2B3
100
AcDbEntity
  8
0
100
AcDbLine
 62
7
  6
CONTINUOUS
 10
81.8923680482
 20
104.7044420131
 11
81.8923680482
 21
109.2044420131
  0
LINE
  5
2B4
100
AcDbEntity
  8
0
100
AcDbLine
 62
7
  6
CONTINUOUS
 10
83.3509161638
 20
105.7044420131
 11
83.3509161638
 21
107.7044420131
  0
LINE
  5
2B5
100
AcDbEntity
  8
0
100
AcDbLine
 62
7
  6
CONTINUOUS
 10
85.1009161638
 20
119.7044420131
 11
85.1009161638
 21
111.7044420131
  0
LINE
  5
2B6
100
AcDbEntity
  8
0
100
AcDbLine
 62
7
  6
CONTINUOUS
 10
120.3509161638
 20
108.7044420131
 11
116.8923680481
 21
108.7044420131
  0
LINE
  5
2B7
100
AcDbEntity
  8
0
100
AcDbLine
 62
7
  6
CONTINUOUS
 10
108.8094642795
 20
108.7044420131
 11
81.8923680482
 21
108.7044420131
  0
LINE
  5
2B8
100
AcDbEntity
  8
0
100
AcDbLine
 62
7
  6
CONTINUOUS
 10
73.8094642795
 20
108.7044420131
 11
70.3509161638
 21
108.7044420131
  0
LINE
  5
2B9
100
AcDbEntity
  8
0
100
AcDbLine
 62
7
  6
CONTINUOUS
 10
67.3509161638
 20
108.7044420131
 11
17.3509161638
 21
108.7044420131
  0
LINE
  5
2BA
100
AcDbEntity
  8
0
100
AcDbLine
 62
7
  6
CONTINUOUS
 10
73.8094642795
 20
109.2044420131
 11
81.8923680482
 21
109.2044420131
  0
LINE
  5
2BB
100
AcDbEntity
  8
0
100
AcDbLine
 62
7
  6
CONTINUOUS
 10
108.8094642795
 20
109.2044420131
 11
116.8923680481
 21
109.2044420131
  0
LINE
  5
2BC
100
AcDbEntity
  8
0
100
AcDbLine
 62
7
  6
CONTINUOUS
 10
120.3509161638
 20
110.2044420131
 11
15.8509161638
 21
110.2044420131
  0
LINE
  5
2BD
100
AcDbEntity
  8
0
100
AcDbLine
 62
7
  6
CONTINUOUS
 10
121.8509161638
 20
111.7044420131
 11
15.8509161638
 21
111.7044420131
  0
LINE
  5
2BE
100
AcDbEntity
  8
0
100
AcDbLine
 62
7
  6
CONTINUOUS
 10
85.8509161638
 20
111.7044420131
 11
85.8509161638
 21
116.6044420131
  0
LINE
  5
2BF
100
AcDbEntity
  8
0
100
AcDbLine
 62
7
  6
CONTINUOUS
 10
86.3509161638
 20
107.5505958593
 11
86.3509161638
 21
106.858288167
  0
LINE
  5
2C0
100
AcDbEntity
  8
0
100
AcDbLine
 62
7
  6
CONTINUOUS
 10
86.7509161638
 20
118.3044420131
 11
86.7509161638
 21
116.6044420131
  0
LINE
  5
2C1
100
AcDbEntity
  8
0
100
AcDbLine
 62
7
  6
CONTINUOUS
 10
86.8509161638
 20
118.2044420131
 11
86.8509161638
 21
112.7044420131
  0
LINE
  5
2C2
100
AcDbEntity
  8
0
100
AcDbLine
 62
7
  6
CONTINUOUS
 10
87.3509161638
 20
108.7044420131
 11
87.3509161638
 21
106.7044420131
  0
LINE
  5
2C3
100
AcDbEntity
  8
0
100
AcDbLine
 62
7
  6
CONTINUOUS
 10
87.8509161638
 20
118.3044420131
 11
87.8509161638
 21
119.2044420131
  0
LINE
  5
2C4
100
AcDbEntity
  8
0
100
AcDbLine
 62
7
  6
CONTINUOUS
 10
33.8509161638
 20
112.7044420131
 11
41.8509161638
 21
112.7044420131
  0
LINE
  5
2C5
100
AcDbEntity
  8
0
100
AcDbLine
 62
7
  6
CONTINUOUS
 10
42.8509161638
 20
112.7044420131
 11
50.8509161638
 21
112.7044420131
  0
LINE
  5
2C6
100
AcDbEntity
  8
0
100
AcDbLine
 62
7
  6
CONTINUOUS
 10
86.8509161638
 20
112.7044420131
 11
94.8509161638
 21
112.7044420131
  0
LINE
  5
2C7
100
AcDbEntity
  8
0
100
AcDbLine
 62
7
  6
CONTINUOUS
 10
95.8509161638
 20
112.7044420131
 11
103.8509161638
 21
112.7044420131
  0
LINE
  5
2C8
100
AcDbEntity
  8
0
100
AcDbLine
 62
7
  6
CONTINUOUS
 10
32.1009161638
 20
113.2044420131
 11
32.8509161638
 21
113.2044420131
  0
LINE
  5
2C9
100
AcDbEntity
  8
0
100
AcDbLine
 62
7
  6
CONTINUOUS
 10
92.8509161638
 20
119.7044420131
 11
92.8509161638
 21
119.2044420131
  0
LINE
  5
2CA
100
AcDbEntity
  8
0
100
AcDbLine
 62
7
  6
CONTINUOUS
 10
86.7509161638
 20
116.6044420131
 11
85.8509161638
 21
116.6044420131
  0
LINE
  5
2CB
100
AcDbEntity
  8
0
100
AcDbLine
 62
7
  6
CONTINUOUS
 10
33.7509161638
 20
116.6044420131
 11
32.8509161638
 21
116.6044420131
  0
LINE
  5
2CC
100
AcDbEntity
  8
0
100
AcDbLine
 62
7
  6
CONTINUOUS
 10
50.9509161638
 20
116.6044420131
 11
51.8509161638
 21
116.6044420131
  0
LINE
  5
2CD
100
AcDbEntity
  8
0
100
AcDbLine
 62
7
  6
CONTINUOUS
 10
103.9509161638
 20
116.6044420131
 11
104.8509161638
 21
116.6044420131
  0
LINE
  5
2CE
100
AcDbEntity
  8
0
100
AcDbLine
 62
7
  6
CONTINUOUS
 10
103.8509161638
 20
118.2044420131
 11
86.8509161638
 21
118.2044420131
  0
LINE
  5
2CF
100
AcDbEntity
  8
0
100
AcDbLine
 62
7
  6
CONTINUOUS
 10
50.8509161638
 20
118.2044420131
 11
33.8509161638
 21
118.2044420131
  0
LINE
  5
2D0
100
AcDbEntity
  8
0
100
AcDbLine
 62
7
  6
CONTINUOUS
 10
103.9509161638
 20
118.3044420131
 11
102.8509161638
 21
118.3044420131
  0
LINE
  5
2D1
100
AcDbEntity
  8
0
100
AcDbLine
 62
7
  6
CONTINUOUS
 10
87.8509161638
 20
118.3044420131
 11
86.7509161638
 21
118.3044420131
  0
LINE
  5
2D2
100
AcDbEntity
  8
0
100
AcDbLine
 62
7
  6
CONTINUOUS
 10
50.9509161638
 20
118.3044420131
 11
49.8509161638
 21
118.3044420131
  0
LINE
  5
2D3
100
AcDbEntity
  8
0
100
AcDbLine
 62
7
  6
CONTINUOUS
 10
34.8509161638
 20
118.3044420131
 11
33.7509161638
 21
118.3044420131
  0
LINE
  5
2D4
100
AcDbEntity
  8
0
100
AcDbLine
 62
7
  6
CONTINUOUS
 10
34.8509161638
 20
119.2044420131
 11
49.8509161638
 21
119.2044420131
  0
LINE
  5
2D5
100
AcDbEntity
  8
0
100
AcDbLine
 62
7
  6
CONTINUOUS
 10
87.8509161638
 20
119.2044420131
 11
102.8509161638
 21
119.2044420131
  0
LINE
  5
2D6
100
AcDbEntity
  8
0
100
AcDbLine
 62
7
  6
CONTINUOUS
 10
105.6009161638
 20
119.7044420131
 11
85.1009161638
 21
119.7044420131
  0
LINE
  5
2D7
100
AcDbEntity
  8
0
100
AcDbLine
 62
7
  6
CONTINUOUS
 10
52.6009161638
 20
119.7044420131
 11
32.1009161638
 21
119.7044420131
  0
LINE
  5
2D8
100
AcDbEntity
  8
0
100
AcDbLine
 62
7
  6
CONTINUOUS
 10
94.8509161638
 20
112.7044420131
 11
94.8509161638
 21
111.7044420131
  0
LINE
  5
2D9
100
AcDbEntity
  8
0
100
AcDbLine
 62
7
  6
CONTINUOUS
 10
95.8509161638
 20
111.7044420131
 11
95.8509161638
 21
112.7044420131
  0
LINE
  5
2DA
100
AcDbEntity
  8
0
100
AcDbLine
 62
7
  6
CONTINUOUS
 10
97.8509161638
 20
119.7044420131
 11
97.8509161638
 21
119.2044420131
  0
LINE
  5
2DB
100
AcDbEntity
  8
0
100
AcDbLine
 62
7
  6
CONTINUOUS
 10
16.3509161638
 20
125.2044420131
 11
121.3509161638
 21
125.2044420131
  0
LINE
  5
2DC
100
AcDbEntity
  8
0
100
AcDbLine
 62
7
  6
CONTINUOUS
 10
16.3509161638
 20
126.7044420131
 11
121.3509161638
 21
126.7044420131
  0
LINE
  5
2DD
100
AcDbEntity
  8
0
100
AcDbLine
 62
7
  6
CONTINUOUS
 10
102.8509161638
 20
118.3044420131
 11
102.8509161638
 21
119.2044420131
  0
LINE
  5
2DE
100
AcDbEntity
  8
0
100
AcDbLine
 62
7
  6
CONTINUOUS
 10
103.3509161638
 20
106.7044420131
 11
103.3509161638
 21
108.7044420131
  0
LINE
  5
2DF
100
AcDbEntity
  8
0
100
AcDbLine
 62
7
  6
CONTINUOUS
 10
103.8509161638
 20
112.7044420131
 11
103.8509161638
 21
118.2044420131
  0
LINE
  5
2E0
100
AcDbEntity
  8
0
100
AcDbLine
 62
7
  6
CONTINUOUS
 10
103.9509161638
 20
116.6044420131
 11
103.9509161638
 21
118.3044420131
  0
LINE
  5
2E1
100
AcDbEntity
  8
0
100
AcDbLine
 62
7
  6
CONTINUOUS
 10
104.3509161638
 20
106.858288167
 11
104.3509161638
 21
107.5505958593
  0
LINE
  5
2E2
100
AcDbEntity
  8
0
100
AcDbLine
 62
7
  6
CONTINUOUS
 10
104.8509161638
 20
116.6044420131
 11
104.8509161638
 21
111.7044420131
  0
LINE
  5
2E3
100
AcDbEntity
  8
0
100
AcDbLine
 62
7
  6
CONTINUOUS
 10
105.6009161638
 20
119.7044420131
 11
105.6009161638
 21
111.7044420131
  0
LINE
  5
2E4
100
AcDbEntity
  8
0
100
AcDbLine
 62
7
  6
CONTINUOUS
 10
107.3509161638
 20
107.7044420131
 11
107.3509161638
 21
105.7044420131
  0
LINE
  5
2E5
100
AcDbEntity
  8
0
100
AcDbLine
 62
7
  6
CONTINUOUS
 10
108.8094642795
 20
104.7044420131
 11
108.8094642795
 21
109.2044420131
  0
LINE
  5
2E6
100
AcDbEntity
  8
0
100
AcDbLine
 62
7
  6
CONTINUOUS
 10
109.1009161638
 20
110.2044420131
 11
109.1009161638
 21
109.2044420131
  0
LINE
  5
2E7
100
AcDbEntity
  8
0
100
AcDbLine
 62
7
  6
CONTINUOUS
 10
110.6009161638
 20
104.2044420131
 11
110.6009161638
 21
104.7044420131
  0
LINE
  5
2E8
100
AcDbEntity
  8
0
100
AcDbLine
 62
7
  6
CONTINUOUS
 10
110.8301902216
 20
104.7044420131
 11
110.8301902216
 21
109.2044420131
  0
LINE
  5
2E9
100
AcDbEntity
  8
0
100
AcDbLine
 62
7
  6
CONTINUOUS
 10
111.1509161638
 20
104.4044420131
 11
111.1509161638
 21
104.7044420131
  0
LINE
  5
2EA
100
AcDbEntity
  8
0
100
AcDbLine
 62
7
  6
CONTINUOUS
 10
111.1509161638
 20
106.0044420131
 11
111.1509161638
 21
106.2044420131
  0
LINE
  5
2EB
100
AcDbEntity
  8
0
100
AcDbLine
 62
7
  6
CONTINUOUS
 10
113.6009161638
 20
104.2044420131
 11
113.6009161638
 21
104.4044420131
  0
LINE
  5
2EC
100
AcDbEntity
  8
0
100
AcDbLine
 62
7
  6
CONTINUOUS
 10
114.5509161638
 20
104.4044420131
 11
114.5509161638
 21
104.7044420131
  0
LINE
  5
2ED
100
AcDbEntity
  8
0
100
AcDbLine
 62
7
  6
CONTINUOUS
 10
114.5509161638
 20
106.0044420131
 11
114.5509161638
 21
106.2044420131
  0
LINE
  5
2EE
100
AcDbEntity
  8
0
100
AcDbLine
 62
7
  6
CONTINUOUS
 10
114.871642106
 20
104.7044420131
 11
114.871642106
 21
109.2044420131
  0
LINE
  5
2EF
100
AcDbEntity
  8
0
100
AcDbLine
 62
7
  6
CONTINUOUS
 10
116.6009161638
 20
110.2044420131
 11
116.6009161638
 21
109.2044420131
  0
LINE
  5
2F0
100
AcDbEntity
  8
0
100
AcDbLine
 62
7
  6
CONTINUOUS
 10
116.8923680481
 20
104.7044420131
 11
116.8923680481
 21
109.2044420131
  0
LINE
  5
2F1
100
AcDbEntity
  8
0
100
AcDbLine
 62
7
  6
CONTINUOUS
 10
117.3509161638
 20
70.2044420131
 11
117.3509161638
 21
64.2044420131
  0
LINE
  5
2F2
100
AcDbEntity
  8
0
100
AcDbLine
 62
7
  6
CONTINUOUS
 10
117.3509161638
 20
105.7044420131
 11
117.3509161638
 21
107.7044420131
  0
LINE
  5
2F3
100
AcDbEntity
  8
0
100
AcDbLine
 62
7
  6
CONTINUOUS
 10
118.3509161638
 20
70.2044420131
 11
118.3509161638
 21
104.7195615806
  0
LINE
  5
2F4
100
AcDbEntity
  8
0
100
AcDbLine
 62
7
  6
CONTINUOUS
 10
120.3509161638
 20
64.2044420131
 11
120.3509161638
 21
110.2044420131
  0
LINE
  5
2F5
100
AcDbEntity
  8
0
100
AcDbLine
 62
7
  6
CONTINUOUS
 10
121.3509161638
 20
126.7044420131
 11
121.3509161638
 21
111.7044420131
  0
LINE
  5
2F6
100
AcDbEntity
  8
0
100
AcDbLine
 62
7
  6
CONTINUOUS
 10
121.8509161638
 20
64.2044420131
 11
121.8509161638
 21
111.7044420131
  0
ARC
  5
2F7
100
AcDbEntity
  8
0
100
AcDbCircle
 62
7
  6
CONTINUOUS
 10
117.3728001777
 20
104.7186960408
 40
2.9781161119
100
AcDbArc
 50
0.0166520643
 51
9.3150836467
  0
ARC
  5
2F8
100
AcDbEntity
  8
0
100
AcDbCircle
 62
7
  6
CONTINUOUS
 10
117.3803770747
 20
104.7200950609
 40
2.9704126839
100
AcDbArc
 50
9.3121103213
 51
12.8954880889
  0
ARC
  5
2F9
100
AcDbEntity
  8
0
100
AcDbCircle
 62
7
  6
CONTINUOUS
 10
105.3526523933
 20
106.8568751018
 40
0.9981125544
100
AcDbArc
 50
67.4783218548
 51
70.3394723332
  0
ARC
  5
2FA
100
AcDbEntity
  8
0
100
AcDbCircle
 62
7
  6
CONTINUOUS
 10
85.3489736191
 20
106.8573967396
 40
0.997551674
100
AcDbArc
 50
110.1412672896
 51
112.5222079309
  0
ARC
  5
2FB
100
AcDbEntity
  8
0
100
AcDbCircle
 62
7
  6
CONTINUOUS
 10
105.3476088585
 20
107.5503391097
 40
0.9966927277
100
AcDbArc
 50
168.5195713187
 51
179.9852405169
  0
ARC
  5
2FC
100
AcDbEntity
  8
0
100
AcDbCircle
 62
7
  6
CONTINUOUS
 10
85.3542234692
 20
107.5503391097
 40
0.9966927277
100
AcDbArc
 50
0.0147594831
 51
11.4804286813
  0
ARC
  5
2FD
100
AcDbEntity
  8
0
100
AcDbCircle
 62
7
  6
CONTINUOUS
 10
85.3542234692
 20
106.8580314174
 40
0.9966927277
100
AcDbArc
 50
0.0147594831
 51
11.4804286813
  0
ARC
  5
2FE
100
AcDbEntity
  8
0
100
AcDbCircle
 62
7
  6
CONTINUOUS
 10
105.3476088585
 20
106.8580314174
 40
0.9966927277
100
AcDbArc
 50
168.5195713187
 51
179.9852405169
  0
ARC
  5
2FF
100
AcDbEntity
  8
0
100
AcDbCircle
 62
7
  6
CONTINUOUS
 10
85.3451092714
 20
107.5508805673
 40
0.9940978499
100
AcDbArc
 50
143.0816647059
 51
169.23307614
  0
SPLINE
  5
300
100
AcDbEntity
  8
0
100
AcDbSpline
 62
7
  6
CONTINUOUS
 70
0
 71
3
 72
13
 73
9
 74
0
 42
0.0000001
 43
0.0000001
 44
0.0000000001
 40
0.0
 40
0.0
 40
0.0
 40
0.0
 40
0.2742242585
 40
0.5345323808
 40
0.6574316262
 40
0.7751342419
 40
0.8887296546
 40
1.0
 40
1.0
 40
1.0
 40
1.0
 10
38.0509161638
 20
63.7244420131
 30
0.0
 10
38.1025845141
 20
63.7244420131
 30
0.0
 10
38.2039933335
 20
63.7400014693
 30
0.0
 10
38.3163879208
 20
63.7983755309
 30
0.0
 10
38.3846794712
 20
63.8643622574
 30
0.0
 10
38.4223188137
 20
63.9201325479
 30
0.0
 10
38.4456246117
 20
63.9809334595
 30
0.0
 10
38.4509161638
 20
64.0234768541
 30
0.0
 10
38.4509161638
 20
64.0444420131
 30
0.0
  0
SPLINE
  5
301
100
AcDbEntity
  8
0
100
AcDbSpline
 62
7
  6
CONTINUOUS
 70
0
 71
3
 72
13
 73
9
 74
0
 42
0.0000001
 43
0.0000001
 44
0.0000000001
 40
0.0
 40
0.0
 40
0.0
 40
0.0
 40
0.1112703454
 40
0.2248657581
 40
0.3425683738
 40
0.4654676192
 40
0.7257757415
 40
1.0
 40
1.0
 40
1.0
 40
1.0
 10
34.6509161638
 20
64.0444420131
 30
0.0
 10
34.6509161638
 20
64.0234768541
 30
0.0
 10
34.656207716
 20
63.9809334595
 30
0.0
 10
34.6795135139
 20
63.9201325479
 30
0.0
 10
34.7171528565
 20
63.8643622574
 30
0.0
 10
34.7854444068
 20
63.7983755309
 30
0.0
 10
34.8978389942
 20
63.7400014693
 30
0.0
 10
34.9992478135
 20
63.7244420131
 30
0.0
 10
35.0509161638
 20
63.7244420131
 30
0.0
  0
SPLINE
  5
302
100
AcDbEntity
  8
0
100
AcDbSpline
 62
7
  6
CONTINUOUS
 70
0
 71
3
 72
13
 73
9
 74
0
 42
0.0000001
 43
0.0000001
 44
0.0000000001
 40
0.0
 40
0.0
 40
0.0
 40
0.0
 40
0.2742242585
 40
0.5345323808
 40
0.6574316262
 40
0.7751342419
 40
0.8887296546
 40
1.0
 40
1.0
 40
1.0
 40
1.0
 10
49.6509161638
 20
63.7244420131
 30
0.0
 10
49.7025845141
 20
63.7244420131
 30
0.0
 10
49.8039933335
 20
63.7400014693
 30
0.0
 10
49.9163879208
 20
63.7983755309
 30
0.0
 10
49.9846794712
 20
63.8643622574
 30
0.0
 10
50.0223188137
 20
63.9201325479
 30
0.0
 10
50.0456246117
 20
63.9809334595
 30
0.0
 10
50.0509161638
 20
64.0234768541
 30
0.0
 10
50.0509161638
 20
64.0444420131
 30
0.0
  0
SPLINE
  5
303
100
AcDbEntity
  8
0
100
AcDbSpline
 62
7
  6
CONTINUOUS
 70
0
 71
3
 72
13
 73
9
 74
0
 42
0.0000001
 43
0.0000001
 44
0.0000000001
 40
0.0
 40
0.0
 40
0.0
 40
0.0
 40
0.1112703454
 40
0.2248657581
 40
0.3425683738
 40
0.4654676192
 40
0.7257757415
 40
1.0
 40
1.0
 40
1.0
 40
1.0
 10
46.2509161638
 20
64.0444420131
 30
0.0
 10
46.2509161638
 20
64.0234768541
 30
0.0
 10
46.256207716
 20
63.9809334595
 30
0.0
 10
46.2795135139
 20
63.9201325479
 30
0.0
 10
46.3171528565
 20
63.8643622574
 30
0.0
 10
46.3854444068
 20
63.7983755309
 30
0.0
 10
46.4978389942
 20
63.7400014693
 30
0.0
 10
46.5992478135
 20
63.7244420131
 30
0.0
 10
46.6509161638
 20
63.7244420131
 30
0.0
  0
SPLINE
  5
304
100
AcDbEntity
  8
0
100
AcDbSpline
 62
7
  6
CONTINUOUS
 70
0
 71
3
 72
13
 73
9
 74
0
 42
0.0000001
 43
0.0000001
 44
0.0000000001
 40
0.0
 40
0.0
 40
0.0
 40
0.0
 40
0.2742242585
 40
0.5345323808
 40
0.6574316262
 40
0.7751342419
 40
0.8887296546
 40
1.0
 40
1.0
 40
1.0
 40
1.0
 10
61.2509161638
 20
63.7244420131
 30
0.0
 10
61.3025845141
 20
63.7244420131
 30
0.0
 10
61.4039933335
 20
63.7400014693
 30
0.0
 10
61.5163879208
 20
63.7983755309
 30
0.0
 10
61.5846794712
 20
63.8643622574
 30
0.0
 10
61.6223188137
 20
63.9201325479
 30
0.0
 10
61.6456246117
 20
63.9809334595
 30
0.0
 10
61.6509161638
 20
64.0234768541
 30
0.0
 10
61.6509161638
 20
64.0444420131
 30
0.0
  0
SPLINE
  5
305
100
AcDbEntity
  8
0
100
AcDbSpline
 62
7
  6
CONTINUOUS
 70
0
 71
3
 72
13
 73
9
 74
0
 42
0.0000001
 43
0.0000001
 44
0.0000000001
 40
0.0
 40
0.0
 40
0.0
 40
0.0
 40
0.1112703454
 40
0.2248657581
 40
0.3425683738
 40
0.4654676192
 40
0.7257757415
 40
1.0
 40
1.0
 40
1.0
 40
1.0
 10
57.8509161638
 20
64.0444420131
 30
0.0
 10
57.8509161638
 20
64.0234768541
 30
0.0
 10
57.856207716
 20
63.9809334595
 30
0.0
 10
57.8795135139
 20
63.9201325479
 30
0.0
 10
57.9171528565
 20
63.8643622574
 30
0.0
 10
57.9854444068
 20
63.7983755309
 30
0.0
 10
58.0978389942
 20
63.7400014693
 30
0.0
 10
58.1992478135
 20
63.7244420131
 30
0.0
 10
58.2509161638
 20
63.7244420131
 30
0.0
  0
SPLINE
  5
306
100
AcDbEntity
  8
0
100
AcDbSpline
 62
7
  6
CONTINUOUS
 70
0
 71
3
 72
22
 73
18
 74
0
 42
0.0000001
 43
0.0000001
 44
0.0000000001
 40
0.0
 40
0.0
 40
0.0
 40
0.0
 40
0.0588965314
 40
0.119889679
 40
0.1829273521
 40
0.2477754175
 40
0.3809835767
 40
0.4485599799
 40
0.5159171522
 40
0.5824817478
 40
0.6477382103
 40
0.7112703995
 40
0.7728021268
 40
0.8322319024
 40
0.8896626548
 40
0.9454099196
 40
1.0
 40
1.0
 40
1.0
 40
1.0
 10
34.530400094
 20
74.0444436391
 30
0.0
 10
34.5938637405
 20
73.958959736
 30
0.0
 10
34.7383676326
 20
73.7958792223
 30
0.0
 10
34.9949585607
 20
73.5853924654
 30
0.0
 10
35.2890233337
 20
73.40946282
 30
0.0
 10
35.7247388919
 20
73.2250639217
 30
0.0
 10
36.2013815184
 20
73.1277027488
 30
0.0
 10
36.6869121297
 20
73.1199904291
 30
0.0
 10
37.0500383453
 20
73.1595468206
 30
0.0
 10
37.4011311734
 20
73.2436376494
 30
0.0
 10
37.7319072561
 20
73.3702856706
 30
0.0
 10
38.0343986406
 20
73.5365598261
 30
0.0
 10
38.3013069512
 20
73.7386195961
 30
0.0
 10
38.5261025842
 20
73.9717729424
 30
0.0
 10
38.7031371979
 20
74.2306277112
 30
0.0
 10
38.8278043596
 20
74.5088758252
 30
0.0
 10
38.8740468715
 20
74.7043923863
 30
0.0
 10
38.8872691763
 20
74.8021844073
 30
0.0
  0
SPLINE
  5
307
100
AcDbEntity
  8
0
100
AcDbSpline
 62
7
  6
CONTINUOUS
 70
0
 71
3
 72
10
 73
6
 74
0
 42
0.0000001
 43
0.0000001
 44
0.0000000001
 40
0.0
 40
0.0
 40
0.0
 40
0.0
 40
0.2413670036
 40
0.614459309
 40
1.0
 40
1.0
 40
1.0
 40
1.0
 10
34.369053626
 20
69.9408170614
 30
0.0
 10
34.3848063074
 20
69.910709734
 30
0.0
 10
34.4307090105
 20
69.8370126502
 30
0.0
 10
34.5237403855
 20
69.7304419863
 30
0.0
 10
34.6051919595
 20
69.6608645214
 30
0.0
 10
34.6483892195
 20
69.6280029977
 30
0.0
  0
SPLINE
  5
308
100
AcDbEntity
  8
0
100
AcDbSpline
 62
7
  6
CONTINUOUS
 70
0
 71
3
 72
22
 73
18
 74
0
 42
0.0000001
 43
0.0000001
 44
0.0000000001
 40
0.0
 40
0.0
 40
0.0
 40
0.0
 40
0.0592800973
 40
0.1201597832
 40
0.1821635024
 40
0.2449547995
 40
0.3083004827
 40
0.3720191087
 40
0.4999750618
 40
0.5640331678
 40
0.6279812144
 40
0.691699818
 40
0.7550437296
 40
0.8178359315
 40
0.8798413526
 40
0.9407168544
 40
1.0
 40
1.0
 40
1.0
 40
1.0
 10
34.6483892195
 20
69.6280029977
 30
0.0
 10
34.7112410585
 20
69.5801896133
 30
0.0
 10
34.8467008053
 20
69.4936774915
 30
0.0
 10
35.0660159534
 20
69.3888579636
 30
0.0
 10
35.2986236241
 20
69.3038123315
 30
0.0
 10
35.5402855809
 20
69.236522808
 30
0.0
 10
35.7882505023
 20
69.1857388859
 30
0.0
 10
36.1248177244
 20
69.1383692294
 30
0.0
 10
36.4658357112
 20
69.1197643088
 30
0.0
 10
36.8068142919
 20
69.1291657608
 30
0.0
 10
37.0614966109
 20
69.1502276367
 30
0.0
 10
37.3136203718
 20
69.1857001371
 30
0.0
 10
37.5615563822
 20
69.2365798191
 30
0.0
 10
37.8032253862
 20
69.3038367611
 30
0.0
 10
38.0358704519
 20
69.3887894678
 30
0.0
 10
38.2551165716
 20
69.4937578927
 30
0.0
 10
38.3905941043
 20
69.5802245002
 30
0.0
 10
38.4534704648
 20
69.6280123448
 30
0.0
  0
SPLINE
  5
309
100
AcDbEntity
  8
0
100
AcDbSpline
 62
7
  6
CONTINUOUS
 70
0
 71
3
 72
10
 73
6
 74
0
 42
0.0000001
 43
0.0000001
 44
0.0000000001
 40
0.0
 40
0.0
 40
0.0
 40
0.0
 40
0.2585951964
 40
0.5119548868
 40
1.0
 40
1.0
 40
1.0
 40
1.0
 10
38.4534704648
 20
69.6280123448
 30
0.0
 10
38.4824501249
 20
69.650037721
 30
0.0
 10
38.5382086595
 20
69.6958870095
 30
0.0
 10
38.6384607781
 20
69.7947604736
 30
0.0
 10
38.7009700117
 20
69.8801781443
 30
0.0
 10
38.7328142124
 20
69.9410486126
 30
0.0
  0
SPLINE
  5
30A
100
AcDbEntity
  8
0
100
AcDbSpline
 62
7
  6
CONTINUOUS
 70
0
 71
3
 72
11
 73
7
 74
0
 42
0.0000001
 43
0.0000001
 44
0.0000000001
 40
0.0
 40
0.0
 40
0.0
 40
0.0
 40
0.2453332229
 40
0.4927235505
 40
0.7437293878
 40
1.0
 40
1.0
 40
1.0
 40
1.0
 10
33.8009161638
 20
71.4044420131
 30
0.0
 10
33.8009161638
 20
71.3167698469
 30
0.0
 10
33.8141677828
 20
71.1404161117
 30
0.0
 10
33.873295661
 20
70.8803490629
 30
0.0
 10
33.970874977
 20
70.6279780104
 30
0.0
 10
34.0594950885
 20
70.4690780927
 30
0.0
 10
34.1092862856
 20
70.3922154241
 30
0.0
  0
SPLINE
  5
30B
100
AcDbEntity
  8
0
100
AcDbSpline
 62
7
  6
CONTINUOUS
 70
0
 71
3
 72
11
 73
7
 74
0
 42
0.0000001
 43
0.0000001
 44
0.0000000001
 40
0.0
 40
0.0
 40
0.0
 40
0.0
 40
0.2562635791
 40
0.5072823972
 40
0.7546458623
 40
1.0
 40
1.0
 40
1.0
 40
1.0
 10
38.9928196116
 20
70.3926386418
 30
0.0
 10
39.0425678299
 20
70.4694750056
 30
0.0
 10
39.1311171766
 20
70.6283192047
 30
0.0
 10
39.2285938225
 20
70.8805847545
 30
0.0
 10
39.2876835277
 20
71.1405336203
 30
0.0
 10
39.3009161638
 20
71.3168034737
 30
0.0
 10
39.3009161638
 20
71.4044420131
 30
0.0
  0
SPLINE
  5
30C
100
AcDbEntity
  8
0
100
AcDbSpline
 62
7
  6
CONTINUOUS
 70
0
 71
3
 72
21
 73
17
 74
0
 42
0.0000001
 43
0.0000001
 44
0.0000000001
 40
0.0
 40
0.0
 40
0.0
 40
0.0
 40
0.0542814565
 40
0.1095249861
 40
0.1662139874
 40
0.2246662802
 40
0.2850376196
 40
0.3473169699
 40
0.4113443445
 40
0.4768337256
 40
0.6103645911
 40
0.7444206467
 40
0.8105329797
 40
0.8753761499
 40
0.9386084628
 40
1.0
 40
1.0
 40
1.0
 40
1.0
 10
39.2893003574
 20
74.8025173845
 30
0.0
 10
39.277128242
 20
74.696845928
 30
0.0
 10
39.2331711554
 20
74.4853978903
 30
0.0
 10
39.1116130689
 20
74.1815772653
 30
0.0
 10
38.9369001808
 20
73.8952935802
 30
0.0
 10
38.7129022418
 20
73.6325438196
 30
0.0
 10
38.4444489019
 20
73.398567291
 30
0.0
 10
38.1371849773
 20
73.1980383202
 30
0.0
 10
37.7974235483
 20
73.0349171961
 30
0.0
 10
37.3076509927
 20
72.8706950338
 30
0.0
 10
36.6555084441
 20
72.7758817808
 30
0.0
 10
35.9977276397
 20
72.8311788254
 30
0.0
 10
35.494835872
 20
72.9649190175
 30
0.0
 10
35.1406798531
 20
73.1069014767
 30
0.0
 10
34.8154649898
 20
73.2880509905
 30
0.0
 10
34.6191996841
 20
73.4349438534
 30
0.0
 10
34.5283659519
 20
73.5138239999
 30
0.0
  0
SPLINE
  5
30D
100
AcDbEntity
  8
0
100
AcDbSpline
 62
7
  6
CONTINUOUS
 70
0
 71
3
 72
21
 73
17
 74
0
 42
0.0000001
 43
0.0000001
 44
0.0000000001
 40
0.0
 40
0.0
 40
0.0
 40
0.0
 40
0.0570622101
 40
0.1158858354
 40
0.1765181407
 40
0.2388742802
 40
0.3676417479
 40
0.4336047814
 40
0.5000084953
 40
0.5664116848
 40
0.6323732451
 40
0.7611359257
 40
0.8234892477
 40
0.8841187605
 40
0.9429398159
 40
1.0
 40
1.0
 40
1.0
 40
1.0
 10
34.1092862856
 20
70.3922154241
 30
0.0
 10
34.1676925186
 20
70.3020537252
 30
0.0
 10
34.3006791844
 20
70.1278997061
 30
0.0
 10
34.5388694201
 20
69.8947293844
 30
0.0
 10
34.8143171222
 20
69.6897964121
 30
0.0
 10
35.2282629703
 20
69.4569324471
 30
0.0
 10
35.6910795564
 20
69.2983975604
 30
0.0
 10
36.1767705759
 20
69.2180286751
 30
0.0
 10
36.5512155669
 20
69.1976140188
 30
0.0
 10
36.9256542536
 20
69.2180936423
 30
0.0
 10
37.411318514
 20
69.2985458462
 30
0.0
 10
37.874090526
 20
69.4571591751
 30
0.0
 10
38.2879742019
 20
69.690094075
 30
0.0
 10
38.5633674037
 20
69.8950746132
 30
0.0
 10
38.8014974909
 20
70.1282868933
 30
0.0
 10
38.9344368967
 20
70.3024662562
 30
0.0
 10
38.9928196116
 20
70.3926386418
 30
0.0
  0
SPLINE
  5
30E
100
AcDbEntity
  8
0
100
AcDbSpline
 62
7
  6
CONTINUOUS
 70
0
 71
3
 72
22
 73
18
 74
0
 42
0.0000001
 43
0.0000001
 44
0.0000000001
 40
0.0
 40
0.0
 40
0.0
 40
0.0
 40
0.0545892885
 40
0.1103365076
 40
0.1677674172
 40
0.227197614
 40
0.2887299308
 40
0.3522627621
 40
0.4175197983
 40
0.4840847526
 40
0.5514420218
 40
0.6190182848
 40
0.7522256146
 40
0.8170731343
 40
0.8801103918
 40
0.9411033566
 40
1.0
 40
1.0
 40
1.0
 40
1.0
 10
45.8145608438
 20
74.8021989477
 30
0.0
 10
45.8277816521
 20
74.7044105871
 30
0.0
 10
45.8740205399
 20
74.508899863
 30
0.0
 10
45.9986786979
 20
74.23065727
 30
0.0
 10
46.1757044327
 20
73.9718044826
 30
0.0
 10
46.4004909927
 20
73.738650413
 30
0.0
 10
46.6673907494
 20
73.5365878243
 30
0.0
 10
46.9698741199
 20
73.3703096734
 30
0.0
 10
47.3006421016
 20
73.2436566044
 30
0.0
 10
47.6517262541
 20
73.1595593041
 30
0.0
 10
48.0148431744
 20
73.1199946348
 30
0.0
 10
48.5003606006
 20
73.1276930328
 30
0.0
 10
48.9769917633
 20
73.2250349929
 30
0.0
 10
49.4127015894
 20
73.4094092599
 30
0.0
 10
49.706766483
 20
73.5853181141
 30
0.0
 10
49.9633635947
 20
73.7957829774
 30
0.0
 10
50.1078757112
 20
73.9588487471
 30
0.0
 10
50.1713447593
 20
74.0443256722
 30
0.0
  0
SPLINE
  5
30F
100
AcDbEntity
  8
0
100
AcDbSpline
 62
7
  6
CONTINUOUS
 70
0
 71
3
 72
10
 73
6
 74
0
 42
0.0000001
 43
0.0000001
 44
0.0000000001
 40
0.0
 40
0.0
 40
0.0
 40
0.0
 40
0.2413670036
 40
0.614459309
 40
1.0
 40
1.0
 40
1.0
 40
1.0
 10
45.969053626
 20
69.9408170614
 30
0.0
 10
45.9848063074
 20
69.910709734
 30
0.0
 10
46.0307090105
 20
69.8370126502
 30
0.0
 10
46.1237403855
 20
69.7304419863
 30
0.0
 10
46.2051919596
 20
69.6608645214
 30
0.0
 10
46.2483892195
 20
69.6280029977
 30
0.0
  0
SPLINE
  5
310
100
AcDbEntity
  8
0
100
AcDbSpline
 62
7
  6
CONTINUOUS
 70
0
 71
3
 72
22
 73
18
 74
0
 42
0.0000001
 43
0.0000001
 44
0.0000000001
 40
0.0
 40
0.0
 40
0.0
 40
0.0
 40
0.0592800973
 40
0.1201597832
 40
0.1821635024
 40
0.2449547995
 40
0.3083004827
 40
0.3720191087
 40
0.4999750618
 40
0.5640331678
 40
0.6279812144
 40
0.691699818
 40
0.7550437296
 40
0.8178359315
 40
0.8798413526
 40
0.9407168544
 40
1.0
 40
1.0
 40
1.0
 40
1.0
 10
46.2483892195
 20
69.6280029977
 30
0.0
 10
46.3112410585
 20
69.5801896133
 30
0.0
 10
46.4467008053
 20
69.4936774915
 30
0.0
 10
46.6660159534
 20
69.3888579636
 30
0.0
 10
46.8986236241
 20
69.3038123315
 30
0.0
 10
47.1402855809
 20
69.236522808
 30
0.0
 10
47.3882505023
 20
69.1857388859
 30
0.0
 10
47.7248177244
 20
69.1383692294
 30
0.0
 10
48.0658357112
 20
69.1197643088
 30
0.0
 10
48.4068142919
 20
69.1291657608
 30
0.0
 10
48.6614966109
 20
69.1502276367
 30
0.0
 10
48.9136203718
 20
69.1857001371
 30
0.0
 10
49.1615563822
 20
69.2365798191
 30
0.0
 10
49.4032253862
 20
69.3038367611
 30
0.0
 10
49.6358704519
 20
69.3887894678
 30
0.0
 10
49.8551165716
 20
69.4937578927
 30
0.0
 10
49.9905941043
 20
69.5802245002
 30
0.0
 10
50.0534704648
 20
69.6280123448
 30
0.0
  0
SPLINE
  5
311
100
AcDbEntity
  8
0
100
AcDbSpline
 62
7
  6
CONTINUOUS
 70
0
 71
3
 72
10
 73
6
 74
0
 42
0.0000001
 43
0.0000001
 44
0.0000000001
 40
0.0
 40
0.0
 40
0.0
 40
0.0
 40
0.2585951964
 40
0.5119548868
 40
1.0
 40
1.0
 40
1.0
 40
1.0
 10
50.0534704648
 20
69.6280123448
 30
0.0
 10
50.0824501249
 20
69.650037721
 30
0.0
 10
50.1382086595
 20
69.6958870094
 30
0.0
 10
50.2384607781
 20
69.7947604736
 30
0.0
 10
50.3009700117
 20
69.8801781443
 30
0.0
 10
50.3328142124
 20
69.9410486126
 30
0.0
  0
SPLINE
  5
312
100
AcDbEntity
  8
0
100
AcDbSpline
 62
7
  6
CONTINUOUS
 70
0
 71
3
 72
11
 73
7
 74
0
 42
0.0000001
 43
0.0000001
 44
0.0000000001
 40
0.0
 40
0.0
 40
0.0
 40
0.0
 40
0.2453332229
 40
0.4927235505
 40
0.7437293878
 40
1.0
 40
1.0
 40
1.0
 40
1.0
 10
45.4009161638
 20
71.4044420131
 30
0.0
 10
45.4009161638
 20
71.3167698469
 30
0.0
 10
45.4141677828
 20
71.1404161117
 30
0.0
 10
45.473295661
 20
70.8803490629
 30
0.0
 10
45.570874977
 20
70.6279780104
 30
0.0
 10
45.6594950885
 20
70.4690780927
 30
0.0
 10
45.7092862856
 20
70.3922154241
 30
0.0
  0
SPLINE
  5
313
100
AcDbEntity
  8
0
100
AcDbSpline
 62
7
  6
CONTINUOUS
 70
0
 71
3
 72
11
 73
7
 74
0
 42
0.0000001
 43
0.0000001
 44
0.0000000001
 40
0.0
 40
0.0
 40
0.0
 40
0.0
 40
0.2562635791
 40
0.5072823972
 40
0.7546458623
 40
1.0
 40
1.0
 40
1.0
 40
1.0
 10
50.5928196116
 20
70.3926386418
 30
0.0
 10
50.64256783
 20
70.4694750056
 30
0.0
 10
50.7311171766
 20
70.6283192047
 30
0.0
 10
50.8285938225
 20
70.8805847545
 30
0.0
 10
50.8876835277
 20
71.1405336203
 30
0.0
 10
50.9009161638
 20
71.3168034737
 30
0.0
 10
50.9009161638
 20
71.4044420131
 30
0.0
  0
SPLINE
  5
314
100
AcDbEntity
  8
0
100
AcDbSpline
 62
7
  6
CONTINUOUS
 70
0
 71
3
 72
21
 73
17
 74
0
 42
0.0000001
 43
0.0000001
 44
0.0000000001
 40
0.0
 40
0.0
 40
0.0
 40
0.0
 40
0.0613912306
 40
0.1246232
 40
0.189466004
 40
0.2555780606
 40
0.3896339127
 40
0.5231649042
 40
0.5886544613
 40
0.6526819739
 40
0.7149613382
 40
0.7753326673
 40
0.8337850881
 40
0.8904743787
 40
0.945718194
 40
1.0
 40
1.0
 40
1.0
 40
1.0
 10
50.173533752
 20
73.5138823803
 30
0.0
 10
50.0827019002
 20
73.4349984356
 30
0.0
 10
49.8864399578
 20
73.2880974676
 30
0.0
 10
49.561227535
 20
73.1069368844
 30
0.0
 10
49.2070721189
 20
72.9649437897
 30
0.0
 10
48.7041780996
 20
72.8311901976
 30
0.0
 10
48.0463897883
 20
72.7758789528
 30
0.0
 10
47.3942361912
 20
72.870682077
 30
0.0
 10
46.9044533527
 20
73.0348989233
 30
0.0
 10
46.5646841351
 20
73.1980174447
 30
0.0
 10
46.2574127904
 20
73.3985449055
 30
0.0
 10
45.988952313
 20
73.6325211855
 30
0.0
 10
45.7649473455
 20
73.8952723443
 30
0.0
 10
45.5902281306
 20
74.1815592801
 30
0.0
 10
45.468664759
 20
74.4853847071
 30
0.0
 10
45.4247056863
 20
74.696836732
 30
0.0
 10
45.4125328655
 20
74.8025102846
 30
0.0
  0
SPLINE
  5
315
100
AcDbEntity
  8
0
100
AcDbSpline
 62
7
  6
CONTINUOUS
 70
0
 71
3
 72
21
 73
17
 74
0
 42
0.0000001
 43
0.0000001
 44
0.0000000001
 40
0.0
 40
0.0
 40
0.0
 40
0.0
 40
0.0570622101
 40
0.1158858354
 40
0.1765181407
 40
0.2388742802
 40
0.3676417479
 40
0.4336047814
 40
0.5000084953
 40
0.5664116848
 40
0.6323732451
 40
0.7611359257
 40
0.8234892477
 40
0.8841187605
 40
0.9429398159
 40
1.0
 40
1.0
 40
1.0
 40
1.0
 10
45.7092862856
 20
70.3922154241
 30
0.0
 10
45.7676925186
 20
70.3020537252
 30
0.0
 10
45.9006791844
 20
70.1278997061
 30
0.0
 10
46.1388694201
 20
69.8947293844
 30
0.0
 10
46.4143171222
 20
69.6897964121
 30
0.0
 10
46.8282629703
 20
69.4569324471
 30
0.0
 10
47.2910795564
 20
69.2983975604
 30
0.0
 10
47.7767705759
 20
69.2180286751
 30
0.0
 10
48.1512155669
 20
69.1976140188
 30
0.0
 10
48.5256542536
 20
69.2180936423
 30
0.0
 10
49.011318514
 20
69.2985458462
 30
0.0
 10
49.474090526
 20
69.4571591751
 30
0.0
 10
49.8879742019
 20
69.690094075
 30
0.0
 10
50.1633674037
 20
69.8950746132
 30
0.0
 10
50.4014974909
 20
70.1282868933
 30
0.0
 10
50.5344368967
 20
70.3024662562
 30
0.0
 10
50.5928196116
 20
70.3926386418
 30
0.0
  0
SPLINE
  5
316
100
AcDbEntity
  8
0
100
AcDbSpline
 62
7
  6
CONTINUOUS
 70
0
 71
3
 72
14
 73
10
 74
0
 42
0.0000001
 43
0.0000001
 44
0.0000000001
 40
0.0
 40
0.0
 40
0.0
 40
0.0
 40
0.262685317
 40
0.3901964027
 40
0.5153327353
 40
0.6384201279
 40
0.7598845595
 40
0.8802573319
 40
1.0
 40
1.0
 40
1.0
 40
1.0
 10
61.7734663757
 20
76.4950600263
 30
0.0
 10
61.8865026367
 20
76.3968991712
 30
0.0
 10
62.041826758
 20
76.235195391
 30
0.0
 10
62.2110457908
 20
75.9946757014
 30
0.0
 10
62.3155360715
 20
75.8072700482
 30
0.0
 10
62.3978082726
 20
75.6128518642
 30
0.0
 10
62.4571277981
 20
75.4130422583
 30
0.0
 10
62.4929143697
 20
75.2096624989
 30
0.0
 10
62.5009161638
 20
75.0726854207
 30
0.0
 10
62.5009161638
 20
75.0044420131
 30
0.0
  0
SPLINE
  5
317
100
AcDbEntity
  8
0
100
AcDbSpline
 62
7
  6
CONTINUOUS
 70
0
 71
3
 72
29
 73
25
 74
0
 42
0.0000001
 43
0.0000001
 44
0.0000000001
 40
0.0
 40
0.0
 40
0.0
 40
0.0
 40
0.0277895923
 40
0.0558571845
 40
0.0843274988
 40
0.1132976194
 40
0.1729308191
 40
0.2351479654
 40
0.2998702932
 40
0.3666925017
 40
0.4007194698
 40
0.4350103462
 40
0.5039067536
 40
0.5725508328
 40
0.6400873722
 40
0.7057810842
 40
0.7691082487
 40
0.8298413
 40
0.8593019038
 40
0.8881986206
 40
0.9166071351
 40
0.9446290755
 40
0.9723906865
 40
1.0
 40
1.0
 40
1.0
 40
1.0
 10
57.4145608438
 20
74.8021989477
 30
0.0
 10
57.422573042
 20
74.7429363285
 30
0.0
 10
57.4457549012
 20
74.6246586498
 30
0.0
 10
57.5011762669
 20
74.4514654309
 30
0.0
 10
57.5768684301
 20
74.2833095959
 30
0.0
 10
57.7049562535
 20
74.0658712275
 30
0.0
 10
57.9137007422
 20
73.814136389
 30
0.0
 10
58.2265234829
 20
73.5589050081
 30
0.0
 10
58.5929084762
 20
73.3556453493
 30
0.0
 10
58.9302494551
 20
73.2359297969
 30
0.0
 10
59.21403572
 20
73.1712805128
 30
0.0
 10
59.5063866513
 20
73.1280287348
 30
0.0
 10
59.8775016968
 20
73.1159529238
 30
0.0
 10
60.317374479
 20
73.1683390869
 30
0.0
 10
60.7374882446
 20
73.2857829161
 30
0.0
 10
61.1230779349
 20
73.4643928263
 30
0.0
 10
61.4604890843
 20
73.6981105332
 30
0.0
 10
61.6940064197
 20
73.9350893565
 30
0.0
 10
61.8439379346
 20
74.1434307595
 30
0.0
 10
61.9365181745
 20
74.3060097001
 30
0.0
 10
62.0094596205
 20
74.4749329891
 30
0.0
 10
62.0620708517
 20
74.6487289844
 30
0.0
 10
62.0938139449
 20
74.8257545655
 30
0.0
 10
62.1009161638
 20
74.94502818
 30
0.0
 10
62.1009161638
 20
75.0044420131
 30
0.0
  0
SPLINE
  5
318
100
AcDbEntity
  8
0
100
AcDbSpline
 62
7
  6
CONTINUOUS
 70
0
 71
3
 72
10
 73
6
 74
0
 42
0.0000001
 43
0.0000001
 44
0.0000000001
 40
0.0
 40
0.0
 40
0.0
 40
0.0
 40
0.2413670036
 40
0.614459309
 40
1.0
 40
1.0
 40
1.0
 40
1.0
 10
57.569053626
 20
69.9408170614
 30
0.0
 10
57.5848063074
 20
69.910709734
 30
0.0
 10
57.6307090105
 20
69.8370126502
 30
0.0
 10
57.7237403855
 20
69.7304419863
 30
0.0
 10
57.8051919595
 20
69.6608645214
 30
0.0
 10
57.8483892195
 20
69.6280029977
 30
0.0
  0
SPLINE
  5
319
100
AcDbEntity
  8
0
100
AcDbSpline
 62
7
  6
CONTINUOUS
 70
0
 71
3
 72
22
 73
18
 74
0
 42
0.0000001
 43
0.0000001
 44
0.0000000001
 40
0.0
 40
0.0
 40
0.0
 40
0.0
 40
0.0592800973
 40
0.1201597832
 40
0.1821635024
 40
0.2449547995
 40
0.3083004827
 40
0.3720191087
 40
0.4999750618
 40
0.5640331678
 40
0.6279812144
 40
0.691699818
 40
0.7550437296
 40
0.8178359315
 40
0.8798413526
 40
0.9407168544
 40
1.0
 40
1.0
 40
1.0
 40
1.0
 10
57.8483892195
 20
69.6280029977
 30
0.0
 10
57.9112410585
 20
69.5801896133
 30
0.0
 10
58.0467008053
 20
69.4936774915
 30
0.0
 10
58.2660159534
 20
69.3888579636
 30
0.0
 10
58.4986236241
 20
69.3038123315
 30
0.0
 10
58.7402855809
 20
69.236522808
 30
0.0
 10
58.9882505023
 20
69.1857388859
 30
0.0
 10
59.3248177244
 20
69.1383692294
 30
0.0
 10
59.6658357112
 20
69.1197643088
 30
0.0
 10
60.0068142919
 20
69.1291657608
 30
0.0
 10
60.2614966109
 20
69.1502276367
 30
0.0
 10
60.5136203718
 20
69.1857001371
 30
0.0
 10
60.7615563822
 20
69.2365798191
 30
0.0
 10
61.0032253862
 20
69.3038367611
 30
0.0
 10
61.2358704519
 20
69.3887894678
 30
0.0
 10
61.4551165716
 20
69.4937578927
 30
0.0
 10
61.5905941043
 20
69.5802245002
 30
0.0
 10
61.6534704648
 20
69.6280123448
 30
0.0
  0
SPLINE
  5
31A
100
AcDbEntity
  8
0
100
AcDbSpline
 62
7
  6
CONTINUOUS
 70
0
 71
3
 72
10
 73
6
 74
0
 42
0.0000001
 43
0.0000001
 44
0.0000000001
 40
0.0
 40
0.0
 40
0.0
 40
0.0
 40
0.2585951964
 40
0.5119548868
 40
1.0
 40
1.0
 40
1.0
 40
1.0
 10
61.6534704648
 20
69.6280123448
 30
0.0
 10
61.6824501249
 20
69.650037721
 30
0.0
 10
61.7382086595
 20
69.6958870094
 30
0.0
 10
61.8384607781
 20
69.7947604736
 30
0.0
 10
61.9009700117
 20
69.8801781443
 30
0.0
 10
61.9328142124
 20
69.9410486126
 30
0.0
  0
SPLINE
  5
31B
100
AcDbEntity
  8
0
100
AcDbSpline
 62
7
  6
CONTINUOUS
 70
0
 71
3
 72
11
 73
7
 74
0
 42
0.0000001
 43
0.0000001
 44
0.0000000001
 40
0.0
 40
0.0
 40
0.0
 40
0.0
 40
0.2453332229
 40
0.4927235505
 40
0.7437293878
 40
1.0
 40
1.0
 40
1.0
 40
1.0
 10
57.0009161638
 20
71.4044420131
 30
0.0
 10
57.0009161638
 20
71.3167698469
 30
0.0
 10
57.0141677828
 20
71.1404161117
 30
0.0
 10
57.073295661
 20
70.8803490629
 30
0.0
 10
57.170874977
 20
70.6279780104
 30
0.0
 10
57.2594950885
 20
70.4690780927
 30
0.0
 10
57.3092862856
 20
70.3922154241
 30
0.0
  0
SPLINE
  5
31C
100
AcDbEntity
  8
0
100
AcDbSpline
 62
7
  6
CONTINUOUS
 70
0
 71
3
 72
11
 73
7
 74
0
 42
0.0000001
 43
0.0000001
 44
0.0000000001
 40
0.0
 40
0.0
 40
0.0
 40
0.0
 40
0.2562635791
 40
0.5072823972
 40
0.7546458623
 40
1.0
 40
1.0
 40
1.0
 40
1.0
 10
62.1928196116
 20
70.3926386418
 30
0.0
 10
62.2425678299
 20
70.4694750056
 30
0.0
 10
62.3311171766
 20
70.6283192047
 30
0.0
 10
62.4285938225
 20
70.8805847545
 30
0.0
 10
62.4876835277
 20
71.1405336203
 30
0.0
 10
62.5009161638
 20
71.3168034737
 30
0.0
 10
62.5009161638
 20
71.4044420131
 30
0.0
  0
SPLINE
  5
31D
100
AcDbEntity
  8
0
100
AcDbSpline
 62
7
  6
CONTINUOUS
 70
0
 71
3
 72
30
 73
26
 74
0
 42
0.0000001
 43
0.0000001
 44
0.0000000001
 40
0.0
 40
0.0
 40
0.0
 40
0.0
 40
0.0276252616
 40
0.0554016179
 40
0.0834421113
 40
0.1118743838
 40
0.1407989867
 40
0.1702925866
 40
0.231104854
 40
0.2945246927
 40
0.3603142157
 40
0.4279366628
 40
0.4966430948
 40
0.5655658365
 40
0.5998538417
 40
0.6338659915
 40
0.7006219425
 40
0.7652346085
 40
0.8273121924
 40
0.8574063348
 40
0.8868788595
 40
0.9157847688
 40
0.9442014184
 40
0.9722304925
 40
1.0
 40
1.0
 40
1.0
 40
1.0
 10
62.5009161638
 20
75.0044420131
 30
0.0
 10
62.5009161638
 20
74.934548389
 30
0.0
 10
62.4925216464
 20
74.7942379535
 30
0.0
 10
62.4549792942
 20
74.5860157396
 30
0.0
 10
62.3927740242
 20
74.3816329786
 30
0.0
 10
62.3065377788
 20
74.1830369713
 30
0.0
 10
62.1970900814
 20
73.9919832771
 30
0.0
 10
62.0198749544
 20
73.7472704028
 30
0.0
 10
61.7439374747
 20
73.469262718
 30
0.0
 10
61.3454995807
 20
73.1957774547
 30
0.0
 10
60.8905096273
 20
72.9876639163
 30
0.0
 10
60.3952350904
 20
72.8520571141
 30
0.0
 10
59.8772564434
 20
72.7935012954
 30
0.0
 10
59.4408024381
 20
72.8106453516
 30
0.0
 10
59.0974413695
 20
72.864037304
 30
0.0
 10
58.7646149499
 20
72.9426561253
 30
0.0
 10
58.3696595231
 20
73.0867495492
 30
0.0
 10
57.9421063834
 20
73.3296719732
 30
0.0
 10
57.6358736892
 20
73.585885626
 30
0.0
 10
57.4313624247
 20
73.8164793111
 30
0.0
 10
57.3004822023
 20
73.9985891657
 30
0.0
 10
57.1918519275
 20
74.1899281821
 30
0.0
 10
57.1064462686
 20
74.3887707666
 30
0.0
 10
57.0451065885
 20
74.5932932233
 30
0.0
 10
57.0205729721
 20
74.7327132641
 30
0.0
 10
57.0125328655
 20
74.8025102846
 30
0.0
  0
SPLINE
  5
31E
100
AcDbEntity
  8
0
100
AcDbSpline
 62
7
  6
CONTINUOUS
 70
0
 71
3
 72
21
 73
17
 74
0
 42
0.0000001
 43
0.0000001
 44
0.0000000001
 40
0.0
 40
0.0
 40
0.0
 40
0.0
 40
0.0570622101
 40
0.1158858354
 40
0.1765181407
 40
0.2388742802
 40
0.3676417479
 40
0.4336047814
 40
0.5000084953
 40
0.5664116848
 40
0.6323732451
 40
0.7611359257
 40
0.8234892477
 40
0.8841187605
 40
0.9429398159
 40
1.0
 40
1.0
 40
1.0
 40
1.0
 10
57.3092862856
 20
70.3922154241
 30
0.0
 10
57.3676925186
 20
70.3020537252
 30
0.0
 10
57.5006791844
 20
70.1278997061
 30
0.0
 10
57.7388694201
 20
69.8947293844
 30
0.0
 10
58.0143171222
 20
69.6897964121
 30
0.0
 10
58.4282629703
 20
69.4569324471
 30
0.0
 10
58.8910795564
 20
69.2983975604
 30
0.0
 10
59.3767705759
 20
69.2180286751
 30
0.0
 10
59.7512155669
 20
69.1976140188
 30
0.0
 10
60.1256542536
 20
69.2180936423
 30
0.0
 10
60.611318514
 20
69.2985458462
 30
0.0
 10
61.074090526
 20
69.4571591751
 30
0.0
 10
61.4879742019
 20
69.690094075
 30
0.0
 10
61.7633674037
 20
69.8950746132
 30
0.0
 10
62.0014974909
 20
70.1282868933
 30
0.0
 10
62.1344368967
 20
70.3024662562
 30
0.0
 10
62.1928196116
 20
70.3926386418
 30
0.0
  0
SPLINE
  5
31F
100
AcDbEntity
  8
0
100
AcDbSpline
 62
7
  6
CONTINUOUS
 70
0
 71
3
 72
11
 73
7
 74
0
 42
0.0000001
 43
0.0000001
 44
0.0000000001
 40
0.0
 40
0.0
 40
0.0
 40
0.0
 40
0.2443010732
 40
0.4910496335
 40
0.7423548735
 40
1.0
 40
1.0
 40
1.0
 40
1.0
 10
62.1009161638
 20
75.0044420131
 30
0.0
 10
62.1009161638
 20
75.0884419197
 30
0.0
 10
62.0866630086
 20
75.2576150124
 30
0.0
 10
62.0230937669
 20
75.5059645407
 30
0.0
 10
61.9185856936
 20
75.7450120982
 30
0.0
 10
61.8242386979
 20
75.8933114351
 30
0.0
 10
61.7714322337
 20
75.9644403871
 30
0.0
  0
SPLINE
  5
320
100
AcDbEntity
  8
0
100
AcDbSpline
 62
7
  6
CONTINUOUS
 70
0
 71
3
 72
9
 73
5
 74
0
 42
0.0000001
 43
0.0000001
 44
0.0000000001
 40
0.0
 40
0.0
 40
0.0
 40
0.0
 40
0.4897620749
 40
1.0
 40
1.0
 40
1.0
 40
1.0
 10
61.7509161638
 20
80.3044420131
 30
0.0
 10
61.7509161638
 20
80.1511158105
 30
0.0
 10
61.6929212144
 20
79.8356982173
 30
0.0
 10
61.5310846718
 20
79.560400214
 30
0.0
 10
61.4307459821
 20
79.4361107406
 30
0.0
  0
SPLINE
  5
321
100
AcDbEntity
  8
0
100
AcDbSpline
 62
7
  6
CONTINUOUS
 70
0
 71
3
 72
11
 73
7
 74
0
 42
0.0000001
 43
0.0000001
 44
0.0000000001
 40
0.0
 40
0.0
 40
0.0
 40
0.0
 40
0.2534800036
 40
0.5049097743
 40
0.7534564687
 40
1.0
 40
1.0
 40
1.0
 40
1.0
 10
73.3509161638
 20
105.7044420131
 30
0.0
 10
73.2200413711
 20
105.7044420131
 30
0.0
 10
72.956513226
 20
105.6528307427
 30
0.0
 10
72.6241050058
 20
105.4325994038
 30
0.0
 10
72.4026036436
 20
105.1052897391
 30
0.0
 10
72.3509161638
 20
104.8468549887
 30
0.0
 10
72.3509161638
 20
104.7195615806
 30
0.0
  0
SPLINE
  5
322
100
AcDbEntity
  8
0
100
AcDbSpline
 62
7
  6
CONTINUOUS
 70
0
 71
3
 72
15
 73
11
 74
0
 42
0.0000001
 43
0.0000001
 44
0.0000000001
 40
0.0
 40
0.0
 40
0.0
 40
0.0
 40
0.1251954162
 40
0.2503886134
 40
0.3754966896
 40
0.5005388769
 40
0.625498848
 40
0.7503737532
 40
0.8752162709
 40
1.0
 40
1.0
 40
1.0
 40
1.0
 10
73.3509161638
 20
107.7044420131
 30
0.0
 10
73.1550704684
 20
107.7044420131
 30
0.0
 10
72.7623150877
 20
107.6660112221
 30
0.0
 10
72.1964993038
 20
107.4954154745
 30
0.0
 10
71.6746374868
 20
107.2181206041
 30
0.0
 10
71.2169934829
 20
106.8448645748
 30
0.0
 10
70.8412335317
 20
106.3897270481
 30
0.0
 10
70.5617755196
 20
105.8701520809
 30
0.0
 10
70.3896992434
 20
105.3063470583
 30
0.0
 10
70.3509161638
 20
104.9147632656
 30
0.0
 10
70.3509161638
 20
104.7195615806
 30
0.0
  0
SPLINE
  5
323
100
AcDbEntity
  8
0
100
AcDbSpline
 62
7
  6
CONTINUOUS
 70
0
 71
3
 72
19
 73
15
 74
0
 42
0.0000001
 43
0.0000001
 44
0.0000000001
 40
0.0
 40
0.0
 40
0.0
 40
0.0
 40
0.0739042684
 40
0.1475685874
 40
0.2203084513
 40
0.2901262359
 40
0.351378466
 40
0.4006141024
 40
0.4438297995
 40
0.4880153664
 40
0.5898320181
 40
0.712435968
 40
0.8517184128
 40
1.0
 40
1.0
 40
1.0
 40
1.0
 10
86.3509161638
 20
106.858288167
 30
0.0
 10
86.3509161638
 20
106.7699030062
 30
0.0
 10
86.3275338045
 20
106.5925345653
 30
0.0
 10
86.2252512831
 20
106.346618414
 30
0.0
 10
86.0666356558
 20
106.1387276176
 30
0.0
 10
85.8734196179
 20
105.9862840007
 30
0.0
 10
85.6781470496
 20
105.8916606844
 30
0.0
 10
85.5014834313
 20
105.8392309495
 30
0.0
 10
85.3410300853
 20
105.8077000815
 30
0.0
 10
85.1169586128
 20
105.7756434019
 30
0.0
 10
84.7968593814
 20
105.7467718709
 30
0.0
 10
84.362530834
 20
105.7226294332
 30
0.0
 10
83.8721699017
 20
105.7077854757
 30
0.0
 10
83.5282522258
 20
105.7044420131
 30
0.0
 10
83.3509161638
 20
105.7044420131
 30
0.0
  0
SPLINE
  5
324
100
AcDbEntity
  8
0
100
AcDbSpline
 62
7
  6
CONTINUOUS
 70
0
 71
3
 72
21
 73
17
 74
0
 42
0.0000001
 43
0.0000001
 44
0.0000000001
 40
0.0
 40
0.0
 40
0.0
 40
0.0
 40
0.008456473
 40
0.0126462781
 40
0.021146915
 40
0.0332873974
 40
0.048624955
 40
0.0667449957
 40
0.0873760526
 40
0.1353208037
 40
0.1910340957
 40
0.3218767262
 40
0.4734766691
 40
0.6403999756
 40
0.8177004187
 40
1.0
 40
1.0
 40
1.0
 40
1.0
 10
85.0097526133
 20
107.780537179
 30
0.0
 10
85.0143424721
 20
107.7818142948
 30
0.0
 10
85.0299443333
 20
107.7854502095
 30
0.0
 10
85.0126124818
 20
107.7818484613
 30
0.0
 10
85.0013118949
 20
107.7800291226
 30
0.0
 10
84.980131331
 20
107.7766387771
 30
0.0
 10
84.9551379353
 20
107.773122768
 30
0.0
 10
84.9247624565
 20
107.7691978638
 30
0.0
 10
84.8763157101
 20
107.7635127895
 30
0.0
 10
84.8066160665
 20
107.7563772518
 30
0.0
 10
84.6750097214
 20
107.7449834231
 30
0.0
 10
84.484890761
 20
107.7323205124
 30
0.0
 10
84.2320087856
 20
107.7202327935
 30
0.0
 10
83.9528044414
 20
107.7112224004
 30
0.0
 10
83.6562149995
 20
107.7056872171
 30
0.0
 10
83.4536204467
 20
107.7044420131
 30
0.0
 10
83.3509161638
 20
107.7044420131
 30
0.0
  0
SPLINE
  5
325
100
AcDbEntity
  8
0
100
AcDbSpline
 62
7
  6
CONTINUOUS
 70
0
 71
3
 72
9
 73
5
 74
0
 42
0.0000001
 43
0.0000001
 44
0.0000000001
 40
0.0
 40
0.0
 40
0.0
 40
0.0
 40
0.5258649048
 40
1.0
 40
1.0
 40
1.0
 40
1.0
 10
87.3509161638
 20
106.7044420131
 30
0.0
 10
87.1622342577
 20
106.7044420131
 30
0.0
 10
86.8034224817
 20
106.7004515367
 30
0.0
 10
86.4447814767
 20
106.6879213648
 30
0.0
 10
86.2748950012
 20
106.6789898201
 30
0.0
  0
SPLINE
  5
326
100
AcDbEntity
  8
0
100
AcDbSpline
 62
7
  6
CONTINUOUS
 70
0
 71
3
 72
19
 73
15
 74
0
 42
0.0000001
 43
0.0000001
 44
0.0000000001
 40
0.0
 40
0.0
 40
0.0
 40
0.0
 40
0.1497026988
 40
0.2910470011
 40
0.4168485851
 40
0.5227479341
 40
0.5686322459
 40
0.612036634
 40
0.6577493029
 40
0.7132069428
 40
0.7798755006
 40
0.8518879816
 40
0.9256273219
 40
1.0
 40
1.0
 40
1.0
 40
1.0
 10
87.3509161638
 20
108.7044420131
 30
0.0
 10
87.1811281463
 20
108.7044420131
 30
0.0
 10
86.8510241264
 20
108.7013687634
 30
0.0
 10
86.3784064274
 20
108.687686854
 30
0.0
 10
85.9558609693
 20
108.6654665827
 30
0.0
 10
85.6420312997
 20
108.6389837353
 30
0.0
 10
85.4224214073
 20
108.6107461195
 30
0.0
 10
85.2714610347
 20
108.5847719353
 30
0.0
 10
85.1119403074
 20
108.5459529553
 30
0.0
 10
84.9331159985
 20
108.4786125877
 30
0.0
 10
84.7433137175
 20
108.3637705559
 30
0.0
 10
84.5686752327
 20
108.1944486743
 30
0.0
 10
84.4351502274
 20
107.980623516
 30
0.0
 10
84.3834178895
 20
107.8186116381
 30
0.0
 10
84.3680090455
 20
107.7356798701
 30
0.0
  0
SPLINE
  5
327
100
AcDbEntity
  8
0
100
AcDbSpline
 62
7
  6
CONTINUOUS
 70
0
 71
3
 72
9
 73
5
 74
0
 42
0.0000001
 43
0.0000001
 44
0.0000000001
 40
0.0
 40
0.0
 40
0.0
 40
0.0
 40
0.47537618
 40
1.0
 40
1.0
 40
1.0
 40
1.0
 10
104.4055556888
 20
106.6800969843
 30
0.0
 10
104.2385986982
 20
106.6886145484
 30
0.0
 10
103.8870846554
 20
106.7006176531
 30
0.0
 10
103.5354090516
 20
106.7044420131
 30
0.0
 10
103.3509161638
 20
106.7044420131
 30
0.0
  0
SPLINE
  5
328
100
AcDbEntity
  8
0
100
AcDbSpline
 62
7
  6
CONTINUOUS
 70
0
 71
3
 72
19
 73
15
 74
0
 42
0.0000001
 43
0.0000001
 44
0.0000000001
 40
0.0
 40
0.0
 40
0.0
 40
0.0
 40
0.0744370621
 40
0.1482726103
 40
0.2202818109
 40
0.286878606
 40
0.3421712951
 40
0.3877696529
 40
0.4311848895
 40
0.4771047688
 40
0.5830715913
 40
0.7089298849
 40
0.8503185608
 40
1.0
 40
1.0
 40
1.0
 40
1.0
 10
106.3329802892
 20
107.7401480006
 30
0.0
 10
106.3172044835
 20
107.8229702831
 30
0.0
 10
106.2647021724
 20
107.9846816005
 30
0.0
 10
106.1304084841
 20
108.1978363331
 30
0.0
 10
105.9552686897
 20
108.3661949029
 30
0.0
 10
105.7655915074
 20
108.4801217962
 30
0.0
 10
105.5871908533
 20
108.5466943592
 30
0.0
 10
105.4281476313
 20
108.5852317818
 30
0.0
 10
105.2774420531
 20
108.6110294622
 30
0.0
 10
105.0579902203
 20
108.6391780135
 30
0.0
 10
104.7443922887
 20
108.6655576238
 30
0.0
 10
104.3222200922
 20
108.6877337656
 30
0.0
 10
103.8501424269
 20
108.7013752992
 30
0.0
 10
103.5204533047
 20
108.7044420131
 30
0.0
 10
103.3509161638
 20
108.7044420131
 30
0.0
  0
SPLINE
  5
329
100
AcDbEntity
  8
0
100
AcDbSpline
 62
7
  6
CONTINUOUS
 70
0
 71
3
 72
18
 73
14
 74
0
 42
0.0000001
 43
0.0000001
 44
0.0000000001
 40
0.0
 40
0.0
 40
0.0
 40
0.0
 40
0.2876159712
 40
0.4102474524
 40
0.5120865657
 40
0.5562973206
 40
0.5995739434
 40
0.6487580649
 40
0.710088318
 40
0.7798652184
 40
0.8525290838
 40
0.9261129429
 40
1.0
 40
1.0
 40
1.0
 40
1.0
 10
107.3509161638
 20
105.7044420131
 30
0.0
 10
107.0069466332
 20
105.7044420131
 30
0.0
 10
106.5161636715
 20
105.7128983854
 30
0.0
 10
105.9046439316
 20
105.7467697618
 30
0.0
 10
105.5844627814
 20
105.7757112881
 30
0.0
 10
105.3602583614
 20
105.8077507713
 30
0.0
 10
105.1997919759
 20
105.8394487516
 30
0.0
 10
105.0230732031
 20
105.8919930418
 30
0.0
 10
104.8277055463
 20
105.9864304212
 30
0.0
 10
104.6348212511
 20
106.1392310645
 30
0.0
 10
104.4763498855
 20
106.3468944831
 30
0.0
 10
104.3742944039
 20
106.5926865227
 30
0.0
 10
104.3509161638
 20
106.7699241717
 30
0.0
 10
104.3509161638
 20
106.858288167
 30
0.0
  0
SPLINE
  5
32A
100
AcDbEntity
  8
0
100
AcDbSpline
 62
7
  6
CONTINUOUS
 70
0
 71
3
 72
13
 73
9
 74
0
 42
0.0000001
 43
0.0000001
 44
0.0000000001
 40
0.0
 40
0.0
 40
0.0
 40
0.0
 40
0.3324249557
 40
0.6334429242
 40
0.7623755139
 40
0.8711189096
 40
0.9538147643
 40
1.0
 40
1.0
 40
1.0
 40
1.0
 10
107.3509161638
 20
107.7044420131
 30
0.0
 10
107.1658466576
 20
107.7044420131
 30
0.0
 10
106.8131844882
 20
107.70830307
 30
0.0
 10
106.3889347222
 20
107.7227888197
 30
0.0
 10
106.0895369945
 20
107.7403844248
 30
0.0
 10
105.9116975739
 20
107.7543278919
 30
0.0
 10
105.7801482827
 20
107.7683117391
 30
0.0
 10
105.709032846
 20
107.7782103244
 30
0.0
 10
105.6837669387
 20
107.7829817927
 30
0.0
  0
SPLINE
  5
32B
100
AcDbEntity
  8
0
100
AcDbSpline
 62
7
  6
CONTINUOUS
 70
0
 71
3
 72
15
 73
11
 74
0
 42
0.0000001
 43
0.0000001
 44
0.0000000001
 40
0.0
 40
0.0
 40
0.0
 40
0.0
 40
0.12480274
 40
0.2496366133
 40
0.3745470118
 40
0.4995247748
 40
0.6245745104
 40
0.7496629903
 40
0.8748554728
 40
1.0
 40
1.0
 40
1.0
 40
1.0
 10
120.2758723019
 20
105.3830120257
 30
0.0
 10
120.2384802935
 20
105.5462983945
 30
0.0
 10
120.1357311961
 20
105.8672169627
 30
0.0
 10
119.9029276583
 20
106.3153597311
 30
0.0
 10
119.5980352312
 20
106.7184040465
 30
0.0
 10
119.2296572338
 20
107.06475727
 30
0.0
 10
118.8083056938
 20
107.3446680587
 30
0.0
 10
118.3458650145
 20
107.5504827988
 30
0.0
 10
117.8555648213
 20
107.6761762624
 30
0.0
 10
117.5188879044
 20
107.7044420131
 30
0.0
 10
117.3509161638
 20
107.7044420131
 30
0.0
  0
SPLINE
  5
32C
100
AcDbEntity
  8
0
100
AcDbSpline
 62
7
  6
CONTINUOUS
 70
0
 71
3
 72
11
 73
7
 74
0
 42
0.0000001
 43
0.0000001
 44
0.0000000001
 40
0.0
 40
0.0
 40
0.0
 40
0.0
 40
0.2465435317
 40
0.4950902538
 40
0.7465200266
 40
1.0
 40
1.0
 40
1.0
 40
1.0
 10
118.3509161638
 20
104.7195615806
 30
0.0
 10
118.3509161638
 20
104.8468549889
 30
0.0
 10
118.2992286794
 20
105.1052897532
 30
0.0
 10
118.0777273009
 20
105.4325994288
 30
0.0
 10
117.7453190703
 20
105.652830752
 30
0.0
 10
117.4817909409
 20
105.7044420131
 30
0.0
 10
117.3509161638
 20
105.7044420131
 30
0.0
  0
SPLINE
  5
32D
100
AcDbEntity
  8
0
100
AcDbSpline
 62
7
  6
CONTINUOUS
 70
0
 71
3
 72
16
 73
12
 74
0
 42
0.0000001
 43
0.0000001
 44
0.0000000001
 40
0.0
 40
0.0
 40
0.0
 40
0.0
 40
0.3748946027
 40
0.5445255598
 40
0.6936866023
 40
0.8168240649
 40
0.8672564906
 40
0.9096971223
 40
0.9439342255
 40
0.9699376427
 40
1.0
 40
1.0
 40
1.0
 40
1.0
 10
119.3509161638
 20
104.8422906202
 30
0.0
 10
119.2233081155
 20
104.8422906202
 30
0.0
 10
119.0378985221
 20
104.8381496749
 30
0.0
 10
118.8022356008
 20
104.8230868315
 30
0.0
 10
118.6524796307
 20
104.8084193445
 30
0.0
 10
118.5437021342
 20
104.7929227784
 30
0.0
 10
118.4715229926
 20
104.7783789403
 30
0.0
 10
118.4297233362
 20
104.7678513116
 30
0.0
 10
118.3960579534
 20
104.7565465909
 30
0.0
 10
118.3693263925
 20
104.7445166829
 30
0.0
 10
118.3509161638
 20
104.7297943199
 30
0.0
 10
118.3509161638
 20
104.7195615806
 30
0.0
  0
SPLINE
  5
32E
100
AcDbEntity
  8
0
100
AcDbSpline
 62
7
  6
CONTINUOUS
 70
0
 71
3
 72
15
 73
11
 74
0
 42
0.0000001
 43
0.0000001
 44
0.0000000001
 40
0.0
 40
0.0
 40
0.0
 40
0.0
 40
0.125109707
 40
0.2502382844
 40
0.3753516713
 40
0.5004260855
 40
0.6254370497
 40
0.7503342928
 40
0.8752609923
 40
1.0
 40
1.0
 40
1.0
 40
1.0
 10
85.0054806777
 20
107.7939446249
 30
0.0
 10
85.07275826
 20
107.8186209605
 30
0.0
 10
85.2130902356
 20
107.8536474717
 30
0.0
 10
85.4295776552
 20
107.8599664813
 30
0.0
 10
85.6425189565
 20
107.820069501
 30
0.0
 10
85.8419827465
 20
107.7357113616
 30
0.0
 10
86.018712926
 20
107.6107600637
 30
0.0
 10
86.1646771263
 20
107.4510170667
 30
0.0
 10
86.2728667222
 20
107.2639073235
 30
0.0
 10
86.3167373938
 20
107.1264213257
 30
0.0
 10
86.3309751147
 20
107.0564063566
 30
0.0
  0
SPLINE
  5
32F
100
AcDbEntity
  8
0
100
AcDbSpline
 62
7
  6
CONTINUOUS
 70
0
 71
3
 72
16
 73
12
 74
0
 42
0.0000001
 43
0.0000001
 44
0.0000000001
 40
0.0
 40
0.0
 40
0.0
 40
0.0
 40
0.0300623573
 40
0.0560657745
 40
0.0903028777
 40
0.1327435094
 40
0.1831759351
 40
0.3063133977
 40
0.4554744402
 40
0.6251053973
 40
1.0
 40
1.0
 40
1.0
 40
1.0
 10
72.3509161638
 20
104.7195615806
 30
0.0
 10
72.3509161638
 20
104.7297943199
 30
0.0
 10
72.3325059351
 20
104.7445166829
 30
0.0
 10
72.3057743743
 20
104.7565465909
 30
0.0
 10
72.2721089914
 20
104.7678513116
 30
0.0
 10
72.230309335
 20
104.7783789403
 30
0.0
 10
72.1581301935
 20
104.7929227784
 30
0.0
 10
72.049352697
 20
104.8084193445
 30
0.0
 10
71.8995967268
 20
104.8230868315
 30
0.0
 10
71.6639338056
 20
104.8381496749
 30
0.0
 10
71.4785242122
 20
104.8422906202
 30
0.0
 10
71.3509161638
 20
104.8422906202
 30
0.0
  0
SPLINE
  5
330
100
AcDbEntity
  8
0
100
AcDbSpline
 62
7
  6
CONTINUOUS
 70
0
 71
3
 72
15
 73
11
 74
0
 42
0.0000001
 43
0.0000001
 44
0.0000000001
 40
0.0
 40
0.0
 40
0.0
 40
0.0
 40
0.1247986287
 40
0.2496912855
 40
0.3746830655
 40
0.4997662737
 40
0.6248937198
 40
0.7500073302
 40
0.8750519217
 40
1.0
 40
1.0
 40
1.0
 40
1.0
 10
86.3309751147
 20
107.7487140489
 30
0.0
 10
86.3120028609
 20
107.8420114081
 30
0.0
 10
86.246631951
 20
108.0242517936
 30
0.0
 10
86.075324276
 20
108.2577936855
 30
0.0
 10
85.8445712035
 20
108.4335323077
 30
0.0
 10
85.5733928355
 20
108.536802043
 30
0.0
 10
85.2839943276
 20
108.5592474256
 30
0.0
 10
85.0000474541
 20
108.4989492291
 30
0.0
 10
84.744960589
 20
108.3611063642
 30
0.0
 10
84.6076474743
 20
108.2243101449
 30
0.0
 10
84.5503928751
 20
108.1481000597
 30
0.0
  0
SPLINE
  5
331
100
AcDbEntity
  8
0
100
AcDbSpline
 62
7
  6
CONTINUOUS
 70
0
 71
3
 72
15
 73
11
 74
0
 42
0.0000001
 43
0.0000001
 44
0.0000000001
 40
0.0
 40
0.0
 40
0.0
 40
0.0
 40
0.1248782421
 40
0.2498124647
 40
0.3748744901
 40
0.500016642
 40
0.6251592265
 40
0.7502277106
 40
0.8751554062
 40
1.0
 40
1.0
 40
1.0
 40
1.0
 10
106.333014143
 20
107.7381933371
 30
0.0
 10
106.3115554767
 20
107.8500084877
 30
0.0
 10
106.2290400675
 20
108.0680537022
 30
0.0
 10
106.0026322035
 20
108.3327472255
 30
0.0
 10
105.6998872868
 20
108.5061239179
 30
0.0
 10
105.3563345776
 20
108.5674408674
 30
0.0
 10
105.0121437737
 20
108.5097571637
 30
0.0
 10
104.7075953843
 20
108.3395787334
 30
0.0
 10
104.4783746353
 20
108.0773620055
 30
0.0
 10
104.39353957
 20
107.8602560952
 30
0.0
 10
104.370857213
 20
107.7487140489
 30
0.0
  0
SPLINE
  5
332
100
AcDbEntity
  8
0
100
AcDbSpline
 62
7
  6
CONTINUOUS
 70
0
 71
3
 72
15
 73
11
 74
0
 42
0.0000001
 43
0.0000001
 44
0.0000000001
 40
0.0
 40
0.0
 40
0.0
 40
0.0
 40
0.1247382475
 40
0.2496661052
 40
0.3745627544
 40
0.4995726645
 40
0.6246461602
 40
0.7497590866
 40
0.8748885601
 40
1.0
 40
1.0
 40
1.0
 40
1.0
 10
104.370857213
 20
107.0564063566
 30
0.0
 10
104.385025741
 20
107.126081065
 30
0.0
 10
104.4286087983
 20
107.2629104066
 30
0.0
 10
104.5359704199
 20
107.4492685177
 30
0.0
 10
104.6807965734
 20
107.6086055471
 30
0.0
 10
104.85619905
 20
107.7335822057
 30
0.0
 10
105.0542806651
 20
107.8184584378
 30
0.0
 10
105.2659397917
 20
107.8593785904
 30
0.0
 10
105.4814007156
 20
107.8545573009
 30
0.0
 10
105.6213084444
 20
107.8207949278
 30
0.0
 10
105.6884639472
 20
107.7968002433
 30
0.0
  0
SPLINE
  5
333
100
AcDbEntity
  8
0
100
AcDbSpline
 62
7
  6
CONTINUOUS
 70
0
 71
3
 72
16
 73
12
 74
0
 42
0.0000001
 43
0.0000001
 44
0.0000000001
 40
0.0
 40
0.0
 40
0.0
 40
0.0
 40
0.3748946027
 40
0.5445255598
 40
0.6936866023
 40
0.8168240649
 40
0.8672564906
 40
0.9096971223
 40
0.9439342255
 40
0.9699376427
 40
1.0
 40
1.0
 40
1.0
 40
1.0
 10
71.3509161638
 20
104.8422906202
 30
0.0
 10
71.2233081155
 20
104.8422906202
 30
0.0
 10
71.0378985221
 20
104.8381496749
 30
0.0
 10
70.8022356008
 20
104.8230868315
 30
0.0
 10
70.6524796307
 20
104.8084193445
 30
0.0
 10
70.5437021342
 20
104.7929227784
 30
0.0
 10
70.4715229926
 20
104.7783789403
 30
0.0
 10
70.4297233362
 20
104.7678513116
 30
0.0
 10
70.3960579534
 20
104.7565465909
 30
0.0
 10
70.3693263925
 20
104.7445166829
 30
0.0
 10
70.3509161638
 20
104.7297943199
 30
0.0
 10
70.3509161638
 20
104.7195615806
 30
0.0
  0
SPLINE
  5
334
100
AcDbEntity
  8
0
100
AcDbSpline
 62
7
  6
CONTINUOUS
 70
0
 71
3
 72
16
 73
12
 74
0
 42
0.0000001
 43
0.0000001
 44
0.0000000001
 40
0.0
 40
0.0
 40
0.0
 40
0.0
 40
0.0300623573
 40
0.0560657745
 40
0.0903028777
 40
0.1327435094
 40
0.1831759351
 40
0.3063133977
 40
0.4554744402
 40
0.6251053973
 40
1.0
 40
1.0
 40
1.0
 40
1.0
 10
120.3509161638
 20
104.7195615806
 30
0.0
 10
120.3509161638
 20
104.7297943199
 30
0.0
 10
120.3325059351
 20
104.7445166829
 30
0.0
 10
120.3057743743
 20
104.7565465909
 30
0.0
 10
120.2721089914
 20
104.7678513116
 30
0.0
 10
120.230309335
 20
104.7783789403
 30
0.0
 10
120.1581301935
 20
104.7929227784
 30
0.0
 10
120.049352697
 20
104.8084193445
 30
0.0
 10
119.8995967268
 20
104.8230868315
 30
0.0
 10
119.6639338056
 20
104.8381496749
 30
0.0
 10
119.4785242122
 20
104.8422906202
 30
0.0
 10
119.3509161638
 20
104.8422906202
 30
0.0
  0
SPLINE
  5
335
100
AcDbEntity
  8
0
100
AcDbSpline
 62
7
  6
CONTINUOUS
 70
0
 71
3
 72
11
 73
7
 74
0
 42
0.0000001
 43
0.0000001
 44
0.0000000001
 40
0.0
 40
0.0
 40
0.0
 40
0.0
 40
0.2534800036
 40
0.5049097743
 40
0.7534564687
 40
1.0
 40
1.0
 40
1.0
 40
1.0
 10
20.3509161638
 20
105.7044420131
 30
0.0
 10
20.2200413711
 20
105.7044420131
 30
0.0
 10
19.956513226
 20
105.6528307427
 30
0.0
 10
19.6241050058
 20
105.4325994038
 30
0.0
 10
19.4026036436
 20
105.1052897391
 30
0.0
 10
19.3509161638
 20
104.8468549887
 30
0.0
 10
19.3509161638
 20
104.7195615806
 30
0.0
  0
SPLINE
  5
336
100
AcDbEntity
  8
0
100
AcDbSpline
 62
7
  6
CONTINUOUS
 70
0
 71
3
 72
15
 73
11
 74
0
 42
0.0000001
 43
0.0000001
 44
0.0000000001
 40
0.0
 40
0.0
 40
0.0
 40
0.0
 40
0.1251954162
 40
0.2503886134
 40
0.3754966896
 40
0.5005388769
 40
0.625498848
 40
0.7503737532
 40
0.8752162709
 40
1.0
 40
1.0
 40
1.0
 40
1.0
 10
20.3509161638
 20
107.7044420131
 30
0.0
 10
20.1550704684
 20
107.7044420131
 30
0.0
 10
19.7623150877
 20
107.6660112221
 30
0.0
 10
19.1964993038
 20
107.4954154745
 30
0.0
 10
18.6746374868
 20
107.2181206041
 30
0.0
 10
18.2169934829
 20
106.8448645748
 30
0.0
 10
17.8412335317
 20
106.3897270481
 30
0.0
 10
17.5617755196
 20
105.8701520809
 30
0.0
 10
17.3896992434
 20
105.3063470583
 30
0.0
 10
17.3509161638
 20
104.9147632656
 30
0.0
 10
17.3509161638
 20
104.7195615806
 30
0.0
  0
SPLINE
  5
337
100
AcDbEntity
  8
0
100
AcDbSpline
 62
7
  6
CONTINUOUS
 70
0
 71
3
 72
15
 73
11
 74
0
 42
0.0000001
 43
0.0000001
 44
0.0000000001
 40
0.0
 40
0.0
 40
0.0
 40
0.0
 40
0.1247836159
 40
0.2496260632
 40
0.374501046
 40
0.4994611275
 40
0.6245034239
 40
0.7496115753
 40
0.874804697
 40
1.0
 40
1.0
 40
1.0
 40
1.0
 10
67.3509161638
 20
104.7195615806
 30
0.0
 10
67.3509161638
 20
104.9147630891
 30
0.0
 10
67.3121332464
 20
105.3063466077
 30
0.0
 10
67.1400570231
 20
105.8701514731
 30
0.0
 10
66.8605990916
 20
106.3897266967
 30
0.0
 10
66.484838824
 20
106.8448645805
 30
0.0
 10
66.0271944601
 20
107.2181209168
 30
0.0
 10
65.5053323958
 20
107.4954156921
 30
0.0
 10
64.9395167815
 20
107.6660113858
 30
0.0
 10
64.5467616827
 20
107.7044420131
 30
0.0
 10
64.3509161638
 20
107.7044420131
 30
0.0
  0
SPLINE
  5
338
100
AcDbEntity
  8
0
100
AcDbSpline
 62
7
  6
CONTINUOUS
 70
0
 71
3
 72
11
 73
7
 74
0
 42
0.0000001
 43
0.0000001
 44
0.0000000001
 40
0.0
 40
0.0
 40
0.0
 40
0.0
 40
0.2465435317
 40
0.4950902538
 40
0.7465200266
 40
1.0
 40
1.0
 40
1.0
 40
1.0
 10
65.3509161638
 20
104.7195615806
 30
0.0
 10
65.3509161638
 20
104.8468549889
 30
0.0
 10
65.2992286794
 20
105.1052897532
 30
0.0
 10
65.0777273009
 20
105.4325994288
 30
0.0
 10
64.7453190703
 20
105.652830752
 30
0.0
 10
64.4817909409
 20
105.7044420131
 30
0.0
 10
64.3509161638
 20
105.7044420131
 30
0.0
  0
SPLINE
  5
339
100
AcDbEntity
  8
0
100
AcDbSpline
 62
7
  6
CONTINUOUS
 70
0
 71
3
 72
16
 73
12
 74
0
 42
0.0000001
 43
0.0000001
 44
0.0000000001
 40
0.0
 40
0.0
 40
0.0
 40
0.0
 40
0.3748946027
 40
0.5445255598
 40
0.6936866023
 40
0.8168240649
 40
0.8672564906
 40
0.9096971223
 40
0.9439342255
 40
0.9699376427
 40
1.0
 40
1.0
 40
1.0
 40
1.0
 10
66.3509161638
 20
104.8422906202
 30
0.0
 10
66.2233081155
 20
104.8422906202
 30
0.0
 10
66.0378985221
 20
104.8381496749
 30
0.0
 10
65.8022356008
 20
104.8230868315
 30
0.0
 10
65.6524796307
 20
104.8084193445
 30
0.0
 10
65.5437021342
 20
104.7929227784
 30
0.0
 10
65.4715229926
 20
104.7783789403
 30
0.0
 10
65.4297233362
 20
104.7678513116
 30
0.0
 10
65.3960579534
 20
104.7565465909
 30
0.0
 10
65.3693263925
 20
104.7445166829
 30
0.0
 10
65.3509161638
 20
104.7297943199
 30
0.0
 10
65.3509161638
 20
104.7195615806
 30
0.0
  0
SPLINE
  5
33A
100
AcDbEntity
  8
0
100
AcDbSpline
 62
7
  6
CONTINUOUS
 70
0
 71
3
 72
16
 73
12
 74
0
 42
0.0000001
 43
0.0000001
 44
0.0000000001
 40
0.0
 40
0.0
 40
0.0
 40
0.0
 40
0.0300623573
 40
0.0560657745
 40
0.0903028777
 40
0.1327435094
 40
0.1831759351
 40
0.3063133977
 40
0.4554744402
 40
0.6251053973
 40
1.0
 40
1.0
 40
1.0
 40
1.0
 10
19.3509161638
 20
104.7195615806
 30
0.0
 10
19.3509161638
 20
104.7297943199
 30
0.0
 10
19.3325059351
 20
104.7445166829
 30
0.0
 10
19.3057743743
 20
104.7565465909
 30
0.0
 10
19.2721089914
 20
104.7678513116
 30
0.0
 10
19.230309335
 20
104.7783789403
 30
0.0
 10
19.1581301935
 20
104.7929227784
 30
0.0
 10
19.049352697
 20
104.8084193445
 30
0.0
 10
18.8995967268
 20
104.8230868315
 30
0.0
 10
18.6639338056
 20
104.8381496749
 30
0.0
 10
18.4785242122
 20
104.8422906202
 30
0.0
 10
18.3509161638
 20
104.8422906202
 30
0.0
  0
SPLINE
  5
33B
100
AcDbEntity
  8
0
100
AcDbSpline
 62
7
  6
CONTINUOUS
 70
0
 71
3
 72
16
 73
12
 74
0
 42
0.0000001
 43
0.0000001
 44
0.0000000001
 40
0.0
 40
0.0
 40
0.0
 40
0.0
 40
0.3748946027
 40
0.5445255598
 40
0.6936866023
 40
0.8168240649
 40
0.8672564906
 40
0.9096971223
 40
0.9439342255
 40
0.9699376427
 40
1.0
 40
1.0
 40
1.0
 40
1.0
 10
18.3509161638
 20
104.8422906202
 30
0.0
 10
18.2233081155
 20
104.8422906202
 30
0.0
 10
18.0378985221
 20
104.8381496749
 30
0.0
 10
17.8022356008
 20
104.8230868315
 30
0.0
 10
17.6524796307
 20
104.8084193445
 30
0.0
 10
17.5437021342
 20
104.7929227784
 30
0.0
 10
17.4715229926
 20
104.7783789403
 30
0.0
 10
17.4297233362
 20
104.7678513116
 30
0.0
 10
17.3960579534
 20
104.7565465909
 30
0.0
 10
17.3693263925
 20
104.7445166829
 30
0.0
 10
17.3509161638
 20
104.7297943199
 30
0.0
 10
17.3509161638
 20
104.7195615806
 30
0.0
  0
SPLINE
  5
33C
100
AcDbEntity
  8
0
100
AcDbSpline
 62
7
  6
CONTINUOUS
 70
0
 71
3
 72
16
 73
12
 74
0
 42
0.0000001
 43
0.0000001
 44
0.0000000001
 40
0.0
 40
0.0
 40
0.0
 40
0.0
 40
0.0300623573
 40
0.0560657745
 40
0.0903028777
 40
0.1327435094
 40
0.1831759351
 40
0.3063133977
 40
0.4554744402
 40
0.6251053973
 40
1.0
 40
1.0
 40
1.0
 40
1.0
 10
67.3509161638
 20
104.7195615806
 30
0.0
 10
67.3509161638
 20
104.7297943199
 30
0.0
 10
67.3325059351
 20
104.7445166829
 30
0.0
 10
67.3057743743
 20
104.7565465909
 30
0.0
 10
67.2721089914
 20
104.7678513116
 30
0.0
 10
67.230309335
 20
104.7783789403
 30
0.0
 10
67.1581301935
 20
104.7929227784
 30
0.0
 10
67.049352697
 20
104.8084193445
 30
0.0
 10
66.8995967268
 20
104.8230868315
 30
0.0
 10
66.6639338056
 20
104.8381496749
 30
0.0
 10
66.4785242122
 20
104.8422906202
 30
0.0
 10
66.3509161638
 20
104.8422906202
 30
0.0
  0
ENDSEC
  0
SECTION
  2
OBJECTS
  0
DICTIONARY
  5
C
100
AcDbDictionary
280
0
281
1
  3
ACAD_GROUP
350
D
  3
ACAD_MLINESTYLE
350
17
  3
ACAD_LAYOUT
350
1A
  3
ACAD_PLOTSETTINGS
350
19
  3
ACAD_PLOTSTYLENAME
350
E
  0
DICTIONARY
  5
D
102
{ACAD_REACTORS
330
C
102
}
100
AcDbDictionary
280
0
281
1
  0
ACDBDICTIONARYWDFLT
  5
E
102
{ACAD_REACTORS
330
C
102
}
100
AcDbDictionary
281
1
  3
Normal
350
F
100
AcDbDictionaryWithDefault
340
F
  0
DICTIONARY
  5
17
102
{ACAD_REACTORS
330
C
102
}
100
AcDbDictionary
280
0
281
1
  3
Standard
350
18
  0
DICTIONARY
  5
19
102
{ACAD_REACTORS
330
C
102
}
100
AcDbDictionary
281
1
  0
DICTIONARY
  5
1A
102
{ACAD_REACTORS
330
C
102
}
100
AcDbDictionary
281
1
  3
Model
350
33D
  3
Layout1
350
33E
  0
ACDBPLACEHOLDER
  5
F
102
{ACAD_REACTORS
330
E
102
}
  0
MLINESTYLE
  5
18
102
{ACAD_REACTORS
330
17
102
}
100
AcDbMlineStyle
  2
STANDARD
 70
0
  3

 62
256
 51
90.0
 52
90.0
 71
2
 49
0.5
 62
256
  6
BYLAYER
 49
-0.5
 62
256
  6
BYLAYER
  0
LAYOUT
  5
33D
102
{ACAD_REACTORS
330
1A
102
}
100
AcDbPlotSettings
  1

  2
none_device
  4

  6

 40
0.0
 41
0.0
 42
0.0
 43
0.0
 44
210.0
 45
297.0
 46
0.0
 47
0.0
 48
0.0
 49
0.0
140
0.0
141
0.0
142
1.0
143
1.0
 70
1024
 72
1
 73
0
 74
0
  7

 75
0
147
1.0
148
0.0
149
0.0
100
AcDbLayout
  1
Model
 70
0
 71
0
 10
0.0
 20
0.0
 11
210.0
 21
297.0
 12
0.0
 22
0.0
 32
0.0
 14
0.0
 24
0.0
 34
0.0
 15
0.0
 25
0.0
 35
0.0
146
0.0
 13
0.0
 23
0.0
 33
0.0
 16
1.0
 26
0.0
 36
0.0
 17
0.0
 27
1.0
 37
0.0
 76
0
330
210
345
0
346
0
  0
LAYOUT
  5
33E
102
{ACAD_REACTORS
330
1A
102
}
100
AcDbPlotSettings
  1

  2
none_device
  4

  6

 40
0.0
 41
0.0
 42
0.0
 43
0.0
 44
210.0
 45
297.0
 46
0.0
 47
0.0
 48
0.0
 49
0.0
140
0.0
141
0.0
142
1.0
143
1.0
 70
0
 72
1
 73
0
 74
0
  7

 75
0
147
1.0
148
0.0
149
0.0
100
AcDbLayout
  1
Layout1
 70
0
 71
1
 10
0.0
 20
0.0
 11
210.0
 21
297.0
 12
0.0
 22
0.0
 32
0.0
 14
0.0
 24
0.0
 34
0.0
 15
0.0
 25
0.0
 35
0.0
146
0.0
 13
0.0
 23
0.0
 33
0.0
 16
1.0
 26
0.0
 36
0.0
 17
0.0
 27
1.0
 37
0.0
 76
0
330
211
345
0
346
0
  0
ENDSEC
  0
EOF
