999
DXF file: C:\Users\sesa63760\Dev\_Creo\CAD\MCADPD0005425_3D-CAD\drw0001_2.dxf
999
Pro/ENGINEER 2019471 by Parametric Technology Corporation
  0
SECTION
  2
HEADER
  9
$ACADVER
  1
AC1024
  9
$DWGCODEPAGE
  3
ANSI_1252
  9
$EXTMAX
 10
93.7623511807
 20
132.6067538126
 30
0.0
  9
$EXTMIN
 10
0.0
 20
0.0
 30
0.0
  9
$LIMMIN
 10
0.0
 20
0.0
  9
$LIMMAX
 10
93.7623511807
 20
132.6067538126
  9
$VIEWCTR
 10
46.8811755903
 20
66.3033769063
  9
$VIEWSIZE
 40
132.6067538126
  9
$CLAYER
  8
0
  9
$LTSCALE
 40
8.6439958041
  9
$CELTYPE
  6
BYLAYER
  9
$DIMSCALE
 40
1.0
  9
$DIMASZ
 40
1.1162184664
  9
$DIMEXO
 40
1.0
  9
$DIMDLI
 40
5.9722152828
  9
$DIMEXE
 40
1.0
  9
$DIMCEN
 40
1.4144720407
  9
$DIMLFAC
 40
1.0
  9
$DIMBLK
  1
_FILLED
  9
$DIMALT
 70
0
  9
$DIMALTF
 40
0.0393700787
  9
$DIMTXT
 40
1.562705853
  9
$DIMTOL
 70
1
  9
$DIMLIM
 70
0
  9
$DIMTFAC
 40
1.0
  9
$DIMTP
 40
0.01
  9
$DIMTM
 40
0.01
  9
$DIMGAP
 40
0.625
  9
$DIMDSEP
 70
46
  9
$AUNITS
 70
0
  9
$PDMODE
 70
3
  9
$PDSIZE
 40
0.3125
  9
$HANDSEED
  5
264
  9
$TILEMODE
 70
1
  9
$MEASUREMENT
 70
1
  9
$INSUNITS
 70
4
  0
ENDSEC
  0
SECTION
  2
CLASSES
  0
CLASS
  1
ACDBDICTIONARYWDFLT
  2
AcDbDictionaryWithDefault
  3
AutoCAD 2000
 90
0
 91
1
280
0
281
0
  0
CLASS
  1
ACDBPLACEHOLDER
  2
AcDbPlaceHolder
  3
AutoCAD 2000
 90
0
 91
1
280
0
281
0
  0
CLASS
  1
LAYOUT
  2
AcDbLayout
  3
AutoCAD 2000
 90
0
 91
0
280
0
281
0
  0
ENDSEC
  0
SECTION
  2
TABLES
  0
TABLE
  2
VPORT
  5
8
100
AcDbSymbolTable
 70
2
  0
VPORT
  5
1F4
100
AcDbSymbolTableRecord
100
AcDbViewportTableRecord
  2
*ACTIVE
 70
0
 10
0.0
 20
0.0
 11
1.0
 21
1.0
 12
46.8811755903
 22
66.3033769063
 13
0.0
 23
0.0
 14
1.0
 24
1.0
 15
0.0
 25
0.0
 16
0.0
 26
0.0
 36
1.0
 17
0.0
 27
0.0
 37
0.0
 40
132.6067538126
 41
0.7070707071
 42
50.0
 43
0.0
 44
0.0
 50
0.0
 51
0.0
 71
0
 72
100
 73
1
 74
1
 75
0
 76
0
 77
0
 78
0
  0
ENDTAB
  0
TABLE
  2
LTYPE
  5
5
100
AcDbSymbolTable
 70
6
  0
LTYPE
  5
14
100
AcDbSymbolTableRecord
100
AcDbLinetypeTableRecord
  2
BYBLOCK
 70
0
  3

 72
65
 73
0
 40
0.0
  0
LTYPE
  5
15
100
AcDbSymbolTableRecord
100
AcDbLinetypeTableRecord
  2
BYLAYER
 70
0
  3

 72
65
 73
0
 40
0.0
  0
LTYPE
  5
16
100
AcDbSymbolTableRecord
100
AcDbLinetypeTableRecord
  2
CONTINUOUS
 70
64
  3
Solid line
 72
65
 73
0
 40
0.0
  0
LTYPE
  5
1F5
100
AcDbSymbolTableRecord
100
AcDbLinetypeTableRecord
  2
CENTER
 70
64
  3
____ _ ____ _ ____ _ ____ _ ____ _ ____ _ ____
 72
65
 73
4
 40
0.6
 49
0.375
 74
0
 49
-0.075
 74
0
 49
0.075
 74
0
 49
-0.075
 74
0
  0
LTYPE
  5
1F6
100
AcDbSymbolTableRecord
100
AcDbLinetypeTableRecord
  2
HIDDEN
 70
64
  3
- - - - - - - - - - - - - - - - - - - -
 72
65
 73
2
 40
0.2
 49
0.1
 74
0
 49
-0.1
 74
0
  0
LTYPE
  5
1F7
100
AcDbSymbolTableRecord
100
AcDbLinetypeTableRecord
  2
PHANTOM
 70
64
  3
_____ _ _ _____ _ _ _____ _ _ _____
 72
65
 73
6
 40
0.8
 49
0.45
 74
0
 49
-0.05
 74
0
 49
0.1
 74
0
 49
-0.05
 74
0
 49
0.1
 74
0
 49
-0.05
 74
0
  0
LTYPE
  5
1F8
100
AcDbSymbolTableRecord
100
AcDbLinetypeTableRecord
  2
DOT
 70
64
  3
. . . . . . . . . . . . . . . . . . . .
 72
65
 73
2
 40
0.2
 49
0.1
 74
0
 49
-0.1
 74
0
  0
LTYPE
  5
1F9
100
AcDbSymbolTableRecord
100
AcDbLinetypeTableRecord
  2
DASHED
 70
64
  3
- - - - - - - - - - - - - - - - - - - -
 72
65
 73
2
 40
0.2
 49
0.1
 74
0
 49
-0.1
 74
0
  0
ENDTAB
  0
TABLE
  2
LAYER
  5
2
100
AcDbSymbolTable
 70
36
  0
LAYER
  5
10
100
AcDbSymbolTableRecord
100
AcDbLayerTableRecord
  2
0
 70
0
 62
7
  6
CONTINUOUS
370
-3
390
F
  0
LAYER
  5
1FA
100
AcDbSymbolTableRecord
100
AcDbLayerTableRecord
  2
DEFAULT_1
 70
0
 62
7
  6
CENTER
370
-3
390
F
  0
LAYER
  5
1FB
100
AcDbSymbolTableRecord
100
AcDbLayerTableRecord
  2
DEFAULT_2
 70
0
 62
7
  6
HIDDEN
370
-3
390
F
  0
LAYER
  5
1FC
100
AcDbSymbolTableRecord
100
AcDbLayerTableRecord
  2
DEFAULT_3
 70
0
 62
7
  6
PHANTOM
370
-3
390
F
  0
LAYER
  5
1FD
100
AcDbSymbolTableRecord
100
AcDbLayerTableRecord
  2
00_COMPONENTS
 70
0
 62
7
  6
CONTINUOUS
370
-3
390
F
  0
LAYER
  5
1FE
100
AcDbSymbolTableRecord
100
AcDbLayerTableRecord
  2
01_1_DEFAULT_DATUMS
 70
0
 62
7
  6
CONTINUOUS
370
-3
390
F
  0
LAYER
  5
1FF
100
AcDbSymbolTableRecord
100
AcDbLayerTableRecord
  2
01_PLANES
 70
0
 62
7
  6
CONTINUOUS
370
-3
390
F
  0
LAYER
  5
200
100
AcDbSymbolTableRecord
100
AcDbLayerTableRecord
  2
02_COORD_SYS
 70
0
 62
7
  6
CONTINUOUS
370
-3
390
F
  0
LAYER
  5
201
100
AcDbSymbolTableRecord
100
AcDbLayerTableRecord
  2
03_AXES
 70
0
 62
7
  6
CONTINUOUS
370
-3
390
F
  0
LAYER
  5
202
100
AcDbSymbolTableRecord
100
AcDbLayerTableRecord
  2
04_POINTS
 70
0
 62
7
  6
CONTINUOUS
370
-3
390
F
  0
LAYER
  5
203
100
AcDbSymbolTableRecord
100
AcDbLayerTableRecord
  2
05_CURVES
 70
0
 62
7
  6
CONTINUOUS
370
-3
390
F
  0
LAYER
  5
204
100
AcDbSymbolTableRecord
100
AcDbLayerTableRecord
  2
06_SURFS
 70
0
 62
7
  6
CONTINUOUS
370
-3
390
F
  0
LAYER
  5
205
100
AcDbSymbolTableRecord
100
AcDbLayerTableRecord
  2
07_COSMETICS
 70
0
 62
7
  6
CONTINUOUS
370
-3
390
F
  0
LAYER
  5
206
100
AcDbSymbolTableRecord
100
AcDbLayerTableRecord
  2
10_NOTES
 70
0
 62
7
  6
CONTINUOUS
370
-3
390
F
  0
LAYER
  5
207
100
AcDbSymbolTableRecord
100
AcDbLayerTableRecord
  2
11_NOTES_PUB
 70
0
 62
7
  6
CONTINUOUS
370
-3
390
F
  0
LAYER
  5
208
100
AcDbSymbolTableRecord
100
AcDbLayerTableRecord
  2
13_REF_GTOL
 70
0
 62
7
  6
CONTINUOUS
370
-3
390
F
  0
LAYER
  5
209
100
AcDbSymbolTableRecord
100
AcDbLayerTableRecord
  2
16_MISC
 70
0
 62
7
  6
CONTINUOUS
370
-3
390
F
  0
LAYER
  5
20A
100
AcDbSymbolTableRecord
100
AcDbLayerTableRecord
  2
17_NO_PRINT
 70
0
 62
7
  6
CONTINUOUS
370
-3
390
F
  0
LAYER
  5
20B
100
AcDbSymbolTableRecord
100
AcDbLayerTableRecord
  2
18_DATUM_CAMS_JOINTS
 70
0
 62
7
  6
CONTINUOUS
370
-3
390
F
  0
LAYER
  5
20C
100
AcDbSymbolTableRecord
100
AcDbLayerTableRecord
  2
19_DATUM_FUNCTIONAL
 70
0
 62
7
  6
CONTINUOUS
370
-3
390
F
  0
LAYER
  5
20D
100
AcDbSymbolTableRecord
100
AcDbLayerTableRecord
  2
20_DATUM_KINEMATIC_SCHEME
 70
0
 62
7
  6
CONTINUOUS
370
-3
390
F
  0
ENDTAB
  0
TABLE
  2
STYLE
  5
3
100
AcDbSymbolTable
 70
1
  0
STYLE
  5
11
100
AcDbSymbolTableRecord
100
AcDbTextStyleTableRecord
  2
STANDARD
 70
0
 40
0.0
 41
1.0
 50
0.0
 71
0
 42
0.2
  3
ARIAL.TTF
  4

  0
STYLE
  5
20E
100
AcDbSymbolTableRecord
100
AcDbTextStyleTableRecord
  2
TEXTSTYLE_1
 70
0
 40
0.0
 41
0.8
 50
0.0
 71
0
 42
0.2
  3
gdt
  4

  0
ENDTAB
  0
TABLE
  2
VIEW
  5
6
100
AcDbSymbolTable
 70
0
  0
ENDTAB
  0
TABLE
  2
UCS
  5
7
100
AcDbSymbolTable
 70
0
  0
ENDTAB
  0
TABLE
  2
APPID
  5
9
100
AcDbSymbolTable
 70
1
  0
APPID
  5
20F
100
AcDbSymbolTableRecord
100
AcDbRegAppTableRecord
  2
ACAD
 70
0
  0
ENDTAB
  0
TABLE
  2
BLOCK_RECORD
  5
1
100
AcDbSymbolTable
 70
0
  0
BLOCK_RECORD
  5
210
100
AcDbSymbolTableRecord
100
AcDbBlockTableRecord
  2
*Model_Space
  0
BLOCK_RECORD
  5
211
100
AcDbSymbolTableRecord
100
AcDbBlockTableRecord
  2
*Paper_Space
  0
BLOCK_RECORD
  5
212
100
AcDbSymbolTableRecord
100
AcDbBlockTableRecord
  2
_FILLED
  0
ENDTAB
  0
TABLE
  2
DIMSTYLE
  5
A
100
AcDbSymbolTable
 70
1
100
AcDbDimStyleTable
 71
0
  0
DIMSTYLE
105
213
100
AcDbSymbolTableRecord
100
AcDbDimStyleTableRecord
  2
STANDARD
 70
0
  3

  4

 40
1.0
 41
1.1162184664
 42
1.0
 43
0.38
 44
1.0
 45
0.0
 46
0.0
 47
0.01
 48
0.01
140
1.562705853
141
0.09
142
0.0
143
25.4
144
1.0
145
0.0
146
1.0
147
0.625
 71
1
 72
0
 73
0
 74
0
 75
0
 76
0
 77
1
 78
8
 79
2
170
0
171
1
172
0
173
0
174
0
175
0
176
0
177
0
178
0
270
2
179
2
271
2
272
2
273
2
274
2
275
0
280
0
281
0
282
0
283
1
284
8
285
0
286
0
287
3
288
0
340
11
278
46
341
212
342
212
343
212
344
212
  0
ENDTAB
  0
ENDSEC
  0
SECTION
  2
BLOCKS
  0
BLOCK
  5
20
100
AcDbEntity
  8
0
100
AcDbBlockBegin
  2
*Model_Space
 70
0
 10
0.0
 20
0.0
 30
0.0
  3
*Model_Space
  1

  0
ENDBLK
  5
21
100
AcDbEntity
  8
0
100
AcDbBlockEnd
  0
BLOCK
  5
1C
100
AcDbEntity
  8
0
100
AcDbBlockBegin
  2
*Paper_Space
 70
0
 10
0.0
 20
0.0
 30
0.0
  3
*Paper_Space
  1

  0
ENDBLK
  5
1D
100
AcDbEntity
  8
0
100
AcDbBlockEnd
  0
BLOCK
  5
214
100
AcDbEntity
  8
0
100
AcDbBlockBegin
  2
_FILLED
 70
64
 10
0.0
 20
0.0
  3
_FILLED
  1

  0
SOLID
  5
215
100
AcDbEntity
  8
0
  6
BYBLOCK
 62
0
100
AcDbTrace
 10
0.0
 20
0.0
 11
-1.0
 21
0.25
 12
-1.0
 22
-0.25
 13
-1.0
 23
-0.25
  0
ENDBLK
  5
216
100
AcDbEntity
  8
0
  6
BYBLOCK
 62
0
100
AcDbBlockEnd
  0
ENDSEC
  0
SECTION
  2
ENTITIES
  0
LINE
  5
217
100
AcDbEntity
  8
0
100
AcDbLine
 62
7
  6
BYLAYER
 10
35.7804130631
 20
22.369912854
 11
84.7804130631
 21
22.369912854
  0
LINE
  5
218
100
AcDbEntity
  8
0
100
AcDbLine
 62
7
  6
BYLAYER
 10
10.2804130631
 20
72.3599149121
 11
10.2804130631
 21
59.7599243994
  0
LINE
  5
219
100
AcDbEntity
  8
0
100
AcDbLine
 62
7
  6
BYLAYER
 10
11.2804130631
 20
73.359912854
 11
11.2804130631
 21
58.759912854
  0
LINE
  5
21A
100
AcDbEntity
  8
0
100
AcDbLine
 62
7
  6
BYLAYER
 10
19.2804130631
 20
58.759912854
 11
19.2804130631
 21
61.2265795207
  0
LINE
  5
21B
100
AcDbEntity
  8
0
100
AcDbLine
 62
7
  6
BYLAYER
 10
19.2804130631
 20
70.8932461874
 11
19.2804130631
 21
73.359912854
  0
LINE
  5
21C
100
AcDbEntity
  8
0
100
AcDbLine
 62
7
  6
BYLAYER
 10
20.2804130631
 20
80.5598974408
 11
20.2804130631
 21
72.5453579283
  0
LINE
  5
21D
100
AcDbEntity
  8
0
100
AcDbLine
 62
7
  6
BYLAYER
 10
20.2804130631
 20
59.5744677798
 11
20.2804130631
 21
51.5599174081
  0
LINE
  5
21E
100
AcDbEntity
  8
0
100
AcDbLine
 62
7
  6
BYLAYER
 10
21.7804130631
 20
88.559912854
 11
21.7804130631
 21
43.559912854
  0
LINE
  5
21F
100
AcDbEntity
  8
0
100
AcDbLine
 62
7
  6
BYLAYER
 10
21.7804130631
 20
43.559912854
 11
35.7804130631
 21
43.559912854
  0
LINE
  5
220
100
AcDbEntity
  8
0
100
AcDbLine
 62
7
  6
BYLAYER
 10
79.7804130631
 20
50.059912854
 11
80.7804130631
 21
50.059912854
  0
LINE
  5
221
100
AcDbEntity
  8
0
100
AcDbLine
 62
7
  6
BYLAYER
 10
80.7804130631
 20
51.059912854
 11
81.7804130631
 21
51.059912854
  0
LINE
  5
222
100
AcDbEntity
  8
0
100
AcDbLine
 62
7
  6
BYLAYER
 10
35.7804130631
 20
109.749912854
 11
35.7804130631
 21
88.559912854
  0
LINE
  5
223
100
AcDbEntity
  8
0
100
AcDbLine
 62
7
  6
BYLAYER
 10
35.7804130631
 20
77.559912854
 11
35.7804130631
 21
74.059912854
  0
LINE
  5
224
100
AcDbEntity
  8
0
100
AcDbLine
 62
7
  6
BYLAYER
 10
35.7804130631
 20
58.059912854
 11
35.7804130631
 21
54.559912854
  0
LINE
  5
225
100
AcDbEntity
  8
0
100
AcDbLine
 62
7
  6
BYLAYER
 10
35.7804130631
 20
43.559912854
 11
35.7804130631
 21
22.369912854
  0
LINE
  5
226
100
AcDbEntity
  8
0
100
AcDbLine
 62
7
  6
BYLAYER
 10
21.7804130631
 20
51.559912854
 11
20.2804130631
 21
51.559912854
  0
LINE
  5
227
100
AcDbEntity
  8
0
100
AcDbLine
 62
7
  6
BYLAYER
 10
35.7804130631
 20
54.559912854
 11
42.7804130631
 21
54.559912854
  0
LINE
  5
228
100
AcDbEntity
  8
0
100
AcDbLine
 62
7
  6
BYLAYER
 10
37.2804130631
 20
62.059912854
 11
37.2804130631
 21
70.059912854
  0
LINE
  5
229
100
AcDbEntity
  8
0
100
AcDbLine
 62
7
  6
BYLAYER
 10
42.7804130631
 20
58.059912854
 11
35.7804130631
 21
58.059912854
  0
LINE
  5
22A
100
AcDbEntity
  8
0
100
AcDbLine
 62
7
  6
BYLAYER
 10
11.2804130631
 20
58.759912854
 11
19.2804130631
 21
58.759912854
  0
LINE
  5
22B
100
AcDbEntity
  8
0
100
AcDbLine
 62
7
  6
BYLAYER
 10
19.2804130631
 20
58.8043572985
 11
11.2804130631
 21
58.8043572985
  0
LINE
  5
22C
100
AcDbEntity
  8
0
100
AcDbLine
 62
7
  6
BYLAYER
 10
42.7804130631
 20
54.559912854
 11
42.7804130631
 21
58.059912854
  0
LINE
  5
22D
100
AcDbEntity
  8
0
100
AcDbLine
 62
7
  6
BYLAYER
 10
42.7804130631
 20
74.059912854
 11
42.7804130631
 21
77.559912854
  0
LINE
  5
22E
100
AcDbEntity
  8
0
100
AcDbLine
 62
7
  6
BYLAYER
 10
43.2804130631
 20
62.059912854
 11
43.2804130631
 21
70.059912854
  0
LINE
  5
22F
100
AcDbEntity
  8
0
100
AcDbLine
 62
7
  6
BYLAYER
 10
19.2804130631
 20
60.559912854
 11
11.2804130631
 21
60.559912854
  0
LINE
  5
230
100
AcDbEntity
  8
0
100
AcDbLine
 62
7
  6
BYLAYER
 10
19.2804130631
 20
61.2265795207
 11
11.2804130631
 21
61.2265795207
  0
LINE
  5
231
100
AcDbEntity
  8
0
100
AcDbLine
 62
7
  6
BYLAYER
 10
37.2804130631
 20
62.059912854
 11
43.2804130631
 21
62.059912854
  0
LINE
  5
232
100
AcDbEntity
  8
0
100
AcDbLine
 62
7
  6
BYLAYER
 10
46.7804130631
 20
68.559912854
 11
46.7804130631
 21
63.559912854
  0
LINE
  5
233
100
AcDbEntity
  8
0
100
AcDbLine
 62
7
  6
BYLAYER
 10
46.7804130631
 20
63.559912854
 11
55.2804130631
 21
63.559912854
  0
LINE
  5
234
100
AcDbEntity
  8
0
100
AcDbLine
 62
7
  6
BYLAYER
 10
56.2804130631
 20
63.559912854
 11
59.2804130631
 21
63.559912854
  0
LINE
  5
235
100
AcDbEntity
  8
0
100
AcDbLine
 62
7
  6
BYLAYER
 10
60.2804130631
 20
63.559912854
 11
61.7804130631
 21
63.559912854
  0
LINE
  5
236
100
AcDbEntity
  8
0
100
AcDbLine
 62
7
  6
BYLAYER
 10
61.7804130631
 20
68.559912854
 11
60.2804130631
 21
68.559912854
  0
LINE
  5
237
100
AcDbEntity
  8
0
100
AcDbLine
 62
7
  6
BYLAYER
 10
59.2804130631
 20
68.559912854
 11
56.2804130631
 21
68.559912854
  0
LINE
  5
238
100
AcDbEntity
  8
0
100
AcDbLine
 62
7
  6
BYLAYER
 10
55.2804130631
 20
68.559912854
 11
46.7804130631
 21
68.559912854
  0
LINE
  5
239
100
AcDbEntity
  8
0
100
AcDbLine
 62
7
  6
BYLAYER
 10
37.2804130631
 20
70.059912854
 11
43.2804130631
 21
70.059912854
  0
LINE
  5
23A
100
AcDbEntity
  8
0
100
AcDbLine
 62
7
  6
BYLAYER
 10
55.2804130631
 20
63.559912854
 11
55.2804130631
 21
68.559912854
  0
LINE
  5
23B
100
AcDbEntity
  8
0
100
AcDbLine
 62
7
  6
BYLAYER
 10
19.2804130631
 20
70.8932461874
 11
11.2804130631
 21
70.8932461874
  0
LINE
  5
23C
100
AcDbEntity
  8
0
100
AcDbLine
 62
7
  6
BYLAYER
 10
11.2804130631
 20
71.559912854
 11
19.2804130631
 21
71.559912854
  0
LINE
  5
23D
100
AcDbEntity
  8
0
100
AcDbLine
 62
7
  6
BYLAYER
 10
19.2804130631
 20
73.3154684096
 11
11.2804130631
 21
73.3154684096
  0
LINE
  5
23E
100
AcDbEntity
  8
0
100
AcDbLine
 62
7
  6
BYLAYER
 10
11.2804130631
 20
73.359912854
 11
19.2804130631
 21
73.359912854
  0
LINE
  5
23F
100
AcDbEntity
  8
0
100
AcDbLine
 62
7
  6
BYLAYER
 10
35.7804130631
 20
74.059912854
 11
42.7804130631
 21
74.059912854
  0
LINE
  5
240
100
AcDbEntity
  8
0
100
AcDbLine
 62
7
  6
BYLAYER
 10
56.2804130631
 20
68.559912854
 11
56.2804130631
 21
63.559912854
  0
LINE
  5
241
100
AcDbEntity
  8
0
100
AcDbLine
 62
7
  6
BYLAYER
 10
59.2804130631
 20
63.559912854
 11
59.2804130631
 21
68.559912854
  0
LINE
  5
242
100
AcDbEntity
  8
0
100
AcDbLine
 62
7
  6
BYLAYER
 10
42.7804130631
 20
77.559912854
 11
35.7804130631
 21
77.559912854
  0
LINE
  5
243
100
AcDbEntity
  8
0
100
AcDbLine
 62
7
  6
BYLAYER
 10
60.2804130631
 20
68.559912854
 11
60.2804130631
 21
63.559912854
  0
LINE
  5
244
100
AcDbEntity
  8
0
100
AcDbLine
 62
7
  6
BYLAYER
 10
61.7804130631
 20
63.559912854
 11
61.7804130631
 21
68.559912854
  0
LINE
  5
245
100
AcDbEntity
  8
0
100
AcDbLine
 62
7
  6
BYLAYER
 10
21.7804130631
 20
80.559912854
 11
20.2804130631
 21
80.559912854
  0
LINE
  5
246
100
AcDbEntity
  8
0
100
AcDbLine
 62
7
  6
BYLAYER
 10
81.7804130631
 20
51.059912854
 11
84.7804130631
 21
48.059912854
  0
LINE
  5
247
100
AcDbEntity
  8
0
100
AcDbLine
 62
7
  6
BYLAYER
 10
79.7804130631
 20
82.059912854
 11
84.7804130631
 21
82.059912854
  0
LINE
  5
248
100
AcDbEntity
  8
0
100
AcDbLine
 62
7
  6
BYLAYER
 10
80.2318009519
 20
85.059912854
 11
78.7318009519
 21
85.059912854
  0
LINE
  5
249
100
AcDbEntity
  8
0
100
AcDbLine
 62
7
  6
BYLAYER
 10
35.7804130631
 20
88.559912854
 11
21.7804130631
 21
88.559912854
  0
LINE
  5
24A
100
AcDbEntity
  8
0
100
AcDbLine
 62
7
  6
BYLAYER
 10
79.7804130631
 20
82.059912854
 11
79.7804130631
 21
50.059912854
  0
LINE
  5
24B
100
AcDbEntity
  8
0
100
AcDbLine
 62
7
  6
BYLAYER
 10
80.7804130631
 20
50.059912854
 11
80.7804130631
 21
51.059912854
  0
LINE
  5
24C
100
AcDbEntity
  8
0
100
AcDbLine
 62
7
  6
BYLAYER
 10
84.7804130631
 20
22.369912854
 11
84.7804130631
 21
48.059912854
  0
LINE
  5
24D
100
AcDbEntity
  8
0
100
AcDbLine
 62
7
  6
BYLAYER
 10
84.7804130631
 20
82.059912854
 11
84.7804130631
 21
109.749912854
  0
LINE
  5
24E
100
AcDbEntity
  8
0
100
AcDbLine
 62
7
  6
BYLAYER
 10
78.7318009519
 20
85.059912854
 11
79.7804130631
 21
82.059912854
  0
LINE
  5
24F
100
AcDbEntity
  8
0
100
AcDbLine
 62
7
  6
BYLAYER
 10
81.2804130631
 20
82.059912854
 11
80.2318009519
 21
85.059912854
  0
LINE
  5
250
100
AcDbEntity
  8
0
100
AcDbLine
 62
7
  6
BYLAYER
 10
84.7804130631
 20
109.749912854
 11
35.7804130631
 21
109.749912854
  0
ARC
  5
251
100
AcDbEntity
  8
0
100
AcDbCircle
 62
7
  6
BYLAYER
 10
19.2804130631
 20
72.559912854
 40
1.0
100
AcDbArc
 50
270.0
 51
359.1852041626
  0
ARC
  5
252
100
AcDbEntity
  8
0
100
AcDbCircle
 62
7
  6
BYLAYER
 10
19.2804130631
 20
57.759912854
 40
1.0
100
AcDbArc
 50
5.0182696649
 51
90.0
  0
ARC
  5
253
100
AcDbEntity
  8
0
100
AcDbCircle
 62
7
  6
BYLAYER
 10
11.2804130631
 20
59.759912854
 40
1.0
100
AcDbArc
 50
180.0000000003
 51
270.0
  0
ARC
  5
254
100
AcDbEntity
  8
0
100
AcDbCircle
 62
7
  6
BYLAYER
 10
19.2804130631
 20
74.359912854
 40
1.0
100
AcDbArc
 50
270.0
 51
354.9817303355
  0
ARC
  5
255
100
AcDbEntity
  8
0
100
AcDbCircle
 62
7
  6
BYLAYER
 10
11.2804130631
 20
72.359912854
 40
1.0
100
AcDbArc
 50
90.0
 51
179.9999999987
  0
ARC
  5
256
100
AcDbEntity
  8
0
100
AcDbCircle
 62
7
  6
BYLAYER
 10
11.2804130631
 20
70.559912854
 40
1.0
100
AcDbArc
 50
90.0
 51
180.0
  0
ARC
  5
257
100
AcDbEntity
  8
0
100
AcDbCircle
 62
7
  6
BYLAYER
 10
19.2804130631
 20
59.559912854
 40
1.0
100
AcDbArc
 50
0.8147958375
 51
90.0
  0
ARC
  5
258
100
AcDbEntity
  8
0
100
AcDbCircle
 62
7
  6
BYLAYER
 10
11.2804130631
 20
61.559912854
 40
1.0
100
AcDbArc
 50
180.0
 51
270.0
  0
SPLINE
  5
259
100
AcDbEntity
  8
0
100
AcDbSpline
 62
7
  6
BYLAYER
 70
0
 71
3
 72
15
 73
11
 74
0
 42
0.0000001
 43
0.0000001
 44
0.0000000001
 40
0.0
 40
0.0
 40
0.0
 40
0.0
 40
0.1277315347
 40
0.2551449963
 40
0.3817047452
 40
0.5072796785
 40
0.6317458707
 40
0.755151096
 40
0.8778384679
 40
1.0
 40
1.0
 40
1.0
 40
1.0
 10
11.2804130631
 20
73.3154684096
 30
0.0
 10
11.2151162761
 20
73.3154684096
 30
0.0
 10
11.084358822
 20
73.3031656448
 30
0.0
 10
10.895844327
 20
73.248651012
 30
0.0
 10
10.721934621
 20
73.159948464
 30
0.0
 10
10.5693671155
 20
73.0405513283
 30
0.0
 10
10.4440632177
 20
72.8948729515
 30
0.0
 10
10.3507977269
 20
72.7285005781
 30
0.0
 10
10.2933923253
 20
72.5479010294
 30
0.0
 10
10.2804130631
 20
72.4223622371
 30
0.0
 10
10.2804130631
 20
72.359912854
 30
0.0
  0
SPLINE
  5
25A
100
AcDbEntity
  8
0
100
AcDbSpline
 62
7
  6
BYLAYER
 70
0
 71
3
 72
17
 73
13
 74
0
 42
0.0000001
 43
0.0000001
 44
0.0000000001
 40
0.0
 40
0.0
 40
0.0
 40
0.0
 40
0.1753367056
 40
0.3448383862
 40
0.5025978304
 40
0.6437764335
 40
0.7643888115
 40
0.8622371807
 40
0.9028460896
 40
0.938526432
 40
0.970363331
 40
1.0
 40
1.0
 40
1.0
 40
1.0
 10
11.2804130631
 20
70.8932461874
 30
0.0
 10
11.2153690391
 20
70.8932461874
 30
0.0
 10
11.0874056931
 20
70.8891069468
 30
0.0
 10
10.9017222892
 20
70.8706909505
 30
0.0
 10
10.7303652588
 20
70.8407790591
 30
0.0
 10
10.5796974148
 20
70.8006350211
 30
0.0
 10
10.4552455935
 20
70.7518022292
 30
0.0
 10
10.3717410803
 20
70.7025496449
 30
0.0
 10
10.3238075428
 20
70.6588816488
 30
0.0
 10
10.2991669909
 20
70.6268918077
 30
0.0
 10
10.2839497275
 20
70.5938241061
 30
0.0
 10
10.2804130631
 20
70.570907062
 30
0.0
 10
10.2804130631
 20
70.559912854
 30
0.0
  0
SPLINE
  5
25B
100
AcDbEntity
  8
0
100
AcDbSpline
 62
7
  6
BYLAYER
 70
0
 71
3
 72
11
 73
7
 74
0
 42
0.0000001
 43
0.0000001
 44
0.0000000001
 40
0.0
 40
0.0
 40
0.0
 40
0.0
 40
0.2437776359
 40
0.4917040837
 40
0.7439646745
 40
1.0
 40
1.0
 40
1.0
 40
1.0
 10
20.2804130631
 20
59.574472262
 30
0.0
 10
20.2804130631
 20
59.6633278805
 30
0.0
 10
20.2593991145
 20
59.8429773472
 30
0.0
 10
20.1755039466
 20
60.1022501137
 30
0.0
 10
20.0489827218
 20
60.3482294064
 30
0.0
 10
19.9435956035
 20
60.5011294059
 30
0.0
 10
19.887034523
 20
60.5753595613
 30
0.0
  0
SPLINE
  5
25C
100
AcDbEntity
  8
0
100
AcDbSpline
 62
7
  6
BYLAYER
 70
0
 71
3
 72
9
 73
5
 74
0
 42
0.0000001
 43
0.0000001
 44
0.0000000001
 40
0.0
 40
0.0
 40
0.0
 40
0.0
 40
0.4974075656
 40
1.0
 40
1.0
 40
1.0
 40
1.0
 10
19.887034523
 20
60.5753595613
 30
0.0
 10
19.7975418154
 20
60.692808831
 30
0.0
 10
19.5997774246
 20
60.9152497438
 30
0.0
 10
19.3871269073
 20
61.1223089812
 30
0.0
 10
19.2804130631
 20
61.2265795207
 30
0.0
  0
SPLINE
  5
25D
100
AcDbEntity
  8
0
100
AcDbSpline
 62
7
  6
BYLAYER
 70
0
 71
3
 72
15
 73
11
 74
0
 42
0.0000001
 43
0.0000001
 44
0.0000000001
 40
0.0
 40
0.0
 40
0.0
 40
0.0
 40
0.1221615321
 40
0.244848904
 40
0.3682541293
 40
0.4927203215
 40
0.6182952548
 40
0.7448550037
 40
0.8722684653
 40
1.0
 40
1.0
 40
1.0
 40
1.0
 10
10.2804130631
 20
59.759912854
 30
0.0
 10
10.2804130631
 20
59.697463471
 30
0.0
 10
10.2933923253
 20
59.5719246786
 30
0.0
 10
10.3507977269
 20
59.3913251299
 30
0.0
 10
10.4440632177
 20
59.2249527565
 30
0.0
 10
10.5693671155
 20
59.0792743798
 30
0.0
 10
10.721934621
 20
58.959877244
 30
0.0
 10
10.895844327
 20
58.8711746961
 30
0.0
 10
11.084358822
 20
58.8166600632
 30
0.0
 10
11.2151162761
 20
58.8043572985
 30
0.0
 10
11.2804130631
 20
58.8043572985
 30
0.0
  0
SPLINE
  5
25E
100
AcDbEntity
  8
0
100
AcDbSpline
 62
7
  6
BYLAYER
 70
0
 71
3
 72
15
 73
11
 74
0
 42
0.0000001
 43
0.0000001
 44
0.0000000001
 40
0.0
 40
0.0
 40
0.0
 40
0.0
 40
0.1221615321
 40
0.244848904
 40
0.3682541293
 40
0.4927203215
 40
0.6182952548
 40
0.7448550037
 40
0.8722684653
 40
1.0
 40
1.0
 40
1.0
 40
1.0
 10
20.2804130631
 20
74.2710239651
 30
0.0
 10
20.2804130631
 20
74.2085745821
 30
0.0
 10
20.2674338009
 20
74.0830357898
 30
0.0
 10
20.2100283993
 20
73.902436241
 30
0.0
 10
20.1167629085
 20
73.7360638676
 30
0.0
 10
19.9914590107
 20
73.5903854909
 30
0.0
 10
19.8388915051
 20
73.4709883551
 30
0.0
 10
19.6649817992
 20
73.3822858072
 30
0.0
 10
19.4764673042
 20
73.3277711744
 30
0.0
 10
19.3457098501
 20
73.3154684096
 30
0.0
 10
19.2804130631
 20
73.3154684096
 30
0.0
  0
SPLINE
  5
25F
100
AcDbEntity
  8
0
100
AcDbSpline
 62
7
  6
BYLAYER
 70
0
 71
3
 72
15
 73
11
 74
0
 42
0.0000001
 43
0.0000001
 44
0.0000000001
 40
0.0
 40
0.0
 40
0.0
 40
0.0
 40
0.1221615321
 40
0.244848904
 40
0.3682541293
 40
0.4927203215
 40
0.6182952548
 40
0.7448550037
 40
0.8722684653
 40
1.0
 40
1.0
 40
1.0
 40
1.0
 10
20.2804130631
 20
57.8488017429
 30
0.0
 10
20.2804130631
 20
57.911251126
 30
0.0
 10
20.2674338009
 20
58.0367899183
 30
0.0
 10
20.2100283993
 20
58.217389467
 30
0.0
 10
20.1167629085
 20
58.3837618404
 30
0.0
 10
19.9914590107
 20
58.5294402171
 30
0.0
 10
19.8388915051
 20
58.6488373529
 30
0.0
 10
19.6649817992
 20
58.7375399009
 30
0.0
 10
19.4764673042
 20
58.7920545337
 30
0.0
 10
19.3457098501
 20
58.8043572985
 30
0.0
 10
19.2804130631
 20
58.8043572985
 30
0.0
  0
SPLINE
  5
260
100
AcDbEntity
  8
0
100
AcDbSpline
 62
7
  6
BYLAYER
 70
0
 71
3
 72
13
 73
9
 74
0
 42
0.0000001
 43
0.0000001
 44
0.0000000001
 40
0.0
 40
0.0
 40
0.0
 40
0.0
 40
0.2572806866
 40
0.511148612
 40
0.6361125827
 40
0.7592833373
 40
0.8805178908
 40
1.0
 40
1.0
 40
1.0
 40
1.0
 10
19.2804130631
 20
70.8932461874
 30
0.0
 10
19.4021196649
 20
71.0121662125
 30
0.0
 10
19.6444499643
 20
71.2477916404
 30
0.0
 10
19.9180417578
 20
71.5697512461
 30
0.0
 10
20.0938757272
 20
71.8521827767
 30
0.0
 10
20.1966385349
 20
72.0746736658
 30
0.0
 10
20.2638844729
 20
72.3068026312
 30
0.0
 10
20.2804130631
 20
72.4663349308
 30
0.0
 10
20.2804130631
 20
72.5453579282
 30
0.0
  0
SPLINE
  5
261
100
AcDbEntity
  8
0
100
AcDbSpline
 62
7
  6
BYLAYER
 70
0
 71
3
 72
17
 73
13
 74
0
 42
0.0000001
 43
0.0000001
 44
0.0000000001
 40
0.0
 40
0.0
 40
0.0
 40
0.0
 40
0.0296385212
 40
0.0614788298
 40
0.0971611509
 40
0.1377698556
 40
0.2356157399
 40
0.3562259654
 40
0.4974030527
 40
0.6551617034
 40
0.8246634529
 40
1.0
 40
1.0
 40
1.0
 40
1.0
 10
10.2804130631
 20
61.559912854
 30
0.0
 10
10.2804130631
 20
61.54891792
 30
0.0
 10
10.2839500665
 20
61.5259989495
 30
0.0
 10
10.2991664418
 20
61.4929278374
 30
0.0
 10
10.3238065596
 20
61.4609348733
 30
0.0
 10
10.3717404211
 20
61.417267038
 30
0.0
 10
10.4552458384
 20
61.3680186597
 30
0.0
 10
10.5796972121
 20
61.3191900763
 30
0.0
 10
10.7303647993
 20
61.2790494955
 30
0.0
 10
10.9017215902
 20
61.2491380447
 30
0.0
 10
11.0874051104
 20
61.2307201563
 30
0.0
 10
11.2153688673
 20
61.2265795207
 30
0.0
 10
11.2804130631
 20
61.2265795207
 30
0.0
  0
ENDSEC
  0
SECTION
  2
OBJECTS
  0
DICTIONARY
  5
C
100
AcDbDictionary
280
0
281
1
  3
ACAD_GROUP
350
D
  3
ACAD_MLINESTYLE
350
17
  3
ACAD_LAYOUT
350
1A
  3
ACAD_PLOTSETTINGS
350
19
  3
ACAD_PLOTSTYLENAME
350
E
  0
DICTIONARY
  5
D
102
{ACAD_REACTORS
330
C
102
}
100
AcDbDictionary
280
0
281
1
  0
ACDBDICTIONARYWDFLT
  5
E
102
{ACAD_REACTORS
330
C
102
}
100
AcDbDictionary
281
1
  3
Normal
350
F
100
AcDbDictionaryWithDefault
340
F
  0
DICTIONARY
  5
17
102
{ACAD_REACTORS
330
C
102
}
100
AcDbDictionary
280
0
281
1
  3
Standard
350
18
  0
DICTIONARY
  5
19
102
{ACAD_REACTORS
330
C
102
}
100
AcDbDictionary
281
1
  0
DICTIONARY
  5
1A
102
{ACAD_REACTORS
330
C
102
}
100
AcDbDictionary
281
1
  3
Model
350
262
  3
Layout1
350
263
  0
ACDBPLACEHOLDER
  5
F
102
{ACAD_REACTORS
330
E
102
}
  0
MLINESTYLE
  5
18
102
{ACAD_REACTORS
330
17
102
}
100
AcDbMlineStyle
  2
STANDARD
 70
0
  3

 62
256
 51
90.0
 52
90.0
 71
2
 49
0.5
 62
256
  6
BYLAYER
 49
-0.5
 62
256
  6
BYLAYER
  0
LAYOUT
  5
262
102
{ACAD_REACTORS
330
1A
102
}
100
AcDbPlotSettings
  1

  2
none_device
  4

  6

 40
0.0
 41
0.0
 42
0.0
 43
0.0
 44
210.0
 45
297.0
 46
0.0
 47
0.0
 48
0.0
 49
0.0
140
0.0
141
0.0
142
1.0
143
1.0
 70
1024
 72
1
 73
0
 74
0
  7

 75
0
147
1.0
148
0.0
149
0.0
100
AcDbLayout
  1
Model
 70
0
 71
0
 10
0.0
 20
0.0
 11
210.0
 21
297.0
 12
0.0
 22
0.0
 32
0.0
 14
0.0
 24
0.0
 34
0.0
 15
0.0
 25
0.0
 35
0.0
146
0.0
 13
0.0
 23
0.0
 33
0.0
 16
1.0
 26
0.0
 36
0.0
 17
0.0
 27
1.0
 37
0.0
 76
0
330
210
345
0
346
0
  0
LAYOUT
  5
263
102
{ACAD_REACTORS
330
1A
102
}
100
AcDbPlotSettings
  1

  2
none_device
  4

  6

 40
0.0
 41
0.0
 42
0.0
 43
0.0
 44
210.0
 45
297.0
 46
0.0
 47
0.0
 48
0.0
 49
0.0
140
0.0
141
0.0
142
1.0
143
1.0
 70
0
 72
1
 73
0
 74
0
  7

 75
0
147
1.0
148
0.0
149
0.0
100
AcDbLayout
  1
Layout1
 70
0
 71
1
 10
0.0
 20
0.0
 11
210.0
 21
297.0
 12
0.0
 22
0.0
 32
0.0
 14
0.0
 24
0.0
 34
0.0
 15
0.0
 25
0.0
 35
0.0
146
0.0
 13
0.0
 23
0.0
 33
0.0
 16
1.0
 26
0.0
 36
0.0
 17
0.0
 27
1.0
 37
0.0
 76
0
330
211
345
0
346
0
  0
ENDSEC
  0
EOF
