999
DXF file: C:\Users\sesa63760\OneDrive - Schneider Electric\Documents\7-Dev\_Creo\CAD\MCADUE0000294_3D-CAD\drw0001_6.dxf
999
Pro/ENGINEER 2019471 by Parametric Technology Corporation
  0
SECTION
  2
HEADER
  9
$ACADVER
  1
AC1024
  9
$DWGCODEPAGE
  3
ANSI_1252
  9
$EXTMAX
 10
428.8764393299
 20
606.553821338
 30
0.0
  9
$EXTMIN
 10
0.0
 20
0.0
 30
0.0
  9
$LIMMIN
 10
0.0
 20
0.0
  9
$LIMMAX
 10
428.8764393299
 20
606.553821338
  9
$VIEWCTR
 10
214.4382196649
 20
303.276910669
  9
$VIEWSIZE
 40
606.553821338
  9
$CLAYER
  8
0
  9
$LTSCALE
 40
39.5383231687
  9
$CELTYPE
  6
BYLAYER
  9
$DIMSCALE
 40
1.0
  9
$DIMASZ
 40
5.1056718968
  9
$DIMEXO
 40
1.0
  9
$DIMDLI
 40
27.3173869166
  9
$DIMEXE
 40
1.0
  9
$DIMCEN
 40
6.4699074276
  9
$DIMLFAC
 40
1.0
  9
$DIMBLK
  1
_FILLED
  9
$DIMALT
 70
0
  9
$DIMALTF
 40
0.0393700787
  9
$DIMTXT
 40
7.1479406555
  9
$DIMTOL
 70
1
  9
$DIMLIM
 70
0
  9
$DIMTFAC
 40
1.0
  9
$DIMTP
 40
0.01
  9
$DIMTM
 40
0.01
  9
$DIMGAP
 40
0.625
  9
$DIMDSEP
 70
46
  9
$AUNITS
 70
0
  9
$PDMODE
 70
3
  9
$PDSIZE
 40
0.3125
  9
$HANDSEED
  5
411
  9
$TILEMODE
 70
1
  9
$MEASUREMENT
 70
1
  9
$INSUNITS
 70
4
  0
ENDSEC
  0
SECTION
  2
CLASSES
  0
CLASS
  1
ACDBDICTIONARYWDFLT
  2
AcDbDictionaryWithDefault
  3
AutoCAD 2000
 90
0
 91
1
280
0
281
0
  0
CLASS
  1
ACDBPLACEHOLDER
  2
AcDbPlaceHolder
  3
AutoCAD 2000
 90
0
 91
1
280
0
281
0
  0
CLASS
  1
LAYOUT
  2
AcDbLayout
  3
AutoCAD 2000
 90
0
 91
0
280
0
281
0
  0
ENDSEC
  0
SECTION
  2
TABLES
  0
TABLE
  2
VPORT
  5
8
100
AcDbSymbolTable
 70
2
  0
VPORT
  5
1F4
100
AcDbSymbolTableRecord
100
AcDbViewportTableRecord
  2
*ACTIVE
 70
0
 10
0.0
 20
0.0
 11
1.0
 21
1.0
 12
214.4382196649
 22
303.276910669
 13
0.0
 23
0.0
 14
1.0
 24
1.0
 15
0.0
 25
0.0
 16
0.0
 26
0.0
 36
1.0
 17
0.0
 27
0.0
 37
0.0
 40
606.553821338
 41
0.7070707071
 42
50.0
 43
0.0
 44
0.0
 50
0.0
 51
0.0
 71
0
 72
100
 73
1
 74
1
 75
0
 76
0
 77
0
 78
0
  0
ENDTAB
  0
TABLE
  2
LTYPE
  5
5
100
AcDbSymbolTable
 70
6
  0
LTYPE
  5
14
100
AcDbSymbolTableRecord
100
AcDbLinetypeTableRecord
  2
BYBLOCK
 70
0
  3

 72
65
 73
0
 40
0.0
  0
LTYPE
  5
15
100
AcDbSymbolTableRecord
100
AcDbLinetypeTableRecord
  2
BYLAYER
 70
0
  3

 72
65
 73
0
 40
0.0
  0
LTYPE
  5
16
100
AcDbSymbolTableRecord
100
AcDbLinetypeTableRecord
  2
CONTINUOUS
 70
64
  3
Solid line
 72
65
 73
0
 40
0.0
  0
LTYPE
  5
1F5
100
AcDbSymbolTableRecord
100
AcDbLinetypeTableRecord
  2
CENTER
 70
64
  3
____ _ ____ _ ____ _ ____ _ ____ _ ____ _ ____
 72
65
 73
4
 40
0.6
 49
0.375
 74
0
 49
-0.075
 74
0
 49
0.075
 74
0
 49
-0.075
 74
0
  0
LTYPE
  5
1F6
100
AcDbSymbolTableRecord
100
AcDbLinetypeTableRecord
  2
HIDDEN
 70
64
  3
- - - - - - - - - - - - - - - - - - - -
 72
65
 73
2
 40
0.2
 49
0.1
 74
0
 49
-0.1
 74
0
  0
LTYPE
  5
1F7
100
AcDbSymbolTableRecord
100
AcDbLinetypeTableRecord
  2
PHANTOM
 70
64
  3
_____ _ _ _____ _ _ _____ _ _ _____
 72
65
 73
6
 40
0.8
 49
0.45
 74
0
 49
-0.05
 74
0
 49
0.1
 74
0
 49
-0.05
 74
0
 49
0.1
 74
0
 49
-0.05
 74
0
  0
LTYPE
  5
1F8
100
AcDbSymbolTableRecord
100
AcDbLinetypeTableRecord
  2
DOT
 70
64
  3
. . . . . . . . . . . . . . . . . . . .
 72
65
 73
2
 40
0.2
 49
0.1
 74
0
 49
-0.1
 74
0
  0
LTYPE
  5
1F9
100
AcDbSymbolTableRecord
100
AcDbLinetypeTableRecord
  2
DASHED
 70
64
  3
- - - - - - - - - - - - - - - - - - - -
 72
65
 73
2
 40
0.2
 49
0.1
 74
0
 49
-0.1
 74
0
  0
ENDTAB
  0
TABLE
  2
LAYER
  5
2
100
AcDbSymbolTable
 70
36
  0
LAYER
  5
10
100
AcDbSymbolTableRecord
100
AcDbLayerTableRecord
  2
0
 70
0
 62
7
  6
CONTINUOUS
370
-3
390
F
  0
LAYER
  5
1FA
100
AcDbSymbolTableRecord
100
AcDbLayerTableRecord
  2
DEFAULT_1
 70
0
 62
7
  6
CENTER
370
-3
390
F
  0
LAYER
  5
1FB
100
AcDbSymbolTableRecord
100
AcDbLayerTableRecord
  2
DEFAULT_2
 70
0
 62
8
  6
HIDDEN
370
-3
390
F
  0
LAYER
  5
1FC
100
AcDbSymbolTableRecord
100
AcDbLayerTableRecord
  2
DEFAULT_3
 70
0
 62
7
  6
PHANTOM
370
-3
390
F
  0
LAYER
  5
1FD
100
AcDbSymbolTableRecord
100
AcDbLayerTableRecord
  2
00_COMPONENTS
 70
0
 62
7
  6
CONTINUOUS
370
-3
390
F
  0
LAYER
  5
1FE
100
AcDbSymbolTableRecord
100
AcDbLayerTableRecord
  2
01_1_DEFAULT_DATUMS
 70
0
 62
7
  6
CONTINUOUS
370
-3
390
F
  0
LAYER
  5
1FF
100
AcDbSymbolTableRecord
100
AcDbLayerTableRecord
  2
01_PLANES
 70
0
 62
7
  6
CONTINUOUS
370
-3
390
F
  0
LAYER
  5
200
100
AcDbSymbolTableRecord
100
AcDbLayerTableRecord
  2
02_COORD_SYS
 70
0
 62
7
  6
CONTINUOUS
370
-3
390
F
  0
LAYER
  5
201
100
AcDbSymbolTableRecord
100
AcDbLayerTableRecord
  2
03_AXES
 70
0
 62
7
  6
CONTINUOUS
370
-3
390
F
  0
LAYER
  5
202
100
AcDbSymbolTableRecord
100
AcDbLayerTableRecord
  2
04_POINTS
 70
0
 62
7
  6
CONTINUOUS
370
-3
390
F
  0
LAYER
  5
203
100
AcDbSymbolTableRecord
100
AcDbLayerTableRecord
  2
05_CURVES
 70
0
 62
7
  6
CONTINUOUS
370
-3
390
F
  0
LAYER
  5
204
100
AcDbSymbolTableRecord
100
AcDbLayerTableRecord
  2
06_SURFS
 70
0
 62
7
  6
CONTINUOUS
370
-3
390
F
  0
LAYER
  5
205
100
AcDbSymbolTableRecord
100
AcDbLayerTableRecord
  2
07_COSMETICS
 70
0
 62
7
  6
CONTINUOUS
370
-3
390
F
  0
LAYER
  5
206
100
AcDbSymbolTableRecord
100
AcDbLayerTableRecord
  2
10_NOTES
 70
0
 62
7
  6
CONTINUOUS
370
-3
390
F
  0
LAYER
  5
207
100
AcDbSymbolTableRecord
100
AcDbLayerTableRecord
  2
11_NOTES_PUB
 70
0
 62
7
  6
CONTINUOUS
370
-3
390
F
  0
LAYER
  5
208
100
AcDbSymbolTableRecord
100
AcDbLayerTableRecord
  2
13_REF_GTOL
 70
0
 62
7
  6
CONTINUOUS
370
-3
390
F
  0
LAYER
  5
209
100
AcDbSymbolTableRecord
100
AcDbLayerTableRecord
  2
16_MISC
 70
0
 62
7
  6
CONTINUOUS
370
-3
390
F
  0
LAYER
  5
20A
100
AcDbSymbolTableRecord
100
AcDbLayerTableRecord
  2
17_NO_PRINT
 70
0
 62
7
  6
CONTINUOUS
370
-3
390
F
  0
LAYER
  5
20B
100
AcDbSymbolTableRecord
100
AcDbLayerTableRecord
  2
18_DATUM_CAMS_JOINTS
 70
0
 62
7
  6
CONTINUOUS
370
-3
390
F
  0
LAYER
  5
20C
100
AcDbSymbolTableRecord
100
AcDbLayerTableRecord
  2
19_DATUM_FUNCTIONAL
 70
0
 62
7
  6
CONTINUOUS
370
-3
390
F
  0
LAYER
  5
20D
100
AcDbSymbolTableRecord
100
AcDbLayerTableRecord
  2
20_DATUM_KINEMATIC_SCHEME
 70
0
 62
7
  6
CONTINUOUS
370
-3
390
F
  0
LAYER
  5
20E
100
AcDbSymbolTableRecord
100
AcDbLayerTableRecord
  2
INTFCLR_109784
 70
0
 62
7
  6
CONTINUOUS
370
-3
390
F
  0
ENDTAB
  0
TABLE
  2
STYLE
  5
3
100
AcDbSymbolTable
 70
1
  0
STYLE
  5
11
100
AcDbSymbolTableRecord
100
AcDbTextStyleTableRecord
  2
STANDARD
 70
0
 40
0.0
 41
0.8
 50
0.0
 71
0
 42
0.2
  3
txt
  4

  0
STYLE
  5
20F
100
AcDbSymbolTableRecord
100
AcDbTextStyleTableRecord
  2
TEXTSTYLE_1
 70
0
 40
0.0
 41
0.8
 50
0.0
 71
0
 42
0.2
  3
gdt
  4

  0
ENDTAB
  0
TABLE
  2
VIEW
  5
6
100
AcDbSymbolTable
 70
0
  0
ENDTAB
  0
TABLE
  2
UCS
  5
7
100
AcDbSymbolTable
 70
0
  0
ENDTAB
  0
TABLE
  2
APPID
  5
9
100
AcDbSymbolTable
 70
1
  0
APPID
  5
210
100
AcDbSymbolTableRecord
100
AcDbRegAppTableRecord
  2
ACAD
 70
0
  0
ENDTAB
  0
TABLE
  2
BLOCK_RECORD
  5
1
100
AcDbSymbolTable
 70
0
  0
BLOCK_RECORD
  5
211
100
AcDbSymbolTableRecord
100
AcDbBlockTableRecord
  2
*Model_Space
  0
BLOCK_RECORD
  5
212
100
AcDbSymbolTableRecord
100
AcDbBlockTableRecord
  2
*Paper_Space
  0
BLOCK_RECORD
  5
213
100
AcDbSymbolTableRecord
100
AcDbBlockTableRecord
  2
_FILLED
  0
ENDTAB
  0
TABLE
  2
DIMSTYLE
  5
A
100
AcDbSymbolTable
 70
1
100
AcDbDimStyleTable
 71
0
  0
DIMSTYLE
105
214
100
AcDbSymbolTableRecord
100
AcDbDimStyleTableRecord
  2
STANDARD
 70
0
  3

  4

 40
1.0
 41
5.1056718968
 42
1.0
 43
0.38
 44
1.0
 45
0.0
 46
0.0
 47
0.01
 48
0.01
140
7.1479406555
141
0.09
142
0.0
143
25.4
144
1.0
145
0.0
146
1.0
147
0.625
 71
1
 72
0
 73
0
 74
0
 75
0
 76
0
 77
1
 78
8
 79
2
170
0
171
1
172
0
173
0
174
0
175
0
176
0
177
0
178
0
270
2
179
2
271
2
272
2
273
2
274
2
275
0
280
0
281
0
282
0
283
1
284
8
285
0
286
0
287
3
288
0
340
11
278
46
341
213
342
213
343
213
344
213
  0
ENDTAB
  0
ENDSEC
  0
SECTION
  2
BLOCKS
  0
BLOCK
  5
20
100
AcDbEntity
  8
0
100
AcDbBlockBegin
  2
*Model_Space
 70
0
 10
0.0
 20
0.0
 30
0.0
  3
*Model_Space
  1

  0
ENDBLK
  5
21
100
AcDbEntity
  8
0
100
AcDbBlockEnd
  0
BLOCK
  5
1C
100
AcDbEntity
  8
0
100
AcDbBlockBegin
  2
*Paper_Space
 70
0
 10
0.0
 20
0.0
 30
0.0
  3
*Paper_Space
  1

  0
ENDBLK
  5
1D
100
AcDbEntity
  8
0
100
AcDbBlockEnd
  0
BLOCK
  5
215
100
AcDbEntity
  8
0
100
AcDbBlockBegin
  2
_FILLED
 70
64
 10
0.0
 20
0.0
  3
_FILLED
  1

  0
SOLID
  5
216
100
AcDbEntity
  8
0
  6
BYBLOCK
 62
0
100
AcDbTrace
 10
0.0
 20
0.0
 11
-1.0
 21
0.25
 12
-1.0
 22
-0.25
 13
-1.0
 23
-0.25
  0
ENDBLK
  5
217
100
AcDbEntity
  8
0
  6
BYBLOCK
 62
0
100
AcDbBlockEnd
  0
ENDSEC
  0
SECTION
  2
ENTITIES
  0
LINE
  5
218
100
AcDbEntity
  8
0
100
AcDbLine
 62
7
  6
CONTINUOUS
 10
48.5082575241
 20
375.2408352797
 11
48.6479408578
 21
379.2408325896
  0
LINE
  5
219
100
AcDbEntity
  8
0
100
AcDbLine
 62
7
  6
CONTINUOUS
 10
62.9556821007
 20
374.2408352797
 11
62.9556821007
 21
375.2408352797
  0
LINE
  5
21A
100
AcDbEntity
  8
0
100
AcDbLine
 62
7
  6
CONTINUOUS
 10
56.2325362547
 20
375.2408354876
 11
56.3589693697
 21
379.2408335878
  0
LINE
  5
21B
100
AcDbEntity
  8
0
100
AcDbLine
 62
7
  6
CONTINUOUS
 10
59.3423412622
 20
379.2408352797
 11
59.2158961632
 21
375.2408352797
  0
LINE
  5
21C
100
AcDbEntity
  8
0
100
AcDbLine
 62
7
  6
CONTINUOUS
 10
82.0771002856
 20
216.9639616933
 11
78.4952839227
 21
220.9940064282
  0
LINE
  5
21D
100
AcDbEntity
  8
0
100
AcDbLine
 62
7
  6
CONTINUOUS
 10
80.5133998867
 20
222.7876641313
 11
84.0952162497
 21
218.7576193964
  0
LINE
  5
21E
100
AcDbEntity
  8
0
100
AcDbLine
 62
7
  6
CONTINUOUS
 10
76.3071472651
 20
308.8877509254
 11
76.5043419047
 21
303.2408352797
  0
LINE
  5
21F
100
AcDbEntity
  8
0
100
AcDbLine
 62
7
  6
CONTINUOUS
 10
75.9544754351
 20
311.1012160283
 11
75.1543419047
 21
356.9408352797
  0
LINE
  5
220
100
AcDbEntity
  8
0
100
AcDbLine
 62
7
  6
CONTINUOUS
 10
76.4777965961
 20
356.9408352797
 11
76.4777965961
 21
357.6286185945
  0
LINE
  5
221
100
AcDbEntity
  8
0
100
AcDbLine
 62
7
  6
CONTINUOUS
 10
76.5043419047
 20
303.2408352797
 11
76.5043419047
 21
300.2408352797
  0
LINE
  5
222
100
AcDbEntity
  8
0
100
AcDbLine
 62
7
  6
CONTINUOUS
 10
76.5043419047
 20
226.2408352797
 11
76.5043419047
 21
223.2408352797
  0
LINE
  5
223
100
AcDbEntity
  8
0
100
AcDbLine
 62
7
  6
CONTINUOUS
 10
84.1325887675
 20
216.0408352797
 11
84.1325887675
 21
218.7408352797
  0
LINE
  5
224
100
AcDbEntity
  8
0
100
AcDbLine
 62
7
  6
CONTINUOUS
 10
87.5043419047
 20
294.2408352797
 11
87.5043419047
 21
232.2408352797
  0
LWPOLYLINE
  5
225
100
AcDbEntity
  8
0
100
AcDbPolyline
 62
7
  6
CONTINUOUS
 90
3
 70
0
 10
56.6560769548
 20
385.1485195323
 10
52.2736572424
 20
383.7558882563
 10
50.4655631835
 20
382.2408352797
  0
LINE
  5
226
100
AcDbEntity
  8
0
100
AcDbLine
 62
7
  6
CONTINUOUS
 10
117.2206866096
 20
217.3392325485
 11
117.4199458659
 21
217.0495523587
  0
LINE
  5
227
100
AcDbEntity
  8
0
100
AcDbLine
 62
7
  6
CONTINUOUS
 10
118.295516159
 20
220.5408352797
 11
119.6444857007
 21
218.5797231084
  0
LINE
  5
228
100
AcDbEntity
  8
0
100
AcDbLine
 62
7
  6
CONTINUOUS
 10
123.9962377964
 20
217.0492635815
 11
121.5945269772
 21
220.5408352797
  0
LINE
  5
229
100
AcDbEntity
  8
0
100
AcDbLine
 62
7
  6
CONTINUOUS
 10
72.9592529471
 20
357.5313239377
 11
70.3127263451
 21
374.2408352797
  0
LINE
  5
22A
100
AcDbEntity
  8
0
100
AcDbLine
 62
7
  6
CONTINUOUS
 10
73.8466796198
 20
374.2408352797
 11
76.4777962314
 21
357.6286185943
  0
LINE
  5
22B
100
AcDbEntity
  8
0
100
AcDbLine
 62
7
  6
CONTINUOUS
 10
106.4685576702
 20
217.5408352798
 11
106.2060916799
 21
220.5408352797
  0
LINE
  5
22C
100
AcDbEntity
  8
0
100
AcDbLine
 62
7
  6
CONTINUOUS
 10
117.8479674629
 20
216.8733043855
 11
117.420133336
 21
217.0492801111
  0
LINE
  5
22D
100
AcDbEntity
  8
0
100
AcDbLine
 62
7
  6
CONTINUOUS
 10
124.424060528
 20
216.8733043855
 11
123.9962377964
 21
217.0492635815
  0
LINE
  5
22E
100
AcDbEntity
  8
0
100
AcDbLine
 62
7
  6
CONTINUOUS
 10
126.2205787657
 20
218.5797231084
 11
123.7082442823
 21
222.2321182008
  0
LINE
  5
22F
100
AcDbEntity
  8
0
100
AcDbLine
 62
7
  6
CONTINUOUS
 10
106.2060916797
 20
230.2408352797
 11
106.2060916797
 21
226.2408352797
  0
LINE
  5
230
100
AcDbEntity
  8
0
100
AcDbLine
 62
7
  6
CONTINUOUS
 10
106.2060916797
 20
296.2408352797
 11
106.2060916797
 21
300.2408352797
  0
LINE
  5
231
100
AcDbEntity
  8
0
100
AcDbLine
 62
7
  6
CONTINUOUS
 10
109.2060916797
 20
236.5408352797
 11
109.2060916797
 21
230.2408352797
  0
LINE
  5
232
100
AcDbEntity
  8
0
100
AcDbLine
 62
7
  6
CONTINUOUS
 10
109.2060916797
 20
291.9308352797
 11
109.2060916797
 21
296.2408352797
  0
LINE
  5
233
100
AcDbEntity
  8
0
100
AcDbLine
 62
7
  6
CONTINUOUS
 10
115.2060916797
 20
236.5408352797
 11
115.2060916797
 21
230.2408352797
  0
LINE
  5
234
100
AcDbEntity
  8
0
100
AcDbLine
 62
7
  6
CONTINUOUS
 10
115.2060916797
 20
291.9308352797
 11
115.2060916797
 21
296.2408352797
  0
LINE
  5
235
100
AcDbEntity
  8
0
100
AcDbLine
 62
7
  6
CONTINUOUS
 10
115.7416255856
 20
230.2408352797
 11
115.7416255856
 21
240.2408352797
  0
LINE
  5
236
100
AcDbEntity
  8
0
100
AcDbLine
 62
7
  6
CONTINUOUS
 10
115.7416255856
 20
286.2408352797
 11
115.7416255856
 21
296.2408352797
  0
LINE
  5
237
100
AcDbEntity
  8
0
100
AcDbLine
 62
7
  6
CONTINUOUS
 10
116.4487323668
 20
226.2408352797
 11
116.4487323668
 21
230.2408352797
  0
LINE
  5
238
100
AcDbEntity
  8
0
100
AcDbLine
 62
7
  6
CONTINUOUS
 10
116.4487323669
 20
296.2408352797
 11
116.4487323669
 21
300.2408352797
  0
LINE
  5
239
100
AcDbEntity
  8
0
100
AcDbLine
 62
7
  6
CONTINUOUS
 10
118.5700527104
 20
230.2408352797
 11
118.5700527104
 21
240.2408352797
  0
LINE
  5
23A
100
AcDbEntity
  8
0
100
AcDbLine
 62
7
  6
CONTINUOUS
 10
118.5700527104
 20
286.2408352797
 11
118.5700527104
 21
296.2408352797
  0
LINE
  5
23B
100
AcDbEntity
  8
0
100
AcDbLine
 62
7
  6
CONTINUOUS
 10
121.0449264446
 20
245.2408352797
 11
121.0449264446
 21
281.2408352797
  0
LINE
  5
23C
100
AcDbEntity
  8
0
100
AcDbLine
 62
7
  6
CONTINUOUS
 10
123.8733535693
 20
245.2408352797
 11
123.8733535693
 21
281.2408352797
  0
LINE
  5
23D
100
AcDbEntity
  8
0
100
AcDbLine
 62
7
  6
CONTINUOUS
 10
126.7127442487
 20
294.2408352798
 11
126.7127442487
 21
232.2408352797
  0
LINE
  5
23E
100
AcDbEntity
  8
0
100
AcDbLine
 62
7
  6
CONTINUOUS
 10
117.9436256893
 20
217.5408352798
 11
118.2060916796
 21
220.5408352797
  0
LINE
  5
23F
100
AcDbEntity
  8
0
100
AcDbLine
 62
7
  6
CONTINUOUS
 10
83.4043419047
 20
213.3408352797
 11
349.6043419047
 21
213.3408352797
  0
LINE
  5
240
100
AcDbEntity
  8
0
100
AcDbLine
 62
7
  6
CONTINUOUS
 10
133.3252216279
 20
303.2408352797
 11
133.3252216279
 21
311.1012160283
  0
LINE
  5
241
100
AcDbEntity
  8
0
100
AcDbLine
 62
7
  6
CONTINUOUS
 10
139.0446749806
 20
223.2408352797
 11
139.0446749806
 21
226.2408352797
  0
LINE
  5
242
100
AcDbEntity
  8
0
100
AcDbLine
 62
7
  6
CONTINUOUS
 10
139.0446749806
 20
300.2408352797
 11
139.0446749806
 21
303.2408352797
  0
LINE
  5
243
100
AcDbEntity
  8
0
100
AcDbLine
 62
7
  6
CONTINUOUS
 10
121.9230788328
 20
220.5418330903
 11
121.8863835142
 21
220.5408352797
  0
LINE
  5
244
100
AcDbEntity
  8
0
100
AcDbLine
 62
7
  6
CONTINUOUS
 10
83.4043419047
 20
216.0408352797
 11
349.6043419047
 21
216.0408352797
  0
LINE
  5
245
100
AcDbEntity
  8
0
100
AcDbLine
 62
7
  6
CONTINUOUS
 10
326.5401261393
 20
217.5408352797
 11
315.0650581202
 21
217.5408352797
  0
LINE
  5
246
100
AcDbEntity
  8
0
100
AcDbLine
 62
7
  6
CONTINUOUS
 10
117.9436256893
 20
217.5408352797
 11
106.4685576702
 21
217.5408352797
  0
LINE
  5
247
100
AcDbEntity
  8
0
100
AcDbLine
 62
7
  6
CONTINUOUS
 10
348.8760950419
 20
218.7408352797
 11
326.6451125354
 21
218.7408352797
  0
LINE
  5
248
100
AcDbEntity
  8
0
100
AcDbLine
 62
7
  6
CONTINUOUS
 10
313.4750206385
 20
218.7408352797
 11
310.1760098203
 21
218.7408352797
  0
LINE
  5
249
100
AcDbEntity
  8
0
100
AcDbLine
 62
7
  6
CONTINUOUS
 10
122.8326739892
 20
218.7408352797
 11
119.533663171
 21
218.7408352797
  0
LINE
  5
24A
100
AcDbEntity
  8
0
100
AcDbLine
 62
7
  6
CONTINUOUS
 10
84.1325887675
 20
218.7408352797
 11
106.3635712741
 21
218.7408352797
  0
LINE
  5
24B
100
AcDbEntity
  8
0
100
AcDbLine
 62
7
  6
CONTINUOUS
 10
126.109756236
 20
218.7408352797
 11
215.1543419047
 21
218.7408352797
  0
LINE
  5
24C
100
AcDbEntity
  8
0
100
AcDbLine
 62
7
  6
CONTINUOUS
 10
217.8543419047
 20
218.7408352797
 11
306.8989275735
 21
218.7408352797
  0
LINE
  5
24D
100
AcDbEntity
  8
0
100
AcDbLine
 62
7
  6
CONTINUOUS
 10
106.2069090286
 20
220.5408352797
 11
121.8863835142
 21
220.5408352797
  0
LINE
  5
24E
100
AcDbEntity
  8
0
100
AcDbLine
 62
7
  6
CONTINUOUS
 10
311.1223002953
 20
220.5408352797
 11
326.802053073
 21
220.5408352797
  0
LINE
  5
24F
100
AcDbEntity
  8
0
100
AcDbLine
 62
7
  6
CONTINUOUS
 10
356.5043419047
 20
223.2408352797
 11
338.9530117904
 21
223.2408352797
  0
LINE
  5
250
100
AcDbEntity
  8
0
100
AcDbLine
 62
7
  6
CONTINUOUS
 10
76.5043419047
 20
223.2408352797
 11
338.93913652
 21
223.2408352797
  0
LINE
  5
251
100
AcDbEntity
  8
0
100
AcDbLine
 62
7
  6
CONTINUOUS
 10
76.5043419047
 20
226.2408352797
 11
337.8080614883
 21
226.2408352797
  0
LINE
  5
252
100
AcDbEntity
  8
0
100
AcDbLine
 62
7
  6
CONTINUOUS
 10
350.5434274688
 20
226.2408352797
 11
356.5043419047
 21
226.2408352797
  0
LINE
  5
253
100
AcDbEntity
  8
0
100
AcDbLine
 62
7
  6
CONTINUOUS
 10
311.1223002953
 20
220.5408352797
 11
311.0856049766
 21
220.5418330903
  0
LINE
  5
254
100
AcDbEntity
  8
0
100
AcDbLine
 62
7
  6
CONTINUOUS
 10
121.0449264446
 20
281.2408352797
 11
115.7416255856
 21
286.2408352797
  0
LINE
  5
255
100
AcDbEntity
  8
0
100
AcDbLine
 62
7
  6
CONTINUOUS
 10
123.8733535693
 20
281.2408352797
 11
118.5700527104
 21
286.2408352798
  0
LINE
  5
256
100
AcDbEntity
  8
0
100
AcDbLine
 62
7
  6
CONTINUOUS
 10
298.7200462099
 20
230.2408352797
 11
292.9496442139
 21
230.2408352797
  0
LINE
  5
257
100
AcDbEntity
  8
0
100
AcDbLine
 62
7
  6
CONTINUOUS
 10
106.2069507521
 20
230.2408352797
 11
129.3860244296
 21
230.2408352797
  0
LINE
  5
258
100
AcDbEntity
  8
0
100
AcDbLine
 62
7
  6
CONTINUOUS
 10
303.6226593798
 20
230.2408352797
 11
326.8017340003
 21
230.2408352797
  0
LINE
  5
259
100
AcDbEntity
  8
0
100
AcDbLine
 62
7
  6
CONTINUOUS
 10
349.5596135082
 20
232.2408352797
 11
338.93913652
 21
232.2408352797
  0
LINE
  5
25A
100
AcDbEntity
  8
0
100
AcDbLine
 62
7
  6
CONTINUOUS
 10
306.2959395607
 20
232.2408352797
 11
126.7127442487
 21
232.2408352797
  0
LINE
  5
25B
100
AcDbEntity
  8
0
100
AcDbLine
 62
7
  6
CONTINUOUS
 10
109.2060916797
 20
232.2408352797
 11
87.5043419047
 21
232.2408352797
  0
LINE
  5
25C
100
AcDbEntity
  8
0
100
AcDbLine
 62
7
  6
CONTINUOUS
 10
317.2670582238
 20
233.2408352797
 11
317.8025921297
 21
233.2408352797
  0
LINE
  5
25D
100
AcDbEntity
  8
0
100
AcDbLine
 62
7
  6
CONTINUOUS
 10
323.8025921297
 20
233.2408352797
 11
350.5434274688
 21
233.2408352797
  0
LINE
  5
25E
100
AcDbEntity
  8
0
100
AcDbLine
 62
7
  6
CONTINUOUS
 10
288.5001995527
 20
235.7408352797
 11
265.0043419048
 21
235.7408352797
  0
LINE
  5
25F
100
AcDbEntity
  8
0
100
AcDbLine
 62
7
  6
CONTINUOUS
 10
109.2062084662
 20
236.5408352797
 11
115.2059748932
 21
236.5408352797
  0
LINE
  5
260
100
AcDbEntity
  8
0
100
AcDbLine
 62
7
  6
CONTINUOUS
 10
317.8026975411
 20
236.5408352797
 11
323.8024867184
 21
236.5408352797
  0
LINE
  5
261
100
AcDbEntity
  8
0
100
AcDbLine
 62
7
  6
CONTINUOUS
 10
317.2670582238
 20
240.2408352797
 11
314.4386310991
 21
240.2408352797
  0
LINE
  5
262
100
AcDbEntity
  8
0
100
AcDbLine
 62
7
  6
CONTINUOUS
 10
118.5700527104
 20
240.2408352797
 11
115.7416255856
 21
240.2408352797
  0
LINE
  5
263
100
AcDbEntity
  8
0
100
AcDbLine
 62
7
  6
CONTINUOUS
 10
279.4844909473
 20
241.2408352797
 11
276.3304790036
 21
241.2408352797
  0
LINE
  5
264
100
AcDbEntity
  8
0
100
AcDbLine
 62
7
  6
CONTINUOUS
 10
338.9035249951
 20
243.2408352797
 11
369.9280513459
 21
243.2408352797
  0
LINE
  5
265
100
AcDbEntity
  8
0
100
AcDbLine
 62
7
  6
CONTINUOUS
 10
293.4658535925
 20
244.9908352797
 11
270.679700833
 21
244.9908352797
  0
LINE
  5
266
100
AcDbEntity
  8
0
100
AcDbLine
 62
7
  6
CONTINUOUS
 10
311.9637573649
 20
245.2408352797
 11
309.1353302402
 21
245.2408352797
  0
LINE
  5
267
100
AcDbEntity
  8
0
100
AcDbLine
 62
7
  6
CONTINUOUS
 10
292.3920683473
 20
245.2408352797
 11
288.8519146197
 21
245.2408352797
  0
LINE
  5
268
100
AcDbEntity
  8
0
100
AcDbLine
 62
7
  6
CONTINUOUS
 10
284.0053626678
 20
245.2408352797
 11
280.4652089403
 21
245.2408352797
  0
LINE
  5
269
100
AcDbEntity
  8
0
100
AcDbLine
 62
7
  6
CONTINUOUS
 10
123.8733535693
 20
245.2408352797
 11
121.0449264446
 21
245.2408352797
  0
LINE
  5
26A
100
AcDbEntity
  8
0
100
AcDbLine
 62
7
  6
CONTINUOUS
 10
272.313617938
 20
245.9908352797
 11
274.8734214026
 21
245.9908352797
  0
LINE
  5
26B
100
AcDbEntity
  8
0
100
AcDbLine
 62
7
  6
CONTINUOUS
 10
274.8734214026
 20
250.4908352797
 11
272.313617938
 21
250.4908352797
  0
LINE
  5
26C
100
AcDbEntity
  8
0
100
AcDbLine
 62
7
  6
CONTINUOUS
 10
292.3920683473
 20
251.2408352797
 11
288.8519146197
 21
251.2408352797
  0
LINE
  5
26D
100
AcDbEntity
  8
0
100
AcDbLine
 62
7
  6
CONTINUOUS
 10
284.0053626678
 20
251.2408352797
 11
280.4652089403
 21
251.2408352797
  0
LINE
  5
26E
100
AcDbEntity
  8
0
100
AcDbLine
 62
7
  6
CONTINUOUS
 10
270.679700833
 20
251.4908352797
 11
282.3522177181
 21
251.4908352797
  0
LINE
  5
26F
100
AcDbEntity
  8
0
100
AcDbLine
 62
7
  6
CONTINUOUS
 10
286.9649058418
 20
251.4908352797
 11
293.4658535925
 21
251.4908352797
  0
LINE
  5
270
100
AcDbEntity
  8
0
100
AcDbLine
 62
7
  6
CONTINUOUS
 10
94.4268760389
 20
356.9408352797
 11
133.3252234049
 21
311.1012160283
  0
LINE
  5
271
100
AcDbEntity
  8
0
100
AcDbLine
 62
7
  6
CONTINUOUS
 10
293.4658535925
 20
254.9908352797
 11
286.9649058418
 21
254.9908352797
  0
LINE
  5
272
100
AcDbEntity
  8
0
100
AcDbLine
 62
7
  6
CONTINUOUS
 10
282.3522177181
 20
254.9908352797
 11
270.679700833
 21
254.9908352797
  0
LINE
  5
273
100
AcDbEntity
  8
0
100
AcDbLine
 62
7
  6
CONTINUOUS
 10
292.3920683473
 20
255.2408352797
 11
288.8519146197
 21
255.2408352797
  0
LINE
  5
274
100
AcDbEntity
  8
0
100
AcDbLine
 62
7
  6
CONTINUOUS
 10
284.0053626678
 20
255.2408352797
 11
280.4652089403
 21
255.2408352797
  0
LINE
  5
275
100
AcDbEntity
  8
0
100
AcDbLine
 62
7
  6
CONTINUOUS
 10
272.313617938
 20
255.9908352797
 11
274.8734214026
 21
255.9908352797
  0
LINE
  5
276
100
AcDbEntity
  8
0
100
AcDbLine
 62
7
  6
CONTINUOUS
 10
274.8734214026
 20
260.4908352797
 11
272.313617938
 21
260.4908352797
  0
LINE
  5
277
100
AcDbEntity
  8
0
100
AcDbLine
 62
7
  6
CONTINUOUS
 10
292.3920683473
 20
261.2408352797
 11
288.8519146197
 21
261.2408352797
  0
LINE
  5
278
100
AcDbEntity
  8
0
100
AcDbLine
 62
7
  6
CONTINUOUS
 10
284.0053626678
 20
261.2408352797
 11
280.4652089403
 21
261.2408352797
  0
LINE
  5
279
100
AcDbEntity
  8
0
100
AcDbLine
 62
7
  6
CONTINUOUS
 10
270.679700833
 20
261.4908352797
 11
282.3522177181
 21
261.4908352797
  0
LINE
  5
27A
100
AcDbEntity
  8
0
100
AcDbLine
 62
7
  6
CONTINUOUS
 10
286.9649058418
 20
261.4908352797
 11
293.4658535925
 21
261.4908352797
  0
LINE
  5
27B
100
AcDbEntity
  8
0
100
AcDbLine
 62
7
  6
CONTINUOUS
 10
293.4658535925
 20
264.9908352797
 11
286.9649058418
 21
264.9908352797
  0
LINE
  5
27C
100
AcDbEntity
  8
0
100
AcDbLine
 62
7
  6
CONTINUOUS
 10
282.3522177181
 20
264.9908352797
 11
270.679700833
 21
264.9908352797
  0
LINE
  5
27D
100
AcDbEntity
  8
0
100
AcDbLine
 62
7
  6
CONTINUOUS
 10
292.3920683473
 20
265.2408352797
 11
288.8519146197
 21
265.2408352797
  0
LINE
  5
27E
100
AcDbEntity
  8
0
100
AcDbLine
 62
7
  6
CONTINUOUS
 10
284.0053626678
 20
265.2408352797
 11
280.4652089403
 21
265.2408352797
  0
LINE
  5
27F
100
AcDbEntity
  8
0
100
AcDbLine
 62
7
  6
CONTINUOUS
 10
272.313617938
 20
265.9908352797
 11
274.8734214026
 21
265.9908352797
  0
LINE
  5
280
100
AcDbEntity
  8
0
100
AcDbLine
 62
7
  6
CONTINUOUS
 10
115.7416255856
 20
240.2408352797
 11
121.0449264446
 21
245.2408352797
  0
LINE
  5
281
100
AcDbEntity
  8
0
100
AcDbLine
 62
7
  6
CONTINUOUS
 10
78.4952839227
 20
220.9940064282
 11
80.5133998868
 21
222.7876641313
  0
LINE
  5
282
100
AcDbEntity
  8
0
100
AcDbLine
 62
7
  6
CONTINUOUS
 10
84.0952162497
 20
218.7576193964
 11
82.0771002856
 21
216.9639616933
  0
LINE
  5
283
100
AcDbEntity
  8
0
100
AcDbLine
 62
7
  6
CONTINUOUS
 10
274.8734214026
 20
270.4908352797
 11
272.313617938
 21
270.4908352797
  0
LINE
  5
284
100
AcDbEntity
  8
0
100
AcDbLine
 62
7
  6
CONTINUOUS
 10
292.3920683473
 20
271.2408352797
 11
288.8519146197
 21
271.2408352797
  0
LINE
  5
285
100
AcDbEntity
  8
0
100
AcDbLine
 62
7
  6
CONTINUOUS
 10
284.0053626678
 20
271.2408352797
 11
280.4652089403
 21
271.2408352797
  0
LINE
  5
286
100
AcDbEntity
  8
0
100
AcDbLine
 62
7
  6
CONTINUOUS
 10
270.679700833
 20
271.4908352797
 11
282.3522177181
 21
271.4908352797
  0
LINE
  5
287
100
AcDbEntity
  8
0
100
AcDbLine
 62
7
  6
CONTINUOUS
 10
286.9649058418
 20
271.4908352797
 11
293.4658535925
 21
271.4908352797
  0
LINE
  5
288
100
AcDbEntity
  8
0
100
AcDbLine
 62
7
  6
CONTINUOUS
 10
293.4658535925
 20
274.9908352797
 11
286.9649058418
 21
274.9908352797
  0
LINE
  5
289
100
AcDbEntity
  8
0
100
AcDbLine
 62
7
  6
CONTINUOUS
 10
282.3522177181
 20
274.9908352797
 11
270.679700833
 21
274.9908352797
  0
LINE
  5
28A
100
AcDbEntity
  8
0
100
AcDbLine
 62
7
  6
CONTINUOUS
 10
292.3920683473
 20
275.2408352797
 11
288.8519146197
 21
275.2408352797
  0
LINE
  5
28B
100
AcDbEntity
  8
0
100
AcDbLine
 62
7
  6
CONTINUOUS
 10
284.0053626678
 20
275.2408352797
 11
280.4652089403
 21
275.2408352797
  0
LINE
  5
28C
100
AcDbEntity
  8
0
100
AcDbLine
 62
7
  6
CONTINUOUS
 10
272.313617938
 20
275.9908352797
 11
274.8734214026
 21
275.9908352797
  0
LINE
  5
28D
100
AcDbEntity
  8
0
100
AcDbLine
 62
7
  6
CONTINUOUS
 10
196.3761723243
 20
306.9111318469
 11
196.5043419047
 21
303.2408352797
  0
LINE
  5
28E
100
AcDbEntity
  8
0
100
AcDbLine
 62
7
  6
CONTINUOUS
 10
123.8733535693
 20
245.2408352797
 11
118.5700527104
 21
240.2408352797
  0
LINE
  5
28F
100
AcDbEntity
  8
0
100
AcDbLine
 62
7
  6
CONTINUOUS
 10
274.8734214026
 20
280.4908352797
 11
272.313617938
 21
280.4908352797
  0
LINE
  5
290
100
AcDbEntity
  8
0
100
AcDbLine
 62
7
  6
CONTINUOUS
 10
292.3920683473
 20
281.2408352797
 11
288.8519146197
 21
281.2408352797
  0
LINE
  5
291
100
AcDbEntity
  8
0
100
AcDbLine
 62
7
  6
CONTINUOUS
 10
284.0053626678
 20
281.2408352797
 11
280.4652089403
 21
281.2408352797
  0
LINE
  5
292
100
AcDbEntity
  8
0
100
AcDbLine
 62
7
  6
CONTINUOUS
 10
121.0449264445
 20
281.2408352797
 11
123.8733535693
 21
281.2408352797
  0
LINE
  5
293
100
AcDbEntity
  8
0
100
AcDbLine
 62
7
  6
CONTINUOUS
 10
309.1353302402
 20
281.2408352797
 11
311.9637573649
 21
281.2408352797
  0
LINE
  5
294
100
AcDbEntity
  8
0
100
AcDbLine
 62
7
  6
CONTINUOUS
 10
270.679700833
 20
281.4908352797
 11
293.4658535925
 21
281.4908352797
  0
LINE
  5
295
100
AcDbEntity
  8
0
100
AcDbLine
 62
7
  6
CONTINUOUS
 10
338.9035249951
 20
283.2408352797
 11
369.9280513459
 21
283.2408352797
  0
LINE
  5
296
100
AcDbEntity
  8
0
100
AcDbLine
 62
7
  6
CONTINUOUS
 10
265.0043419048
 20
285.2408352797
 11
288.5001995527
 21
285.2408352797
  0
LINE
  5
297
100
AcDbEntity
  8
0
100
AcDbLine
 62
7
  6
CONTINUOUS
 10
317.2670582238
 20
286.2408352797
 11
314.4386310991
 21
286.2408352797
  0
LINE
  5
298
100
AcDbEntity
  8
0
100
AcDbLine
 62
7
  6
CONTINUOUS
 10
118.5700527104
 20
286.2408352798
 11
115.7416255856
 21
286.2408352797
  0
LINE
  5
299
100
AcDbEntity
  8
0
100
AcDbLine
 62
7
  6
CONTINUOUS
 10
281.1184080523
 20
287.4908352797
 11
276.3304790036
 21
287.4908352797
  0
LINE
  5
29A
100
AcDbEntity
  8
0
100
AcDbLine
 62
7
  6
CONTINUOUS
 10
323.8024753432
 20
291.9308352797
 11
317.8027089162
 21
291.9308352797
  0
LINE
  5
29B
100
AcDbEntity
  8
0
100
AcDbLine
 62
7
  6
CONTINUOUS
 10
115.2059862684
 20
291.9308352797
 11
109.2061970911
 21
291.9308352797
  0
LINE
  5
29C
100
AcDbEntity
  8
0
100
AcDbLine
 62
7
  6
CONTINUOUS
 10
217.5050271374
 20
303.2408352797
 11
217.2796736864
 21
307.5408352797
  0
LINE
  5
29D
100
AcDbEntity
  8
0
100
AcDbLine
 62
7
  6
CONTINUOUS
 10
218.0043419047
 20
303.2408352797
 11
217.7789884538
 21
307.5408352797
  0
LINE
  5
29E
100
AcDbEntity
  8
0
100
AcDbLine
 62
7
  6
CONTINUOUS
 10
215.1543419047
 20
217.3908352797
 11
215.1543419047
 21
221.8908352797
  0
LINE
  5
29F
100
AcDbEntity
  8
0
100
AcDbLine
 62
7
  6
CONTINUOUS
 10
217.8543419047
 20
217.3908352797
 11
217.8543419047
 21
221.8908352797
  0
LINE
  5
2A0
100
AcDbEntity
  8
0
100
AcDbLine
 62
7
  6
CONTINUOUS
 10
215.0043419047
 20
303.2408352797
 11
215.2296953557
 21
307.5408352797
  0
LINE
  5
2A1
100
AcDbEntity
  8
0
100
AcDbLine
 62
7
  6
CONTINUOUS
 10
215.729010123
 20
307.5408352797
 11
215.5036566721
 21
303.2408352797
  0
LINE
  5
2A2
100
AcDbEntity
  8
0
100
AcDbLine
 62
7
  6
CONTINUOUS
 10
87.5043419047
 20
294.2408352797
 11
109.2060916797
 21
294.2408352797
  0
LINE
  5
2A3
100
AcDbEntity
  8
0
100
AcDbLine
 62
7
  6
CONTINUOUS
 10
126.7127442487
 20
294.2408352797
 11
273.2467513185
 21
294.2408352797
  0
LINE
  5
2A4
100
AcDbEntity
  8
0
100
AcDbLine
 62
7
  6
CONTINUOUS
 10
283.9182221601
 20
294.2408352797
 11
306.2959395607
 21
294.2408352797
  0
LINE
  5
2A5
100
AcDbEntity
  8
0
100
AcDbLine
 62
7
  6
CONTINUOUS
 10
323.8025921297
 20
294.2408352797
 11
345.5043419047
 21
294.2408352797
  0
LINE
  5
2A6
100
AcDbEntity
  8
0
100
AcDbLine
 62
7
  6
CONTINUOUS
 10
281.1184080523
 20
295.9908352797
 11
276.4731893037
 21
295.9908352797
  0
LINE
  5
2A7
100
AcDbEntity
  8
0
100
AcDbLine
 62
7
  6
CONTINUOUS
 10
326.8017330574
 20
296.2408352797
 11
303.6226593798
 21
296.2408352797
  0
LINE
  5
2A8
100
AcDbEntity
  8
0
100
AcDbLine
 62
7
  6
CONTINUOUS
 10
129.3860244296
 20
296.2408352797
 11
106.2069498092
 21
296.2408352797
  0
LINE
  5
2A9
100
AcDbEntity
  8
0
100
AcDbLine
 62
7
  6
CONTINUOUS
 10
76.5043419047
 20
300.2408352797
 11
356.5043419047
 21
300.2408352797
  0
LINE
  5
2AA
100
AcDbEntity
  8
0
100
AcDbLine
 62
7
  6
CONTINUOUS
 10
76.5043419047
 20
303.2408352797
 11
356.5043419047
 21
303.2408352797
  0
LINE
  5
2AB
100
AcDbEntity
  8
0
100
AcDbLine
 62
7
  6
CONTINUOUS
 10
196.3761723243
 20
306.9111318469
 11
215.1966939971
 21
306.9111318469
  0
LINE
  5
2AC
100
AcDbEntity
  8
0
100
AcDbLine
 62
7
  6
CONTINUOUS
 10
217.8119898123
 20
306.9111318469
 11
236.6325114851
 21
306.9111318469
  0
LINE
  5
2AD
100
AcDbEntity
  8
0
100
AcDbLine
 62
7
  6
CONTINUOUS
 10
215.2296953557
 20
307.5408352797
 11
217.7789884538
 21
307.5408352797
  0
LINE
  5
2AE
100
AcDbEntity
  8
0
100
AcDbLine
 62
7
  6
CONTINUOUS
 10
297.683460404
 20
311.1012160283
 11
133.3252234049
 21
311.1012160283
  0
LINE
  5
2AF
100
AcDbEntity
  8
0
100
AcDbLine
 62
7
  6
CONTINUOUS
 10
236.6325114851
 20
306.911131847
 11
236.5043419047
 21
303.2408352797
  0
LINE
  5
2B0
100
AcDbEntity
  8
0
100
AcDbLine
 62
7
  6
CONTINUOUS
 10
350.9315835239
 20
216.9639616933
 11
348.9134675598
 21
218.7576193964
  0
LINE
  5
2B1
100
AcDbEntity
  8
0
100
AcDbLine
 62
7
  6
CONTINUOUS
 10
314.4386310991
 20
240.2408352797
 11
309.1353302402
 21
245.2408352797
  0
LINE
  5
2B2
100
AcDbEntity
  8
0
100
AcDbLine
 62
7
  6
CONTINUOUS
 10
311.9637573649
 20
245.2408352797
 11
317.2670582238
 21
240.2408352797
  0
LINE
  5
2B3
100
AcDbEntity
  8
0
100
AcDbLine
 62
7
  6
CONTINUOUS
 10
352.4952839227
 20
222.7876641313
 11
354.5133998868
 21
220.9940064282
  0
LINE
  5
2B4
100
AcDbEntity
  8
0
100
AcDbLine
 62
7
  6
CONTINUOUS
 10
265.0043419047
 20
235.7408352797
 11
265.0043419047
 21
285.2408352797
  0
LINE
  5
2B5
100
AcDbEntity
  8
0
100
AcDbLine
 62
7
  6
CONTINUOUS
 10
270.4687823419
 20
285.2408352797
 11
270.4687823419
 21
235.7408352797
  0
LINE
  5
2B6
100
AcDbEntity
  8
0
100
AcDbLine
 62
7
  6
CONTINUOUS
 10
270.679700833
 20
281.4908352797
 11
270.679700833
 21
274.9908352797
  0
LINE
  5
2B7
100
AcDbEntity
  8
0
100
AcDbLine
 62
7
  6
CONTINUOUS
 10
270.679700833
 20
271.4908352797
 11
270.679700833
 21
264.9908352797
  0
LINE
  5
2B8
100
AcDbEntity
  8
0
100
AcDbLine
 62
7
  6
CONTINUOUS
 10
270.679700833
 20
261.4908352797
 11
270.679700833
 21
254.9908352797
  0
LINE
  5
2B9
100
AcDbEntity
  8
0
100
AcDbLine
 62
7
  6
CONTINUOUS
 10
270.679700833
 20
251.4908352797
 11
270.679700833
 21
244.9908352797
  0
LINE
  5
2BA
100
AcDbEntity
  8
0
100
AcDbLine
 62
7
  6
CONTINUOUS
 10
272.313617938
 20
280.4908352797
 11
272.313617938
 21
275.9908352797
  0
LINE
  5
2BB
100
AcDbEntity
  8
0
100
AcDbLine
 62
7
  6
CONTINUOUS
 10
272.313617938
 20
270.4908352797
 11
272.313617938
 21
265.9908352797
  0
LINE
  5
2BC
100
AcDbEntity
  8
0
100
AcDbLine
 62
7
  6
CONTINUOUS
 10
272.313617938
 20
260.4908352797
 11
272.313617938
 21
255.9908352797
  0
LINE
  5
2BD
100
AcDbEntity
  8
0
100
AcDbLine
 62
7
  6
CONTINUOUS
 10
272.313617938
 20
250.4908352797
 11
272.313617938
 21
245.9908352797
  0
LINE
  5
2BE
100
AcDbEntity
  8
0
100
AcDbLine
 62
7
  6
CONTINUOUS
 10
274.8734214026
 20
245.9908352797
 11
274.8734214026
 21
250.4908352797
  0
LINE
  5
2BF
100
AcDbEntity
  8
0
100
AcDbLine
 62
7
  6
CONTINUOUS
 10
274.8734214026
 20
255.9908352797
 11
274.8734214026
 21
260.4908352797
  0
LINE
  5
2C0
100
AcDbEntity
  8
0
100
AcDbLine
 62
7
  6
CONTINUOUS
 10
274.8734214026
 20
265.9908352797
 11
274.8734214026
 21
270.4908352797
  0
LINE
  5
2C1
100
AcDbEntity
  8
0
100
AcDbLine
 62
7
  6
CONTINUOUS
 10
274.8734214026
 20
275.9908352797
 11
274.8734214026
 21
280.4908352797
  0
LINE
  5
2C2
100
AcDbEntity
  8
0
100
AcDbLine
 62
7
  6
CONTINUOUS
 10
275.8537716657
 20
281.4908352797
 11
275.8537716657
 21
274.9908352797
  0
LINE
  5
2C3
100
AcDbEntity
  8
0
100
AcDbLine
 62
7
  6
CONTINUOUS
 10
275.8537716657
 20
271.4908352797
 11
275.8537716657
 21
264.9908352797
  0
LINE
  5
2C4
100
AcDbEntity
  8
0
100
AcDbLine
 62
7
  6
CONTINUOUS
 10
275.8537716657
 20
261.4908352797
 11
275.8537716657
 21
254.9908352797
  0
LINE
  5
2C5
100
AcDbEntity
  8
0
100
AcDbLine
 62
7
  6
CONTINUOUS
 10
275.8537716657
 20
251.4908352797
 11
275.8537716657
 21
244.9908352797
  0
LINE
  5
2C6
100
AcDbEntity
  8
0
100
AcDbLine
 62
7
  6
CONTINUOUS
 10
277.1781468855
 20
251.4908352797
 11
277.1781468855
 21
254.9908352797
  0
LINE
  5
2C7
100
AcDbEntity
  8
0
100
AcDbLine
 62
7
  6
CONTINUOUS
 10
277.1781468855
 20
261.4908352797
 11
277.1781468855
 21
264.9908352797
  0
LINE
  5
2C8
100
AcDbEntity
  8
0
100
AcDbLine
 62
7
  6
CONTINUOUS
 10
277.1781468855
 20
271.4908352797
 11
277.1781468855
 21
274.9908352797
  0
LINE
  5
2C9
100
AcDbEntity
  8
0
100
AcDbLine
 62
7
  6
CONTINUOUS
 10
282.3522177181
 20
251.4908352797
 11
282.3522177181
 21
254.9908352797
  0
LINE
  5
2CA
100
AcDbEntity
  8
0
100
AcDbLine
 62
7
  6
CONTINUOUS
 10
282.3522177181
 20
261.4908352797
 11
282.3522177181
 21
264.9908352797
  0
LINE
  5
2CB
100
AcDbEntity
  8
0
100
AcDbLine
 62
7
  6
CONTINUOUS
 10
282.3522177181
 20
271.4908352797
 11
282.3522177181
 21
274.9908352797
  0
LINE
  5
2CC
100
AcDbEntity
  8
0
100
AcDbLine
 62
7
  6
CONTINUOUS
 10
297.683460404
 20
311.1012160283
 11
336.5818077705
 21
356.9408352797
  0
LINE
  5
2CD
100
AcDbEntity
  8
0
100
AcDbLine
 62
7
  6
CONTINUOUS
 10
73.6506336425
 20
356.9408352797
 11
359.8470261323
 21
356.9408352797
  0
LINE
  5
2CE
100
AcDbEntity
  8
0
100
AcDbLine
 62
7
  6
CONTINUOUS
 10
357.047452605
 20
357.6286185947
 11
76.4777962314
 21
357.6286185943
  0
LINE
  5
2CF
100
AcDbEntity
  8
0
100
AcDbLine
 62
7
  6
CONTINUOUS
 10
286.9649058418
 20
274.9908352797
 11
286.9649058418
 21
271.4908352797
  0
LINE
  5
2D0
100
AcDbEntity
  8
0
100
AcDbLine
 62
7
  6
CONTINUOUS
 10
286.9649058418
 20
264.9908352797
 11
286.9649058418
 21
261.4908352797
  0
LINE
  5
2D1
100
AcDbEntity
  8
0
100
AcDbLine
 62
7
  6
CONTINUOUS
 10
286.9649058418
 20
254.9908352797
 11
286.9649058418
 21
251.4908352797
  0
LINE
  5
2D2
100
AcDbEntity
  8
0
100
AcDbLine
 62
7
  6
CONTINUOUS
 10
288.5001995527
 20
285.2408352797
 11
288.5001995527
 21
281.4908352797
  0
LINE
  5
2D3
100
AcDbEntity
  8
0
100
AcDbLine
 62
7
  6
CONTINUOUS
 10
288.5001995527
 20
274.9908352797
 11
288.5001995527
 21
271.4908352797
  0
LINE
  5
2D4
100
AcDbEntity
  8
0
100
AcDbLine
 62
7
  6
CONTINUOUS
 10
288.5001995527
 20
264.9908352797
 11
288.5001995527
 21
261.4908352797
  0
LINE
  5
2D5
100
AcDbEntity
  8
0
100
AcDbLine
 62
7
  6
CONTINUOUS
 10
288.5001995527
 20
254.9908352797
 11
288.5001995527
 21
251.4908352797
  0
LINE
  5
2D6
100
AcDbEntity
  8
0
100
AcDbLine
 62
7
  6
CONTINUOUS
 10
288.5001995527
 20
244.9908352797
 11
288.5001995527
 21
235.7408352797
  0
LINE
  5
2D7
100
AcDbEntity
  8
0
100
AcDbLine
 62
7
  6
CONTINUOUS
 10
293.4658535925
 20
281.4908352797
 11
293.4658535925
 21
280.7599780635
  0
LINE
  5
2D8
100
AcDbEntity
  8
0
100
AcDbLine
 62
7
  6
CONTINUOUS
 10
293.4658535925
 20
275.724455556
 11
293.4658535925
 21
274.9908352797
  0
LINE
  5
2D9
100
AcDbEntity
  8
0
100
AcDbLine
 62
7
  6
CONTINUOUS
 10
293.4658535925
 20
271.4908352797
 11
293.4658535925
 21
270.7599780635
  0
LINE
  5
2DA
100
AcDbEntity
  8
0
100
AcDbLine
 62
7
  6
CONTINUOUS
 10
293.4658535925
 20
265.724455556
 11
293.4658535925
 21
264.9908352797
  0
LINE
  5
2DB
100
AcDbEntity
  8
0
100
AcDbLine
 62
7
  6
CONTINUOUS
 10
293.4658535925
 20
261.4908352797
 11
293.4658535925
 21
260.7599780635
  0
LINE
  5
2DC
100
AcDbEntity
  8
0
100
AcDbLine
 62
7
  6
CONTINUOUS
 10
293.4658535925
 20
255.724455556
 11
293.4658535925
 21
254.9908352797
  0
LINE
  5
2DD
100
AcDbEntity
  8
0
100
AcDbLine
 62
7
  6
CONTINUOUS
 10
293.4658535925
 20
251.4908352797
 11
293.4658535925
 21
250.7599780635
  0
LINE
  5
2DE
100
AcDbEntity
  8
0
100
AcDbLine
 62
7
  6
CONTINUOUS
 10
293.4658535925
 20
245.724455556
 11
293.4658535925
 21
244.9908352797
  0
LINE
  5
2DF
100
AcDbEntity
  8
0
100
AcDbLine
 62
7
  6
CONTINUOUS
 10
293.9640088289
 20
303.2408352797
 11
293.9640088289
 21
300.2408352797
  0
LINE
  5
2E0
100
AcDbEntity
  8
0
100
AcDbLine
 62
7
  6
CONTINUOUS
 10
293.9640088289
 20
226.2408352797
 11
293.9640088289
 21
223.2408352797
  0
LINE
  5
2E1
100
AcDbEntity
  8
0
100
AcDbLine
 62
7
  6
CONTINUOUS
 10
309.1353302402
 20
281.2408352797
 11
314.4386310991
 21
286.2408352797
  0
LINE
  5
2E2
100
AcDbEntity
  8
0
100
AcDbLine
 62
7
  6
CONTINUOUS
 10
52.5091917767
 20
374.2408352797
 11
377.4932920327
 21
374.2408352797
  0
LINE
  5
2E3
100
AcDbEntity
  8
0
100
AcDbLine
 62
7
  6
CONTINUOUS
 10
48.5082575241
 20
375.2408352797
 11
384.5043331616
 21
375.2408352797
  0
LINE
  5
2E4
100
AcDbEntity
  8
0
100
AcDbLine
 62
7
  6
CONTINUOUS
 10
48.6479398181
 20
379.2408128226
 11
56.3589564769
 21
379.2408128226
  0
LINE
  5
2E5
100
AcDbEntity
  8
0
100
AcDbLine
 62
7
  6
CONTINUOUS
 10
59.3423412623
 20
379.240835812
 11
373.6663425484
 21
379.240832776
  0
LINE
  5
2E6
100
AcDbEntity
  8
0
100
AcDbLine
 62
7
  6
CONTINUOUS
 10
376.6497266575
 20
379.2408342017
 11
384.3646588649
 21
379.2408342017
  0
LINE
  5
2E7
100
AcDbEntity
  8
0
100
AcDbLine
 62
7
  6
CONTINUOUS
 10
315.0650581202
 20
217.5408352798
 11
314.8025921299
 21
220.5408352797
  0
LINE
  5
2E8
100
AcDbEntity
  8
0
100
AcDbLine
 62
7
  6
CONTINUOUS
 10
297.6834604034
 20
311.1012160283
 11
297.6834604034
 21
303.2408352797
  0
LINE
  5
2E9
100
AcDbEntity
  8
0
100
AcDbLine
 62
7
  6
CONTINUOUS
 10
306.2959395607
 20
232.2408352797
 11
306.2959395607
 21
294.2408352798
  0
LINE
  5
2EA
100
AcDbEntity
  8
0
100
AcDbLine
 62
7
  6
CONTINUOUS
 10
309.1353302402
 20
245.2408352797
 11
309.1353302402
 21
281.2408352797
  0
LINE
  5
2EB
100
AcDbEntity
  8
0
100
AcDbLine
 62
7
  6
CONTINUOUS
 10
311.9637573649
 20
281.2408352797
 11
317.2670582238
 21
286.2408352797
  0
LINE
  5
2EC
100
AcDbEntity
  8
0
100
AcDbLine
 62
7
  6
CONTINUOUS
 10
56.6573976119
 20
385.1485847677
 11
64.3395161143
 21
385.5235951926
  0
LINE
  5
2ED
100
AcDbEntity
  8
0
100
AcDbLine
 62
7
  6
CONTINUOUS
 10
365.2365001616
 20
393.2129015081
 11
357.9779837564
 21
393.1878909429
  0
LINE
  5
2EE
100
AcDbEntity
  8
0
100
AcDbLine
 62
7
  6
CONTINUOUS
 10
50.4693759983
 20
382.2408352797
 11
50.465563184
 21
382.2408352797
  0
LINE
  5
2EF
100
AcDbEntity
  8
0
100
AcDbLine
 62
7
  6
CONTINUOUS
 10
311.1744762018
 20
223.2408352797
 11
311.1744762018
 21
226.2408352797
  0
LINE
  5
2F0
100
AcDbEntity
  8
0
100
AcDbLine
 62
7
  6
CONTINUOUS
 10
311.9637573649
 20
245.2408352797
 11
311.9637573649
 21
281.2408352797
  0
LINE
  5
2F1
100
AcDbEntity
  8
0
100
AcDbLine
 62
7
  6
CONTINUOUS
 10
314.4386310991
 20
230.2408352797
 11
314.4386310991
 21
240.2408352797
  0
LINE
  5
2F2
100
AcDbEntity
  8
0
100
AcDbLine
 62
7
  6
CONTINUOUS
 10
314.4386310991
 20
286.2408352797
 11
314.4386310991
 21
296.2408352797
  0
LINE
  5
2F3
100
AcDbEntity
  8
0
100
AcDbLine
 62
7
  6
CONTINUOUS
 10
316.5599514426
 20
300.2408352797
 11
316.5599514426
 21
296.2408352797
  0
LINE
  5
2F4
100
AcDbEntity
  8
0
100
AcDbLine
 62
7
  6
CONTINUOUS
 10
316.5599514426
 20
230.2408352797
 11
316.5599514426
 21
226.2408352797
  0
LINE
  5
2F5
100
AcDbEntity
  8
0
100
AcDbLine
 62
7
  6
CONTINUOUS
 10
317.2670582238
 20
230.2408352797
 11
317.2670582238
 21
240.2408352797
  0
LINE
  5
2F6
100
AcDbEntity
  8
0
100
AcDbLine
 62
7
  6
CONTINUOUS
 10
317.2670582238
 20
286.2408352797
 11
317.2670582238
 21
296.2408352797
  0
LINE
  5
2F7
100
AcDbEntity
  8
0
100
AcDbLine
 62
7
  6
CONTINUOUS
 10
317.8025921297
 20
236.5408352797
 11
317.8025921297
 21
230.2408352797
  0
LINE
  5
2F8
100
AcDbEntity
  8
0
100
AcDbLine
 62
7
  6
CONTINUOUS
 10
317.8025921297
 20
291.9308352797
 11
317.8025921297
 21
296.2408352797
  0
LINE
  5
2F9
100
AcDbEntity
  8
0
100
AcDbLine
 62
7
  6
CONTINUOUS
 10
322.0084438393
 20
226.2408352797
 11
322.0084438393
 21
223.2408352797
  0
LINE
  5
2FA
100
AcDbEntity
  8
0
100
AcDbLine
 62
7
  6
CONTINUOUS
 10
323.8025921297
 20
236.5408352797
 11
323.8025921297
 21
230.2408352797
  0
LINE
  5
2FB
100
AcDbEntity
  8
0
100
AcDbLine
 62
7
  6
CONTINUOUS
 10
323.8025921297
 20
291.9308352797
 11
323.8025921297
 21
296.2408352797
  0
LINE
  5
2FC
100
AcDbEntity
  8
0
100
AcDbLine
 62
7
  6
CONTINUOUS
 10
326.8025921297
 20
230.2408352797
 11
326.8025921297
 21
226.2408352797
  0
LINE
  5
2FD
100
AcDbEntity
  8
0
100
AcDbLine
 62
7
  6
CONTINUOUS
 10
326.8025921297
 20
296.2408352797
 11
326.8025921297
 21
300.2408352797
  0
LINE
  5
2FE
100
AcDbEntity
  8
0
100
AcDbLine
 62
7
  6
CONTINUOUS
 10
326.5401261393
 20
217.5408352798
 11
326.8025921296
 21
220.5408352797
  0
LINE
  5
2FF
100
AcDbEntity
  8
0
100
AcDbLine
 62
7
  6
CONTINUOUS
 10
309.0124574084
 20
217.0492801111
 11
308.5846232815
 21
216.8733043855
  0
LINE
  5
300
100
AcDbEntity
  8
0
100
AcDbLine
 62
7
  6
CONTINUOUS
 10
315.5885390781
 20
217.0492635815
 11
315.1607163465
 21
216.8733043855
  0
LINE
  5
301
100
AcDbEntity
  8
0
100
AcDbLine
 62
7
  6
CONTINUOUS
 10
337.8080614883
 20
233.2408352797
 11
337.8080614883
 21
226.2408352797
  0
LINE
  5
302
100
AcDbEntity
  8
0
100
AcDbLine
 62
7
  6
CONTINUOUS
 10
338.93913652
 20
223.2408352797
 11
338.93913652
 21
232.2408352797
  0
LINE
  5
303
100
AcDbEntity
  8
0
100
AcDbLine
 62
7
  6
CONTINUOUS
 10
341.6479882923
 20
232.2408352797
 11
341.6479882923
 21
233.2408352797
  0
LINE
  5
304
100
AcDbEntity
  8
0
100
AcDbLine
 62
7
  6
CONTINUOUS
 10
345.5043419047
 20
294.2408352797
 11
345.5043419047
 21
283.2408352797
  0
LINE
  5
305
100
AcDbEntity
  8
0
100
AcDbLine
 62
7
  6
CONTINUOUS
 10
345.5043419047
 20
243.2408352797
 11
345.5043419047
 21
233.2408352797
  0
LINE
  5
306
100
AcDbEntity
  8
0
100
AcDbLine
 62
7
  6
CONTINUOUS
 10
347.1078677459
 20
233.2408352797
 11
347.1078677459
 21
232.2408352797
  0
LINE
  5
307
100
AcDbEntity
  8
0
100
AcDbLine
 62
7
  6
CONTINUOUS
 10
309.3004395272
 20
222.2321182008
 11
306.7881050437
 21
218.5797231084
  0
LINE
  5
308
100
AcDbEntity
  8
0
100
AcDbLine
 62
7
  6
CONTINUOUS
 10
311.4141568323
 20
220.5408352797
 11
309.0126448786
 21
217.0495523587
  0
LINE
  5
309
100
AcDbEntity
  8
0
100
AcDbLine
 62
7
  6
CONTINUOUS
 10
313.3641981088
 20
218.5797231084
 11
314.7131676505
 21
220.5408352797
  0
LINE
  5
30A
100
AcDbEntity
  8
0
100
AcDbLine
 62
7
  6
CONTINUOUS
 10
315.5887379436
 20
217.0495523587
 11
315.5885390781
 21
217.0492635815
  0
LINE
  5
30B
100
AcDbEntity
  8
0
100
AcDbLine
 62
7
  6
CONTINUOUS
 10
348.8760950419
 20
218.7408352797
 11
348.8760950419
 21
216.0408352797
  0
LINE
  5
30C
100
AcDbEntity
  8
0
100
AcDbLine
 62
7
  6
CONTINUOUS
 10
349.5596135081
 20
232.2408352797
 11
349.5596135081
 21
223.2408352797
  0
LINE
  5
30D
100
AcDbEntity
  8
0
100
AcDbLine
 62
7
  6
CONTINUOUS
 10
350.5434274688
 20
226.2408352797
 11
350.5434274688
 21
233.2408352797
  0
LINE
  5
30E
100
AcDbEntity
  8
0
100
AcDbLine
 62
7
  6
CONTINUOUS
 10
356.5043419047
 20
223.2408352797
 11
356.5043419047
 21
226.2408352797
  0
LINE
  5
30F
100
AcDbEntity
  8
0
100
AcDbLine
 62
7
  6
CONTINUOUS
 10
356.5043419047
 20
300.2408352797
 11
356.5043419047
 21
303.2408352797
  0
LINE
  5
310
100
AcDbEntity
  8
0
100
AcDbLine
 62
7
  6
CONTINUOUS
 10
357.0474526043
 20
357.6286185945
 11
357.0474526043
 21
356.9408352797
  0
LINE
  5
311
100
AcDbEntity
  8
0
100
AcDbLine
 62
7
  6
CONTINUOUS
 10
355.8543419047
 20
356.9408352797
 11
355.0542083744
 21
311.1012160282
  0
LINE
  5
312
100
AcDbEntity
  8
0
100
AcDbLine
 62
7
  6
CONTINUOUS
 10
357.047452605
 20
357.6286185947
 11
357.3374199078
 21
374.2408352797
  0
LINE
  5
313
100
AcDbEntity
  8
0
100
AcDbLine
 62
7
  6
CONTINUOUS
 10
360.8368868398
 20
374.2408352797
 11
360.5469194878
 21
357.6286168082
  0
LINE
  5
314
100
AcDbEntity
  8
0
100
AcDbLine
 62
7
  6
CONTINUOUS
 10
354.7015365443
 20
308.8877509253
 11
354.5043419047
 21
303.2408352797
  0
LINE
  5
315
100
AcDbEntity
  8
0
100
AcDbLine
 62
7
  6
CONTINUOUS
 10
367.0652687986
 20
375.2408352797
 11
367.0652687986
 21
374.2408352797
  0
LINE
  5
316
100
AcDbEntity
  8
0
100
AcDbLine
 62
7
  6
CONTINUOUS
 10
352.4952839227
 20
222.7876641313
 11
348.9134675598
 21
218.7576193964
  0
LINE
  5
317
100
AcDbEntity
  8
0
100
AcDbLine
 62
7
  6
CONTINUOUS
 10
373.7927876462
 20
375.2408352797
 11
373.6663425472
 21
379.2408352797
  0
LINE
  5
318
100
AcDbEntity
  8
0
100
AcDbLine
 62
7
  6
CONTINUOUS
 10
376.6497265609
 20
379.2408312233
 11
376.7761475547
 21
375.2408354875
  0
LINE
  5
319
100
AcDbEntity
  8
0
100
AcDbLine
 62
7
  6
CONTINUOUS
 10
350.9315835239
 20
216.9639616933
 11
354.5133998868
 21
220.9940064282
  0
LINE
  5
31A
100
AcDbEntity
  8
0
100
AcDbLine
 62
7
  6
CONTINUOUS
 10
384.3646588649
 20
379.2408342017
 11
384.504341905
 21
375.2408352798
  0
LWPOLYLINE
  5
31B
100
AcDbEntity
  8
0
100
AcDbPolyline
 62
7
  6
CONTINUOUS
 90
4
 70
0
 10
384.3646588273
 20
379.2408352777
 10
380.5052402185
 20
386.1990596384
 10
373.6432329794
 20
391.3871779538
 10
365.2366654863
 20
393.2129019875
  0
ARC
  5
31C
100
AcDbEntity
  8
0
100
AcDbCircle
 62
7
  6
CONTINUOUS
 10
112.2060916797
 20
227.0281154389
 40
11.0872801592
100
AcDbArc
 50
238.8361007264
 51
301.1638992736
  0
ARC
  5
31D
100
AcDbEntity
  8
0
100
AcDbCircle
 62
7
  6
CONTINUOUS
 10
83.9532569963
 20
311.2408352797
 40
8.0
100
AcDbArc
 50
181.0
 51
270.0
  0
ARC
  5
31E
100
AcDbEntity
  8
0
100
AcDbCircle
 62
7
  6
CONTINUOUS
 10
81.5043419047
 20
294.2408352797
 40
6.0
100
AcDbArc
 50
0.0
 51
90.0
  0
ARC
  5
31F
100
AcDbEntity
  8
0
100
AcDbCircle
 62
7
  6
CONTINUOUS
 10
81.5043419047
 20
232.2408352797
 40
6.0
100
AcDbArc
 50
270.0
 51
360.0
  0
ARC
  5
320
100
AcDbEntity
  8
0
100
AcDbCircle
 62
7
  6
CONTINUOUS
 10
84.1325887675
 20
218.7908352797
 40
2.75
100
AcDbArc
 50
221.629999998
 51
270.0
  0
ARC
  5
321
100
AcDbEntity
  8
0
100
AcDbCircle
 62
7
  6
CONTINUOUS
 10
216.5043419047
 20
217.3908352797
 40
1.35
100
AcDbArc
 50
180.0
 51
360.0
  0
ARC
  5
322
100
AcDbEntity
  8
0
100
AcDbCircle
 62
7
  6
CONTINUOUS
 10
107.5560916797
 20
221.8908352797
 40
1.35
100
AcDbArc
 50
90.0
 51
216.0
  0
ARC
  5
323
100
AcDbEntity
  8
0
100
AcDbCircle
 62
7
  6
CONTINUOUS
 10
83.4043419047
 20
214.6908352797
 40
1.35
100
AcDbArc
 50
90.0
 51
270.0
  0
ARC
  5
324
100
AcDbEntity
  8
0
100
AcDbCircle
 62
7
  6
CONTINUOUS
 10
59.3428236468
 20
380.5413500998
 40
1.3005143772
100
AcDbArc
 50
260.7267742083
 51
269.9787479486
  0
ARC
  5
325
100
AcDbEntity
  8
0
100
AcDbCircle
 62
7
  6
CONTINUOUS
 10
115.3273106225
 20
221.6882136108
 40
1.1627078923
100
AcDbArc
 50
272.5557880322
 51
276.8300347712
  0
ARC
  5
326
100
AcDbEntity
  8
0
100
AcDbCircle
 62
7
  6
CONTINUOUS
 10
60.0839436345
 20
375.2418826453
 40
1.0088422967
100
AcDbArc
 50
180.0594836663
 51
192.8155285429
  0
ARC
  5
327
100
AcDbEntity
  8
0
100
AcDbCircle
 62
7
  6
CONTINUOUS
 10
52.5091919047
 20
375.2408352797
 40
1.0
100
AcDbArc
 50
180.0
 51
269.9999926661
  0
ARC
  5
328
100
AcDbEntity
  8
0
100
AcDbCircle
 62
7
  6
CONTINUOUS
 10
121.9115196374
 20
221.4413638455
 40
0.915664391
100
AcDbArc
 50
267.8229125478
 51
270.0129154932
  0
ARC
  5
329
100
AcDbEntity
  8
0
100
AcDbCircle
 62
7
  6
CONTINUOUS
 10
121.9100096473
 20
221.397144731
 40
0.8714198492
100
AcDbArc
 50
266.9792962187
 51
267.8116755966
  0
ARC
  5
32A
100
AcDbEntity
  8
0
100
AcDbCircle
 62
7
  6
CONTINUOUS
 10
73.6506336425
 20
357.6408352797
 40
0.7
100
AcDbArc
 50
189.0005982514
 51
270.0
  0
ARC
  5
32B
100
AcDbEntity
  8
0
100
AcDbCircle
 62
7
  6
CONTINUOUS
 10
384.5043419047
 20
-6251.9503411913
 40
6645.191176471
100
AcDbArc
 50
90.2287146237
 51
92.761575588
  0
ARC
  5
32C
100
AcDbEntity
  8
0
100
AcDbCircle
 62
7
  6
CONTINUOUS
 10
384.5073003951
 20
-6250.7956902496
 40
6642.304391594
100
AcDbArc
 50
90.2287348896
 51
92.761565311
  0
ARC
  5
32D
100
AcDbEntity
  8
0
100
AcDbCircle
 62
7
  6
CONTINUOUS
 10
320.8025921297
 20
227.0281154389
 40
11.0872801592
100
AcDbArc
 50
238.8361007264
 51
301.1638992736
  0
ARC
  5
32E
100
AcDbEntity
  8
0
100
AcDbCircle
 62
7
  6
CONTINUOUS
 10
281.2138391594
 20
243.7420110371
 40
5.9227011685
100
AcDbArc
 50
167.8276062814
 51
180.0113741911
  0
ARC
  5
32F
100
AcDbEntity
  8
0
100
AcDbCircle
 62
7
  6
CONTINUOUS
 10
277.7551427352
 20
243.7420110371
 40
5.9227011685
100
AcDbArc
 50
359.9886258089
 51
12.1723937186
  0
ARC
  5
330
100
AcDbEntity
  8
0
100
AcDbCircle
 62
7
  6
CONTINUOUS
 10
275.4865966668
 20
243.5844934931
 40
5.2135376519
100
AcDbArc
 50
330.9189163306
 51
335.8941354684
  0
ARC
  5
331
100
AcDbEntity
  8
0
100
AcDbCircle
 62
7
  6
CONTINUOUS
 10
280.4715273877
 20
243.4704322033
 40
5.1284476158
100
AcDbArc
 50
207.6215877078
 51
211.7699766547
  0
ARC
  5
332
100
AcDbEntity
  8
0
100
AcDbCircle
 62
7
  6
CONTINUOUS
 10
275.6422194414
 20
243.4985575554
 40
5.0357649487
100
AcDbArc
 50
327.1589788841
 51
330.9127981167
  0
ARC
  5
333
100
AcDbEntity
  8
0
100
AcDbCircle
 62
7
  6
CONTINUOUS
 10
279.918576562
 20
258.4426574758
 40
4.4250317078
100
AcDbArc
 50
130.976474228
 51
136.4609492472
  0
ARC
  5
334
100
AcDbEntity
  8
0
100
AcDbCircle
 62
7
  6
CONTINUOUS
 10
276.1303822548
 20
278.4082770254
 40
4.3852960633
100
AcDbArc
 50
48.2960161408
 51
53.070784789
  0
ARC
  5
335
100
AcDbEntity
  8
0
100
AcDbCircle
 62
7
  6
CONTINUOUS
 10
279.8796445615
 20
256.998749407
 40
4.3690550719
100
AcDbArc
 50
223.8080833342
 51
231.8060516464
  0
ARC
  5
336
100
AcDbEntity
  8
0
100
AcDbCircle
 62
7
  6
CONTINUOUS
 10
279.8796445614
 20
276.998749407
 40
4.3690550719
100
AcDbArc
 50
223.8080833342
 51
231.8060516464
  0
ARC
  5
337
100
AcDbEntity
  8
0
100
AcDbCircle
 62
7
  6
CONTINUOUS
 10
279.81131066
 20
258.5640299533
 40
4.2630587591
100
AcDbArc
 50
128.1461890864
 51
130.9577441449
  0
ARC
  5
338
100
AcDbEntity
  8
0
100
AcDbCircle
 62
7
  6
CONTINUOUS
 10
276.2147899843
 20
278.5229983015
 40
4.2428760829
100
AcDbArc
 50
53.0511495929
 51
64.0377643337
  0
ARC
  5
339
100
AcDbEntity
  8
0
100
AcDbCircle
 62
7
  6
CONTINUOUS
 10
276.2210580325
 20
242.9492575414
 40
4.2315807868
100
AcDbArc
 50
294.6287788936
 51
306.918400062
  0
ARC
  5
33A
100
AcDbEntity
  8
0
100
AcDbCircle
 62
7
  6
CONTINUOUS
 10
276.3325146231
 20
243.2424370361
 40
2.0016027507
100
AcDbArc
 50
257.7486565442
 51
269.9416346989
  0
ARC
  5
33B
100
AcDbEntity
  8
0
100
AcDbCircle
 62
7
  6
CONTINUOUS
 10
325.4525921297
 20
221.8908352797
 40
1.35
100
AcDbArc
 50
324.0
 51
90.0
  0
ARC
  5
33C
100
AcDbEntity
  8
0
100
AcDbCircle
 62
7
  6
CONTINUOUS
 10
317.6813731869
 20
221.6882136108
 40
1.1627078922
100
AcDbArc
 50
263.1699652278
 51
267.4442119676
  0
ARC
  5
33D
100
AcDbEntity
  8
0
100
AcDbCircle
 62
7
  6
CONTINUOUS
 10
284.6594414786
 20
253.6986358113
 40
1.1420202746
100
AcDbArc
 50
90.0441058609
 51
105.4588204036
  0
ARC
  5
33E
100
AcDbEntity
  8
0
100
AcDbCircle
 62
7
  6
CONTINUOUS
 10
284.6594414786
 20
263.6986358113
 40
1.1420202746
100
AcDbArc
 50
90.0441058609
 51
105.4588204036
  0
ARC
  5
33F
100
AcDbEntity
  8
0
100
AcDbCircle
 62
7
  6
CONTINUOUS
 10
284.6594414786
 20
273.6986358113
 40
1.1420202746
100
AcDbArc
 50
90.0441058609
 51
105.4588204036
  0
ARC
  5
340
100
AcDbEntity
  8
0
100
AcDbCircle
 62
7
  6
CONTINUOUS
 10
284.6592623957
 20
252.7816415309
 40
1.1406269344
100
AcDbArc
 50
255.074138745
 51
269.964777647
  0
ARC
  5
341
100
AcDbEntity
  8
0
100
AcDbCircle
 62
7
  6
CONTINUOUS
 10
284.6592623957
 20
262.7816415309
 40
1.1406269344
100
AcDbArc
 50
255.074138745
 51
269.964777647
  0
ARC
  5
342
100
AcDbEntity
  8
0
100
AcDbCircle
 62
7
  6
CONTINUOUS
 10
284.6592623957
 20
272.7816415309
 40
1.1406269344
100
AcDbArc
 50
255.074138745
 51
269.964777647
  0
ARC
  5
343
100
AcDbEntity
  8
0
100
AcDbCircle
 62
7
  6
CONTINUOUS
 10
311.0971641764
 20
221.441363504
 40
0.9156640494
100
AcDbArc
 50
269.9870842328
 51
272.1771104621
  0
ARC
  5
344
100
AcDbEntity
  8
0
100
AcDbCircle
 62
7
  6
CONTINUOUS
 10
311.0986740765
 20
221.3971467588
 40
0.8714218789
100
AcDbArc
 50
272.1883485525
 51
273.0205372852
  0
ARC
  5
345
100
AcDbEntity
  8
0
100
AcDbCircle
 62
7
  6
CONTINUOUS
 10
351.5043419047
 20
294.2408352797
 40
6.0
100
AcDbArc
 50
90.0
 51
180.0
  0
ARC
  5
346
100
AcDbEntity
  8
0
100
AcDbCircle
 62
7
  6
CONTINUOUS
 10
351.5043419047
 20
232.2408352797
 40
6.0
100
AcDbArc
 50
261.8259735834
 51
262.6065236501
  0
ARC
  5
347
100
AcDbEntity
  8
0
100
AcDbCircle
 62
7
  6
CONTINUOUS
 10
348.8760950419
 20
218.7908352797
 40
2.75
100
AcDbArc
 50
270.0
 51
318.370000002
  0
ARC
  5
348
100
AcDbEntity
  8
0
100
AcDbCircle
 62
7
  6
CONTINUOUS
 10
349.6043419047
 20
214.6908352797
 40
1.35
100
AcDbArc
 50
270.0
 51
90.0
  0
ARC
  5
349
100
AcDbEntity
  8
0
100
AcDbCircle
 62
7
  6
CONTINUOUS
 10
347.0554268131
 20
311.2408352797
 40
8.0
100
AcDbArc
 50
270.0
 51
359.0
  0
ARC
  5
34A
100
AcDbEntity
  8
0
100
AcDbCircle
 62
7
  6
CONTINUOUS
 10
373.6658052565
 20
380.5422603992
 40
1.3014277341
100
AcDbArc
 50
270.0236544535
 51
279.6476071027
  0
ARC
  5
34B
100
AcDbEntity
  8
0
100
AcDbCircle
 62
7
  6
CONTINUOUS
 10
377.4932919047
 20
375.2408352797
 40
1.0
100
AcDbArc
 50
270.0000073339
 51
360.0
  0
ARC
  5
34C
100
AcDbEntity
  8
0
100
AcDbCircle
 62
7
  6
CONTINUOUS
 10
359.8470261323
 20
357.6408352797
 40
0.7
100
AcDbArc
 50
270.0
 51
358.9998537104
  0
SPLINE
  5
34D
100
AcDbEntity
  8
0
100
AcDbSpline
 62
7
  6
CONTINUOUS
 70
0
 71
3
 72
12
 73
8
 74
0
 42
0.0000001
 43
0.0000001
 44
0.0000000001
 40
0.0
 40
0.0
 40
0.0
 40
0.0
 40
0.0996546854
 40
0.2038617087
 40
0.4363730346
 40
0.7063362889
 40
1.0
 40
1.0
 40
1.0
 40
1.0
 10
217.8543086077
 20
221.8908352878
 30
0.0
 10
217.8543096763
 20
221.9497896625
 30
0.0
 10
217.8359235478
 20
222.0710705649
 30
0.0
 10
217.7253428433
 20
222.3076159475
 30
0.0
 10
217.4533681243
 20
222.5604606317
 30
0.0
 10
217.0134115511
 20
222.7450959013
 30
0.0
 10
216.6780694158
 20
222.7876641313
 30
0.0
 10
216.5043419047
 20
222.7876641313
 30
0.0
  0
SPLINE
  5
34E
100
AcDbEntity
  8
0
100
AcDbSpline
 62
7
  6
CONTINUOUS
 70
0
 71
3
 72
12
 73
8
 74
0
 42
0.0000001
 43
0.0000001
 44
0.0000000001
 40
0.0
 40
0.0
 40
0.0
 40
0.0
 40
0.2936623969
 40
0.5636176666
 40
0.796129153
 40
0.9003413214
 40
1.0
 40
1.0
 40
1.0
 40
1.0
 10
216.5043419047
 20
222.7876641313
 30
0.0
 10
216.3306149785
 20
222.7876641313
 30
0.0
 10
215.9952792791
 20
222.7450959477
 30
0.0
 10
215.5553211382
 20
222.5604711523
 30
0.0
 10
215.2833544626
 20
222.307624662
 30
0.0
 10
215.1727561197
 20
222.0710796892
 30
0.0
 10
215.1543762704
 20
221.9497920741
 30
0.0
 10
215.1543752018
 20
221.8908352716
 30
0.0
  0
SPLINE
  5
34F
100
AcDbEntity
  8
0
100
AcDbSpline
 62
7
  6
CONTINUOUS
 70
0
 71
3
 72
12
 73
8
 74
0
 42
0.0000001
 43
0.0000001
 44
0.0000000001
 40
0.0
 40
0.0
 40
0.0
 40
0.0
 40
0.2936623969
 40
0.5636176666
 40
0.796129153
 40
0.9003413214
 40
1.0
 40
1.0
 40
1.0
 40
1.0
 10
216.5043419047
 20
220.9940064282
 30
0.0
 10
216.678068831
 20
220.9940064282
 30
0.0
 10
217.0134045304
 20
221.0365746118
 30
0.0
 10
217.4533626713
 20
221.2211994072
 30
0.0
 10
217.7253293468
 20
221.4740458975
 30
0.0
 10
217.8359276897
 20
221.7105908703
 30
0.0
 10
217.854307539
 20
221.8318784854
 30
0.0
 10
217.8543086077
 20
221.8908352878
 30
0.0
  0
SPLINE
  5
350
100
AcDbEntity
  8
0
100
AcDbSpline
 62
7
  6
CONTINUOUS
 70
0
 71
3
 72
9
 73
5
 74
0
 42
0.0000001
 43
0.0000001
 44
0.0000000001
 40
0.0
 40
0.0
 40
0.0
 40
0.0
 40
0.2811654382
 40
1.0
 40
1.0
 40
1.0
 40
1.0
 10
216.5043419047
 20
216.9639616933
 30
0.0
 10
216.3764555056
 20
216.9639616933
 30
0.0
 10
215.9278133933
 20
217.0041963612
 30
0.0
 10
215.457230964
 20
217.2216362616
 30
0.0
 10
215.2736411838
 20
217.4921839175
 30
0.0
  0
SPLINE
  5
351
100
AcDbEntity
  8
0
100
AcDbSpline
 62
7
  6
CONTINUOUS
 70
0
 71
3
 72
9
 73
5
 74
0
 42
0.0000001
 43
0.0000001
 44
0.0000000001
 40
0.0
 40
0.0
 40
0.0
 40
0.0
 40
0.512802516
 40
1.0
 40
1.0
 40
1.0
 40
1.0
 10
215.2736411838
 20
217.4921839175
 30
0.0
 10
215.2360310523
 20
217.5476082059
 30
0.0
 10
215.1759128104
 20
217.665781934
 30
0.0
 10
215.1543652082
 20
217.7971545828
 30
0.0
 10
215.1543652082
 20
217.8607905448
 30
0.0
  0
SPLINE
  5
352
100
AcDbEntity
  8
0
100
AcDbSpline
 62
7
  6
CONTINUOUS
 70
0
 71
3
 72
12
 73
8
 74
0
 42
0.0000001
 43
0.0000001
 44
0.0000000001
 40
0.0
 40
0.0
 40
0.0
 40
0.0
 40
0.0996582358
 40
0.203868596
 40
0.4363878261
 40
0.7063483598
 40
1.0
 40
1.0
 40
1.0
 40
1.0
 10
217.8543186013
 20
217.8607905449
 30
0.0
 10
217.8543186013
 20
217.8018336983
 30
0.0
 10
217.8359368997
 20
217.6805469769
 30
0.0
 10
217.7253401139
 20
217.4439964772
 30
0.0
 10
217.4533601493
 20
217.1911487212
 30
0.0
 10
217.0133977849
 20
217.0065267284
 30
0.0
 10
216.6780633696
 20
216.9639616933
 30
0.0
 10
216.5043419047
 20
216.9639616933
 30
0.0
  0
SPLINE
  5
353
100
AcDbEntity
  8
0
100
AcDbSpline
 62
7
  6
CONTINUOUS
 70
0
 71
3
 72
12
 73
8
 74
0
 42
0.0000001
 43
0.0000001
 44
0.0000000001
 40
0.0
 40
0.0
 40
0.0
 40
0.0
 40
0.0996546854
 40
0.2038617087
 40
0.4363730346
 40
0.7063362889
 40
1.0
 40
1.0
 40
1.0
 40
1.0
 10
215.1543752018
 20
221.8908352716
 30
0.0
 10
215.1543741331
 20
221.8318808969
 30
0.0
 10
215.1727602617
 20
221.7105999946
 30
0.0
 10
215.2833409662
 20
221.474054612
 30
0.0
 10
215.5553156852
 20
221.2212099278
 30
0.0
 10
215.9952722583
 20
221.0365746582
 30
0.0
 10
216.3306143937
 20
220.9940064282
 30
0.0
 10
216.5043419047
 20
220.9940064282
 30
0.0
  0
SPLINE
  5
354
100
AcDbEntity
  8
0
100
AcDbSpline
 62
7
  6
CONTINUOUS
 70
0
 71
3
 72
9
 73
5
 74
0
 42
0.0000001
 43
0.0000001
 44
0.0000000001
 40
0.0
 40
0.0
 40
0.0
 40
0.0
 40
0.4974860914
 40
1.0
 40
1.0
 40
1.0
 40
1.0
 10
119.2408123194
 20
216.0408440105
 30
0.0
 10
118.8851363914
 20
216.0410545283
 30
0.0
 10
118.1587945262
 20
216.2378681928
 30
0.0
 10
117.6237976798
 20
216.7533264505
 30
0.0
 10
117.4201307718
 20
217.0492912501
 30
0.0
  0
SPLINE
  5
355
100
AcDbEntity
  8
0
100
AcDbSpline
 62
7
  6
CONTINUOUS
 70
0
 71
3
 72
9
 73
5
 74
0
 42
0.0000001
 43
0.0000001
 44
0.0000000001
 40
0.0
 40
0.0
 40
0.0
 40
0.0
 40
0.5212089596
 40
1.0
 40
1.0
 40
1.0
 40
1.0
 10
215.7678585321
 20
216.3096897193
 30
0.0
 10
215.6908231875
 20
216.2282374214
 30
0.0
 10
215.5163678106
 20
216.0929627841
 30
0.0
 10
215.2991840155
 20
216.0408352797
 30
0.0
 10
215.196196841
 20
216.0408352797
 30
0.0
  0
SPLINE
  5
356
100
AcDbEntity
  8
0
100
AcDbSpline
 62
7
  6
CONTINUOUS
 70
0
 71
3
 72
9
 73
5
 74
0
 42
0.0000001
 43
0.0000001
 44
0.0000000001
 40
0.0
 40
0.0
 40
0.0
 40
0.0
 40
0.5024951143
 40
1.0
 40
1.0
 40
1.0
 40
1.0
 10
123.9962346392
 20
217.0492750693
 30
0.0
 10
124.1998939076
 20
216.7533229293
 30
0.0
 10
124.7348887152
 20
216.2378655331
 30
0.0
 10
125.4612295528
 20
216.0410625669
 30
0.0
 10
125.8169176042
 20
216.0408456509
 30
0.0
  0
SPLINE
  5
357
100
AcDbEntity
  8
0
100
AcDbSpline
 62
7
  6
CONTINUOUS
 70
0
 71
3
 72
9
 73
5
 74
0
 42
0.0000001
 43
0.0000001
 44
0.0000000001
 40
0.0
 40
0.0
 40
0.0
 40
0.0
 40
0.4974860914
 40
1.0
 40
1.0
 40
1.0
 40
1.0
 10
121.8873778288
 20
223.240826549
 30
0.0
 10
122.2430537568
 20
223.2406160312
 30
0.0
 10
122.969395622
 20
223.0438023666
 30
0.0
 10
123.5043924684
 20
222.528344109
 30
0.0
 10
123.7080593763
 20
222.2323793094
 30
0.0
  0
SPLINE
  5
358
100
AcDbEntity
  8
0
100
AcDbSpline
 62
7
  6
CONTINUOUS
 70
0
 71
3
 72
15
 73
11
 74
0
 42
0.0000001
 43
0.0000001
 44
0.0000000001
 40
0.0
 40
0.0
 40
0.0
 40
0.0
 40
0.1201565137
 40
0.2604678478
 40
0.4119375999
 40
0.5635659018
 40
0.7042488742
 40
0.8250049195
 40
0.9217395231
 40
1.0
 40
1.0
 40
1.0
 40
1.0
 10
121.9117260445
 20
220.5256994778
 30
0.0
 10
122.0225833678
 20
220.5256994778
 30
0.0
 10
122.2627644161
 20
220.5652160763
 30
0.0
 10
122.6194182616
 20
220.7009375876
 30
0.0
 10
122.9748625251
 20
220.906982678
 30
0.0
 10
123.2954547079
 20
221.1640966327
 30
0.0
 10
123.5521883455
 20
221.4486043076
 30
0.0
 10
123.7213464781
 20
221.7354873318
 30
0.0
 10
123.791628442
 20
222.0054644271
 30
0.0
 10
123.7491771326
 20
222.1726381314
 30
0.0
 10
123.7082457628
 20
222.2321192193
 30
0.0
  0
SPLINE
  5
359
100
AcDbEntity
  8
0
100
AcDbSpline
 62
7
  6
CONTINUOUS
 70
0
 71
3
 72
14
 73
10
 74
0
 42
0.0000001
 43
0.0000001
 44
0.0000000001
 40
0.0
 40
0.0
 40
0.0
 40
0.0
 40
0.101971129
 40
0.213752245
 40
0.3393023196
 40
0.4763154174
 40
0.6184420611
 40
0.7577944548
 40
1.0
 40
1.0
 40
1.0
 40
1.0
 10
119.241806634
 20
216.0408352797
 30
0.0
 10
119.3502379205
 20
216.0408352797
 30
0.0
 10
119.5800425055
 20
216.099339015
 30
0.0
 10
119.8649257635
 20
216.3346271302
 30
0.0
 10
120.0742059802
 20
216.6802184908
 30
0.0
 10
120.1919936185
 20
217.0986121871
 30
0.0
 10
120.2071346744
 20
217.5484643311
 30
0.0
 10
120.0988418049
 20
218.0948674332
 30
0.0
 10
119.8629626405
 20
218.4692597285
 30
0.0
 10
119.6486513378
 20
218.6120975411
 30
0.0
  0
SPLINE
  5
35A
100
AcDbEntity
  8
0
100
AcDbSpline
 62
7
  6
CONTINUOUS
 70
0
 71
3
 72
14
 73
10
 74
0
 42
0.0000001
 43
0.0000001
 44
0.0000000001
 40
0.0
 40
0.0
 40
0.0
 40
0.0
 40
0.101971129
 40
0.213752245
 40
0.3393023196
 40
0.4763154175
 40
0.6184420612
 40
0.7577944549
 40
1.0
 40
1.0
 40
1.0
 40
1.0
 10
125.817899699
 20
216.0408352797
 30
0.0
 10
125.9263309856
 20
216.0408352797
 30
0.0
 10
126.1561355709
 20
216.0993390151
 30
0.0
 10
126.441018829
 20
216.3346271307
 30
0.0
 10
126.6502990457
 20
216.6802184918
 30
0.0
 10
126.7680866838
 20
217.0986121886
 30
0.0
 10
126.7832277393
 20
217.548464333
 30
0.0
 10
126.6749348691
 20
218.0948674353
 30
0.0
 10
126.4390557039
 20
218.4692597304
 30
0.0
 10
126.2247444009
 20
218.6120975425
 30
0.0
  0
SPLINE
  5
35B
100
AcDbEntity
  8
0
100
AcDbSpline
 62
7
  6
CONTINUOUS
 70
0
 71
3
 72
11
 73
7
 74
0
 42
0.0000001
 43
0.0000001
 44
0.0000000001
 40
0.0
 40
0.0
 40
0.0
 40
0.0
 40
0.2880052506
 40
0.5553344723
 40
0.7905070702
 40
1.0
 40
1.0
 40
1.0
 40
1.0
 10
116.4487323668
 20
221.8908352797
 30
0.0
 10
116.4487323668
 20
222.0647581029
 30
0.0
 10
116.4033011555
 20
222.4022489208
 30
0.0
 10
116.2033998367
 20
222.8440434915
 30
0.0
 10
115.8923797614
 20
223.1587041475
 30
0.0
 10
115.620648412
 20
223.2408352797
 30
0.0
 10
115.4941382123
 20
223.2408352797
 30
0.0
  0
SPLINE
  5
35C
100
AcDbEntity
  8
0
100
AcDbSpline
 62
7
  6
CONTINUOUS
 70
0
 71
3
 72
11
 73
7
 74
0
 42
0.0000001
 43
0.0000001
 44
0.0000000001
 40
0.0
 40
0.0
 40
0.0
 40
0.0
 40
0.2094929298
 40
0.4446655277
 40
0.7119947494
 40
1.0
 40
1.0
 40
1.0
 40
1.0
 10
115.4941382122
 20
220.5408352797
 30
0.0
 10
115.620648412
 20
220.5408352797
 30
0.0
 10
115.8923797614
 20
220.622966412
 30
0.0
 10
116.2033998367
 20
220.937627068
 30
0.0
 10
116.4033011555
 20
221.3794216387
 30
0.0
 10
116.4487323668
 20
221.7169124566
 30
0.0
 10
116.4487323668
 20
221.8908352797
 30
0.0
  0
SPLINE
  5
35D
100
AcDbEntity
  8
0
100
AcDbSpline
 62
7
  6
CONTINUOUS
 70
0
 71
3
 72
15
 73
11
 74
0
 42
0.0000001
 43
0.0000001
 44
0.0000000001
 40
0.0
 40
0.0
 40
0.0
 40
0.0
 40
0.0782604769
 40
0.1749950805
 40
0.2957511258
 40
0.4364340982
 40
0.5880624001
 40
0.7395321522
 40
0.8798434863
 40
1.0
 40
1.0
 40
1.0
 40
1.0
 10
126.2205802462
 20
218.5797241269
 30
0.0
 10
126.2615116161
 20
218.5202430391
 30
0.0
 10
126.3039629254
 20
218.3530693348
 30
0.0
 10
126.2336809615
 20
218.0830922395
 30
0.0
 10
126.0645228289
 20
217.7962092153
 30
0.0
 10
125.8077891914
 20
217.5117015403
 30
0.0
 10
125.4871970085
 20
217.2545875857
 30
0.0
 10
125.131752745
 20
217.0485424953
 30
0.0
 10
124.7750988995
 20
216.912820984
 30
0.0
 10
124.5349178513
 20
216.8733043855
 30
0.0
 10
124.424060528
 20
216.8733043855
 30
0.0
  0
SPLINE
  5
35E
100
AcDbEntity
  8
0
100
AcDbSpline
 62
7
  6
CONTINUOUS
 70
0
 71
3
 72
15
 73
11
 74
0
 42
0.0000001
 43
0.0000001
 44
0.0000000001
 40
0.0
 40
0.0
 40
0.0
 40
0.0
 40
0.104470771
 40
0.2215117045
 40
0.354468744
 40
0.4978721541
 40
0.6417945112
 40
0.7761064522
 40
0.8947048077
 40
1.0
 40
1.0
 40
1.0
 40
1.0
 10
121.8873966085
 20
223.240834504
 30
0.0
 10
122.012295841
 20
223.2406432321
 30
0.0
 10
122.2801426862
 20
223.1604173343
 30
0.0
 10
122.5889587514
 20
222.8528861804
 30
0.0
 10
122.78993978
 20
222.4192006114
 30
0.0
 10
122.8637668584
 20
221.9158410345
 30
0.0
 10
122.8028903344
 20
221.4091742193
 30
0.0
 10
122.6134086652
 20
220.9661388067
 30
0.0
 10
122.3144106979
 20
220.6438083261
 30
0.0
 10
122.0487720491
 20
220.5487876352
 30
0.0
 10
121.9230783788
 20
220.54184954
 30
0.0
  0
SPLINE
  5
35F
100
AcDbEntity
  8
0
100
AcDbSpline
 62
7
  6
CONTINUOUS
 70
0
 71
3
 72
13
 73
9
 74
0
 42
0.0000001
 43
0.0000001
 44
0.0000000001
 40
0.0
 40
0.0
 40
0.0
 40
0.0
 40
0.0787237312
 40
0.1683848346
 40
0.2749309214
 40
0.3992336593
 40
0.6889418531
 40
1.0
 40
1.0
 40
1.0
 40
1.0
 10
119.6444871812
 20
218.5797241269
 30
0.0
 10
119.6736285289
 20
218.5373761901
 30
0.0
 10
119.713435507
 20
218.4302442229
 30
0.0
 10
119.7038178065
 20
218.2476797198
 30
0.0
 10
119.6350105817
 20
218.0480327042
 30
0.0
 10
119.4617480433
 20
217.7537139157
 30
0.0
 10
119.1302770001
 20
217.4076421733
 30
0.0
 10
118.8020958413
 20
217.1867932494
 30
0.0
 10
118.6216524546
 20
217.0935345531
 30
0.0
  0
SPLINE
  5
360
100
AcDbEntity
  8
0
100
AcDbSpline
 62
7
  6
CONTINUOUS
 70
0
 71
3
 72
9
 73
5
 74
0
 42
0.0000001
 43
0.0000001
 44
0.0000000001
 40
0.0
 40
0.0
 40
0.0
 40
0.0
 40
0.2651437476
 40
1.0
 40
1.0
 40
1.0
 40
1.0
 10
118.6216524546
 20
217.0935345531
 30
0.0
 10
118.5769982635
 20
217.0704558927
 30
0.0
 10
118.4061025174
 20
216.988534485
 30
0.0
 10
118.2248137175
 20
216.9264689407
 30
0.0
 10
118.088220816
 20
216.8990747597
 30
0.0
  0
SPLINE
  5
361
100
AcDbEntity
  8
0
100
AcDbSpline
 62
7
  6
CONTINUOUS
 70
0
 71
3
 72
9
 73
5
 74
0
 42
0.0000001
 43
0.0000001
 44
0.0000000001
 40
0.0
 40
0.0
 40
0.0
 40
0.0
 40
0.2645901066
 40
1.0
 40
1.0
 40
1.0
 40
1.0
 10
118.088220816
 20
216.8990747597
 30
0.0
 10
118.0673076398
 20
216.8948805495
 30
0.0
 10
117.9879626691
 20
216.8806957006
 30
0.0
 10
117.907251643
 20
216.8733043855
 30
0.0
 10
117.8479674629
 20
216.8733043855
 30
0.0
  0
SPLINE
  5
362
100
AcDbEntity
  8
0
100
AcDbSpline
 62
7
  6
CONTINUOUS
 70
0
 71
3
 72
9
 73
5
 74
0
 42
0.0000001
 43
0.0000001
 44
0.0000000001
 40
0.0
 40
0.0
 40
0.0
 40
0.0
 40
0.4974860914
 40
1.0
 40
1.0
 40
1.0
 40
1.0
 10
307.1917784251
 20
216.0408440105
 30
0.0
 10
307.5474543531
 20
216.0410545283
 30
0.0
 10
308.2737962183
 20
216.2378681928
 30
0.0
 10
308.8087930646
 20
216.7533264505
 30
0.0
 10
309.0124599726
 20
217.0492912501
 30
0.0
  0
SPLINE
  5
363
100
AcDbEntity
  8
0
100
AcDbSpline
 62
7
  6
CONTINUOUS
 70
0
 71
3
 72
9
 73
5
 74
0
 42
0.0000001
 43
0.0000001
 44
0.0000000001
 40
0.0
 40
0.0
 40
0.0
 40
0.0
 40
0.5024951143
 40
1.0
 40
1.0
 40
1.0
 40
1.0
 10
309.3006352354
 20
222.2323954902
 30
0.0
 10
309.5042945039
 20
222.5283476302
 30
0.0
 10
310.0392893115
 20
223.0438050264
 30
0.0
 10
310.7656301491
 20
223.2406079926
 30
0.0
 10
311.1213182005
 20
223.2408249086
 30
0.0
  0
SPLINE
  5
364
100
AcDbEntity
  8
0
100
AcDbSpline
 62
7
  6
CONTINUOUS
 70
0
 71
3
 72
9
 73
5
 74
0
 42
0.0000001
 43
0.0000001
 44
0.0000000001
 40
0.0
 40
0.0
 40
0.0
 40
0.0
 40
0.5024951143
 40
1.0
 40
1.0
 40
1.0
 40
1.0
 10
315.5885422353
 20
217.0492750693
 30
0.0
 10
315.3848829669
 20
216.7533229293
 30
0.0
 10
314.8498881593
 20
216.2378655331
 30
0.0
 10
314.1235473217
 20
216.0410625669
 30
0.0
 10
313.7678592703
 20
216.0408456509
 30
0.0
  0
SPLINE
  5
365
100
AcDbEntity
  8
0
100
AcDbSpline
 62
7
  6
CONTINUOUS
 70
0
 71
3
 72
15
 73
11
 74
0
 42
0.0000001
 43
0.0000001
 44
0.0000000001
 40
0.0
 40
0.0
 40
0.0
 40
0.0
 40
0.1201565137
 40
0.2604678478
 40
0.4119375999
 40
0.5635659018
 40
0.7042488742
 40
0.8250049195
 40
0.9217395231
 40
1.0
 40
1.0
 40
1.0
 40
1.0
 10
308.5846232815
 20
216.8733043855
 30
0.0
 10
308.4737659582
 20
216.8733043855
 30
0.0
 10
308.2335849099
 20
216.912820984
 30
0.0
 10
307.8769310645
 20
217.0485424953
 30
0.0
 10
307.5214868009
 20
217.2545875857
 30
0.0
 10
307.2008946181
 20
217.5117015403
 30
0.0
 10
306.9441609806
 20
217.7962092153
 30
0.0
 10
306.775002848
 20
218.0830922395
 30
0.0
 10
306.7047208841
 20
218.3530693348
 30
0.0
 10
306.7471721934
 20
218.5202430391
 30
0.0
 10
306.7881035632
 20
218.5797241269
 30
0.0
  0
SPLINE
  5
366
100
AcDbEntity
  8
0
100
AcDbSpline
 62
7
  6
CONTINUOUS
 70
0
 71
3
 72
15
 73
11
 74
0
 42
0.0000001
 43
0.0000001
 44
0.0000000001
 40
0.0
 40
0.0
 40
0.0
 40
0.0
 40
0.0782604769
 40
0.1749950805
 40
0.2957511258
 40
0.4364340982
 40
0.5880624001
 40
0.7395321522
 40
0.8798434863
 40
1.0
 40
1.0
 40
1.0
 40
1.0
 10
309.3004380467
 20
222.2321192193
 30
0.0
 10
309.2595066769
 20
222.1726381314
 30
0.0
 10
309.2170553675
 20
222.0054644271
 30
0.0
 10
309.2873373314
 20
221.7354873318
 30
0.0
 10
309.456495464
 20
221.4486043076
 30
0.0
 10
309.7132291015
 20
221.1640966327
 30
0.0
 10
310.0338212844
 20
220.906982678
 30
0.0
 10
310.3892655479
 20
220.7009375877
 30
0.0
 10
310.7459193934
 20
220.5652160763
 30
0.0
 10
310.9861004417
 20
220.5256994778
 30
0.0
 10
311.0969577649
 20
220.5256994778
 30
0.0
  0
SPLINE
  5
367
100
AcDbEntity
  8
0
100
AcDbSpline
 62
7
  6
CONTINUOUS
 70
0
 71
3
 72
14
 73
10
 74
0
 42
0.0000001
 43
0.0000001
 44
0.0000000001
 40
0.0
 40
0.0
 40
0.0
 40
0.0
 40
0.2422055451
 40
0.3815579388
 40
0.5236845825
 40
0.6606976804
 40
0.786247755
 40
0.898028871
 40
1.0
 40
1.0
 40
1.0
 40
1.0
 10
313.3600324736
 20
218.6120975425
 30
0.0
 10
313.1457211706
 20
218.4692597305
 30
0.0
 10
312.9098420054
 20
218.0948674353
 30
0.0
 10
312.8015491352
 20
217.548464333
 30
0.0
 10
312.8166901907
 20
217.0986121886
 30
0.0
 10
312.9344778288
 20
216.6802184918
 30
0.0
 10
313.1437580455
 20
216.3346271307
 30
0.0
 10
313.4286413037
 20
216.0993390151
 30
0.0
 10
313.6584458889
 20
216.0408352797
 30
0.0
 10
313.7668771755
 20
216.0408352797
 30
0.0
  0
SPLINE
  5
368
100
AcDbEntity
  8
0
100
AcDbSpline
 62
7
  6
CONTINUOUS
 70
0
 71
3
 72
11
 73
7
 74
0
 42
0.0000001
 43
0.0000001
 44
0.0000000001
 40
0.0
 40
0.0
 40
0.0
 40
0.0
 40
0.2880052506
 40
0.5553344723
 40
0.7905070702
 40
1.0
 40
1.0
 40
1.0
 40
1.0
 10
316.5599514426
 20
221.8908352797
 30
0.0
 10
316.5599514426
 20
221.7169124566
 30
0.0
 10
316.6053826539
 20
221.3794216387
 30
0.0
 10
316.8052839728
 20
220.937627068
 30
0.0
 10
317.116304048
 20
220.622966412
 30
0.0
 10
317.3880353974
 20
220.5408352798
 30
0.0
 10
317.5145455972
 20
220.5408352797
 30
0.0
  0
SPLINE
  5
369
100
AcDbEntity
  8
0
100
AcDbSpline
 62
7
  6
CONTINUOUS
 70
0
 71
3
 72
11
 73
7
 74
0
 42
0.0000001
 43
0.0000001
 44
0.0000000001
 40
0.0
 40
0.0
 40
0.0
 40
0.0
 40
0.2094929298
 40
0.4446655277
 40
0.7119947494
 40
1.0
 40
1.0
 40
1.0
 40
1.0
 10
317.5145455972
 20
223.2408352797
 30
0.0
 10
317.3880353974
 20
223.2408352797
 30
0.0
 10
317.116304048
 20
223.1587041475
 30
0.0
 10
316.8052839728
 20
222.8440434915
 30
0.0
 10
316.6053826539
 20
222.4022489208
 30
0.0
 10
316.5599514426
 20
222.0647581029
 30
0.0
 10
316.5599514426
 20
221.8908352797
 30
0.0
  0
SPLINE
  5
36A
100
AcDbEntity
  8
0
100
AcDbSpline
 62
7
  6
CONTINUOUS
 70
0
 71
3
 72
14
 73
10
 74
0
 42
0.0000001
 43
0.0000001
 44
0.0000000001
 40
0.0
 40
0.0
 40
0.0
 40
0.0
 40
0.2422055452
 40
0.3815579389
 40
0.5236845826
 40
0.6606976804
 40
0.786247755
 40
0.898028871
 40
1.0
 40
1.0
 40
1.0
 40
1.0
 10
306.7839394066
 20
218.6120975411
 30
0.0
 10
306.569628104
 20
218.4692597285
 30
0.0
 10
306.3337489396
 20
218.0948674332
 30
0.0
 10
306.22545607
 20
217.5484643311
 30
0.0
 10
306.2405971259
 20
217.0986121871
 30
0.0
 10
306.3583847642
 20
216.6802184908
 30
0.0
 10
306.567664981
 20
216.3346271302
 30
0.0
 10
306.8525482389
 20
216.099339015
 30
0.0
 10
307.082352824
 20
216.0408352797
 30
0.0
 10
307.1907841104
 20
216.0408352797
 30
0.0
  0
SPLINE
  5
36B
100
AcDbEntity
  8
0
100
AcDbSpline
 62
7
  6
CONTINUOUS
 70
0
 71
3
 72
13
 73
9
 74
0
 42
0.0000001
 43
0.0000001
 44
0.0000000001
 40
0.0
 40
0.0
 40
0.0
 40
0.0
 40
0.1011301256
 40
0.2109237865
 40
0.3327826942
 40
0.4655752437
 40
0.7433323935
 40
1.0
 40
1.0
 40
1.0
 40
1.0
 10
311.0856054306
 20
220.54184954
 30
0.0
 10
310.9887499109
 20
220.5471958141
 30
0.0
 10
310.7874131271
 20
220.6038376284
 30
0.0
 10
310.5314575475
 20
220.8047582206
 30
0.0
 10
310.3323830962
 20
221.0976736917
 30
0.0
 10
310.1588403169
 20
221.5824736441
 30
0.0
 10
310.1444908767
 20
222.2401974219
 30
0.0
 10
310.350095609
 20
222.7366979003
 30
0.0
 10
310.5086990004
 20
222.924995278
 30
0.0
  0
SPLINE
  5
36C
100
AcDbEntity
  8
0
100
AcDbSpline
 62
7
  6
CONTINUOUS
 70
0
 71
3
 72
9
 73
5
 74
0
 42
0.0000001
 43
0.0000001
 44
0.0000000001
 40
0.0
 40
0.0
 40
0.0
 40
0.0
 40
0.5241461717
 40
1.0
 40
1.0
 40
1.0
 40
1.0
 10
310.5086990004
 20
222.924995278
 30
0.0
 10
310.5881830139
 20
223.0193604183
 30
0.0
 10
310.7715386066
 20
223.1777653039
 30
0.0
 10
311.0092883094
 20
223.2406651598
 30
0.0
 10
311.1213000316
 20
223.2408345235
 30
0.0
  0
SPLINE
  5
36D
100
AcDbEntity
  8
0
100
AcDbSpline
 62
7
  6
CONTINUOUS
 70
0
 71
3
 72
9
 73
5
 74
0
 42
0.0000001
 43
0.0000001
 44
0.0000000001
 40
0.0
 40
0.0
 40
0.0
 40
0.0
 40
0.2352801781
 40
1.0
 40
1.0
 40
1.0
 40
1.0
 10
315.1607163465
 20
216.8733043855
 30
0.0
 10
315.1417481237
 20
216.8733043855
 30
0.0
 10
315.0611312013
 20
216.8757268178
 30
0.0
 10
314.9809108208
 20
216.8869517378
 30
0.0
 10
314.9204629934
 20
216.8990747597
 30
0.0
  0
SPLINE
  5
36E
100
AcDbEntity
  8
0
100
AcDbSpline
 62
7
  6
CONTINUOUS
 70
0
 71
3
 72
9
 73
5
 74
0
 42
0.0000001
 43
0.0000001
 44
0.0000000001
 40
0.0
 40
0.0
 40
0.0
 40
0.0
 40
0.2332948422
 40
1.0
 40
1.0
 40
1.0
 40
1.0
 10
314.9204629934
 20
216.8990747597
 30
0.0
 10
314.8770917016
 20
216.9077730229
 30
0.0
 10
314.6928217221
 20
216.9531445861
 30
0.0
 10
314.5161772794
 20
217.0267879642
 30
0.0
 10
314.3870313548
 20
217.0935345531
 30
0.0
  0
SPLINE
  5
36F
100
AcDbEntity
  8
0
100
AcDbSpline
 62
7
  6
CONTINUOUS
 70
0
 71
3
 72
13
 73
9
 74
0
 42
0.0000001
 43
0.0000001
 44
0.0000000001
 40
0.0
 40
0.0
 40
0.0
 40
0.0
 40
0.3110581469
 40
0.6007663407
 40
0.7250690786
 40
0.8316151654
 40
0.9212762688
 40
1.0
 40
1.0
 40
1.0
 40
1.0
 10
314.3870313548
 20
217.0935345531
 30
0.0
 10
314.2065879682
 20
217.1867932494
 30
0.0
 10
313.8784068094
 20
217.4076421733
 30
0.0
 10
313.5469357662
 20
217.7537139157
 30
0.0
 10
313.3736732278
 20
218.0480327042
 30
0.0
 10
313.304866003
 20
218.2476797198
 30
0.0
 10
313.2952483025
 20
218.4302442229
 30
0.0
 10
313.3350552806
 20
218.5373761901
 30
0.0
 10
313.3641966283
 20
218.5797241269
 30
0.0
  0
SPLINE
  5
370
100
AcDbEntity
  8
0
100
AcDbSpline
 62
7
  6
CONTINUOUS
 70
0
 71
3
 72
8
 73
4
 74
0
 42
0.0000001
 43
0.0000001
 44
0.0000000001
 40
0.0
 40
0.0
 40
0.0
 40
0.0
 40
1.0
 40
1.0
 40
1.0
 40
1.0
 10
48.6479408578
 20
379.2408325896
 30
0.0
 10
49.0484521868
 20
380.3400220984
 30
0.0
 10
49.6788832015
 20
381.3784270004
 30
0.0
 10
50.4693759976
 20
382.2408352797
 30
0.0
  0
SPLINE
  5
371
100
AcDbEntity
  8
0
100
AcDbSpline
 62
7
  6
CONTINUOUS
 70
0
 71
3
 72
10
 73
6
 74
0
 42
0.0000001
 43
0.0000001
 44
0.0000000001
 40
0.0
 40
0.0
 40
0.0
 40
0.0
 40
0.2312517143
 40
0.475133247
 40
1.0
 40
1.0
 40
1.0
 40
1.0
 10
292.3920683628
 20
276.1408924799
 30
0.0
 10
292.1611909107
 20
276.1409045296
 30
0.0
 10
291.6805734555
 20
276.2589891539
 30
0.0
 10
290.8891992536
 20
276.9062075133
 30
0.0
 10
290.6308601546
 20
277.7168179804
 30
0.0
 10
290.6308601546
 20
278.2408352797
 30
0.0
  0
SPLINE
  5
372
100
AcDbEntity
  8
0
100
AcDbSpline
 62
7
  6
CONTINUOUS
 70
0
 71
3
 72
11
 73
7
 74
0
 42
0.0000001
 43
0.0000001
 44
0.0000000001
 40
0.0
 40
0.0
 40
0.0
 40
0.0
 40
0.2294328863
 40
0.4714099585
 40
0.7300714831
 40
1.0
 40
1.0
 40
1.0
 40
1.0
 10
292.3920685134
 20
275.2410120863
 30
0.0
 10
292.7218883865
 20
275.241004666
 30
0.0
 10
293.4083201585
 20
275.4085100027
 30
0.0
 10
294.2411004341
 20
276.0945726769
 30
0.0
 10
294.7838540535
 20
277.0865804514
 30
0.0
 10
294.9080800512
 20
277.8528011552
 30
0.0
 10
294.9080800512
 20
278.2408352797
 30
0.0
  0
SPLINE
  5
373
100
AcDbEntity
  8
0
100
AcDbSpline
 62
7
  6
CONTINUOUS
 70
0
 71
3
 72
10
 73
6
 74
0
 42
0.0000001
 43
0.0000001
 44
0.0000000001
 40
0.0
 40
0.0
 40
0.0
 40
0.0
 40
0.2312517143
 40
0.475133247
 40
1.0
 40
1.0
 40
1.0
 40
1.0
 10
284.0053626834
 20
276.1408924799
 30
0.0
 10
283.7744852312
 20
276.1409045295
 30
0.0
 10
283.293867776
 20
276.2589891539
 30
0.0
 10
282.5024935741
 20
276.9062075133
 30
0.0
 10
282.2441544752
 20
277.7168179803
 30
0.0
 10
282.2441544752
 20
278.2408352797
 30
0.0
  0
SPLINE
  5
374
100
AcDbEntity
  8
0
100
AcDbSpline
 62
7
  6
CONTINUOUS
 70
0
 71
3
 72
11
 73
7
 74
0
 42
0.0000001
 43
0.0000001
 44
0.0000000001
 40
0.0
 40
0.0
 40
0.0
 40
0.0
 40
0.2294328863
 40
0.4714099585
 40
0.7300714831
 40
1.0
 40
1.0
 40
1.0
 40
1.0
 10
284.005362834
 20
275.2410120863
 30
0.0
 10
284.335182707
 20
275.241004666
 30
0.0
 10
285.0216144791
 20
275.4085100028
 30
0.0
 10
285.8543947546
 20
276.0945726769
 30
0.0
 10
286.3971483741
 20
277.0865804514
 30
0.0
 10
286.5213743717
 20
277.8528011552
 30
0.0
 10
286.5213743717
 20
278.2408352797
 30
0.0
  0
SPLINE
  5
375
100
AcDbEntity
  8
0
100
AcDbSpline
 62
7
  6
CONTINUOUS
 70
0
 71
3
 72
10
 73
6
 74
0
 42
0.0000001
 43
0.0000001
 44
0.0000000001
 40
0.0
 40
0.0
 40
0.0
 40
0.0
 40
0.2312517143
 40
0.475133247
 40
1.0
 40
1.0
 40
1.0
 40
1.0
 10
284.0053626834
 20
266.1408924799
 30
0.0
 10
283.7744852312
 20
266.1409045295
 30
0.0
 10
283.293867776
 20
266.2589891539
 30
0.0
 10
282.5024935741
 20
266.9062075133
 30
0.0
 10
282.2441544752
 20
267.7168179803
 30
0.0
 10
282.2441544752
 20
268.2408352797
 30
0.0
  0
SPLINE
  5
376
100
AcDbEntity
  8
0
100
AcDbSpline
 62
7
  6
CONTINUOUS
 70
0
 71
3
 72
11
 73
7
 74
0
 42
0.0000001
 43
0.0000001
 44
0.0000000001
 40
0.0
 40
0.0
 40
0.0
 40
0.0
 40
0.2294328863
 40
0.4714099585
 40
0.7300714831
 40
1.0
 40
1.0
 40
1.0
 40
1.0
 10
284.005362834
 20
265.2410120863
 30
0.0
 10
284.335182707
 20
265.241004666
 30
0.0
 10
285.0216144791
 20
265.4085100028
 30
0.0
 10
285.8543947546
 20
266.0945726769
 30
0.0
 10
286.3971483741
 20
267.0865804514
 30
0.0
 10
286.5213743717
 20
267.8528011552
 30
0.0
 10
286.5213743717
 20
268.2408352797
 30
0.0
  0
SPLINE
  5
377
100
AcDbEntity
  8
0
100
AcDbSpline
 62
7
  6
CONTINUOUS
 70
0
 71
3
 72
10
 73
6
 74
0
 42
0.0000001
 43
0.0000001
 44
0.0000000001
 40
0.0
 40
0.0
 40
0.0
 40
0.0
 40
0.2312517143
 40
0.475133247
 40
1.0
 40
1.0
 40
1.0
 40
1.0
 10
292.3920683628
 20
266.1408924799
 30
0.0
 10
292.1611909107
 20
266.1409045296
 30
0.0
 10
291.6805734555
 20
266.2589891539
 30
0.0
 10
290.8891992536
 20
266.9062075133
 30
0.0
 10
290.6308601546
 20
267.7168179804
 30
0.0
 10
290.6308601546
 20
268.2408352797
 30
0.0
  0
SPLINE
  5
378
100
AcDbEntity
  8
0
100
AcDbSpline
 62
7
  6
CONTINUOUS
 70
0
 71
3
 72
11
 73
7
 74
0
 42
0.0000001
 43
0.0000001
 44
0.0000000001
 40
0.0
 40
0.0
 40
0.0
 40
0.0
 40
0.2294328863
 40
0.4714099585
 40
0.7300714831
 40
1.0
 40
1.0
 40
1.0
 40
1.0
 10
292.3920685134
 20
265.2410120863
 30
0.0
 10
292.7218883865
 20
265.241004666
 30
0.0
 10
293.4083201585
 20
265.4085100027
 30
0.0
 10
294.2411004341
 20
266.0945726769
 30
0.0
 10
294.7838540535
 20
267.0865804514
 30
0.0
 10
294.9080800512
 20
267.8528011552
 30
0.0
 10
294.9080800512
 20
268.2408352797
 30
0.0
  0
SPLINE
  5
379
100
AcDbEntity
  8
0
100
AcDbSpline
 62
7
  6
CONTINUOUS
 70
0
 71
3
 72
10
 73
6
 74
0
 42
0.0000001
 43
0.0000001
 44
0.0000000001
 40
0.0
 40
0.0
 40
0.0
 40
0.0
 40
0.2312517143
 40
0.475133247
 40
1.0
 40
1.0
 40
1.0
 40
1.0
 10
292.3920683628
 20
256.1408924799
 30
0.0
 10
292.1611909107
 20
256.1409045296
 30
0.0
 10
291.6805734555
 20
256.2589891539
 30
0.0
 10
290.8891992536
 20
256.9062075133
 30
0.0
 10
290.6308601546
 20
257.7168179804
 30
0.0
 10
290.6308601546
 20
258.2408352797
 30
0.0
  0
SPLINE
  5
37A
100
AcDbEntity
  8
0
100
AcDbSpline
 62
7
  6
CONTINUOUS
 70
0
 71
3
 72
11
 73
7
 74
0
 42
0.0000001
 43
0.0000001
 44
0.0000000001
 40
0.0
 40
0.0
 40
0.0
 40
0.0
 40
0.2294328863
 40
0.4714099585
 40
0.7300714831
 40
1.0
 40
1.0
 40
1.0
 40
1.0
 10
292.3920685134
 20
255.2410120863
 30
0.0
 10
292.7218883865
 20
255.241004666
 30
0.0
 10
293.4083201585
 20
255.4085100027
 30
0.0
 10
294.2411004341
 20
256.0945726769
 30
0.0
 10
294.7838540535
 20
257.0865804514
 30
0.0
 10
294.9080800512
 20
257.8528011552
 30
0.0
 10
294.9080800512
 20
258.2408352797
 30
0.0
  0
SPLINE
  5
37B
100
AcDbEntity
  8
0
100
AcDbSpline
 62
7
  6
CONTINUOUS
 70
0
 71
3
 72
10
 73
6
 74
0
 42
0.0000001
 43
0.0000001
 44
0.0000000001
 40
0.0
 40
0.0
 40
0.0
 40
0.0
 40
0.2312517143
 40
0.475133247
 40
1.0
 40
1.0
 40
1.0
 40
1.0
 10
284.0053626834
 20
256.1408924799
 30
0.0
 10
283.7744852312
 20
256.1409045295
 30
0.0
 10
283.293867776
 20
256.2589891539
 30
0.0
 10
282.5024935741
 20
256.9062075133
 30
0.0
 10
282.2441544752
 20
257.7168179803
 30
0.0
 10
282.2441544752
 20
258.2408352797
 30
0.0
  0
SPLINE
  5
37C
100
AcDbEntity
  8
0
100
AcDbSpline
 62
7
  6
CONTINUOUS
 70
0
 71
3
 72
11
 73
7
 74
0
 42
0.0000001
 43
0.0000001
 44
0.0000000001
 40
0.0
 40
0.0
 40
0.0
 40
0.0
 40
0.2294328863
 40
0.4714099585
 40
0.7300714831
 40
1.0
 40
1.0
 40
1.0
 40
1.0
 10
284.005362834
 20
255.2410120863
 30
0.0
 10
284.335182707
 20
255.241004666
 30
0.0
 10
285.0216144791
 20
255.4085100028
 30
0.0
 10
285.8543947546
 20
256.0945726769
 30
0.0
 10
286.3971483741
 20
257.0865804514
 30
0.0
 10
286.5213743717
 20
257.8528011552
 30
0.0
 10
286.5213743717
 20
258.2408352797
 30
0.0
  0
SPLINE
  5
37D
100
AcDbEntity
  8
0
100
AcDbSpline
 62
7
  6
CONTINUOUS
 70
0
 71
3
 72
10
 73
6
 74
0
 42
0.0000001
 43
0.0000001
 44
0.0000000001
 40
0.0
 40
0.0
 40
0.0
 40
0.0
 40
0.2312517143
 40
0.475133247
 40
1.0
 40
1.0
 40
1.0
 40
1.0
 10
284.0053626834
 20
246.1408924799
 30
0.0
 10
283.7744852312
 20
246.1409045295
 30
0.0
 10
283.293867776
 20
246.2589891539
 30
0.0
 10
282.5024935741
 20
246.9062075133
 30
0.0
 10
282.2441544752
 20
247.7168179803
 30
0.0
 10
282.2441544752
 20
248.2408352797
 30
0.0
  0
SPLINE
  5
37E
100
AcDbEntity
  8
0
100
AcDbSpline
 62
7
  6
CONTINUOUS
 70
0
 71
3
 72
11
 73
7
 74
0
 42
0.0000001
 43
0.0000001
 44
0.0000000001
 40
0.0
 40
0.0
 40
0.0
 40
0.0
 40
0.2294328863
 40
0.4714099585
 40
0.7300714831
 40
1.0
 40
1.0
 40
1.0
 40
1.0
 10
284.005362834
 20
245.2410120863
 30
0.0
 10
284.335182707
 20
245.241004666
 30
0.0
 10
285.0216144791
 20
245.4085100028
 30
0.0
 10
285.8543947546
 20
246.0945726769
 30
0.0
 10
286.3971483741
 20
247.0865804514
 30
0.0
 10
286.5213743717
 20
247.8528011552
 30
0.0
 10
286.5213743717
 20
248.2408352797
 30
0.0
  0
SPLINE
  5
37F
100
AcDbEntity
  8
0
100
AcDbSpline
 62
7
  6
CONTINUOUS
 70
0
 71
3
 72
10
 73
6
 74
0
 42
0.0000001
 43
0.0000001
 44
0.0000000001
 40
0.0
 40
0.0
 40
0.0
 40
0.0
 40
0.2312517143
 40
0.475133247
 40
1.0
 40
1.0
 40
1.0
 40
1.0
 10
292.3920683628
 20
246.1408924799
 30
0.0
 10
292.1611909107
 20
246.1409045296
 30
0.0
 10
291.6805734555
 20
246.2589891539
 30
0.0
 10
290.8891992536
 20
246.9062075133
 30
0.0
 10
290.6308601546
 20
247.7168179804
 30
0.0
 10
290.6308601546
 20
248.2408352797
 30
0.0
  0
SPLINE
  5
380
100
AcDbEntity
  8
0
100
AcDbSpline
 62
7
  6
CONTINUOUS
 70
0
 71
3
 72
8
 73
4
 74
0
 42
0.0000001
 43
0.0000001
 44
0.0000000001
 40
0.0
 40
0.0
 40
0.0
 40
0.0
 40
1.0
 40
1.0
 40
1.0
 40
1.0
 10
292.3920685134
 20
245.2410120863
 30
0.0
 10
292.6504423589
 20
245.2410062734
 30
0.0
 10
292.9126835309
 20
245.2903400455
 30
0.0
 10
293.1542672002
 20
245.3819608663
 30
0.0
  0
SPLINE
  5
381
100
AcDbEntity
  8
0
100
AcDbSpline
 62
7
  6
CONTINUOUS
 70
0
 71
3
 72
9
 73
5
 74
0
 42
0.0000001
 43
0.0000001
 44
0.0000000001
 40
0.0
 40
0.0
 40
0.0
 40
0.0
 40
0.476394151
 40
1.0
 40
1.0
 40
1.0
 40
1.0
 10
293.1542672002
 20
245.3819608663
 30
0.0
 10
293.6750470938
 20
245.5794671028
 30
0.0
 10
294.6128213651
 20
246.4315263859
 30
0.0
 10
294.9080800512
 20
247.6286635738
 30
0.0
 10
294.9080800512
 20
248.2408352797
 30
0.0
  0
SPLINE
  5
382
100
AcDbEntity
  8
0
100
AcDbSpline
 62
7
  6
CONTINUOUS
 70
0
 71
3
 72
9
 73
5
 74
0
 42
0.0000001
 43
0.0000001
 44
0.0000000001
 40
0.0
 40
0.0
 40
0.0
 40
0.0
 40
0.4739992956
 40
1.0
 40
1.0
 40
1.0
 40
1.0
 10
284.3654723089
 20
251.67949944
 30
0.0
 10
284.0628068711
 20
251.7603303989
 30
0.0
 10
283.4937112804
 20
252.2126700442
 30
0.0
 10
283.3166888712
 20
252.8931937271
 30
0.0
 10
283.3166888712
 20
253.2408352797
 30
0.0
  0
SPLINE
  5
383
100
AcDbEntity
  8
0
100
AcDbSpline
 62
7
  6
CONTINUOUS
 70
0
 71
3
 72
9
 73
5
 74
0
 42
0.0000001
 43
0.0000001
 44
0.0000000001
 40
0.0
 40
0.0
 40
0.0
 40
0.0
 40
0.4739992956
 40
1.0
 40
1.0
 40
1.0
 40
1.0
 10
284.3654723089
 20
261.67949944
 30
0.0
 10
284.0628068711
 20
261.7603303989
 30
0.0
 10
283.4937112804
 20
262.2126700442
 30
0.0
 10
283.3166888712
 20
262.8931937271
 30
0.0
 10
283.3166888712
 20
263.2408352797
 30
0.0
  0
SPLINE
  5
384
100
AcDbEntity
  8
0
100
AcDbSpline
 62
7
  6
CONTINUOUS
 70
0
 71
3
 72
9
 73
5
 74
0
 42
0.0000001
 43
0.0000001
 44
0.0000000001
 40
0.0
 40
0.0
 40
0.0
 40
0.0
 40
0.4739992956
 40
1.0
 40
1.0
 40
1.0
 40
1.0
 10
284.3654723089
 20
271.67949944
 30
0.0
 10
284.0628068711
 20
271.7603303989
 30
0.0
 10
283.4937112804
 20
272.2126700442
 30
0.0
 10
283.3166888712
 20
272.8931937271
 30
0.0
 10
283.3166888712
 20
273.2408352797
 30
0.0
  0
SPLINE
  5
385
100
AcDbEntity
  8
0
100
AcDbSpline
 62
7
  6
CONTINUOUS
 70
0
 71
3
 72
10
 73
6
 74
0
 42
0.0000001
 43
0.0000001
 44
0.0000000001
 40
0.0
 40
0.0
 40
0.0
 40
0.0
 40
0.2312243122
 40
0.4750004171
 40
1.0
 40
1.0
 40
1.0
 40
1.0
 10
279.4844902432
 20
242.4410225321
 30
0.0
 10
279.3415933162
 20
242.4410178079
 30
0.0
 10
279.0442103166
 20
242.5141793755
 30
0.0
 10
278.5541195482
 20
242.9144751845
 30
0.0
 10
278.394219209
 20
243.4163848516
 30
0.0
 10
278.394219209
 20
243.7408352797
 30
0.0
  0
SPLINE
  5
386
100
AcDbEntity
  8
0
100
AcDbSpline
 62
7
  6
CONTINUOUS
 70
0
 71
3
 72
11
 73
7
 74
0
 42
0.0000001
 43
0.0000001
 44
0.0000000001
 40
0.0
 40
0.0
 40
0.0
 40
0.0
 40
0.2294330992
 40
0.4713966929
 40
0.7300993563
 40
1.0
 40
1.0
 40
1.0
 40
1.0
 10
279.4844909289
 20
241.2409033752
 30
0.0
 10
279.7593450386
 20
241.24091772
 30
0.0
 10
280.3313422798
 20
241.3805213794
 30
0.0
 10
281.0254312113
 20
241.9522073927
 30
0.0
 10
281.4775709697
 20
242.7789897888
 30
0.0
 10
281.5811673672
 20
243.4175022406
 30
0.0
 10
281.5811673672
 20
243.7408352797
 30
0.0
  0
SPLINE
  5
387
100
AcDbEntity
  8
0
100
AcDbSpline
 62
7
  6
CONTINUOUS
 70
0
 71
3
 72
9
 73
5
 74
0
 42
0.0000001
 43
0.0000001
 44
0.0000000001
 40
0.0
 40
0.0
 40
0.0
 40
0.0
 40
0.4826004567
 40
1.0
 40
1.0
 40
1.0
 40
1.0
 10
279.484490959
 20
238.7408938649
 30
0.0
 10
278.8299524329
 20
238.7409191444
 30
0.0
 10
277.4534752842
 20
239.1462802679
 30
0.0
 10
276.4811139283
 20
240.1737574707
 30
0.0
 10
276.1114817225
 20
240.7702513305
 30
0.0
  0
SPLINE
  5
388
100
AcDbEntity
  8
0
100
AcDbSpline
 62
7
  6
CONTINUOUS
 70
0
 71
3
 72
9
 73
5
 74
0
 42
0.0000001
 43
0.0000001
 44
0.0000000001
 40
0.0
 40
0.0
 40
0.0
 40
0.0
 40
0.2460586384
 40
1.0
 40
1.0
 40
1.0
 40
1.0
 10
275.9275742944
 20
241.0927305327
 30
0.0
 10
275.8233903609
 20
241.2917139251
 30
0.0
 10
275.4517730874
 20
242.1268888382
 30
0.0
 10
275.2911381076
 20
243.0526207022
 30
0.0
 10
275.2911381076
 20
243.7408352797
 30
0.0
  0
SPLINE
  5
389
100
AcDbEntity
  8
0
100
AcDbSpline
 62
7
  6
CONTINUOUS
 70
0
 71
3
 72
13
 73
9
 74
0
 42
0.0000001
 43
0.0000001
 44
0.0000000001
 40
0.0
 40
0.0
 40
0.0
 40
0.0
 40
0.118251891
 40
0.2376142459
 40
0.3590018963
 40
0.4829851649
 40
0.7378210578
 40
1.0
 40
1.0
 40
1.0
 40
1.0
 10
369.9280515675
 20
283.2407590669
 30
0.0
 10
371.0967974464
 20
283.2408487125
 30
0.0
 10
373.4532812059
 20
282.9798410893
 30
0.0
 10
376.8360290031
 20
281.8251164916
 30
0.0
 10
379.9485209952
 20
279.9534409941
 30
0.0
 10
383.6041765357
 20
276.5814902943
 30
0.0
 10
386.8985770103
 20
270.9865078485
 30
0.0
 10
387.7923411856
 20
265.8320882118
 30
0.0
 10
387.7923411856
 20
263.2408352797
 30
0.0
  0
SPLINE
  5
38A
100
AcDbEntity
  8
0
100
AcDbSpline
 62
7
  6
CONTINUOUS
 70
0
 71
3
 72
13
 73
9
 74
0
 42
0.0000001
 43
0.0000001
 44
0.0000000001
 40
0.0
 40
0.0
 40
0.0
 40
0.0
 40
0.1182520041
 40
0.2376139783
 40
0.3590009313
 40
0.4829811412
 40
0.7378166833
 40
1.0
 40
1.0
 40
1.0
 40
1.0
 10
338.9035249938
 20
283.2407707877
 30
0.0
 10
337.7347773519
 20
283.2407574116
 30
0.0
 10
335.3782887274
 20
282.9799547187
 30
0.0
 10
331.9955532213
 20
281.8251371696
 30
0.0
 10
328.8831084694
 20
279.9534822883
 30
0.0
 10
325.227472378
 20
276.5815646142
 30
0.0
 10
321.9330230803
 20
270.9865993529
 30
0.0
 10
321.0392351554
 20
265.8321328684
 30
0.0
 10
321.0392351554
 20
263.2408352797
 30
0.0
  0
SPLINE
  5
38B
100
AcDbEntity
  8
0
100
AcDbSpline
 62
7
  6
CONTINUOUS
 70
0
 71
3
 72
10
 73
6
 74
0
 42
0.0000001
 43
0.0000001
 44
0.0000000001
 40
0.0
 40
0.0
 40
0.0
 40
0.0
 40
0.2312517143
 40
0.475133247
 40
1.0
 40
1.0
 40
1.0
 40
1.0
 10
281.1184080653
 20
289.9908829466
 30
0.0
 10
280.9260101885
 20
289.9908929879
 30
0.0
 10
280.5254956425
 20
290.0892968416
 30
0.0
 10
279.866017141
 20
290.6286454744
 30
0.0
 10
279.6507345585
 20
291.3041541969
 30
0.0
 10
279.6507345585
 20
291.7408352797
 30
0.0
  0
SPLINE
  5
38C
100
AcDbEntity
  8
0
100
AcDbSpline
 62
7
  6
CONTINUOUS
 70
0
 71
3
 72
11
 73
7
 74
0
 42
0.0000001
 43
0.0000001
 44
0.0000000001
 40
0.0
 40
0.0
 40
0.0
 40
0.0
 40
0.2294328863
 40
0.4714099585
 40
0.7300714831
 40
1.0
 40
1.0
 40
1.0
 40
1.0
 10
281.1184082877
 20
287.4910857557
 30
0.0
 10
281.5856531078
 20
287.4910752436
 30
0.0
 10
282.5580981183
 20
287.7283744707
 30
0.0
 10
283.7378701753
 20
288.7002965923
 30
0.0
 10
284.5067711362
 20
290.1056409395
 30
0.0
 10
284.6827579661
 20
291.19112027
 30
0.0
 10
284.6827579661
 20
291.7408352797
 30
0.0
  0
SPLINE
  5
38D
100
AcDbEntity
  8
0
100
AcDbSpline
 62
7
  6
CONTINUOUS
 70
0
 71
3
 72
10
 73
6
 74
0
 42
0.0000001
 43
0.0000001
 44
0.0000000001
 40
0.0
 40
0.0
 40
0.0
 40
0.0
 40
0.5248471687
 40
0.7687310402
 40
1.0
 40
1.0
 40
1.0
 40
1.0
 10
290.6308601546
 20
278.2408352797
 30
0.0
 10
290.6308601546
 20
278.7648340712
 30
0.0
 10
290.8891839072
 20
279.5754268752
 30
0.0
 10
291.6805315113
 20
280.2226641327
 30
0.0
 10
292.1611732017
 20
280.3407901301
 30
0.0
 10
292.3920683318
 20
280.3407780796
 30
0.0
  0
SPLINE
  5
38E
100
AcDbEntity
  8
0
100
AcDbSpline
 62
7
  6
CONTINUOUS
 70
0
 71
3
 72
9
 73
5
 74
0
 42
0.0000001
 43
0.0000001
 44
0.0000000001
 40
0.0
 40
0.0
 40
0.0
 40
0.0
 40
0.5236255822
 40
1.0
 40
1.0
 40
1.0
 40
1.0
 10
294.9080800512
 20
278.2408352797
 30
0.0
 10
294.9080800512
 20
278.8534413243
 30
0.0
 10
294.6124423511
 20
280.0514631739
 30
0.0
 10
293.6732629914
 20
280.9035223341
 30
0.0
 10
293.1519438514
 20
281.1005958706
 30
0.0
  0
SPLINE
  5
38F
100
AcDbEntity
  8
0
100
AcDbSpline
 62
7
  6
CONTINUOUS
 70
0
 71
3
 72
8
 73
4
 74
0
 42
0.0000001
 43
0.0000001
 44
0.0000000001
 40
0.0
 40
0.0
 40
0.0
 40
0.0
 40
1.0
 40
1.0
 40
1.0
 40
1.0
 10
293.1519438514
 20
281.1005958706
 30
0.0
 10
292.9110248142
 20
281.1916701531
 30
0.0
 10
292.6496269267
 20
281.2406526787
 30
0.0
 10
292.3920681812
 20
281.2406584732
 30
0.0
  0
SPLINE
  5
390
100
AcDbEntity
  8
0
100
AcDbSpline
 62
7
  6
CONTINUOUS
 70
0
 71
3
 72
10
 73
6
 74
0
 42
0.0000001
 43
0.0000001
 44
0.0000000001
 40
0.0
 40
0.0
 40
0.0
 40
0.0
 40
0.5248471687
 40
0.7687310402
 40
1.0
 40
1.0
 40
1.0
 40
1.0
 10
282.2441544752
 20
278.2408352797
 30
0.0
 10
282.2441544752
 20
278.7648340712
 30
0.0
 10
282.5024782277
 20
279.5754268752
 30
0.0
 10
283.2938258318
 20
280.2226641328
 30
0.0
 10
283.7744675222
 20
280.3407901301
 30
0.0
 10
284.0053626524
 20
280.3407780796
 30
0.0
  0
SPLINE
  5
391
100
AcDbEntity
  8
0
100
AcDbSpline
 62
7
  6
CONTINUOUS
 70
0
 71
3
 72
11
 73
7
 74
0
 42
0.0000001
 43
0.0000001
 44
0.0000000001
 40
0.0
 40
0.0
 40
0.0
 40
0.0
 40
0.2699289423
 40
0.5285756858
 40
0.7705536048
 40
1.0
 40
1.0
 40
1.0
 40
1.0
 10
286.5213743717
 20
278.2408352797
 30
0.0
 10
286.5213743717
 20
278.6288700059
 30
0.0
 10
286.3971549652
 20
279.3950713075
 30
0.0
 10
285.8544192507
 20
280.3870611341
 30
0.0
 10
285.0216536544
 20
281.0731466421
 30
0.0
 10
284.3352017859
 20
281.2406510525
 30
0.0
 10
284.0053625017
 20
281.2406584732
 30
0.0
  0
SPLINE
  5
392
100
AcDbEntity
  8
0
100
AcDbSpline
 62
7
  6
CONTINUOUS
 70
0
 71
3
 72
10
 73
6
 74
0
 42
0.0000001
 43
0.0000001
 44
0.0000000001
 40
0.0
 40
0.0
 40
0.0
 40
0.0
 40
0.5248471687
 40
0.7687310402
 40
1.0
 40
1.0
 40
1.0
 40
1.0
 10
282.2441544752
 20
268.2408352797
 30
0.0
 10
282.2441544752
 20
268.7648340712
 30
0.0
 10
282.5024782277
 20
269.5754268752
 30
0.0
 10
283.2938258318
 20
270.2226641328
 30
0.0
 10
283.7744675222
 20
270.3407901301
 30
0.0
 10
284.0053626524
 20
270.3407780796
 30
0.0
  0
SPLINE
  5
393
100
AcDbEntity
  8
0
100
AcDbSpline
 62
7
  6
CONTINUOUS
 70
0
 71
3
 72
11
 73
7
 74
0
 42
0.0000001
 43
0.0000001
 44
0.0000000001
 40
0.0
 40
0.0
 40
0.0
 40
0.0
 40
0.2699289423
 40
0.5285756858
 40
0.7705536048
 40
1.0
 40
1.0
 40
1.0
 40
1.0
 10
286.5213743717
 20
268.2408352797
 30
0.0
 10
286.5213743717
 20
268.6288700059
 30
0.0
 10
286.3971549652
 20
269.3950713075
 30
0.0
 10
285.8544192507
 20
270.3870611341
 30
0.0
 10
285.0216536544
 20
271.0731466421
 30
0.0
 10
284.3352017859
 20
271.2406510525
 30
0.0
 10
284.0053625017
 20
271.2406584732
 30
0.0
  0
SPLINE
  5
394
100
AcDbEntity
  8
0
100
AcDbSpline
 62
7
  6
CONTINUOUS
 70
0
 71
3
 72
10
 73
6
 74
0
 42
0.0000001
 43
0.0000001
 44
0.0000000001
 40
0.0
 40
0.0
 40
0.0
 40
0.0
 40
0.5248471687
 40
0.7687310402
 40
1.0
 40
1.0
 40
1.0
 40
1.0
 10
290.6308601546
 20
268.2408352797
 30
0.0
 10
290.6308601546
 20
268.7648340712
 30
0.0
 10
290.8891839072
 20
269.5754268752
 30
0.0
 10
291.6805315113
 20
270.2226641327
 30
0.0
 10
292.1611732017
 20
270.3407901301
 30
0.0
 10
292.3920683318
 20
270.3407780796
 30
0.0
  0
SPLINE
  5
395
100
AcDbEntity
  8
0
100
AcDbSpline
 62
7
  6
CONTINUOUS
 70
0
 71
3
 72
11
 73
7
 74
0
 42
0.0000001
 43
0.0000001
 44
0.0000000001
 40
0.0
 40
0.0
 40
0.0
 40
0.0
 40
0.2699289423
 40
0.5285756858
 40
0.7705536048
 40
1.0
 40
1.0
 40
1.0
 40
1.0
 10
294.9080800512
 20
268.2408352797
 30
0.0
 10
294.9080800512
 20
268.6288700059
 30
0.0
 10
294.7838606446
 20
269.3950713076
 30
0.0
 10
294.2411249302
 20
270.3870611341
 30
0.0
 10
293.4083593339
 20
271.0731466422
 30
0.0
 10
292.7219074653
 20
271.2406510525
 30
0.0
 10
292.3920681812
 20
271.2406584732
 30
0.0
  0
SPLINE
  5
396
100
AcDbEntity
  8
0
100
AcDbSpline
 62
7
  6
CONTINUOUS
 70
0
 71
3
 72
10
 73
6
 74
0
 42
0.0000001
 43
0.0000001
 44
0.0000000001
 40
0.0
 40
0.0
 40
0.0
 40
0.0
 40
0.5248471687
 40
0.7687310402
 40
1.0
 40
1.0
 40
1.0
 40
1.0
 10
290.6308601546
 20
258.2408352797
 30
0.0
 10
290.6308601546
 20
258.7648340712
 30
0.0
 10
290.8891839072
 20
259.5754268752
 30
0.0
 10
291.6805315113
 20
260.2226641327
 30
0.0
 10
292.1611732017
 20
260.3407901301
 30
0.0
 10
292.3920683318
 20
260.3407780796
 30
0.0
  0
SPLINE
  5
397
100
AcDbEntity
  8
0
100
AcDbSpline
 62
7
  6
CONTINUOUS
 70
0
 71
3
 72
11
 73
7
 74
0
 42
0.0000001
 43
0.0000001
 44
0.0000000001
 40
0.0
 40
0.0
 40
0.0
 40
0.0
 40
0.2699289423
 40
0.5285756858
 40
0.7705536048
 40
1.0
 40
1.0
 40
1.0
 40
1.0
 10
294.9080800512
 20
258.2408352797
 30
0.0
 10
294.9080800512
 20
258.6288700059
 30
0.0
 10
294.7838606446
 20
259.3950713076
 30
0.0
 10
294.2411249302
 20
260.3870611341
 30
0.0
 10
293.4083593339
 20
261.0731466422
 30
0.0
 10
292.7219074653
 20
261.2406510525
 30
0.0
 10
292.3920681812
 20
261.2406584732
 30
0.0
  0
SPLINE
  5
398
100
AcDbEntity
  8
0
100
AcDbSpline
 62
7
  6
CONTINUOUS
 70
0
 71
3
 72
10
 73
6
 74
0
 42
0.0000001
 43
0.0000001
 44
0.0000000001
 40
0.0
 40
0.0
 40
0.0
 40
0.0
 40
0.5248471687
 40
0.7687310402
 40
1.0
 40
1.0
 40
1.0
 40
1.0
 10
282.2441544752
 20
258.2408352797
 30
0.0
 10
282.2441544752
 20
258.7648340712
 30
0.0
 10
282.5024782277
 20
259.5754268752
 30
0.0
 10
283.2938258318
 20
260.2226641328
 30
0.0
 10
283.7744675222
 20
260.3407901301
 30
0.0
 10
284.0053626524
 20
260.3407780796
 30
0.0
  0
SPLINE
  5
399
100
AcDbEntity
  8
0
100
AcDbSpline
 62
7
  6
CONTINUOUS
 70
0
 71
3
 72
11
 73
7
 74
0
 42
0.0000001
 43
0.0000001
 44
0.0000000001
 40
0.0
 40
0.0
 40
0.0
 40
0.0
 40
0.2699289423
 40
0.5285756858
 40
0.7705536048
 40
1.0
 40
1.0
 40
1.0
 40
1.0
 10
286.5213743717
 20
258.2408352797
 30
0.0
 10
286.5213743717
 20
258.6288700059
 30
0.0
 10
286.3971549652
 20
259.3950713075
 30
0.0
 10
285.8544192507
 20
260.3870611341
 30
0.0
 10
285.0216536544
 20
261.0731466421
 30
0.0
 10
284.3352017859
 20
261.2406510525
 30
0.0
 10
284.0053625017
 20
261.2406584732
 30
0.0
  0
SPLINE
  5
39A
100
AcDbEntity
  8
0
100
AcDbSpline
 62
7
  6
CONTINUOUS
 70
0
 71
3
 72
10
 73
6
 74
0
 42
0.0000001
 43
0.0000001
 44
0.0000000001
 40
0.0
 40
0.0
 40
0.0
 40
0.0
 40
0.5248471687
 40
0.7687310402
 40
1.0
 40
1.0
 40
1.0
 40
1.0
 10
282.2441544752
 20
248.2408352797
 30
0.0
 10
282.2441544752
 20
248.7648340712
 30
0.0
 10
282.5024782277
 20
249.5754268752
 30
0.0
 10
283.2938258318
 20
250.2226641328
 30
0.0
 10
283.7744675222
 20
250.3407901301
 30
0.0
 10
284.0053626524
 20
250.3407780796
 30
0.0
  0
SPLINE
  5
39B
100
AcDbEntity
  8
0
100
AcDbSpline
 62
7
  6
CONTINUOUS
 70
0
 71
3
 72
11
 73
7
 74
0
 42
0.0000001
 43
0.0000001
 44
0.0000000001
 40
0.0
 40
0.0
 40
0.0
 40
0.0
 40
0.2699289423
 40
0.5285756858
 40
0.7705536048
 40
1.0
 40
1.0
 40
1.0
 40
1.0
 10
286.5213743717
 20
248.2408352797
 30
0.0
 10
286.5213743717
 20
248.6288700059
 30
0.0
 10
286.3971549652
 20
249.3950713075
 30
0.0
 10
285.8544192507
 20
250.3870611341
 30
0.0
 10
285.0216536544
 20
251.0731466421
 30
0.0
 10
284.3352017859
 20
251.2406510525
 30
0.0
 10
284.0053625017
 20
251.2406584732
 30
0.0
  0
SPLINE
  5
39C
100
AcDbEntity
  8
0
100
AcDbSpline
 62
7
  6
CONTINUOUS
 70
0
 71
3
 72
10
 73
6
 74
0
 42
0.0000001
 43
0.0000001
 44
0.0000000001
 40
0.0
 40
0.0
 40
0.0
 40
0.0
 40
0.5248471687
 40
0.7687310402
 40
1.0
 40
1.0
 40
1.0
 40
1.0
 10
290.6308601546
 20
248.2408352797
 30
0.0
 10
290.6308601546
 20
248.7648340712
 30
0.0
 10
290.8891839072
 20
249.5754268752
 30
0.0
 10
291.6805315113
 20
250.2226641327
 30
0.0
 10
292.1611732017
 20
250.3407901301
 30
0.0
 10
292.3920683318
 20
250.3407780796
 30
0.0
  0
SPLINE
  5
39D
100
AcDbEntity
  8
0
100
AcDbSpline
 62
7
  6
CONTINUOUS
 70
0
 71
3
 72
11
 73
7
 74
0
 42
0.0000001
 43
0.0000001
 44
0.0000000001
 40
0.0
 40
0.0
 40
0.0
 40
0.0
 40
0.2699289423
 40
0.5285756858
 40
0.7705536048
 40
1.0
 40
1.0
 40
1.0
 40
1.0
 10
294.9080800512
 20
248.2408352797
 30
0.0
 10
294.9080800512
 20
248.6288700059
 30
0.0
 10
294.7838606446
 20
249.3950713076
 30
0.0
 10
294.2411249302
 20
250.3870611341
 30
0.0
 10
293.4083593339
 20
251.0731466422
 30
0.0
 10
292.7219074653
 20
251.2406510525
 30
0.0
 10
292.3920681812
 20
251.2406584732
 30
0.0
  0
SPLINE
  5
39E
100
AcDbEntity
  8
0
100
AcDbSpline
 62
7
  6
CONTINUOUS
 70
0
 71
3
 72
9
 73
5
 74
0
 42
0.0000001
 43
0.0000001
 44
0.0000000001
 40
0.0
 40
0.0
 40
0.0
 40
0.0
 40
0.5257816436
 40
1.0
 40
1.0
 40
1.0
 40
1.0
 10
283.3166888712
 20
253.2408352797
 30
0.0
 10
283.3166888712
 20
253.5865605459
 30
0.0
 10
283.4918975767
 20
254.2632343549
 30
0.0
 10
284.0545418695
 20
254.716081068
 30
0.0
 10
284.3550408541
 20
254.799340389
 30
0.0
  0
SPLINE
  5
39F
100
AcDbEntity
  8
0
100
AcDbSpline
 62
7
  6
CONTINUOUS
 70
0
 71
3
 72
9
 73
5
 74
0
 42
0.0000001
 43
0.0000001
 44
0.0000000001
 40
0.0
 40
0.0
 40
0.0
 40
0.0
 40
0.5257816436
 40
1.0
 40
1.0
 40
1.0
 40
1.0
 10
283.3166888712
 20
263.2408352797
 30
0.0
 10
283.3166888712
 20
263.5865605459
 30
0.0
 10
283.4918975767
 20
264.2632343549
 30
0.0
 10
284.0545418695
 20
264.716081068
 30
0.0
 10
284.3550408541
 20
264.799340389
 30
0.0
  0
SPLINE
  5
3A0
100
AcDbEntity
  8
0
100
AcDbSpline
 62
7
  6
CONTINUOUS
 70
0
 71
3
 72
9
 73
5
 74
0
 42
0.0000001
 43
0.0000001
 44
0.0000000001
 40
0.0
 40
0.0
 40
0.0
 40
0.0
 40
0.5257816436
 40
1.0
 40
1.0
 40
1.0
 40
1.0
 10
283.3166888712
 20
273.2408352797
 30
0.0
 10
283.3166888712
 20
273.5865605459
 30
0.0
 10
283.4918975767
 20
274.2632343549
 30
0.0
 10
284.0545418695
 20
274.716081068
 30
0.0
 10
284.3550408541
 20
274.799340389
 30
0.0
  0
SPLINE
  5
3A1
100
AcDbEntity
  8
0
100
AcDbSpline
 62
7
  6
CONTINUOUS
 70
0
 71
3
 72
9
 73
5
 74
0
 42
0.0000001
 43
0.0000001
 44
0.0000000001
 40
0.0
 40
0.0
 40
0.0
 40
0.0
 40
0.5243440373
 40
1.0
 40
1.0
 40
1.0
 40
1.0
 10
278.394219209
 20
243.7408352797
 30
0.0
 10
278.394219209
 20
244.0119003412
 30
0.0
 10
278.5273398432
 20
244.542168882
 30
0.0
 10
278.9522618268
 20
244.9115542707
 30
0.0
 10
279.1850256555
 20
244.9908352797
 30
0.0
  0
SPLINE
  5
3A2
100
AcDbEntity
  8
0
100
AcDbSpline
 62
7
  6
CONTINUOUS
 70
0
 71
3
 72
9
 73
5
 74
0
 42
0.0000001
 43
0.0000001
 44
0.0000000001
 40
0.0
 40
0.0
 40
0.0
 40
0.0
 40
0.2538596
 40
1.0
 40
1.0
 40
1.0
 40
1.0
 10
281.5811673672
 20
243.7408352797
 30
0.0
 10
281.5811673672
 20
243.8497573168
 30
0.0
 10
281.5578536124
 20
244.2784030635
 30
0.0
 10
281.4397857335
 20
244.7026943901
 30
0.0
 10
281.3002659904
 20
244.9908352797
 30
0.0
  0
SPLINE
  5
3A3
100
AcDbEntity
  8
0
100
AcDbSpline
 62
7
  6
CONTINUOUS
 70
0
 71
3
 72
9
 73
5
 74
0
 42
0.0000001
 43
0.0000001
 44
0.0000000001
 40
0.0
 40
0.0
 40
0.0
 40
0.0
 40
0.2459617373
 40
1.0
 40
1.0
 40
1.0
 40
1.0
 10
276.7266610375
 20
253.9742929072
 30
0.0
 10
276.6549823643
 20
254.0489029383
 30
0.0
 10
276.3740098956
 20
254.3621776288
 30
0.0
 10
276.1356988438
 20
254.7131863202
 30
0.0
 10
275.982350872
 20
254.9908352797
 30
0.0
  0
SPLINE
  5
3A4
100
AcDbEntity
  8
0
100
AcDbSpline
 62
7
  6
CONTINUOUS
 70
0
 71
3
 72
9
 73
5
 74
0
 42
0.0000001
 43
0.0000001
 44
0.0000000001
 40
0.0
 40
0.0
 40
0.0
 40
0.0
 40
0.2459617373
 40
1.0
 40
1.0
 40
1.0
 40
1.0
 10
276.7266610375
 20
273.9742929072
 30
0.0
 10
276.6549823643
 20
274.0489029383
 30
0.0
 10
276.3740098956
 20
274.3621776288
 30
0.0
 10
276.1356988438
 20
274.7131863202
 30
0.0
 10
275.982350872
 20
274.9908352797
 30
0.0
  0
SPLINE
  5
3A5
100
AcDbEntity
  8
0
100
AcDbSpline
 62
7
  6
CONTINUOUS
 70
0
 71
3
 72
9
 73
5
 74
0
 42
0.0000001
 43
0.0000001
 44
0.0000000001
 40
0.0
 40
0.0
 40
0.0
 40
0.0
 40
0.5116667914
 40
1.0
 40
1.0
 40
1.0
 40
1.0
 10
276.7108487539
 20
281.4908352797
 30
0.0
 10
277.0759916522
 20
281.8748069839
 30
0.0
 10
277.9323096021
 20
282.5081597093
 30
0.0
 10
278.9787834002
 20
282.7406335526
 30
0.0
 10
279.4844909458
 20
282.7406334912
 30
0.0
  0
SPLINE
  5
3A6
100
AcDbEntity
  8
0
100
AcDbSpline
 62
7
  6
CONTINUOUS
 70
0
 71
3
 72
13
 73
9
 74
0
 42
0.0000001
 43
0.0000001
 44
0.0000000001
 40
0.0
 40
0.0
 40
0.0
 40
0.0
 40
0.2621804631
 40
0.5170121114
 40
0.6409924107
 40
0.7623813498
 40
0.8817460069
 40
1.0
 40
1.0
 40
1.0
 40
1.0
 10
321.0392351554
 20
263.2408352797
 30
0.0
 10
321.0392351554
 20
260.6495654056
 30
0.0
 10
321.9329983134
 20
255.4951676444
 30
0.0
 10
325.2273620391
 20
249.9002318625
 30
0.0
 10
328.88295905
 20
246.5282978117
 30
0.0
 10
331.995430183
 20
244.6565886066
 30
0.0
 10
335.3782224223
 20
243.5017448804
 30
0.0
 10
337.734757476
 20
243.2408863954
 30
0.0
 10
338.9035249964
 20
243.2408997718
 30
0.0
  0
SPLINE
  5
3A7
100
AcDbEntity
  8
0
100
AcDbSpline
 62
7
  6
CONTINUOUS
 70
0
 71
3
 72
13
 73
9
 74
0
 42
0.0000001
 43
0.0000001
 44
0.0000000001
 40
0.0
 40
0.0
 40
0.0
 40
0.0
 40
0.2621789629
 40
0.5170148585
 40
0.6409981241
 40
0.7623857703
 40
0.8817481153
 40
1.0
 40
1.0
 40
1.0
 40
1.0
 10
387.7923411856
 20
263.2408352797
 30
0.0
 10
387.7923411856
 20
260.6495821435
 30
0.0
 10
386.8985768762
 20
255.4951622643
 30
0.0
 10
383.6041760899
 20
249.9001797618
 30
0.0
 10
379.9485204726
 20
246.5282292161
 30
0.0
 10
376.8360286122
 20
244.6565538468
 30
0.0
 10
373.4532809505
 20
243.5018293868
 30
0.0
 10
371.0967973845
 20
243.2408219489
 30
0.0
 10
369.9280515671
 20
243.2409113228
 30
0.0
  0
SPLINE
  5
3A8
100
AcDbEntity
  8
0
100
AcDbSpline
 62
7
  6
CONTINUOUS
 70
0
 71
3
 72
10
 73
6
 74
0
 42
0.0000001
 43
0.0000001
 44
0.0000000001
 40
0.0
 40
0.0
 40
0.0
 40
0.0
 40
0.5248471687
 40
0.7687310402
 40
1.0
 40
1.0
 40
1.0
 40
1.0
 10
279.6507345585
 20
291.7408352797
 30
0.0
 10
279.6507345585
 20
292.1775009393
 30
0.0
 10
279.8660043523
 20
292.8529949426
 30
0.0
 10
280.525460689
 20
293.3923593239
 30
0.0
 10
280.925995431
 20
293.490797655
 30
0.0
 10
281.1184080394
 20
293.4907876129
 30
0.0
  0
SPLINE
  5
3A9
100
AcDbEntity
  8
0
100
AcDbSpline
 62
7
  6
CONTINUOUS
 70
0
 71
3
 72
11
 73
7
 74
0
 42
0.0000001
 43
0.0000001
 44
0.0000000001
 40
0.0
 40
0.0
 40
0.0
 40
0.0
 40
0.2699289423
 40
0.5285756858
 40
0.7705536048
 40
1.0
 40
1.0
 40
1.0
 40
1.0
 10
284.6827579661
 20
291.7408352797
 30
0.0
 10
284.6827579661
 20
292.2905511419
 30
0.0
 10
284.5067804736
 20
293.3760029858
 30
0.0
 10
283.7379048781
 20
294.7813219067
 30
0.0
 10
282.5581536166
 20
295.7532763765
 30
0.0
 10
281.5856801362
 20
295.9905742911
 30
0.0
 10
281.118407817
 20
295.9905848038
 30
0.0
  0
SPLINE
  5
3AA
100
AcDbEntity
  8
0
100
AcDbSpline
 62
7
  6
CONTINUOUS
 70
0
 71
3
 72
9
 73
5
 74
0
 42
0.0000001
 43
0.0000001
 44
0.0000000001
 40
0.0
 40
0.0
 40
0.0
 40
0.0
 40
0.5597076306
 40
1.0
 40
1.0
 40
1.0
 40
1.0
 10
292.9496442139
 20
230.2408352797
 30
0.0
 10
293.0665729642
 20
229.5436290134
 30
0.0
 10
293.3882550351
 20
228.3160027843
 30
0.0
 10
294.0367304391
 20
227.1882220522
 30
0.0
 10
294.4340935952
 20
226.7991637923
 30
0.0
  0
SPLINE
  5
3AB
100
AcDbEntity
  8
0
100
AcDbSpline
 62
7
  6
CONTINUOUS
 70
0
 71
3
 72
9
 73
5
 74
0
 42
0.0000001
 43
0.0000001
 44
0.0000000001
 40
0.0
 40
0.0
 40
0.0
 40
0.0
 40
0.5333376511
 40
1.0
 40
1.0
 40
1.0
 40
1.0
 10
294.4340935952
 20
226.7991637923
 30
0.0
 10
294.6052280524
 20
226.631606048
 30
0.0
 10
294.9700690949
 20
226.3538625445
 30
0.0
 10
295.4222725814
 20
226.2408352797
 30
0.0
 10
295.6318357388
 20
226.2408352797
 30
0.0
  0
SPLINE
  5
3AC
100
AcDbEntity
  8
0
100
AcDbSpline
 62
7
  6
CONTINUOUS
 70
0
 71
3
 72
10
 73
6
 74
0
 42
0.0000001
 43
0.0000001
 44
0.0000000001
 40
0.0
 40
0.0
 40
0.0
 40
0.0
 40
0.5248471687
 40
0.7687310402
 40
1.0
 40
1.0
 40
1.0
 40
1.0
 10
285.7665708605
 20
268.2408352797
 30
0.0
 10
285.7665708605
 20
267.7168364883
 30
0.0
 10
285.508247108
 20
266.9062436843
 30
0.0
 10
284.7168995039
 20
266.2590064268
 30
0.0
 10
284.2362578135
 20
266.1408804294
 30
0.0
 10
284.0053626834
 20
266.1408924799
 30
0.0
  0
SPLINE
  5
3AD
100
AcDbEntity
  8
0
100
AcDbSpline
 62
7
  6
CONTINUOUS
 70
0
 71
3
 72
11
 73
7
 74
0
 42
0.0000001
 43
0.0000001
 44
0.0000000001
 40
0.0
 40
0.0
 40
0.0
 40
0.0
 40
0.2699289423
 40
0.5285756858
 40
0.7705536048
 40
1.0
 40
1.0
 40
1.0
 40
1.0
 10
281.489350964
 20
268.2408352797
 30
0.0
 10
281.489350964
 20
267.8528005536
 30
0.0
 10
281.6135703705
 20
267.0865992519
 30
0.0
 10
282.156306085
 20
266.0946094254
 30
0.0
 10
282.9890716813
 20
265.4085239173
 30
0.0
 10
283.6755235499
 20
265.241019507
 30
0.0
 10
284.005362834
 20
265.2410120863
 30
0.0
  0
SPLINE
  5
3AE
100
AcDbEntity
  8
0
100
AcDbSpline
 62
7
  6
CONTINUOUS
 70
0
 71
3
 72
10
 73
6
 74
0
 42
0.0000001
 43
0.0000001
 44
0.0000000001
 40
0.0
 40
0.0
 40
0.0
 40
0.0
 40
0.2322286795
 40
0.475775821
 40
1.0
 40
1.0
 40
1.0
 40
1.0
 10
288.8519144536
 20
255.2410120863
 30
0.0
 10
288.5439907646
 20
255.2410051586
 30
0.0
 10
287.9055804874
 20
255.3865770819
 30
0.0
 10
286.82093389
 20
256.198010314
 30
0.0
 10
286.4104409511
 20
257.2378004481
 30
0.0
 10
286.3495740321
 20
257.9302255856
 30
0.0
  0
SPLINE
  5
3AF
100
AcDbEntity
  8
0
100
AcDbSpline
 62
7
  6
CONTINUOUS
 70
0
 71
3
 72
10
 73
6
 74
0
 42
0.0000001
 43
0.0000001
 44
0.0000000001
 40
0.0
 40
0.0
 40
0.0
 40
0.0
 40
0.5248471687
 40
0.7687310402
 40
1.0
 40
1.0
 40
1.0
 40
1.0
 10
294.15327654
 20
268.2408352797
 30
0.0
 10
294.15327654
 20
267.7168364883
 30
0.0
 10
293.8949527874
 20
266.9062436843
 30
0.0
 10
293.1036051833
 20
266.2590064267
 30
0.0
 10
292.6229634929
 20
266.1408804294
 30
0.0
 10
292.3920683628
 20
266.1408924799
 30
0.0
  0
SPLINE
  5
3B0
100
AcDbEntity
  8
0
100
AcDbSpline
 62
7
  6
CONTINUOUS
 70
0
 71
3
 72
11
 73
7
 74
0
 42
0.0000001
 43
0.0000001
 44
0.0000000001
 40
0.0
 40
0.0
 40
0.0
 40
0.0
 40
0.2699289423
 40
0.5285756858
 40
0.7705536048
 40
1.0
 40
1.0
 40
1.0
 40
1.0
 10
289.8760566435
 20
268.2408352797
 30
0.0
 10
289.8760566435
 20
267.8528005536
 30
0.0
 10
290.00027605
 20
267.086599252
 30
0.0
 10
290.5430117644
 20
266.0946094254
 30
0.0
 10
291.3757773608
 20
265.4085239174
 30
0.0
 10
292.0622292293
 20
265.241019507
 30
0.0
 10
292.3920685134
 20
265.2410120863
 30
0.0
  0
SPLINE
  5
3B1
100
AcDbEntity
  8
0
100
AcDbSpline
 62
7
  6
CONTINUOUS
 70
0
 71
3
 72
10
 73
6
 74
0
 42
0.0000001
 43
0.0000001
 44
0.0000000001
 40
0.0
 40
0.0
 40
0.0
 40
0.0
 40
0.5248471687
 40
0.7687310402
 40
1.0
 40
1.0
 40
1.0
 40
1.0
 10
294.15327654
 20
258.2408352797
 30
0.0
 10
294.15327654
 20
257.7168364883
 30
0.0
 10
293.8949527874
 20
256.9062436843
 30
0.0
 10
293.1036051833
 20
256.2590064267
 30
0.0
 10
292.6229634929
 20
256.1408804294
 30
0.0
 10
292.3920683628
 20
256.1408924799
 30
0.0
  0
SPLINE
  5
3B2
100
AcDbEntity
  8
0
100
AcDbSpline
 62
7
  6
CONTINUOUS
 70
0
 71
3
 72
11
 73
7
 74
0
 42
0.0000001
 43
0.0000001
 44
0.0000000001
 40
0.0
 40
0.0
 40
0.0
 40
0.0
 40
0.2699289423
 40
0.5285756858
 40
0.7705536048
 40
1.0
 40
1.0
 40
1.0
 40
1.0
 10
289.8760566435
 20
258.2408352797
 30
0.0
 10
289.8760566435
 20
257.8528005536
 30
0.0
 10
290.00027605
 20
257.086599252
 30
0.0
 10
290.5430117644
 20
256.0946094254
 30
0.0
 10
291.3757773608
 20
255.4085239174
 30
0.0
 10
292.0622292293
 20
255.241019507
 30
0.0
 10
292.3920685134
 20
255.2410120863
 30
0.0
  0
SPLINE
  5
3B3
100
AcDbEntity
  8
0
100
AcDbSpline
 62
7
  6
CONTINUOUS
 70
0
 71
3
 72
11
 73
7
 74
0
 42
0.0000001
 43
0.0000001
 44
0.0000000001
 40
0.0
 40
0.0
 40
0.0
 40
0.0
 40
0.2294328863
 40
0.4714099585
 40
0.7300714831
 40
1.0
 40
1.0
 40
1.0
 40
1.0
 10
292.3920681812
 20
261.2406584732
 30
0.0
 10
292.0622483081
 20
261.2406658935
 30
0.0
 10
291.3758165361
 20
261.0731605567
 30
0.0
 10
290.5430362606
 20
260.3870978826
 30
0.0
 10
290.0002826411
 20
259.3950901081
 30
0.0
 10
289.8760566435
 20
258.6288694043
 30
0.0
 10
289.8760566435
 20
258.2408352797
 30
0.0
  0
SPLINE
  5
3B4
100
AcDbEntity
  8
0
100
AcDbSpline
 62
7
  6
CONTINUOUS
 70
0
 71
3
 72
10
 73
6
 74
0
 42
0.0000001
 43
0.0000001
 44
0.0000000001
 40
0.0
 40
0.0
 40
0.0
 40
0.0
 40
0.5248471687
 40
0.7687310402
 40
1.0
 40
1.0
 40
1.0
 40
1.0
 10
285.7665708605
 20
258.2408352797
 30
0.0
 10
285.7665708605
 20
257.7168364883
 30
0.0
 10
285.508247108
 20
256.9062436843
 30
0.0
 10
284.7168995039
 20
256.2590064268
 30
0.0
 10
284.2362578135
 20
256.1408804294
 30
0.0
 10
284.0053626834
 20
256.1408924799
 30
0.0
  0
SPLINE
  5
3B5
100
AcDbEntity
  8
0
100
AcDbSpline
 62
7
  6
CONTINUOUS
 70
0
 71
3
 72
11
 73
7
 74
0
 42
0.0000001
 43
0.0000001
 44
0.0000000001
 40
0.0
 40
0.0
 40
0.0
 40
0.0
 40
0.2699289423
 40
0.5285756858
 40
0.7705536048
 40
1.0
 40
1.0
 40
1.0
 40
1.0
 10
281.489350964
 20
258.2408352797
 30
0.0
 10
281.489350964
 20
257.8528005536
 30
0.0
 10
281.6135703705
 20
257.0865992519
 30
0.0
 10
282.156306085
 20
256.0946094254
 30
0.0
 10
282.9890716813
 20
255.4085239173
 30
0.0
 10
283.6755235499
 20
255.241019507
 30
0.0
 10
284.005362834
 20
255.2410120863
 30
0.0
  0
SPLINE
  5
3B6
100
AcDbEntity
  8
0
100
AcDbSpline
 62
7
  6
CONTINUOUS
 70
0
 71
3
 72
10
 73
6
 74
0
 42
0.0000001
 43
0.0000001
 44
0.0000000001
 40
0.0
 40
0.0
 40
0.0
 40
0.0
 40
0.5248471687
 40
0.7687310402
 40
1.0
 40
1.0
 40
1.0
 40
1.0
 10
285.7665708605
 20
248.2408352797
 30
0.0
 10
285.7665708605
 20
247.7168364883
 30
0.0
 10
285.508247108
 20
246.9062436843
 30
0.0
 10
284.7168995039
 20
246.2590064268
 30
0.0
 10
284.2362578135
 20
246.1408804294
 30
0.0
 10
284.0053626834
 20
246.1408924799
 30
0.0
  0
SPLINE
  5
3B7
100
AcDbEntity
  8
0
100
AcDbSpline
 62
7
  6
CONTINUOUS
 70
0
 71
3
 72
11
 73
7
 74
0
 42
0.0000001
 43
0.0000001
 44
0.0000000001
 40
0.0
 40
0.0
 40
0.0
 40
0.0
 40
0.2699289423
 40
0.5285756858
 40
0.7705536048
 40
1.0
 40
1.0
 40
1.0
 40
1.0
 10
281.489350964
 20
248.2408352797
 30
0.0
 10
281.489350964
 20
247.8528005536
 30
0.0
 10
281.6135703705
 20
247.0865992519
 30
0.0
 10
282.156306085
 20
246.0946094254
 30
0.0
 10
282.9890716813
 20
245.4085239173
 30
0.0
 10
283.6755235499
 20
245.241019507
 30
0.0
 10
284.005362834
 20
245.2410120863
 30
0.0
  0
SPLINE
  5
3B8
100
AcDbEntity
  8
0
100
AcDbSpline
 62
7
  6
CONTINUOUS
 70
0
 71
3
 72
10
 73
6
 74
0
 42
0.0000001
 43
0.0000001
 44
0.0000000001
 40
0.0
 40
0.0
 40
0.0
 40
0.0
 40
0.2312517143
 40
0.475133247
 40
1.0
 40
1.0
 40
1.0
 40
1.0
 10
284.0053626524
 20
260.3407780796
 30
0.0
 10
284.2362401045
 20
260.3407660299
 30
0.0
 10
284.7168575597
 20
260.2226814056
 30
0.0
 10
285.5082317615
 20
259.5754630462
 30
0.0
 10
285.7665708605
 20
258.7648525791
 30
0.0
 10
285.7665708605
 20
258.2408352797
 30
0.0
  0
SPLINE
  5
3B9
100
AcDbEntity
  8
0
100
AcDbSpline
 62
7
  6
CONTINUOUS
 70
0
 71
3
 72
10
 73
6
 74
0
 42
0.0000001
 43
0.0000001
 44
0.0000000001
 40
0.0
 40
0.0
 40
0.0
 40
0.0
 40
0.5248471687
 40
0.7687310402
 40
1.0
 40
1.0
 40
1.0
 40
1.0
 10
294.15327654
 20
248.2408352797
 30
0.0
 10
294.15327654
 20
247.7168364883
 30
0.0
 10
293.8949527874
 20
246.9062436843
 30
0.0
 10
293.1036051833
 20
246.2590064267
 30
0.0
 10
292.6229634929
 20
246.1408804294
 30
0.0
 10
292.3920683628
 20
246.1408924799
 30
0.0
  0
SPLINE
  5
3BA
100
AcDbEntity
  8
0
100
AcDbSpline
 62
7
  6
CONTINUOUS
 70
0
 71
3
 72
11
 73
7
 74
0
 42
0.0000001
 43
0.0000001
 44
0.0000000001
 40
0.0
 40
0.0
 40
0.0
 40
0.0
 40
0.2699289423
 40
0.5285756858
 40
0.7705536048
 40
1.0
 40
1.0
 40
1.0
 40
1.0
 10
289.8760566435
 20
248.2408352797
 30
0.0
 10
289.8760566435
 20
247.8528005536
 30
0.0
 10
290.00027605
 20
247.086599252
 30
0.0
 10
290.5430117644
 20
246.0946094254
 30
0.0
 10
291.3757773608
 20
245.4085239174
 30
0.0
 10
292.0622292293
 20
245.241019507
 30
0.0
 10
292.3920685134
 20
245.2410120863
 30
0.0
  0
SPLINE
  5
3BB
100
AcDbEntity
  8
0
100
AcDbSpline
 62
7
  6
CONTINUOUS
 70
0
 71
3
 72
18
 73
14
 74
0
 42
0.0000001
 43
0.0000001
 44
0.0000000001
 40
0.0
 40
0.0
 40
0.0
 40
0.0
 40
0.0049309907
 40
0.019470556
 40
0.0434733615
 40
0.07676054
 40
0.1189638863
 40
0.169633867
 40
0.294394747
 40
0.4459925154
 40
0.6186033192
 40
0.8058361236
 40
1.0
 40
1.0
 40
1.0
 40
1.0
 10
72.9592518145
 20
357.5313311778
 30
0.0
 10
72.9602845721
 20
357.5256384789
 30
0.0
 10
72.9945464263
 20
357.5375597407
 30
0.0
 10
73.0346598659
 20
357.5266912639
 30
0.0
 10
73.1250595836
 20
357.5347920775
 30
0.0
 10
73.2390932903
 20
357.5345376708
 30
0.0
 10
73.3880942004
 20
357.5391517484
 30
0.0
 10
73.6428983423
 20
357.545134618
 30
0.0
 10
74.0267574594
 20
357.5559317173
 30
0.0
 10
74.5532124915
 20
357.5706514582
 30
0.0
 10
75.1530900528
 20
357.5878663944
 30
0.0
 10
75.8027772769
 20
357.6084865812
 30
0.0
 10
76.2500649724
 20
357.6224066011
 30
0.0
 10
76.4777962637
 20
357.6286185955
 30
0.0
  0
SPLINE
  5
3BC
100
AcDbEntity
  8
0
100
AcDbSpline
 62
7
  6
CONTINUOUS
 70
0
 71
3
 72
18
 73
14
 74
0
 42
0.0000001
 43
0.0000001
 44
0.0000000001
 40
0.0
 40
0.0
 40
0.0
 40
0.0
 40
0.194909868
 40
0.3826974502
 40
0.5555413315
 40
0.7070259763
 40
0.8314162419
 40
0.8818526255
 40
0.9238214658
 40
0.9568956814
 40
0.9807271233
 40
0.9951433547
 40
1.0
 40
1.0
 40
1.0
 40
1.0
 10
357.0474525865
 20
357.6286186258
 30
0.0
 10
357.2748155525
 20
357.6279006567
 30
0.0
 10
357.7212365944
 20
357.6264736534
 30
0.0
 10
358.3692642769
 20
357.6247972128
 30
0.0
 10
358.9666970996
 20
357.6237905671
 30
0.0
 10
359.4899931041
 20
357.6235658078
 30
0.0
 10
359.8709772698
 20
357.6234545555
 30
0.0
 10
360.1233313415
 20
357.6244927608
 30
0.0
 10
360.2708728902
 20
357.6239576687
 30
0.0
 10
360.383135102
 20
357.6274745634
 30
0.0
 10
360.4733708909
 20
357.6218475665
 30
0.0
 10
360.5111715475
 20
357.634158326
 30
0.0
 10
360.5466655249
 20
357.622958973
 30
0.0
 10
360.5469195059
 20
357.6286185971
 30
0.0
  0
SPLINE
  5
3BD
100
AcDbEntity
  8
0
100
AcDbSpline
 62
7
  6
CONTINUOUS
 70
0
 71
3
 72
10
 73
6
 74
0
 42
0.0000001
 43
0.0000001
 44
0.0000000001
 40
0.0
 40
0.0
 40
0.0
 40
0.0
 40
0.2312517143
 40
0.475133247
 40
1.0
 40
1.0
 40
1.0
 40
1.0
 10
281.1184080394
 20
293.4907876129
 30
0.0
 10
281.3108059162
 20
293.4907775716
 30
0.0
 10
281.7113204622
 20
293.3923737179
 30
0.0
 10
282.3707989638
 20
292.8530250852
 30
0.0
 10
282.5860815463
 20
292.1775163626
 30
0.0
 10
282.5860815463
 20
291.7408352797
 30
0.0
  0
SPLINE
  5
3BE
100
AcDbEntity
  8
0
100
AcDbSpline
 62
7
  6
CONTINUOUS
 70
0
 71
3
 72
11
 73
7
 74
0
 42
0.0000001
 43
0.0000001
 44
0.0000000001
 40
0.0
 40
0.0
 40
0.0
 40
0.0
 40
0.2294328863
 40
0.4714099585
 40
0.7300714831
 40
1.0
 40
1.0
 40
1.0
 40
1.0
 10
280.4652087741
 20
255.2410120863
 30
0.0
 10
280.1353889011
 20
255.241004666
 30
0.0
 10
279.448957129
 20
255.4085100028
 30
0.0
 10
278.6161768535
 20
256.0945726769
 30
0.0
 10
278.073423234
 20
257.0865804514
 30
0.0
 10
277.9491972364
 20
257.8528011552
 30
0.0
 10
277.9491972364
 20
258.2408352797
 30
0.0
  0
SPLINE
  5
3BF
100
AcDbEntity
  8
0
100
AcDbSpline
 62
7
  6
CONTINUOUS
 70
0
 71
3
 72
11
 73
7
 74
0
 42
0.0000001
 43
0.0000001
 44
0.0000000001
 40
0.0
 40
0.0
 40
0.0
 40
0.0
 40
0.2294328863
 40
0.4714099585
 40
0.7300714831
 40
1.0
 40
1.0
 40
1.0
 40
1.0
 10
281.118407817
 20
295.9905848038
 30
0.0
 10
280.6511629968
 20
295.9905953159
 30
0.0
 10
279.6787179864
 20
295.7532960888
 30
0.0
 10
278.4989459295
 20
294.7813739671
 30
0.0
 10
277.7300449686
 20
293.3760296199
 30
0.0
 10
277.5540581386
 20
292.2905502895
 30
0.0
 10
277.5540581386
 20
291.7408352797
 30
0.0
  0
SPLINE
  5
3C0
100
AcDbEntity
  8
0
100
AcDbSpline
 62
7
  6
CONTINUOUS
 70
0
 71
3
 72
9
 73
5
 74
0
 42
0.0000001
 43
0.0000001
 44
0.0000000001
 40
0.0
 40
0.0
 40
0.0
 40
0.0
 40
0.5009243846
 40
1.0
 40
1.0
 40
1.0
 40
1.0
 10
370.9442232742
 20
375.183406443
 30
0.0
 10
370.9299392641
 20
374.9377580884
 30
0.0
 10
370.7061128923
 20
374.4392466894
 30
0.0
 10
370.1960190627
 20
374.2408353113
 30
0.0
 10
369.9508639133
 20
374.2408352797
 30
0.0
  0
SPLINE
  5
3C1
100
AcDbEntity
  8
0
100
AcDbSpline
 62
7
  6
CONTINUOUS
 70
0
 71
3
 72
18
 73
14
 74
0
 42
0.0000001
 43
0.0000001
 44
0.0000000001
 40
0.0
 40
0.0
 40
0.0
 40
0.0
 40
0.0210732237
 40
0.0401280662
 40
0.0664745158
 40
0.100886683
 40
0.1439227255
 40
0.1959257276
 40
0.256985802
 40
0.4052231574
 40
0.5838358099
 40
0.7849193156
 40
1.0
 40
1.0
 40
1.0
 40
1.0
 10
75.9544754564
 20
311.1012160264
 30
0.0
 10
75.9595385475
 20
310.8022724066
 30
0.0
 10
76.5033264657
 20
310.3628982752
 30
0.0
 10
77.3375663688
 20
310.0187097732
 30
0.0
 10
78.441359507
 20
309.6950690026
 30
0.0
 10
79.8814712796
 20
309.4119272279
 30
0.0
 10
81.703706899
 20
309.1594274771
 30
0.0
 10
83.9090127225
 20
308.9570075825
 30
0.0
 10
87.6116438012
 20
308.7520687022
 30
0.0
 10
93.1174565233
 20
308.7011800919
 30
0.0
 10
100.6056163647
 20
308.9181842974
 30
0.0
 10
109.0326333671
 20
309.3717741339
 30
0.0
 10
114.9237921751
 20
309.7698943136
 30
0.0
 10
117.9678243319
 20
309.9841147028
 30
0.0
  0
SPLINE
  5
3C2
100
AcDbEntity
  8
0
100
AcDbSpline
 62
7
  6
CONTINUOUS
 70
0
 71
3
 72
9
 73
5
 74
0
 42
0.0000001
 43
0.0000001
 44
0.0000000001
 40
0.0
 40
0.0
 40
0.0
 40
0.0
 40
0.2476532389
 40
1.0
 40
1.0
 40
1.0
 40
1.0
 10
117.9678243319
 20
309.9841147028
 30
0.0
 10
119.235808164
 20
310.0733476596
 30
0.0
 10
124.3553658756
 20
310.4399053242
 30
0.0
 10
129.4739324239
 20
310.8200607817
 30
0.0
 10
133.3252233616
 20
311.1012160794
 30
0.0
  0
SPLINE
  5
3C3
100
AcDbEntity
  8
0
100
AcDbSpline
 62
7
  6
CONTINUOUS
 70
0
 71
3
 72
11
 73
7
 74
0
 42
0.0000001
 43
0.0000001
 44
0.0000000001
 40
0.0
 40
0.0
 40
0.0
 40
0.0
 40
0.2294328863
 40
0.4714099585
 40
0.7300714831
 40
1.0
 40
1.0
 40
1.0
 40
1.0
 10
284.0053625017
 20
261.2406584732
 30
0.0
 10
283.6755426287
 20
261.2406658935
 30
0.0
 10
282.9891108566
 20
261.0731605568
 30
0.0
 10
282.1563305811
 20
260.3870978826
 30
0.0
 10
281.6135769616
 20
259.3950901081
 30
0.0
 10
281.489350964
 20
258.6288694043
 30
0.0
 10
281.489350964
 20
258.2408352797
 30
0.0
  0
SPLINE
  5
3C4
100
AcDbEntity
  8
0
100
AcDbSpline
 62
7
  6
CONTINUOUS
 70
0
 71
3
 72
10
 73
6
 74
0
 42
0.0000001
 43
0.0000001
 44
0.0000000001
 40
0.0
 40
0.0
 40
0.0
 40
0.0
 40
0.5241991986
 40
0.7677480713
 40
1.0
 40
1.0
 40
1.0
 40
1.0
 10
286.349799322
 20
278.5540108471
 30
0.0
 10
286.4111191225
 20
279.2459260477
 30
0.0
 10
286.821891435
 20
280.284718939
 30
0.0
 10
287.9061159691
 20
281.0952648007
 30
0.0
 10
288.5441530103
 20
281.2406515492
 30
0.0
 10
288.8519147858
 20
281.2406584732
 30
0.0
  0
SPLINE
  5
3C5
100
AcDbEntity
  8
0
100
AcDbSpline
 62
7
  6
CONTINUOUS
 70
0
 71
3
 72
11
 73
7
 74
0
 42
0.0000001
 43
0.0000001
 44
0.0000000001
 40
0.0
 40
0.0
 40
0.0
 40
0.0
 40
0.2699289423
 40
0.5285756858
 40
0.7705536048
 40
1.0
 40
1.0
 40
1.0
 40
1.0
 10
277.9491972364
 20
278.2408352797
 30
0.0
 10
277.9491972364
 20
278.6288700059
 30
0.0
 10
278.0734166429
 20
279.3950713076
 30
0.0
 10
278.6161523574
 20
280.3870611341
 30
0.0
 10
279.4489179537
 20
281.0731466422
 30
0.0
 10
280.1353698223
 20
281.2406510525
 30
0.0
 10
280.4652091064
 20
281.2406584732
 30
0.0
  0
SPLINE
  5
3C6
100
AcDbEntity
  8
0
100
AcDbSpline
 62
7
  6
CONTINUOUS
 70
0
 71
3
 72
11
 73
7
 74
0
 42
0.0000001
 43
0.0000001
 44
0.0000000001
 40
0.0
 40
0.0
 40
0.0
 40
0.0
 40
0.2699289423
 40
0.5285756858
 40
0.7705536048
 40
1.0
 40
1.0
 40
1.0
 40
1.0
 10
277.9491972364
 20
268.2408352797
 30
0.0
 10
277.9491972364
 20
268.6288700059
 30
0.0
 10
278.0734166429
 20
269.3950713076
 30
0.0
 10
278.6161523574
 20
270.3870611341
 30
0.0
 10
279.4489179537
 20
271.0731466422
 30
0.0
 10
280.1353698223
 20
271.2406510525
 30
0.0
 10
280.4652091064
 20
271.2406584732
 30
0.0
  0
SPLINE
  5
3C7
100
AcDbEntity
  8
0
100
AcDbSpline
 62
7
  6
CONTINUOUS
 70
0
 71
3
 72
10
 73
6
 74
0
 42
0.0000001
 43
0.0000001
 44
0.0000000001
 40
0.0
 40
0.0
 40
0.0
 40
0.0
 40
0.5241991986
 40
0.7677480713
 40
1.0
 40
1.0
 40
1.0
 40
1.0
 10
286.349799322
 20
268.5540108471
 30
0.0
 10
286.4111191225
 20
269.2459260477
 30
0.0
 10
286.821891435
 20
270.284718939
 30
0.0
 10
287.9061159691
 20
271.0952648007
 30
0.0
 10
288.5441530103
 20
271.2406515492
 30
0.0
 10
288.8519147858
 20
271.2406584732
 30
0.0
  0
SPLINE
  5
3C8
100
AcDbEntity
  8
0
100
AcDbSpline
 62
7
  6
CONTINUOUS
 70
0
 71
3
 72
10
 73
6
 74
0
 42
0.0000001
 43
0.0000001
 44
0.0000000001
 40
0.0
 40
0.0
 40
0.0
 40
0.0
 40
0.5241991986
 40
0.7677480713
 40
1.0
 40
1.0
 40
1.0
 40
1.0
 10
286.349799322
 20
258.5540108471
 30
0.0
 10
286.4111191225
 20
259.2459260477
 30
0.0
 10
286.821891435
 20
260.284718939
 30
0.0
 10
287.9061159691
 20
261.0952648007
 30
0.0
 10
288.5441530103
 20
261.2406515492
 30
0.0
 10
288.8519147858
 20
261.2406584732
 30
0.0
  0
SPLINE
  5
3C9
100
AcDbEntity
  8
0
100
AcDbSpline
 62
7
  6
CONTINUOUS
 70
0
 71
3
 72
11
 73
7
 74
0
 42
0.0000001
 43
0.0000001
 44
0.0000000001
 40
0.0
 40
0.0
 40
0.0
 40
0.0
 40
0.2699289423
 40
0.5285756858
 40
0.7705536048
 40
1.0
 40
1.0
 40
1.0
 40
1.0
 10
277.9491972364
 20
258.2408352797
 30
0.0
 10
277.9491972364
 20
258.6288700059
 30
0.0
 10
278.0734166429
 20
259.3950713076
 30
0.0
 10
278.6161523574
 20
260.3870611341
 30
0.0
 10
279.4489179537
 20
261.0731466422
 30
0.0
 10
280.1353698223
 20
261.2406510525
 30
0.0
 10
280.4652091064
 20
261.2406584732
 30
0.0
  0
SPLINE
  5
3CA
100
AcDbEntity
  8
0
100
AcDbSpline
 62
7
  6
CONTINUOUS
 70
0
 71
3
 72
11
 73
7
 74
0
 42
0.0000001
 43
0.0000001
 44
0.0000000001
 40
0.0
 40
0.0
 40
0.0
 40
0.0
 40
0.2699289423
 40
0.5285756858
 40
0.7705536048
 40
1.0
 40
1.0
 40
1.0
 40
1.0
 10
277.9491972364
 20
248.2408352797
 30
0.0
 10
277.9491972364
 20
248.6288700059
 30
0.0
 10
278.0734166429
 20
249.3950713076
 30
0.0
 10
278.6161523574
 20
250.3870611341
 30
0.0
 10
279.4489179537
 20
251.0731466422
 30
0.0
 10
280.1353698223
 20
251.2406510525
 30
0.0
 10
280.4652091064
 20
251.2406584732
 30
0.0
  0
SPLINE
  5
3CB
100
AcDbEntity
  8
0
100
AcDbSpline
 62
7
  6
CONTINUOUS
 70
0
 71
3
 72
10
 73
6
 74
0
 42
0.0000001
 43
0.0000001
 44
0.0000000001
 40
0.0
 40
0.0
 40
0.0
 40
0.0
 40
0.5241991986
 40
0.7677480713
 40
1.0
 40
1.0
 40
1.0
 40
1.0
 10
286.349799322
 20
248.5540108471
 30
0.0
 10
286.4111191225
 20
249.2459260477
 30
0.0
 10
286.821891435
 20
250.284718939
 30
0.0
 10
287.9061159691
 20
251.0952648007
 30
0.0
 10
288.5441530103
 20
251.2406515492
 30
0.0
 10
288.8519147858
 20
251.2406584732
 30
0.0
  0
SPLINE
  5
3CC
100
AcDbEntity
  8
0
100
AcDbSpline
 62
7
  6
CONTINUOUS
 70
0
 71
3
 72
10
 73
6
 74
0
 42
0.0000001
 43
0.0000001
 44
0.0000000001
 40
0.0
 40
0.0
 40
0.0
 40
0.0
 40
0.2312517143
 40
0.475133247
 40
1.0
 40
1.0
 40
1.0
 40
1.0
 10
284.0053626524
 20
250.3407780796
 30
0.0
 10
284.2362401045
 20
250.3407660299
 30
0.0
 10
284.7168575597
 20
250.2226814056
 30
0.0
 10
285.5082317615
 20
249.5754630462
 30
0.0
 10
285.7665708605
 20
248.7648525791
 30
0.0
 10
285.7665708605
 20
248.2408352797
 30
0.0
  0
SPLINE
  5
3CD
100
AcDbEntity
  8
0
100
AcDbSpline
 62
7
  6
CONTINUOUS
 70
0
 71
3
 72
10
 73
6
 74
0
 42
0.0000001
 43
0.0000001
 44
0.0000000001
 40
0.0
 40
0.0
 40
0.0
 40
0.0
 40
0.5249253961
 40
0.7687447684
 40
1.0
 40
1.0
 40
1.0
 40
1.0
 10
286.0004346887
 20
253.2408352797
 30
0.0
 10
286.0004346887
 20
252.8415579168
 30
0.0
 10
285.803709347
 20
252.2238323265
 30
0.0
 10
285.2005345419
 20
251.7310933761
 30
0.0
 10
284.8344623464
 20
251.641019053
 30
0.0
 10
284.6585611999
 20
251.641014812
 30
0.0
  0
SPLINE
  5
3CE
100
AcDbEntity
  8
0
100
AcDbSpline
 62
7
  6
CONTINUOUS
 70
0
 71
3
 72
10
 73
6
 74
0
 42
0.0000001
 43
0.0000001
 44
0.0000000001
 40
0.0
 40
0.0
 40
0.0
 40
0.0
 40
0.5249253961
 40
0.7687447684
 40
1.0
 40
1.0
 40
1.0
 40
1.0
 10
286.0004346887
 20
263.2408352797
 30
0.0
 10
286.0004346887
 20
262.8415579168
 30
0.0
 10
285.803709347
 20
262.2238323265
 30
0.0
 10
285.2005345419
 20
261.7310933761
 30
0.0
 10
284.8344623464
 20
261.641019053
 30
0.0
 10
284.6585611999
 20
261.641014812
 30
0.0
  0
SPLINE
  5
3CF
100
AcDbEntity
  8
0
100
AcDbSpline
 62
7
  6
CONTINUOUS
 70
0
 71
3
 72
9
 73
5
 74
0
 42
0.0000001
 43
0.0000001
 44
0.0000000001
 40
0.0
 40
0.0
 40
0.0
 40
0.0
 40
0.2520936522
 40
1.0
 40
1.0
 40
1.0
 40
1.0
 10
297.6834604032
 20
311.1012160264
 30
0.0
 10
299.1424010383
 20
310.9946941186
 30
0.0
 10
304.9295238967
 20
310.5698477476
 30
0.0
 10
310.7165268088
 20
310.1427920618
 30
0.0
 10
315.0461327574
 20
309.8443841126
 30
0.0
  0
SPLINE
  5
3D0
100
AcDbEntity
  8
0
100
AcDbSpline
 62
7
  6
CONTINUOUS
 70
0
 71
3
 72
18
 73
14
 74
0
 42
0.0000001
 43
0.0000001
 44
0.0000000001
 40
0.0
 40
0.0
 40
0.0
 40
0.0
 40
0.2174086447
 40
0.4193924036
 40
0.5976657435
 40
0.7448689045
 40
0.8053565461
 40
0.856841672
 40
0.8994538928
 40
0.9335601178
 40
0.9597226119
 40
0.9787137517
 40
1.0
 40
1.0
 40
1.0
 40
1.0
 10
315.0461327574
 20
309.8443841126
 30
0.0
 10
317.9782534873
 20
309.642294559
 30
0.0
 10
323.6358720761
 20
309.2720075648
 30
0.0
 10
331.7059266862
 20
308.8664792699
 30
0.0
 10
338.8354648171
 20
308.6950342306
 30
0.0
 10
344.0549412157
 20
308.7749699479
 30
0.0
 10
347.552831909
 20
308.992287241
 30
0.0
 10
349.6323033577
 20
309.1988091582
 30
0.0
 10
351.3497861762
 20
309.4506594575
 30
0.0
 10
352.707819571
 20
309.7303972146
 30
0.0
 10
353.748198217
 20
310.0471646523
 30
0.0
 10
354.5409623524
 20
310.3853442434
 30
0.0
 10
355.0492940656
 20
310.8134961773
 30
0.0
 10
355.054208354
 20
311.1012160794
 30
0.0
  0
SPLINE
  5
3D1
100
AcDbEntity
  8
0
100
AcDbSpline
 62
7
  6
CONTINUOUS
 70
0
 71
3
 72
11
 73
7
 74
0
 42
0.0000001
 43
0.0000001
 44
0.0000000001
 40
0.0
 40
0.0
 40
0.0
 40
0.0
 40
0.2294328863
 40
0.4714099585
 40
0.7300714831
 40
1.0
 40
1.0
 40
1.0
 40
1.0
 10
280.4652087741
 20
245.2410120863
 30
0.0
 10
280.1353889011
 20
245.241004666
 30
0.0
 10
279.448957129
 20
245.4085100028
 30
0.0
 10
278.6161768535
 20
246.0945726769
 30
0.0
 10
278.073423234
 20
247.0865804514
 30
0.0
 10
277.9491972364
 20
247.8528011552
 30
0.0
 10
277.9491972364
 20
248.2408352797
 30
0.0
  0
SPLINE
  5
3D2
100
AcDbEntity
  8
0
100
AcDbSpline
 62
7
  6
CONTINUOUS
 70
0
 71
3
 72
10
 73
6
 74
0
 42
0.0000001
 43
0.0000001
 44
0.0000000001
 40
0.0
 40
0.0
 40
0.0
 40
0.0
 40
0.5249253961
 40
0.7687447684
 40
1.0
 40
1.0
 40
1.0
 40
1.0
 10
286.0004346887
 20
273.2408352797
 30
0.0
 10
286.0004346887
 20
272.8415579168
 30
0.0
 10
285.803709347
 20
272.2238323265
 30
0.0
 10
285.2005345419
 20
271.7310933761
 30
0.0
 10
284.8344623464
 20
271.641019053
 30
0.0
 10
284.6585611999
 20
271.641014812
 30
0.0
  0
SPLINE
  5
3D3
100
AcDbEntity
  8
0
100
AcDbSpline
 62
7
  6
CONTINUOUS
 70
0
 71
3
 72
10
 73
6
 74
0
 42
0.0000001
 43
0.0000001
 44
0.0000000001
 40
0.0
 40
0.0
 40
0.0
 40
0.0
 40
0.2312517143
 40
0.475133247
 40
1.0
 40
1.0
 40
1.0
 40
1.0
 10
292.3920683318
 20
280.3407780796
 30
0.0
 10
292.6229457839
 20
280.34076603
 30
0.0
 10
293.1035632391
 20
280.2226814056
 30
0.0
 10
293.894937441
 20
279.5754630462
 30
0.0
 10
294.15327654
 20
278.7648525792
 30
0.0
 10
294.15327654
 20
278.2408352797
 30
0.0
  0
SPLINE
  5
3D4
100
AcDbEntity
  8
0
100
AcDbSpline
 62
7
  6
CONTINUOUS
 70
0
 71
3
 72
11
 73
7
 74
0
 42
0.0000001
 43
0.0000001
 44
0.0000000001
 40
0.0
 40
0.0
 40
0.0
 40
0.0
 40
0.2294328863
 40
0.4714099585
 40
0.7300714831
 40
1.0
 40
1.0
 40
1.0
 40
1.0
 10
284.0053625017
 20
251.2406584732
 30
0.0
 10
283.6755426287
 20
251.2406658935
 30
0.0
 10
282.9891108566
 20
251.0731605568
 30
0.0
 10
282.1563305811
 20
250.3870978826
 30
0.0
 10
281.6135769616
 20
249.3950901081
 30
0.0
 10
281.489350964
 20
248.6288694043
 30
0.0
 10
281.489350964
 20
248.2408352797
 30
0.0
  0
SPLINE
  5
3D5
100
AcDbEntity
  8
0
100
AcDbSpline
 62
7
  6
CONTINUOUS
 70
0
 71
3
 72
10
 73
6
 74
0
 42
0.0000001
 43
0.0000001
 44
0.0000000001
 40
0.0
 40
0.0
 40
0.0
 40
0.0
 40
0.2312517143
 40
0.475133247
 40
1.0
 40
1.0
 40
1.0
 40
1.0
 10
292.3920683318
 20
250.3407780796
 30
0.0
 10
292.6229457839
 20
250.34076603
 30
0.0
 10
293.1035632391
 20
250.2226814056
 30
0.0
 10
293.894937441
 20
249.5754630462
 30
0.0
 10
294.15327654
 20
248.7648525792
 30
0.0
 10
294.15327654
 20
248.2408352797
 30
0.0
  0
SPLINE
  5
3D6
100
AcDbEntity
  8
0
100
AcDbSpline
 62
7
  6
CONTINUOUS
 70
0
 71
3
 72
8
 73
4
 74
0
 42
0.0000001
 43
0.0000001
 44
0.0000000001
 40
0.0
 40
0.0
 40
0.0
 40
0.0
 40
1.0
 40
1.0
 40
1.0
 40
1.0
 10
279.7839562391
 20
244.9908352797
 30
0.0
 10
279.9222342981
 20
244.9437367932
 30
0.0
 10
280.0514444866
 20
244.8625223868
 30
0.0
 10
280.1581937068
 20
244.7628043191
 30
0.0
  0
SPLINE
  5
3D7
100
AcDbEntity
  8
0
100
AcDbSpline
 62
7
  6
CONTINUOUS
 70
0
 71
3
 72
9
 73
5
 74
0
 42
0.0000001
 43
0.0000001
 44
0.0000000001
 40
0.0
 40
0.0
 40
0.0
 40
0.0
 40
0.2412388265
 40
1.0
 40
1.0
 40
1.0
 40
1.0
 10
280.1581937068
 20
244.7628043191
 30
0.0
 10
280.2240858696
 20
244.7012522147
 30
0.0
 10
280.4669095907
 20
244.4139723366
 30
0.0
 10
280.5747626856
 20
244.0244409321
 30
0.0
 10
280.5747626856
 20
243.7408352797
 30
0.0
  0
SPLINE
  5
3D8
100
AcDbEntity
  8
0
100
AcDbSpline
 62
7
  6
CONTINUOUS
 70
0
 71
3
 72
10
 73
6
 74
0
 42
0.0000001
 43
0.0000001
 44
0.0000000001
 40
0.0
 40
0.0
 40
0.0
 40
0.0
 40
0.5249713291
 40
0.7687559125
 40
1.0
 40
1.0
 40
1.0
 40
1.0
 10
280.5747626856
 20
243.7408352797
 30
0.0
 10
280.5747626856
 20
243.4164000241
 30
0.0
 10
280.4148885735
 20
242.9145027676
 30
0.0
 10
279.924805101
 20
242.5141768475
 30
0.0
 10
279.6274003993
 20
242.4410272568
 30
0.0
 10
279.4844902432
 20
242.4410225321
 30
0.0
  0
SPLINE
  5
3D9
100
AcDbEntity
  8
0
100
AcDbSpline
 62
7
  6
CONTINUOUS
 70
0
 71
3
 72
10
 73
6
 74
0
 42
0.0000001
 43
0.0000001
 44
0.0000000001
 40
0.0
 40
0.0
 40
0.0
 40
0.0
 40
0.2322286795
 40
0.475775821
 40
1.0
 40
1.0
 40
1.0
 40
1.0
 10
288.8519144536
 20
245.2410120863
 30
0.0
 10
288.5439907646
 20
245.2410051586
 30
0.0
 10
287.9055804874
 20
245.3865770819
 30
0.0
 10
286.82093389
 20
246.198010314
 30
0.0
 10
286.4104409511
 20
247.2378004481
 30
0.0
 10
286.3495740321
 20
247.9302255856
 30
0.0
  0
SPLINE
  5
3DA
100
AcDbEntity
  8
0
100
AcDbSpline
 62
7
  6
CONTINUOUS
 70
0
 71
3
 72
11
 73
7
 74
0
 42
0.0000001
 43
0.0000001
 44
0.0000000001
 40
0.0
 40
0.0
 40
0.0
 40
0.0
 40
0.2294328863
 40
0.4714099585
 40
0.7300714831
 40
1.0
 40
1.0
 40
1.0
 40
1.0
 10
292.3920681812
 20
251.2406584732
 30
0.0
 10
292.0622483081
 20
251.2406658935
 30
0.0
 10
291.3758165361
 20
251.0731605567
 30
0.0
 10
290.5430362606
 20
250.3870978826
 30
0.0
 10
290.0002826411
 20
249.3950901081
 30
0.0
 10
289.8760566435
 20
248.6288694043
 30
0.0
 10
289.8760566435
 20
248.2408352797
 30
0.0
  0
SPLINE
  5
3DB
100
AcDbEntity
  8
0
100
AcDbSpline
 62
7
  6
CONTINUOUS
 70
0
 71
3
 72
11
 73
7
 74
0
 42
0.0000001
 43
0.0000001
 44
0.0000000001
 40
0.0
 40
0.0
 40
0.0
 40
0.0
 40
0.2453696882
 40
0.4934740083
 40
0.7452186041
 40
1.0
 40
1.0
 40
1.0
 40
1.0
 10
56.3697639669
 20
379.2457331235
 30
0.0
 10
56.6106389762
 20
380.0949535995
 30
0.0
 10
57.3636618584
 20
381.7392265647
 30
0.0
 10
59.2027517847
 20
383.7482544467
 30
0.0
 10
61.6027608802
 20
385.1085486282
 30
0.0
 10
63.4224140011
 20
385.4793292726
 30
0.0
 10
64.3379278075
 20
385.5235189279
 30
0.0
  0
SPLINE
  5
3DC
100
AcDbEntity
  8
0
100
AcDbSpline
 62
7
  6
CONTINUOUS
 70
0
 71
3
 72
9
 73
5
 74
0
 42
0.0000001
 43
0.0000001
 44
0.0000000001
 40
0.0
 40
0.0
 40
0.0
 40
0.0
 40
0.2465186501
 40
1.0
 40
1.0
 40
1.0
 40
1.0
 10
277.6687159042
 20
244.9908352797
 30
0.0
 10
277.6226154146
 20
244.8956269903
 30
0.0
 10
277.4586591433
 20
244.4985272975
 30
0.0
 10
277.3878145274
 20
244.0641573231
 30
0.0
 10
277.3878145274
 20
243.7408352797
 30
0.0
  0
SPLINE
  5
3DD
100
AcDbEntity
  8
0
100
AcDbSpline
 62
7
  6
CONTINUOUS
 70
0
 71
3
 72
11
 73
7
 74
0
 42
0.0000001
 43
0.0000001
 44
0.0000000001
 40
0.0
 40
0.0
 40
0.0
 40
0.0
 40
0.2699018567
 40
0.5285835998
 40
0.7705496561
 40
1.0
 40
1.0
 40
1.0
 40
1.0
 10
277.3878145274
 20
243.7408352797
 30
0.0
 10
277.3878145274
 20
243.4175003328
 30
0.0
 10
277.4913995749
 20
242.7790090259
 30
0.0
 10
277.943527679
 20
241.9522434379
 30
0.0
 10
278.6375891573
 20
241.3805417819
 30
0.0
 10
279.209615774
 20
241.2408890293
 30
0.0
 10
279.4844909289
 20
241.2409033752
 30
0.0
  0
SPLINE
  5
3DE
100
AcDbEntity
  8
0
100
AcDbSpline
 62
7
  6
CONTINUOUS
 70
0
 71
3
 72
10
 73
6
 74
0
 42
0.0000001
 43
0.0000001
 44
0.0000000001
 40
0.0
 40
0.0
 40
0.0
 40
0.0
 40
0.2322286795
 40
0.475775821
 40
1.0
 40
1.0
 40
1.0
 40
1.0
 10
288.8519144536
 20
275.2410120863
 30
0.0
 10
288.5439907646
 20
275.2410051586
 30
0.0
 10
287.9055804874
 20
275.3865770819
 30
0.0
 10
286.82093389
 20
276.198010314
 30
0.0
 10
286.4104409511
 20
277.2378004481
 30
0.0
 10
286.3495740321
 20
277.9302255856
 30
0.0
  0
SPLINE
  5
3DF
100
AcDbEntity
  8
0
100
AcDbSpline
 62
7
  6
CONTINUOUS
 70
0
 71
3
 72
9
 73
5
 74
0
 42
0.0000001
 43
0.0000001
 44
0.0000000001
 40
0.0
 40
0.0
 40
0.0
 40
0.0
 40
0.254669797
 40
1.0
 40
1.0
 40
1.0
 40
1.0
 10
279.8731611351
 20
240.7676124803
 30
0.0
 10
279.7976085492
 20
240.6506099845
 30
0.0
 10
279.4818960651
 20
240.2038897663
 30
0.0
 10
279.0889265405
 20
239.8107569061
 30
0.0
 10
278.7628713119
 20
239.5661434127
 30
0.0
  0
SPLINE
  5
3E0
100
AcDbEntity
  8
0
100
AcDbSpline
 62
7
  6
CONTINUOUS
 70
0
 71
3
 72
10
 73
6
 74
0
 42
0.0000001
 43
0.0000001
 44
0.0000000001
 40
0.0
 40
0.0
 40
0.0
 40
0.0
 40
0.2312387299
 40
0.4750483451
 40
1.0
 40
1.0
 40
1.0
 40
1.0
 10
284.65856236
 20
254.8406557475
 30
0.0
 10
284.8344502142
 20
254.8406599883
 30
0.0
 10
285.2004970556
 20
254.7505736567
 30
0.0
 10
285.8036917998
 20
254.2578775771
 30
0.0
 10
286.0004346887
 20
253.6401309348
 30
0.0
 10
286.0004346887
 20
253.2408352797
 30
0.0
  0
SPLINE
  5
3E1
100
AcDbEntity
  8
0
100
AcDbSpline
 62
7
  6
CONTINUOUS
 70
0
 71
3
 72
9
 73
5
 74
0
 42
0.0000001
 43
0.0000001
 44
0.0000000001
 40
0.0
 40
0.0
 40
0.0
 40
0.0
 40
0.3418610182
 40
1.0
 40
1.0
 40
1.0
 40
1.0
 10
376.6497265609
 20
379.2408312233
 30
0.0
 10
376.6479943173
 20
379.2408312581
 30
0.0
 10
376.6427134826
 20
379.2416866958
 30
0.0
 10
376.6395503645
 20
379.2462767187
 30
0.0
 10
376.6376440801
 20
379.2490130193
 30
0.0
  0
SPLINE
  5
3E2
100
AcDbEntity
  8
0
100
AcDbSpline
 62
7
  6
CONTINUOUS
 70
0
 71
3
 72
12
 73
8
 74
0
 42
0.0000001
 43
0.0000001
 44
0.0000000001
 40
0.0
 40
0.0
 40
0.0
 40
0.0
 40
0.3559710766
 40
0.6619294528
 40
0.883441639
 40
0.9554011391
 40
1.0
 40
1.0
 40
1.0
 40
1.0
 10
59.1332538901
 20
379.2578279473
 30
0.0
 10
58.8063371464
 20
379.3111699437
 30
0.0
 10
58.1933609259
 20
379.384345618
 30
0.0
 10
57.3724944434
 20
379.4126924765
 30
0.0
 10
56.811137366
 20
379.381941877
 30
0.0
 10
56.5055766841
 20
379.3129794289
 30
0.0
 10
56.4017666087
 20
379.2722369844
 30
0.0
 10
56.3698473101
 20
379.2457145824
 30
0.0
  0
SPLINE
  5
3E3
100
AcDbEntity
  8
0
100
AcDbSpline
 62
7
  6
CONTINUOUS
 70
0
 71
3
 72
9
 73
5
 74
0
 42
0.0000001
 43
0.0000001
 44
0.0000000001
 40
0.0
 40
0.0
 40
0.0
 40
0.0
 40
0.6208533119
 40
1.0
 40
1.0
 40
1.0
 40
1.0
 10
56.3698473101
 20
379.2457145824
 30
0.0
 10
56.3680229886
 20
379.2441987162
 30
0.0
 10
56.3655406959
 20
379.241067251
 30
0.0
 10
56.3604289052
 20
379.241714037
 30
0.0
 10
56.3597599853
 20
379.2429988306
 30
0.0
  0
SPLINE
  5
3E4
100
AcDbEntity
  8
0
100
AcDbSpline
 62
7
  6
CONTINUOUS
 70
0
 71
3
 72
10
 73
6
 74
0
 42
0.0000001
 43
0.0000001
 44
0.0000000001
 40
0.0
 40
0.0
 40
0.0
 40
0.0
 40
0.2312387299
 40
0.4750483451
 40
1.0
 40
1.0
 40
1.0
 40
1.0
 10
284.65856236
 20
264.8406557475
 30
0.0
 10
284.8344502142
 20
264.8406599883
 30
0.0
 10
285.2004970556
 20
264.7505736567
 30
0.0
 10
285.8036917998
 20
264.2578775771
 30
0.0
 10
286.0004346887
 20
263.6401309348
 30
0.0
 10
286.0004346887
 20
263.2408352797
 30
0.0
  0
SPLINE
  5
3E5
100
AcDbEntity
  8
0
100
AcDbSpline
 62
7
  6
CONTINUOUS
 70
0
 71
3
 72
11
 73
7
 74
0
 42
0.0000001
 43
0.0000001
 44
0.0000000001
 40
0.0
 40
0.0
 40
0.0
 40
0.0
 40
0.2294328863
 40
0.4714099585
 40
0.7300714831
 40
1.0
 40
1.0
 40
1.0
 40
1.0
 10
292.3920681812
 20
281.2406584732
 30
0.0
 10
292.0622483081
 20
281.2406658935
 30
0.0
 10
291.3758165361
 20
281.0731605567
 30
0.0
 10
290.5430362606
 20
280.3870978826
 30
0.0
 10
290.0002826411
 20
279.3950901081
 30
0.0
 10
289.8760566435
 20
278.6288694043
 30
0.0
 10
289.8760566435
 20
278.2408352797
 30
0.0
  0
SPLINE
  5
3E6
100
AcDbEntity
  8
0
100
AcDbSpline
 62
7
  6
CONTINUOUS
 70
0
 71
3
 72
10
 73
6
 74
0
 42
0.0000001
 43
0.0000001
 44
0.0000000001
 40
0.0
 40
0.0
 40
0.0
 40
0.0
 40
0.2312517143
 40
0.475133247
 40
1.0
 40
1.0
 40
1.0
 40
1.0
 10
284.0053626524
 20
280.3407780796
 30
0.0
 10
284.2362401045
 20
280.3407660299
 30
0.0
 10
284.7168575597
 20
280.2226814056
 30
0.0
 10
285.5082317615
 20
279.5754630462
 30
0.0
 10
285.7665708605
 20
278.7648525791
 30
0.0
 10
285.7665708605
 20
278.2408352797
 30
0.0
  0
SPLINE
  5
3E7
100
AcDbEntity
  8
0
100
AcDbSpline
 62
7
  6
CONTINUOUS
 70
0
 71
3
 72
10
 73
6
 74
0
 42
0.0000001
 43
0.0000001
 44
0.0000000001
 40
0.0
 40
0.0
 40
0.0
 40
0.0
 40
0.5248471687
 40
0.7687310402
 40
1.0
 40
1.0
 40
1.0
 40
1.0
 10
282.5860815463
 20
291.7408352797
 30
0.0
 10
282.5860815463
 20
291.3041696202
 30
0.0
 10
282.3708117525
 20
290.6286756168
 30
0.0
 10
281.7113554157
 20
290.0893112356
 30
0.0
 10
281.3108206737
 20
289.9908729045
 30
0.0
 10
281.1184080653
 20
289.9908829466
 30
0.0
  0
SPLINE
  5
3E8
100
AcDbEntity
  8
0
100
AcDbSpline
 62
7
  6
CONTINUOUS
 70
0
 71
3
 72
11
 73
7
 74
0
 42
0.0000001
 43
0.0000001
 44
0.0000000001
 40
0.0
 40
0.0
 40
0.0
 40
0.0
 40
0.2699289423
 40
0.5285756858
 40
0.7705536048
 40
1.0
 40
1.0
 40
1.0
 40
1.0
 10
277.5540581386
 20
291.7408352797
 30
0.0
 10
277.5540581386
 20
291.1911194177
 30
0.0
 10
277.7300356312
 20
290.1056675737
 30
0.0
 10
278.4989112266
 20
288.7003486528
 30
0.0
 10
279.6786624881
 20
287.728394183
 30
0.0
 10
280.6511359685
 20
287.4910962684
 30
0.0
 10
281.1184082877
 20
287.4910857557
 30
0.0
  0
SPLINE
  5
3E9
100
AcDbEntity
  8
0
100
AcDbSpline
 62
7
  6
CONTINUOUS
 70
0
 71
3
 72
11
 73
7
 74
0
 42
0.0000001
 43
0.0000001
 44
0.0000000001
 40
0.0
 40
0.0
 40
0.0
 40
0.0
 40
0.2631479059
 40
0.5190783745
 40
0.7640810128
 40
1.0
 40
1.0
 40
1.0
 40
1.0
 10
272.5098015097
 20
291.7408352797
 30
0.0
 10
272.5098015097
 20
291.1884350744
 30
0.0
 10
272.7054969697
 20
290.0884261902
 30
0.0
 10
273.5479785035
 20
288.6811972244
 30
0.0
 10
274.8139100588
 20
287.7229465357
 30
0.0
 10
275.8352351479
 20
287.4908174383
 30
0.0
 10
276.3304763941
 20
287.4908355876
 30
0.0
  0
SPLINE
  5
3EA
100
AcDbEntity
  8
0
100
AcDbSpline
 62
7
  6
CONTINUOUS
 70
0
 71
3
 72
9
 73
5
 74
0
 42
0.0000001
 43
0.0000001
 44
0.0000000001
 40
0.0
 40
0.0
 40
0.0
 40
0.0
 40
0.2524685946
 40
1.0
 40
1.0
 40
1.0
 40
1.0
 10
306.2959395607
 20
294.2408352798
 30
0.0
 10
306.2959395607
 20
294.4106176436
 30
0.0
 10
306.3161033195
 20
295.082911667
 30
0.0
 10
306.4166713379
 20
295.7531415947
 30
0.0
 10
306.5386093375
 20
296.2408352797
 30
0.0
  0
SPLINE
  5
3EB
100
AcDbEntity
  8
0
100
AcDbSpline
 62
7
  6
CONTINUOUS
 70
0
 71
3
 72
9
 73
5
 74
0
 42
0.0000001
 43
0.0000001
 44
0.0000000001
 40
0.0
 40
0.0
 40
0.0
 40
0.0
 40
0.7459802333
 40
1.0
 40
1.0
 40
1.0
 40
1.0
 10
279.4844909458
 20
282.7406334912
 30
0.0
 10
279.8866382423
 20
282.7406334424
 30
0.0
 10
280.4315135569
 20
282.6450868969
 30
0.0
 10
280.9293449733
 20
282.4373530528
 30
0.0
 10
281.0527589907
 20
282.3780140766
 30
0.0
  0
SPLINE
  5
3EC
100
AcDbEntity
  8
0
100
AcDbSpline
 62
7
  6
CONTINUOUS
 70
0
 71
3
 72
9
 73
5
 74
0
 42
0.0000001
 43
0.0000001
 44
0.0000000001
 40
0.0
 40
0.0
 40
0.0
 40
0.0
 40
0.2454858665
 40
1.0
 40
1.0
 40
1.0
 40
1.0
 10
281.0527589907
 20
282.3780140766
 30
0.0
 10
281.1634785366
 20
282.3247787583
 30
0.0
 10
281.6038884836
 20
282.0861948388
 30
0.0
 10
281.9979264307
 20
281.7644597001
 30
0.0
 10
282.2581331407
 20
281.4908352797
 30
0.0
  0
SPLINE
  5
3ED
100
AcDbEntity
  8
0
100
AcDbSpline
 62
7
  6
CONTINUOUS
 70
0
 71
3
 72
11
 73
7
 74
0
 42
0.0000001
 43
0.0000001
 44
0.0000000001
 40
0.0
 40
0.0
 40
0.0
 40
0.0
 40
0.286122409
 40
0.5476792732
 40
0.7827368856
 40
1.0
 40
1.0
 40
1.0
 40
1.0
 10
303.6226593799
 20
296.2408352797
 30
0.0
 10
303.7629657361
 20
296.8014565379
 30
0.0
 10
304.1517253412
 20
297.8505433595
 30
0.0
 10
305.0778966969
 20
299.1580496367
 30
0.0
 10
306.265129904
 20
300.0294356272
 30
0.0
 10
307.1879597824
 20
300.2408352797
 30
0.0
 10
307.6267891691
 20
300.2408352797
 30
0.0
  0
SPLINE
  5
3EE
100
AcDbEntity
  8
0
100
AcDbSpline
 62
7
  6
CONTINUOUS
 70
0
 71
3
 72
11
 73
7
 74
0
 42
0.0000001
 43
0.0000001
 44
0.0000000001
 40
0.0
 40
0.0
 40
0.0
 40
0.0
 40
0.2172627713
 40
0.452320549
 40
0.7138777657
 40
1.0
 40
1.0
 40
1.0
 40
1.0
 10
125.3818946403
 20
300.2408352797
 30
0.0
 10
125.8207233382
 20
300.2408352797
 30
0.0
 10
126.7435528983
 20
300.0294362599
 30
0.0
 10
127.9307866976
 20
299.1580502496
 30
0.0
 10
128.8569585643
 20
297.8505434127
 30
0.0
 10
129.2457181577
 20
296.8014562009
 30
0.0
 10
129.3860244296
 20
296.2408352797
 30
0.0
  0
SPLINE
  5
3EF
100
AcDbEntity
  8
0
100
AcDbSpline
 62
7
  6
CONTINUOUS
 70
0
 71
3
 72
9
 73
5
 74
0
 42
0.0000001
 43
0.0000001
 44
0.0000000001
 40
0.0
 40
0.0
 40
0.0
 40
0.0
 40
0.247096406
 40
1.0
 40
1.0
 40
1.0
 40
1.0
 10
126.470074472
 20
296.2408352797
 30
0.0
 10
126.5103818719
 20
296.0796249559
 30
0.0
 10
126.652608155
 20
295.4221203848
 30
0.0
 10
126.7127442487
 20
294.7471648787
 30
0.0
 10
126.7127442487
 20
294.2408352798
 30
0.0
  0
SPLINE
  5
3F0
100
AcDbEntity
  8
0
100
AcDbSpline
 62
7
  6
CONTINUOUS
 70
0
 71
3
 72
9
 73
5
 74
0
 42
0.0000001
 43
0.0000001
 44
0.0000000001
 40
0.0
 40
0.0
 40
0.0
 40
0.0
 40
0.510601099
 40
1.0
 40
1.0
 40
1.0
 40
1.0
 10
273.2467513185
 20
294.2408352798
 30
0.0
 10
273.6001974032
 20
294.7779724389
 30
0.0
 10
274.5896553723
 20
295.6468714217
 30
0.0
 10
275.8568948461
 20
295.9909517254
 30
0.0
 10
276.4731885425
 20
295.9908354523
 30
0.0
  0
SPLINE
  5
3F1
100
AcDbEntity
  8
0
100
AcDbSpline
 62
7
  6
CONTINUOUS
 70
0
 71
3
 72
10
 73
6
 74
0
 42
0.0000001
 43
0.0000001
 44
0.0000000001
 40
0.0
 40
0.0
 40
0.0
 40
0.0
 40
0.2312387299
 40
0.4750483451
 40
1.0
 40
1.0
 40
1.0
 40
1.0
 10
284.65856236
 20
274.8406557475
 30
0.0
 10
284.8344502142
 20
274.8406599883
 30
0.0
 10
285.2004970556
 20
274.7505736567
 30
0.0
 10
285.8036917998
 20
274.2578775771
 30
0.0
 10
286.0004346887
 20
273.6401309348
 30
0.0
 10
286.0004346887
 20
273.2408352797
 30
0.0
  0
SPLINE
  5
3F2
100
AcDbEntity
  8
0
100
AcDbSpline
 62
7
  6
CONTINUOUS
 70
0
 71
3
 72
11
 73
7
 74
0
 42
0.0000001
 43
0.0000001
 44
0.0000000001
 40
0.0
 40
0.0
 40
0.0
 40
0.0
 40
0.2294328863
 40
0.4714099585
 40
0.7300714831
 40
1.0
 40
1.0
 40
1.0
 40
1.0
 10
280.4652087741
 20
275.2410120863
 30
0.0
 10
280.1353889011
 20
275.241004666
 30
0.0
 10
279.448957129
 20
275.4085100028
 30
0.0
 10
278.6161768535
 20
276.0945726769
 30
0.0
 10
278.073423234
 20
277.0865804514
 30
0.0
 10
277.9491972364
 20
277.8528011552
 30
0.0
 10
277.9491972364
 20
278.2408352797
 30
0.0
  0
SPLINE
  5
3F3
100
AcDbEntity
  8
0
100
AcDbSpline
 62
7
  6
CONTINUOUS
 70
0
 71
3
 72
11
 73
7
 74
0
 42
0.0000001
 43
0.0000001
 44
0.0000000001
 40
0.0
 40
0.0
 40
0.0
 40
0.0
 40
0.2699345054
 40
0.528577832
 40
0.7705552147
 40
1.0
 40
1.0
 40
1.0
 40
1.0
 10
283.677843787
 20
243.7408352797
 30
0.0
 10
283.677843787
 20
243.0940878769
 30
0.0
 10
283.4707804249
 20
241.8170633044
 30
0.0
 10
282.5661881731
 20
240.1637326857
 30
0.0
 10
281.1783113394
 20
239.0202129805
 30
0.0
 10
280.034227343
 20
238.7408726331
 30
0.0
 10
279.484490959
 20
238.7408938649
 30
0.0
  0
SPLINE
  5
3F4
100
AcDbEntity
  8
0
100
AcDbSpline
 62
7
  6
CONTINUOUS
 70
0
 71
3
 72
11
 73
7
 74
0
 42
0.0000001
 43
0.0000001
 44
0.0000000001
 40
0.0
 40
0.0
 40
0.0
 40
0.0
 40
0.2294328863
 40
0.4714099585
 40
0.7300714831
 40
1.0
 40
1.0
 40
1.0
 40
1.0
 10
284.0053625017
 20
281.2406584732
 30
0.0
 10
283.6755426287
 20
281.2406658935
 30
0.0
 10
282.9891108566
 20
281.0731605568
 30
0.0
 10
282.1563305811
 20
280.3870978826
 30
0.0
 10
281.6135769616
 20
279.3950901081
 30
0.0
 10
281.489350964
 20
278.6288694043
 30
0.0
 10
281.489350964
 20
278.2408352797
 30
0.0
  0
SPLINE
  5
3F5
100
AcDbEntity
  8
0
100
AcDbSpline
 62
7
  6
CONTINUOUS
 70
0
 71
3
 72
11
 73
7
 74
0
 42
0.0000001
 43
0.0000001
 44
0.0000000001
 40
0.0
 40
0.0
 40
0.0
 40
0.0
 40
0.2572491951
 40
0.5102510308
 40
0.7575063448
 40
1.0
 40
1.0
 40
1.0
 40
1.0
 10
357.9781784676
 20
393.1878924625
 30
0.0
 10
360.1161458806
 20
393.1964228867
 30
0.0
 10
364.3935504783
 20
392.5263903299
 30
0.0
 10
370.0610654686
 20
389.5350996544
 30
0.0
 10
374.3667035466
 20
384.9614865765
 30
0.0
 10
376.0971807775
 20
381.1874028558
 30
0.0
 10
376.6384832578
 20
379.2461056115
 30
0.0
  0
SPLINE
  5
3F6
100
AcDbEntity
  8
0
100
AcDbSpline
 62
7
  6
CONTINUOUS
 70
0
 71
3
 72
9
 73
5
 74
0
 42
0.0000001
 43
0.0000001
 44
0.0000000001
 40
0.0
 40
0.0
 40
0.0
 40
0.0
 40
0.5008097028
 40
1.0
 40
1.0
 40
1.0
 40
1.0
 10
59.1002323323
 20
375.0181085324
 30
0.0
 10
59.14892591
 20
374.8037104086
 30
0.0
 10
59.3987659566
 20
374.3963912975
 30
0.0
 10
59.8510250371
 20
374.2408242491
 30
0.0
 10
60.0701722905
 20
374.240835281
 30
0.0
  0
SPLINE
  5
3F7
100
AcDbEntity
  8
0
100
AcDbSpline
 62
7
  6
CONTINUOUS
 70
0
 71
3
 72
9
 73
5
 74
0
 42
0.0000001
 43
0.0000001
 44
0.0000000001
 40
0.0
 40
0.0
 40
0.0
 40
0.0
 40
0.2541279657
 40
1.0
 40
1.0
 40
1.0
 40
1.0
 10
272.5098015097
 20
291.7408352797
 30
0.0
 10
272.5098015097
 20
291.9633579434
 30
0.0
 10
272.5716181389
 20
292.8377629563
 30
0.0
 10
272.8877444148
 20
293.695247263
 30
0.0
 10
273.2467513185
 20
294.2408352797
 30
0.0
  0
SPLINE
  5
3F8
100
AcDbEntity
  8
0
100
AcDbSpline
 62
7
  6
CONTINUOUS
 70
0
 71
3
 72
16
 73
12
 74
0
 42
0.0000001
 43
0.0000001
 44
0.0000000001
 40
0.0
 40
0.0
 40
0.0
 40
0.0
 40
0.0045530157
 40
0.0181352966
 40
0.0405827251
 40
0.0717286751
 40
0.159448438
 40
0.2799587247
 40
0.4309376129
 40
0.6061123851
 40
1.0
 40
1.0
 40
1.0
 40
1.0
 10
357.9781408771
 20
393.18786636
 30
0.0
 10
357.9807526334
 20
393.1881655527
 30
0.0
 10
357.9753874072
 20
393.1706154488
 30
0.0
 10
357.9812714218
 20
393.1539852392
 30
0.0
 10
357.9787353975
 20
393.1113904905
 30
0.0
 10
357.9814603883
 20
393.0320838608
 30
0.0
 10
357.9813120466
 20
392.8922085488
 30
0.0
 10
357.9834534277
 20
392.6855982419
 30
0.0
 10
357.984856023
 20
392.4274141874
 30
0.0
 10
357.9873629967
 20
392.0118081572
 30
0.0
 10
357.9890104107
 20
391.6831918408
 30
0.0
 10
357.9901154869
 20
391.4557701898
 30
0.0
  0
SPLINE
  5
3F9
100
AcDbEntity
  8
0
100
AcDbSpline
 62
7
  6
CONTINUOUS
 70
0
 71
3
 72
12
 73
8
 74
0
 42
0.0000001
 43
0.0000001
 44
0.0000000001
 40
0.0
 40
0.0
 40
0.0
 40
0.0
 40
0.3556405655
 40
0.6612163387
 40
0.8826527005
 40
0.9549153597
 40
1.0
 40
1.0
 40
1.0
 40
1.0
 10
373.883908647
 20
379.2592385444
 30
0.0
 10
374.2094478054
 20
379.314538674
 30
0.0
 10
374.8199489382
 20
379.3915913849
 30
0.0
 10
375.6382752231
 20
379.4223847587
 30
0.0
 10
376.1983775473
 20
379.3894956893
 30
0.0
 10
376.503108587
 20
379.315932392
 30
0.0
 10
376.606413554
 20
379.2730625041
 30
0.0
 10
376.6384216121
 20
379.2460859618
 30
0.0
  0
SPLINE
  5
3FA
100
AcDbEntity
  8
0
100
AcDbSpline
 62
7
  6
CONTINUOUS
 70
0
 71
3
 72
11
 73
7
 74
0
 42
0.0000001
 43
0.0000001
 44
0.0000000001
 40
0.0
 40
0.0
 40
0.0
 40
0.0
 40
0.2580233649
 40
0.5108084091
 40
0.7572826665
 40
1.0
 40
1.0
 40
1.0
 40
1.0
 10
64.4827569712
 20
383.7947481346
 30
0.0
 10
63.8363402917
 20
383.7634368746
 30
0.0
 10
62.556334991
 20
383.4916520878
 30
0.0
 10
60.9003576585
 20
382.48966178
 30
0.0
 10
59.6996886767
 20
381.0244487745
 30
0.0
 10
59.2546640919
 20
379.854387116
 30
0.0
 10
59.13326025
 20
379.2578311567
 30
0.0
  0
SPLINE
  5
3FB
100
AcDbEntity
  8
0
100
AcDbSpline
 62
7
  6
CONTINUOUS
 70
0
 71
3
 72
13
 73
9
 74
0
 42
0.0000001
 43
0.0000001
 44
0.0000000001
 40
0.0
 40
0.0
 40
0.0
 40
0.0
 40
0.2621804631
 40
0.5170121114
 40
0.6409924107
 40
0.7623813498
 40
0.8817460069
 40
1.0
 40
1.0
 40
1.0
 40
1.0
 10
356.7678148348
 20
263.2408352797
 30
0.0
 10
356.7678148348
 20
265.832105154
 30
0.0
 10
355.8740516768
 20
270.9865029151
 30
0.0
 10
352.5796879512
 20
276.581438697
 30
0.0
 10
348.9240909402
 20
279.9533727478
 30
0.0
 10
345.8116198073
 20
281.825081953
 30
0.0
 10
342.4288275679
 20
282.9799256791
 30
0.0
 10
340.0722925142
 20
283.2407841641
 30
0.0
 10
338.9035249938
 20
283.2407707877
 30
0.0
  0
SPLINE
  5
3FC
100
AcDbEntity
  8
0
100
AcDbSpline
 62
7
  6
CONTINUOUS
 70
0
 71
3
 72
11
 73
7
 74
0
 42
0.0000001
 43
0.0000001
 44
0.0000000001
 40
0.0
 40
0.0
 40
0.0
 40
0.0
 40
0.2408269974
 40
0.4874933688
 40
0.7412283729
 40
1.0
 40
1.0
 40
1.0
 40
1.0
 10
373.8836609665
 20
379.259187749
 30
0.0
 10
373.4653663088
 20
380.934647249
 30
0.0
 10
372.0644318454
 20
384.2156631182
 30
0.0
 10
368.4306609755
 20
388.2281235525
 30
0.0
 10
363.5542789576
 20
390.8711407779
 30
0.0
 10
359.8456636605
 20
391.4628650313
 30
0.0
 10
357.990117642
 20
391.4555194945
 30
0.0
  0
SPLINE
  5
3FD
100
AcDbEntity
  8
0
100
AcDbSpline
 62
7
  6
CONTINUOUS
 70
0
 71
3
 72
15
 73
11
 74
0
 42
0.0000001
 43
0.0000001
 44
0.0000000001
 40
0.0
 40
0.0
 40
0.0
 40
0.0
 40
0.0053054753
 40
0.019154721
 40
0.0729661498
 40
0.160721579
 40
0.2811445678
 40
0.4319346026
 40
0.6068382322
 40
1.0
 40
1.0
 40
1.0
 40
1.0
 10
64.3382059571
 20
385.5233340721
 30
0.0
 10
64.3412728931
 20
385.5234878968
 30
0.0
 10
64.3451142482
 20
385.5085503727
 30
0.0
 10
64.354446894
 20
385.4735566977
 30
0.0
 10
64.3658702659
 20
385.3779868411
 30
0.0
 10
64.3821258925
 20
385.2308363106
 30
0.0
 10
64.4001438863
 20
385.0222819146
 30
0.0
 10
64.4199981515
 20
384.7654141902
 30
0.0
 10
64.448993209
 20
384.3500998386
 30
0.0
 10
64.4694153536
 20
384.0220404832
 30
0.0
 10
64.4827580427
 20
383.7948712861
 30
0.0
  0
SPLINE
  5
3FE
100
AcDbEntity
  8
0
100
AcDbSpline
 62
7
  6
CONTINUOUS
 70
0
 71
3
 72
11
 73
7
 74
0
 42
0.0000001
 43
0.0000001
 44
0.0000000001
 40
0.0
 40
0.0
 40
0.0
 40
0.0
 40
0.2172627712
 40
0.452320549
 40
0.7138777657
 40
1.0
 40
1.0
 40
1.0
 40
1.0
 10
307.6267891691
 20
226.2408352797
 30
0.0
 10
307.1879604712
 20
226.2408352797
 30
0.0
 10
306.2651309112
 20
226.4522342996
 30
0.0
 10
305.0778971119
 20
227.3236203099
 30
0.0
 10
304.1517252452
 20
228.6311271468
 30
0.0
 10
303.7629656517
 20
229.6802143586
 30
0.0
 10
303.6226593798
 20
230.2408352797
 30
0.0
  0
SPLINE
  5
3FF
100
AcDbEntity
  8
0
100
AcDbSpline
 62
7
  6
CONTINUOUS
 70
0
 71
3
 72
9
 73
5
 74
0
 42
0.0000001
 43
0.0000001
 44
0.0000000001
 40
0.0
 40
0.0
 40
0.0
 40
0.0
 40
0.247096406
 40
1.0
 40
1.0
 40
1.0
 40
1.0
 10
306.5386093375
 20
230.2408352797
 30
0.0
 10
306.4983019376
 20
230.4020456036
 30
0.0
 10
306.3560756545
 20
231.0595501747
 30
0.0
 10
306.2959395607
 20
231.7345056808
 30
0.0
 10
306.2959395607
 20
232.2408352797
 30
0.0
  0
SPLINE
  5
400
100
AcDbEntity
  8
0
100
AcDbSpline
 62
7
  6
CONTINUOUS
 70
0
 71
3
 72
9
 73
5
 74
0
 42
0.0000001
 43
0.0000001
 44
0.0000000001
 40
0.0
 40
0.0
 40
0.0
 40
0.0
 40
0.2524685946
 40
1.0
 40
1.0
 40
1.0
 40
1.0
 10
126.7127442487
 20
232.2408352797
 30
0.0
 10
126.7127442487
 20
232.0710529159
 30
0.0
 10
126.6925804899
 20
231.3987588925
 30
0.0
 10
126.5920124716
 20
230.7285289648
 30
0.0
 10
126.470074472
 20
230.2408352797
 30
0.0
  0
SPLINE
  5
401
100
AcDbEntity
  8
0
100
AcDbSpline
 62
7
  6
CONTINUOUS
 70
0
 71
3
 72
11
 73
7
 74
0
 42
0.0000001
 43
0.0000001
 44
0.0000000001
 40
0.0
 40
0.0
 40
0.0
 40
0.0
 40
0.286122409
 40
0.5476792732
 40
0.7827368856
 40
1.0
 40
1.0
 40
1.0
 40
1.0
 10
129.3860244296
 20
230.2408352797
 30
0.0
 10
129.2457180734
 20
229.6802140216
 30
0.0
 10
128.8569584682
 20
228.6311272
 30
0.0
 10
127.9307871126
 20
227.3236209228
 30
0.0
 10
126.7435539055
 20
226.4522349323
 30
0.0
 10
125.8207240271
 20
226.2408352797
 30
0.0
 10
125.3818946403
 20
226.2408352797
 30
0.0
  0
SPLINE
  5
402
100
AcDbEntity
  8
0
100
AcDbSpline
 62
7
  6
CONTINUOUS
 70
0
 71
3
 72
10
 73
6
 74
0
 42
0.0000001
 43
0.0000001
 44
0.0000000001
 40
0.0
 40
0.0
 40
0.0
 40
0.0
 40
0.2312517143
 40
0.475133247
 40
1.0
 40
1.0
 40
1.0
 40
1.0
 10
284.0053626524
 20
270.3407780796
 30
0.0
 10
284.2362401045
 20
270.3407660299
 30
0.0
 10
284.7168575597
 20
270.2226814056
 30
0.0
 10
285.5082317615
 20
269.5754630462
 30
0.0
 10
285.7665708605
 20
268.7648525791
 30
0.0
 10
285.7665708605
 20
268.2408352797
 30
0.0
  0
SPLINE
  5
403
100
AcDbEntity
  8
0
100
AcDbSpline
 62
7
  6
CONTINUOUS
 70
0
 71
3
 72
13
 73
9
 74
0
 42
0.0000001
 43
0.0000001
 44
0.0000000001
 40
0.0
 40
0.0
 40
0.0
 40
0.0
 40
0.1182520041
 40
0.2376139783
 40
0.3590009313
 40
0.4829811412
 40
0.7378166833
 40
1.0
 40
1.0
 40
1.0
 40
1.0
 10
338.9035249964
 20
243.2408997718
 30
0.0
 10
340.0722726383
 20
243.2409131479
 30
0.0
 10
342.4287612628
 20
243.5017158408
 30
0.0
 10
345.8114967689
 20
244.6565333899
 30
0.0
 10
348.9239415208
 20
246.5281882711
 30
0.0
 10
352.5795776122
 20
249.9001059453
 30
0.0
 10
355.87402691
 20
255.4950712066
 30
0.0
 10
356.7678148348
 20
260.6495376911
 30
0.0
 10
356.7678148348
 20
263.2408352797
 30
0.0
  0
SPLINE
  5
404
100
AcDbEntity
  8
0
100
AcDbSpline
 62
7
  6
CONTINUOUS
 70
0
 71
3
 72
11
 73
7
 74
0
 42
0.0000001
 43
0.0000001
 44
0.0000000001
 40
0.0
 40
0.0
 40
0.0
 40
0.0
 40
0.176304079
 40
0.3958248461
 40
0.6730129662
 40
1.0
 40
1.0
 40
1.0
 40
1.0
 10
301.4275403665
 20
226.2408352797
 30
0.0
 10
301.1248682641
 20
226.2408352797
 30
0.0
 10
300.44439487
 20
226.4932170094
 30
0.0
 10
299.6705162933
 20
227.3850964922
 30
0.0
 10
299.0641723686
 20
228.6740526989
 30
0.0
 10
298.8137853672
 20
229.6873583465
 30
0.0
 10
298.7200462099
 20
230.2408352797
 30
0.0
  0
SPLINE
  5
405
100
AcDbEntity
  8
0
100
AcDbSpline
 62
7
  6
CONTINUOUS
 70
0
 71
3
 72
11
 73
7
 74
0
 42
0.0000001
 43
0.0000001
 44
0.0000000001
 40
0.0
 40
0.0
 40
0.0
 40
0.0
 40
0.2294328863
 40
0.4714099585
 40
0.7300714831
 40
1.0
 40
1.0
 40
1.0
 40
1.0
 10
280.4652087741
 20
265.2410120863
 30
0.0
 10
280.1353889011
 20
265.241004666
 30
0.0
 10
279.448957129
 20
265.4085100028
 30
0.0
 10
278.6161768535
 20
266.0945726769
 30
0.0
 10
278.073423234
 20
267.0865804514
 30
0.0
 10
277.9491972364
 20
267.8528011552
 30
0.0
 10
277.9491972364
 20
268.2408352797
 30
0.0
  0
SPLINE
  5
406
100
AcDbEntity
  8
0
100
AcDbSpline
 62
7
  6
CONTINUOUS
 70
0
 71
3
 72
11
 73
7
 74
0
 42
0.0000001
 43
0.0000001
 44
0.0000000001
 40
0.0
 40
0.0
 40
0.0
 40
0.0
 40
0.2294328863
 40
0.4714099585
 40
0.7300714831
 40
1.0
 40
1.0
 40
1.0
 40
1.0
 10
284.0053625017
 20
271.2406584732
 30
0.0
 10
283.6755426287
 20
271.2406658935
 30
0.0
 10
282.9891108566
 20
271.0731605568
 30
0.0
 10
282.1563305811
 20
270.3870978826
 30
0.0
 10
281.6135769616
 20
269.3950901081
 30
0.0
 10
281.489350964
 20
268.6288694043
 30
0.0
 10
281.489350964
 20
268.2408352797
 30
0.0
  0
SPLINE
  5
407
100
AcDbEntity
  8
0
100
AcDbSpline
 62
7
  6
CONTINUOUS
 70
0
 71
3
 72
10
 73
6
 74
0
 42
0.0000001
 43
0.0000001
 44
0.0000000001
 40
0.0
 40
0.0
 40
0.0
 40
0.0
 40
0.2312517143
 40
0.475133247
 40
1.0
 40
1.0
 40
1.0
 40
1.0
 10
292.3920683318
 20
270.3407780796
 30
0.0
 10
292.6229457839
 20
270.34076603
 30
0.0
 10
293.1035632391
 20
270.2226814056
 30
0.0
 10
293.894937441
 20
269.5754630462
 30
0.0
 10
294.15327654
 20
268.7648525792
 30
0.0
 10
294.15327654
 20
268.2408352797
 30
0.0
  0
SPLINE
  5
408
100
AcDbEntity
  8
0
100
AcDbSpline
 62
7
  6
CONTINUOUS
 70
0
 71
3
 72
10
 73
6
 74
0
 42
0.0000001
 43
0.0000001
 44
0.0000000001
 40
0.0
 40
0.0
 40
0.0
 40
0.0
 40
0.2322286795
 40
0.475775821
 40
1.0
 40
1.0
 40
1.0
 40
1.0
 10
288.8519144536
 20
265.2410120863
 30
0.0
 10
288.5439907646
 20
265.2410051586
 30
0.0
 10
287.9055804874
 20
265.3865770819
 30
0.0
 10
286.82093389
 20
266.198010314
 30
0.0
 10
286.4104409511
 20
267.2378004481
 30
0.0
 10
286.3495740321
 20
267.9302255856
 30
0.0
  0
SPLINE
  5
409
100
AcDbEntity
  8
0
100
AcDbSpline
 62
7
  6
CONTINUOUS
 70
0
 71
3
 72
11
 73
7
 74
0
 42
0.0000001
 43
0.0000001
 44
0.0000000001
 40
0.0
 40
0.0
 40
0.0
 40
0.0
 40
0.2294328863
 40
0.4714099585
 40
0.7300714831
 40
1.0
 40
1.0
 40
1.0
 40
1.0
 10
292.3920681812
 20
271.2406584732
 30
0.0
 10
292.0622483081
 20
271.2406658935
 30
0.0
 10
291.3758165361
 20
271.0731605567
 30
0.0
 10
290.5430362606
 20
270.3870978826
 30
0.0
 10
290.0002826411
 20
269.3950901081
 30
0.0
 10
289.8760566435
 20
268.6288694043
 30
0.0
 10
289.8760566435
 20
268.2408352797
 30
0.0
  0
SPLINE
  5
40A
100
AcDbEntity
  8
0
100
AcDbSpline
 62
7
  6
CONTINUOUS
 70
0
 71
3
 72
10
 73
6
 74
0
 42
0.0000001
 43
0.0000001
 44
0.0000000001
 40
0.0
 40
0.0
 40
0.0
 40
0.0
 40
0.5248471687
 40
0.7687310402
 40
1.0
 40
1.0
 40
1.0
 40
1.0
 10
294.15327654
 20
278.2408352797
 30
0.0
 10
294.15327654
 20
277.7168364883
 30
0.0
 10
293.8949527874
 20
276.9062436843
 30
0.0
 10
293.1036051833
 20
276.2590064267
 30
0.0
 10
292.6229634929
 20
276.1408804294
 30
0.0
 10
292.3920683628
 20
276.1408924799
 30
0.0
  0
SPLINE
  5
40B
100
AcDbEntity
  8
0
100
AcDbSpline
 62
7
  6
CONTINUOUS
 70
0
 71
3
 72
11
 73
7
 74
0
 42
0.0000001
 43
0.0000001
 44
0.0000000001
 40
0.0
 40
0.0
 40
0.0
 40
0.0
 40
0.2699289423
 40
0.5285756858
 40
0.7705536048
 40
1.0
 40
1.0
 40
1.0
 40
1.0
 10
289.8760566435
 20
278.2408352797
 30
0.0
 10
289.8760566435
 20
277.8528005536
 30
0.0
 10
290.00027605
 20
277.086599252
 30
0.0
 10
290.5430117644
 20
276.0946094254
 30
0.0
 10
291.3757773608
 20
275.4085239174
 30
0.0
 10
292.0622292293
 20
275.241019507
 30
0.0
 10
292.3920685134
 20
275.2410120863
 30
0.0
  0
SPLINE
  5
40C
100
AcDbEntity
  8
0
100
AcDbSpline
 62
7
  6
CONTINUOUS
 70
0
 71
3
 72
10
 73
6
 74
0
 42
0.0000001
 43
0.0000001
 44
0.0000000001
 40
0.0
 40
0.0
 40
0.0
 40
0.0
 40
0.2312517143
 40
0.475133247
 40
1.0
 40
1.0
 40
1.0
 40
1.0
 10
292.3920683318
 20
260.3407780796
 30
0.0
 10
292.6229457839
 20
260.34076603
 30
0.0
 10
293.1035632391
 20
260.2226814056
 30
0.0
 10
293.894937441
 20
259.5754630462
 30
0.0
 10
294.15327654
 20
258.7648525792
 30
0.0
 10
294.15327654
 20
258.2408352797
 30
0.0
  0
SPLINE
  5
40D
100
AcDbEntity
  8
0
100
AcDbSpline
 62
7
  6
CONTINUOUS
 70
0
 71
3
 72
10
 73
6
 74
0
 42
0.0000001
 43
0.0000001
 44
0.0000000001
 40
0.0
 40
0.0
 40
0.0
 40
0.0
 40
0.5248471687
 40
0.7687310402
 40
1.0
 40
1.0
 40
1.0
 40
1.0
 10
285.7665708605
 20
278.2408352797
 30
0.0
 10
285.7665708605
 20
277.7168364883
 30
0.0
 10
285.508247108
 20
276.9062436843
 30
0.0
 10
284.7168995039
 20
276.2590064268
 30
0.0
 10
284.2362578135
 20
276.1408804294
 30
0.0
 10
284.0053626834
 20
276.1408924799
 30
0.0
  0
SPLINE
  5
40E
100
AcDbEntity
  8
0
100
AcDbSpline
 62
7
  6
CONTINUOUS
 70
0
 71
3
 72
11
 73
7
 74
0
 42
0.0000001
 43
0.0000001
 44
0.0000000001
 40
0.0
 40
0.0
 40
0.0
 40
0.0
 40
0.2699289423
 40
0.5285756858
 40
0.7705536048
 40
1.0
 40
1.0
 40
1.0
 40
1.0
 10
281.489350964
 20
278.2408352797
 30
0.0
 10
281.489350964
 20
277.8528005536
 30
0.0
 10
281.6135703705
 20
277.0865992519
 30
0.0
 10
282.156306085
 20
276.0946094254
 30
0.0
 10
282.9890716813
 20
275.4085239173
 30
0.0
 10
283.6755235499
 20
275.241019507
 30
0.0
 10
284.005362834
 20
275.2410120863
 30
0.0
  0
ENDSEC
  0
SECTION
  2
OBJECTS
  0
DICTIONARY
  5
C
100
AcDbDictionary
280
0
281
1
  3
ACAD_GROUP
350
D
  3
ACAD_MLINESTYLE
350
17
  3
ACAD_LAYOUT
350
1A
  3
ACAD_PLOTSETTINGS
350
19
  3
ACAD_PLOTSTYLENAME
350
E
  0
DICTIONARY
  5
D
102
{ACAD_REACTORS
330
C
102
}
100
AcDbDictionary
280
0
281
1
  0
ACDBDICTIONARYWDFLT
  5
E
102
{ACAD_REACTORS
330
C
102
}
100
AcDbDictionary
281
1
  3
Normal
350
F
100
AcDbDictionaryWithDefault
340
F
  0
DICTIONARY
  5
17
102
{ACAD_REACTORS
330
C
102
}
100
AcDbDictionary
280
0
281
1
  3
Standard
350
18
  0
DICTIONARY
  5
19
102
{ACAD_REACTORS
330
C
102
}
100
AcDbDictionary
281
1
  0
DICTIONARY
  5
1A
102
{ACAD_REACTORS
330
C
102
}
100
AcDbDictionary
281
1
  3
Model
350
40F
  3
Layout1
350
410
  0
ACDBPLACEHOLDER
  5
F
102
{ACAD_REACTORS
330
E
102
}
  0
MLINESTYLE
  5
18
102
{ACAD_REACTORS
330
17
102
}
100
AcDbMlineStyle
  2
STANDARD
 70
0
  3

 62
256
 51
90.0
 52
90.0
 71
2
 49
0.5
 62
256
  6
BYLAYER
 49
-0.5
 62
256
  6
BYLAYER
  0
LAYOUT
  5
40F
102
{ACAD_REACTORS
330
1A
102
}
100
AcDbPlotSettings
  1

  2
none_device
  4

  6

 40
0.0
 41
0.0
 42
0.0
 43
0.0
 44
210.0
 45
297.0
 46
0.0
 47
0.0
 48
0.0
 49
0.0
140
0.0
141
0.0
142
1.0
143
1.0
 70
1024
 72
1
 73
0
 74
0
  7

 75
0
147
1.0
148
0.0
149
0.0
100
AcDbLayout
  1
Model
 70
0
 71
0
 10
0.0
 20
0.0
 11
210.0
 21
297.0
 12
0.0
 22
0.0
 32
0.0
 14
0.0
 24
0.0
 34
0.0
 15
0.0
 25
0.0
 35
0.0
146
0.0
 13
0.0
 23
0.0
 33
0.0
 16
1.0
 26
0.0
 36
0.0
 17
0.0
 27
1.0
 37
0.0
 76
0
330
211
345
0
346
0
  0
LAYOUT
  5
410
102
{ACAD_REACTORS
330
1A
102
}
100
AcDbPlotSettings
  1

  2
none_device
  4

  6

 40
0.0
 41
0.0
 42
0.0
 43
0.0
 44
210.0
 45
297.0
 46
0.0
 47
0.0
 48
0.0
 49
0.0
140
0.0
141
0.0
142
1.0
143
1.0
 70
0
 72
1
 73
0
 74
0
  7

 75
0
147
1.0
148
0.0
149
0.0
100
AcDbLayout
  1
Layout1
 70
0
 71
1
 10
0.0
 20
0.0
 11
210.0
 21
297.0
 12
0.0
 22
0.0
 32
0.0
 14
0.0
 24
0.0
 34
0.0
 15
0.0
 25
0.0
 35
0.0
146
0.0
 13
0.0
 23
0.0
 33
0.0
 16
1.0
 26
0.0
 36
0.0
 17
0.0
 27
1.0
 37
0.0
 76
0
330
212
345
0
346
0
  0
ENDSEC
  0
EOF
