999
DXF file: C:\Users\SESA730405\Desktop\New 2D genarating (3)\New 2D genarating\updateCreo8 with 3dPdf\CAD\GV3G66\drw0001_1.dxf
999
Pro/ENGINEER 2021284 by Parametric Technology Corporation
  0
SECTION
  2
HEADER
  9
$ACADVER
  1
AC1024
  9
$DWGCODEPAGE
  3
ANSI_1252
  9
$EXTMAX
 10
112.9010649046
 20
159.6743632222
 30
0.0
  9
$EXTMIN
 10
0.0
 20
0.0
 30
0.0
  9
$LIMMIN
 10
0.0
 20
0.0
  9
$LIMMAX
 10
112.9010649046
 20
159.6743632222
  9
$VIEWCTR
 10
56.4505324523
 20
79.8371816111
  9
$VIEWSIZE
 40
159.6743632222
  9
$CLAYER
  8
0
  9
$LTSCALE
 40
10.408402936
  9
$CELTYPE
  6
BYLAYER
  9
$DIMSCALE
 40
1.0
  9
$DIMASZ
 40
1.3440602965
  9
$DIMEXO
 40
1.0
  9
$DIMDLI
 40
7.1912602103
  9
$DIMEXE
 40
1.0
  9
$DIMCEN
 40
1.7031932077
  9
$DIMLFAC
 40
1.0
  9
$DIMBLK
  1
_FILLED
  9
$DIMALT
 70
0
  9
$DIMALTF
 40
0.0393700787
  9
$DIMTXT
 40
1.8816844151
  9
$DIMTOL
 70
1
  9
$DIMLIM
 70
0
  9
$DIMTFAC
 40
1.0
  9
$DIMTP
 40
0.01
  9
$DIMTM
 40
0.01
  9
$DIMGAP
 40
0.625
  9
$DIMDSEP
 70
46
  9
$AUNITS
 70
0
  9
$PDMODE
 70
3
  9
$PDSIZE
 40
0.3125
  9
$HANDSEED
  5
289
  9
$TILEMODE
 70
1
  9
$MEASUREMENT
 70
1
  9
$INSUNITS
 70
4
  0
ENDSEC
  0
SECTION
  2
CLASSES
  0
CLASS
  1
ACDBDICTIONARYWDFLT
  2
AcDbDictionaryWithDefault
  3
AutoCAD 2000
 90
0
 91
1
280
0
281
0
  0
CLASS
  1
ACDBPLACEHOLDER
  2
AcDbPlaceHolder
  3
AutoCAD 2000
 90
0
 91
1
280
0
281
0
  0
CLASS
  1
LAYOUT
  2
AcDbLayout
  3
AutoCAD 2000
 90
0
 91
0
280
0
281
0
  0
ENDSEC
  0
SECTION
  2
TABLES
  0
TABLE
  2
VPORT
  5
8
100
AcDbSymbolTable
 70
2
  0
VPORT
  5
1F4
100
AcDbSymbolTableRecord
100
AcDbViewportTableRecord
  2
*ACTIVE
 70
0
 10
0.0
 20
0.0
 11
1.0
 21
1.0
 12
56.4505324523
 22
79.8371816111
 13
0.0
 23
0.0
 14
1.0
 24
1.0
 15
0.0
 25
0.0
 16
0.0
 26
0.0
 36
1.0
 17
0.0
 27
0.0
 37
0.0
 40
159.6743632222
 41
0.7070707071
 42
50.0
 43
0.0
 44
0.0
 50
0.0
 51
0.0
 71
0
 72
100
 73
1
 74
1
 75
0
 76
0
 77
0
 78
0
  0
ENDTAB
  0
TABLE
  2
LTYPE
  5
5
100
AcDbSymbolTable
 70
6
  0
LTYPE
  5
14
100
AcDbSymbolTableRecord
100
AcDbLinetypeTableRecord
  2
BYBLOCK
 70
0
  3

 72
65
 73
0
 40
0.0
  0
LTYPE
  5
15
100
AcDbSymbolTableRecord
100
AcDbLinetypeTableRecord
  2
BYLAYER
 70
0
  3

 72
65
 73
0
 40
0.0
  0
LTYPE
  5
16
100
AcDbSymbolTableRecord
100
AcDbLinetypeTableRecord
  2
CONTINUOUS
 70
64
  3
Solid line
 72
65
 73
0
 40
0.0
  0
LTYPE
  5
1F5
100
AcDbSymbolTableRecord
100
AcDbLinetypeTableRecord
  2
CENTER
 70
64
  3
____ _ ____ _ ____ _ ____ _ ____ _ ____ _ ____
 72
65
 73
4
 40
0.6
 49
0.375
 74
0
 49
-0.075
 74
0
 49
0.075
 74
0
 49
-0.075
 74
0
  0
LTYPE
  5
1F6
100
AcDbSymbolTableRecord
100
AcDbLinetypeTableRecord
  2
HIDDEN
 70
64
  3
- - - - - - - - - - - - - - - - - - - -
 72
65
 73
2
 40
0.2
 49
0.1
 74
0
 49
-0.1
 74
0
  0
LTYPE
  5
1F7
100
AcDbSymbolTableRecord
100
AcDbLinetypeTableRecord
  2
PHANTOM
 70
64
  3
_____ _ _ _____ _ _ _____ _ _ _____
 72
65
 73
6
 40
0.8
 49
0.45
 74
0
 49
-0.05
 74
0
 49
0.1
 74
0
 49
-0.05
 74
0
 49
0.1
 74
0
 49
-0.05
 74
0
  0
LTYPE
  5
1F8
100
AcDbSymbolTableRecord
100
AcDbLinetypeTableRecord
  2
DOT
 70
64
  3
. . . . . . . . . . . . . . . . . . . .
 72
65
 73
2
 40
0.2
 49
0.1
 74
0
 49
-0.1
 74
0
  0
LTYPE
  5
1F9
100
AcDbSymbolTableRecord
100
AcDbLinetypeTableRecord
  2
DASHED
 70
64
  3
- - - - - - - - - - - - - - - - - - - -
 72
65
 73
2
 40
0.2
 49
0.1
 74
0
 49
-0.1
 74
0
  0
ENDTAB
  0
TABLE
  2
LAYER
  5
2
100
AcDbSymbolTable
 70
36
  0
LAYER
  5
10
100
AcDbSymbolTableRecord
100
AcDbLayerTableRecord
  2
0
 70
0
 62
7
  6
CONTINUOUS
370
-3
390
F
  0
LAYER
  5
1FA
100
AcDbSymbolTableRecord
100
AcDbLayerTableRecord
  2
DEFAULT_1
 70
0
 62
7
  6
CENTER
370
-3
390
F
  0
LAYER
  5
1FB
100
AcDbSymbolTableRecord
100
AcDbLayerTableRecord
  2
DEFAULT_2
 70
0
 62
8
  6
HIDDEN
370
-3
390
F
  0
LAYER
  5
1FC
100
AcDbSymbolTableRecord
100
AcDbLayerTableRecord
  2
DEFAULT_3
 70
0
 62
7
  6
PHANTOM
370
-3
390
F
  0
LAYER
  5
1FD
100
AcDbSymbolTableRecord
100
AcDbLayerTableRecord
  2
00_COMPONENTS
 70
0
 62
7
  6
CONTINUOUS
370
-3
390
F
  0
LAYER
  5
1FE
100
AcDbSymbolTableRecord
100
AcDbLayerTableRecord
  2
00_COMPONENTS_1
 70
0
 62
7
  6
CONTINUOUS
370
-3
390
F
  0
LAYER
  5
1FF
100
AcDbSymbolTableRecord
100
AcDbLayerTableRecord
  2
01_1_DEFAULT_DATUMS
 70
0
 62
7
  6
CONTINUOUS
370
-3
390
F
  0
LAYER
  5
200
100
AcDbSymbolTableRecord
100
AcDbLayerTableRecord
  2
01_PLANES
 70
0
 62
7
  6
CONTINUOUS
370
-3
390
F
  0
LAYER
  5
201
100
AcDbSymbolTableRecord
100
AcDbLayerTableRecord
  2
02_COORD_SYS
 70
0
 62
7
  6
CONTINUOUS
370
-3
390
F
  0
LAYER
  5
202
100
AcDbSymbolTableRecord
100
AcDbLayerTableRecord
  2
03_AXES
 70
0
 62
7
  6
CONTINUOUS
370
-3
390
F
  0
LAYER
  5
203
100
AcDbSymbolTableRecord
100
AcDbLayerTableRecord
  2
04_POINTS
 70
0
 62
7
  6
CONTINUOUS
370
-3
390
F
  0
LAYER
  5
204
100
AcDbSymbolTableRecord
100
AcDbLayerTableRecord
  2
05_CURVES
 70
0
 62
7
  6
CONTINUOUS
370
-3
390
F
  0
LAYER
  5
205
100
AcDbSymbolTableRecord
100
AcDbLayerTableRecord
  2
06_SURFS
 70
0
 62
7
  6
CONTINUOUS
370
-3
390
F
  0
LAYER
  5
206
100
AcDbSymbolTableRecord
100
AcDbLayerTableRecord
  2
07_COSMETICS
 70
0
 62
7
  6
CONTINUOUS
370
-3
390
F
  0
LAYER
  5
207
100
AcDbSymbolTableRecord
100
AcDbLayerTableRecord
  2
10_NOTES
 70
0
 62
7
  6
CONTINUOUS
370
-3
390
F
  0
LAYER
  5
208
100
AcDbSymbolTableRecord
100
AcDbLayerTableRecord
  2
11_NOTES_PUB
 70
0
 62
7
  6
CONTINUOUS
370
-3
390
F
  0
LAYER
  5
209
100
AcDbSymbolTableRecord
100
AcDbLayerTableRecord
  2
13_REF_GTOL
 70
0
 62
7
  6
CONTINUOUS
370
-3
390
F
  0
LAYER
  5
20A
100
AcDbSymbolTableRecord
100
AcDbLayerTableRecord
  2
16_MISC
 70
0
 62
7
  6
CONTINUOUS
370
-3
390
F
  0
LAYER
  5
20B
100
AcDbSymbolTableRecord
100
AcDbLayerTableRecord
  2
17_NO_PRINT
 70
0
 62
7
  6
CONTINUOUS
370
-3
390
F
  0
LAYER
  5
20C
100
AcDbSymbolTableRecord
100
AcDbLayerTableRecord
  2
18_DATUM_CAMS_JOINTS
 70
0
 62
7
  6
CONTINUOUS
370
-3
390
F
  0
LAYER
  5
20D
100
AcDbSymbolTableRecord
100
AcDbLayerTableRecord
  2
19_DATUM_FUNCTIONAL
 70
0
 62
7
  6
CONTINUOUS
370
-3
390
F
  0
LAYER
  5
20E
100
AcDbSymbolTableRecord
100
AcDbLayerTableRecord
  2
20_DATUM_KINEMATIC_SCHEME
 70
0
 62
7
  6
CONTINUOUS
370
-3
390
F
  0
ENDTAB
  0
TABLE
  2
STYLE
  5
3
100
AcDbSymbolTable
 70
1
  0
STYLE
  5
11
100
AcDbSymbolTableRecord
100
AcDbTextStyleTableRecord
  2
STANDARD
 70
0
 40
0.0
 41
0.8
 50
0.0
 71
0
 42
0.2
  3
txt
  4

  0
STYLE
  5
20F
100
AcDbSymbolTableRecord
100
AcDbTextStyleTableRecord
  2
TEXTSTYLE_1
 70
0
 40
0.0
 41
0.8
 50
0.0
 71
0
 42
0.2
  3
gdt
  4

  0
ENDTAB
  0
TABLE
  2
VIEW
  5
6
100
AcDbSymbolTable
 70
0
  0
ENDTAB
  0
TABLE
  2
UCS
  5
7
100
AcDbSymbolTable
 70
0
  0
ENDTAB
  0
TABLE
  2
APPID
  5
9
100
AcDbSymbolTable
 70
1
  0
APPID
  5
210
100
AcDbSymbolTableRecord
100
AcDbRegAppTableRecord
  2
ACAD
 70
0
  0
ENDTAB
  0
TABLE
  2
BLOCK_RECORD
  5
1
100
AcDbSymbolTable
 70
0
  0
BLOCK_RECORD
  5
211
100
AcDbSymbolTableRecord
100
AcDbBlockTableRecord
  2
*Model_Space
  0
BLOCK_RECORD
  5
212
100
AcDbSymbolTableRecord
100
AcDbBlockTableRecord
  2
*Paper_Space
  0
BLOCK_RECORD
  5
213
100
AcDbSymbolTableRecord
100
AcDbBlockTableRecord
  2
_FILLED
  0
ENDTAB
  0
TABLE
  2
DIMSTYLE
  5
A
100
AcDbSymbolTable
 70
1
100
AcDbDimStyleTable
 71
0
  0
DIMSTYLE
105
214
100
AcDbSymbolTableRecord
100
AcDbDimStyleTableRecord
  2
STANDARD
 70
0
  3

  4

 40
1.0
 41
1.3440602965
 42
1.0
 43
0.38
 44
1.0
 45
0.0
 46
0.0
 47
0.01
 48
0.01
140
1.8816844151
141
0.09
142
0.0
143
25.4
144
1.0
145
0.0
146
1.0
147
0.625
 71
1
 72
0
 73
0
 74
0
 75
0
 76
0
 77
1
 78
8
 79
2
170
0
171
1
172
0
173
0
174
0
175
0
176
0
177
0
178
0
270
2
179
2
271
2
272
2
273
2
274
2
275
0
280
0
281
0
282
0
283
1
284
8
285
0
286
0
287
3
288
0
340
11
278
46
341
213
342
213
343
213
344
213
  0
ENDTAB
  0
ENDSEC
  0
SECTION
  2
BLOCKS
  0
BLOCK
  5
20
100
AcDbEntity
  8
0
100
AcDbBlockBegin
  2
*Model_Space
 70
0
 10
0.0
 20
0.0
 30
0.0
  3
*Model_Space
  1

  0
ENDBLK
  5
21
100
AcDbEntity
  8
0
100
AcDbBlockEnd
  0
BLOCK
  5
1C
100
AcDbEntity
  8
0
100
AcDbBlockBegin
  2
*Paper_Space
 70
0
 10
0.0
 20
0.0
 30
0.0
  3
*Paper_Space
  1

  0
ENDBLK
  5
1D
100
AcDbEntity
  8
0
100
AcDbBlockEnd
  0
BLOCK
  5
215
100
AcDbEntity
  8
0
100
AcDbBlockBegin
  2
_FILLED
 70
64
 10
0.0
 20
0.0
  3
_FILLED
  1

  0
SOLID
  5
216
100
AcDbEntity
  8
0
  6
BYBLOCK
 62
0
100
AcDbTrace
 10
0.0
 20
0.0
 11
-1.0
 21
0.25
 12
-1.0
 22
-0.25
 13
-1.0
 23
-0.25
  0
ENDBLK
  5
217
100
AcDbEntity
  8
0
  6
BYBLOCK
 62
0
100
AcDbBlockEnd
  0
ENDSEC
  0
SECTION
  2
ENTITIES
  0
LINE
  5
218
100
AcDbEntity
  8
00_COMPONENTS_1
100
AcDbLine
 62
7
  6
CONTINUOUS
 10
13.0978224865
 20
65.7827078129
 11
13.0978224865
 21
81.37790398
  0
LINE
  5
219
100
AcDbEntity
  8
00_COMPONENTS_1
100
AcDbLine
 62
7
  6
CONTINUOUS
 10
24.1748276182
 20
72.0965767941
 11
24.1748276182
 21
58.9508878783
  0
LINE
  5
21A
100
AcDbEntity
  8
00_COMPONENTS_1
100
AcDbLine
 62
7
  6
CONTINUOUS
 10
25.860536662
 20
57.8829058697
 11
25.860536662
 21
71.0285947854
  0
LINE
  5
21B
100
AcDbEntity
  8
00_COMPONENTS_1
100
AcDbLine
 62
7
  6
CONTINUOUS
 10
46.1151499739
 20
106.9315959988
 11
62.9531053473
 21
116.6529360377
  0
LINE
  5
21C
100
AcDbEntity
  8
00_COMPONENTS_1
100
AcDbLine
 62
7
  6
CONTINUOUS
 10
63.3453713855
 20
115.8996236192
 11
47.4199472761
 21
106.7051306064
  0
LINE
  5
21D
100
AcDbEntity
  8
00_COMPONENTS_1
100
AcDbLine
 62
7
  6
CONTINUOUS
 10
13.0978224865
 20
81.37790398
 11
46.1151499739
 21
100.4403531053
  0
LINE
  5
21E
100
AcDbEntity
  8
00_COMPONENTS_1
100
AcDbLine
 62
7
  6
CONTINUOUS
 10
36.4671825395
 20
64.9049834675
 11
36.4671825395
 21
51.7592945517
  0
LINE
  5
21F
100
AcDbEntity
  8
00_COMPONENTS_1
100
AcDbLine
 62
7
  6
CONTINUOUS
 10
38.3170221214
 20
50.7860727877
 11
38.3170221214
 21
63.9317617035
  0
LINE
  5
220
100
AcDbEntity
  8
00_COMPONENTS_1
100
AcDbLine
 62
7
  6
CONTINUOUS
 10
54.8445993901
 20
102.4186026839
 11
70.7700234996
 21
111.6130956968
  0
LINE
  5
221
100
AcDbEntity
  8
00_COMPONENTS_1
100
AcDbLine
 62
7
  6
CONTINUOUS
 10
72.0748208017
 20
111.3866303044
 11
55.2368654283
 21
101.6652902655
  0
LINE
  5
222
100
AcDbEntity
  8
00_COMPONENTS_1
100
AcDbLine
 62
7
  6
CONTINUOUS
 10
39.6850292158
 20
81.0513424088
 11
39.6850292158
 21
82.5210467596
  0
LINE
  5
223
100
AcDbEntity
  8
00_COMPONENTS_1
100
AcDbLine
 62
7
  6
CONTINUOUS
 10
40.0739395646
 20
80.7043621444
 11
40.0739395646
 21
80.8268099938
  0
LINE
  5
224
100
AcDbEntity
  8
00_COMPONENTS_1
100
AcDbLine
 62
7
  6
CONTINUOUS
 10
58.489570164
 20
99.7873827947
 11
75.3275255374
 21
109.5087228336
  0
LINE
  5
225
100
AcDbEntity
  8
00_COMPONENTS_1
100
AcDbLine
 62
7
  6
CONTINUOUS
 10
75.7197915756
 20
108.7554104151
 11
59.7943674662
 21
99.5609174023
  0
LINE
  5
226
100
AcDbEntity
  8
00_COMPONENTS_1
100
AcDbLine
 62
7
  6
CONTINUOUS
 10
46.1151499739
 20
97.6234684435
 11
46.1151499739
 21
106.9315959988
  0
LINE
  5
227
100
AcDbEntity
  8
00_COMPONENTS_1
100
AcDbLine
 62
7
  6
CONTINUOUS
 10
56.085390033
 20
94.4800605291
 11
55.2368654283
 21
93.9901675445
  0
LINE
  5
228
100
AcDbEntity
  8
00_COMPONENTS_1
100
AcDbLine
 62
7
  6
CONTINUOUS
 10
58.489570164
 20
94.2351014552
 11
57.4996339218
 21
93.6635649108
  0
LINE
  5
229
100
AcDbEntity
  8
00_COMPONENTS_1
100
AcDbLine
 62
7
  6
CONTINUOUS
 10
37.9172696228
 20
81.5004363749
 11
39.6850292158
 21
82.5210467596
  0
LINE
  5
22A
100
AcDbEntity
  8
00_COMPONENTS_1
100
AcDbLine
 62
7
  6
CONTINUOUS
 10
46.3683752787
 20
53.4749070841
 11
46.3683752787
 21
53.9809058678
  0
LINE
  5
22B
100
AcDbEntity
  8
00_COMPONENTS_1
100
AcDbLine
 62
7
  6
CONTINUOUS
 10
19.2592787202
 20
70.5648432756
 11
17.641208998
 21
69.6306558623
  0
LINE
  5
22C
100
AcDbEntity
  8
00_COMPONENTS_1
100
AcDbLine
 62
7
  6
CONTINUOUS
 10
39.1900891227
 20
80.7655903185
 11
39.6850292158
 21
81.0513424088
  0
LINE
  5
22D
100
AcDbEntity
  8
00_COMPONENTS_1
100
AcDbLine
 62
7
  6
CONTINUOUS
 10
41.4528035287
 20
81.5004448733
 11
39.6850439356
 21
80.4798344886
  0
LINE
  5
22E
100
AcDbEntity
  8
00_COMPONENTS_1
100
AcDbLine
 62
7
  6
CONTINUOUS
 10
67.2190195802
 20
95.2743894798
 11
83.1444436897
 21
104.4688824927
  0
LINE
  5
22F
100
AcDbEntity
  8
00_COMPONENTS_1
100
AcDbLine
 62
7
  6
CONTINUOUS
 10
18.4565972111
 20
66.6721075046
 11
21.1357764337
 21
68.2189231167
  0
LINE
  5
230
100
AcDbEntity
  8
00_COMPONENTS_1
100
AcDbLine
 62
7
  6
CONTINUOUS
 10
84.4492409918
 20
104.2424171002
 11
67.6112856184
 21
94.5210770614
  0
LINE
  5
231
100
AcDbEntity
  8
00_COMPONENTS_1
100
AcDbLine
 62
7
  6
CONTINUOUS
 10
52.0594641257
 20
73.3356212845
 11
50.2916898129
 21
74.3562231708
  0
LINE
  5
232
100
AcDbEntity
  8
00_COMPONENTS_1
100
AcDbLine
 62
7
  6
CONTINUOUS
 10
39.6850439356
 20
80.4798344886
 11
37.9172696228
 21
81.5004363749
  0
LINE
  5
233
100
AcDbEntity
  8
00_COMPONENTS_1
100
AcDbLine
 62
7
  6
CONTINUOUS
 10
39.6850292158
 20
81.0513424088
 11
40.0739395646
 21
80.8268099938
  0
LINE
  5
234
100
AcDbEntity
  8
00_COMPONENTS_1
100
AcDbLine
 62
7
  6
CONTINUOUS
 10
52.0594494059
 20
73.9071292047
 11
52.4483597547
 21
73.6825967897
  0
LINE
  5
235
100
AcDbEntity
  8
00_COMPONENTS_1
100
AcDbLine
 62
7
  6
CONTINUOUS
 10
51.8474354246
 20
59.0063106323
 11
51.8474354246
 21
43.4111144652
  0
LINE
  5
236
100
AcDbEntity
  8
00_COMPONENTS_1
100
AcDbLine
 62
7
  6
CONTINUOUS
 10
52.0594494059
 20
73.9071292047
 11
52.0594494059
 21
75.3768335555
  0
LINE
  5
237
100
AcDbEntity
  8
00_COMPONENTS_1
100
AcDbLine
 62
7
  6
CONTINUOUS
 10
52.4483597547
 20
73.5601489403
 11
52.4483597547
 21
73.6825967897
  0
LINE
  5
238
100
AcDbEntity
  8
00_COMPONENTS_1
100
AcDbLine
 62
7
  6
CONTINUOUS
 10
70.8639903541
 20
92.6431695906
 11
87.7019457275
 21
102.3645096295
  0
LINE
  5
239
100
AcDbEntity
  8
00_COMPONENTS_1
100
AcDbLine
 62
7
  6
CONTINUOUS
 10
39.6850292158
 20
82.5210467596
 11
41.4528035287
 21
81.5004448733
  0
LINE
  5
23A
100
AcDbEntity
  8
00_COMPONENTS_1
100
AcDbLine
 62
7
  6
CONTINUOUS
 10
52.0594494059
 20
75.3768335555
 11
53.8272237188
 21
74.3562316692
  0
LINE
  5
23B
100
AcDbEntity
  8
00_COMPONENTS_1
100
AcDbLine
 62
7
  6
CONTINUOUS
 10
55.2368654283
 20
101.6652902655
 11
55.2368654283
 21
92.3571627102
  0
LINE
  5
23C
100
AcDbEntity
  8
00_COMPONENTS_1
100
AcDbLine
 62
7
  6
CONTINUOUS
 10
88.0942117657
 20
101.611197211
 11
72.1687876562
 21
92.4167041982
  0
LINE
  5
23D
100
AcDbEntity
  8
00_COMPONENTS_1
100
AcDbLine
 62
7
  6
CONTINUOUS
 10
68.4598102231
 20
87.335847325
 11
67.6112856184
 21
86.8459543404
  0
LINE
  5
23E
100
AcDbEntity
  8
00_COMPONENTS_1
100
AcDbLine
 62
7
  6
CONTINUOUS
 10
58.489570164
 20
90.4792552394
 11
58.489570164
 21
99.7873827947
  0
LINE
  5
23F
100
AcDbEntity
  8
00_COMPONENTS_1
100
AcDbLine
 62
7
  6
CONTINUOUS
 10
59.0700954818
 20
60.5634827344
 11
59.0700954818
 21
47.581094302
  0
LINE
  5
240
100
AcDbEntity
  8
00_COMPONENTS_1
100
AcDbLine
 62
7
  6
CONTINUOUS
 10
70.8639903541
 20
87.0908882511
 11
69.8740541118
 21
86.5193517067
  0
LINE
  5
241
100
AcDbEntity
  8
00_COMPONENTS_1
100
AcDbLine
 62
7
  6
CONTINUOUS
 10
50.2916898129
 20
74.3562231708
 11
52.0594494059
 21
75.3768335555
  0
LINE
  5
242
100
AcDbEntity
  8
00_COMPONENTS_1
100
AcDbLine
 62
7
  6
CONTINUOUS
 10
31.0587347785
 20
63.0886763568
 11
29.1779027223
 21
62.0027839447
  0
LINE
  5
243
100
AcDbEntity
  8
00_COMPONENTS_1
100
AcDbLine
 62
7
  6
CONTINUOUS
 10
24.1748276182
 20
58.9508878783
 11
25.860536662
 21
59.9241266391
  0
LINE
  5
244
100
AcDbEntity
  8
00_COMPONENTS_1
100
AcDbLine
 62
7
  6
CONTINUOUS
 10
51.5645093127
 20
73.6213771144
 11
52.0594494059
 21
73.9071292047
  0
LINE
  5
245
100
AcDbEntity
  8
00_COMPONENTS_1
100
AcDbLine
 62
7
  6
CONTINUOUS
 10
53.8272237188
 20
74.3562316692
 11
52.0594641257
 21
73.3356212845
  0
LINE
  5
246
100
AcDbEntity
  8
00_COMPONENTS_1
100
AcDbLine
 62
7
  6
CONTINUOUS
 10
79.5934397703
 20
88.1301762757
 11
95.5188638797
 21
97.3246692886
  0
LINE
  5
247
100
AcDbEntity
  8
00_COMPONENTS_1
100
AcDbLine
 62
7
  6
CONTINUOUS
 10
63.3453713855
 20
107.3264963876
 11
63.3453713855
 21
115.8996236192
  0
LINE
  5
248
100
AcDbEntity
  8
00_COMPONENTS_1
100
AcDbLine
 62
7
  6
CONTINUOUS
 10
30.0795344952
 20
59.0940280323
 11
33.1260315848
 21
60.8529134479
  0
LINE
  5
249
100
AcDbEntity
  8
00_COMPONENTS_1
100
AcDbLine
 62
7
  6
CONTINUOUS
 10
96.8236611819
 20
97.0982038961
 11
79.9857058085
 21
87.3768638573
  0
LINE
  5
24A
100
AcDbEntity
  8
00_COMPONENTS_1
100
AcDbLine
 62
7
  6
CONTINUOUS
 10
33.4058212713
 20
60.2795630971
 11
30.4378195436
 21
58.5659967292
  0
LINE
  5
24B
100
AcDbEntity
  8
00_COMPONENTS_1
100
AcDbLine
 62
7
  6
CONTINUOUS
 10
67.6112856184
 20
94.5210770614
 11
67.6112856184
 21
85.2129495061
  0
LINE
  5
24C
100
AcDbEntity
  8
00_COMPONENTS_1
100
AcDbLine
 62
7
  6
CONTINUOUS
 10
70.8639903541
 20
83.3350420353
 11
67.6112856184
 21
85.2129495061
  0
LINE
  5
24D
100
AcDbEntity
  8
00_COMPONENTS_1
100
AcDbLine
 62
7
  6
CONTINUOUS
 10
58.489570164
 20
90.4792552394
 11
55.2368654283
 21
92.3571627102
  0
LINE
  5
24E
100
AcDbEntity
  8
00_COMPONENTS_1
100
AcDbLine
 62
7
  6
CONTINUOUS
 10
70.8639903541
 20
84.9680468696
 11
67.6112856184
 21
86.8459543404
  0
LINE
  5
24F
100
AcDbEntity
  8
00_COMPONENTS_1
100
AcDbLine
 62
7
  6
CONTINUOUS
 10
58.489570164
 20
92.1122600737
 11
55.2368654283
 21
93.9901675445
  0
LINE
  5
250
100
AcDbEntity
  8
00_COMPONENTS_1
100
AcDbLine
 62
7
  6
CONTINUOUS
 10
56.085390033
 20
94.4800605291
 11
58.489570164
 21
93.0920378846
  0
LINE
  5
251
100
AcDbEntity
  8
00_COMPONENTS_1
100
AcDbLine
 62
7
  6
CONTINUOUS
 10
68.4598102231
 20
87.335847325
 11
70.8639903541
 21
85.9478246805
  0
LINE
  5
252
100
AcDbEntity
  8
00_COMPONENTS_1
100
AcDbLine
 62
7
  6
CONTINUOUS
 10
70.8639903541
 20
83.3350420353
 11
70.8639903541
 21
92.6431695906
  0
LINE
  5
253
100
AcDbEntity
  8
00_COMPONENTS_1
100
AcDbLine
 62
7
  6
CONTINUOUS
 10
72.0748208017
 20
107.6307840886
 11
72.0748208017
 21
111.3866303044
  0
LINE
  5
254
100
AcDbEntity
  8
00_COMPONENTS_1
100
AcDbLine
 62
7
  6
CONTINUOUS
 10
96.8236611819
 20
87.7900763409
 11
79.9857058085
 21
78.068736302
  0
LINE
  5
255
100
AcDbEntity
  8
00_COMPONENTS_1
100
AcDbLine
 62
7
  6
CONTINUOUS
 10
44.0081458436
 20
56.2764323075
 11
41.8728792196
 21
55.0436429062
  0
LINE
  5
256
100
AcDbEntity
  8
00_COMPONENTS_1
100
AcDbLine
 62
7
  6
CONTINUOUS
 10
36.4671825395
 20
51.7592945517
 11
38.3170221214
 21
52.8272935571
  0
LINE
  5
257
100
AcDbEntity
  8
00_COMPONENTS_1
100
AcDbLine
 62
7
  6
CONTINUOUS
 10
101.5568351807
 20
87.7058746495
 11
51.8474354246
 21
59.0063106323
  0
LINE
  5
258
100
AcDbEntity
  8
00_COMPONENTS_1
100
AcDbLine
 62
7
  6
CONTINUOUS
 10
75.7197915756
 20
100.1822831835
 11
75.7197915756
 21
108.7554104151
  0
LINE
  5
259
100
AcDbEntity
  8
00_COMPONENTS_1
100
AcDbLine
 62
7
  6
CONTINUOUS
 10
42.860065308
 20
52.1842815059
 11
46.2668874829
 21
54.1511994648
  0
LINE
  5
25A
100
AcDbEntity
  8
00_COMPONENTS_1
100
AcDbLine
 62
7
  6
CONTINUOUS
 10
46.3683752787
 20
53.4749070841
 11
43.252321994
 21
51.6758636201
  0
LINE
  5
25B
100
AcDbEntity
  8
00_COMPONENTS_1
100
AcDbLine
 62
7
  6
CONTINUOUS
 10
59.0700954818
 20
60.5634827344
 11
101.5568351807
 21
85.0930669147
  0
LINE
  5
25C
100
AcDbEntity
  8
00_COMPONENTS_1
100
AcDbLine
 62
7
  6
CONTINUOUS
 10
79.9857058085
 20
87.3768638573
 11
79.9857058085
 21
78.068736302
  0
LINE
  5
25D
100
AcDbEntity
  8
00_COMPONENTS_1
100
AcDbLine
 62
7
  6
CONTINUOUS
 10
84.4492409918
 20
100.4865708845
 11
84.4492409918
 21
104.2424171002
  0
LINE
  5
25E
100
AcDbEntity
  8
00_COMPONENTS_1
100
AcDbLine
 62
7
  6
CONTINUOUS
 10
88.0942117657
 20
93.0380699794
 11
88.0942117657
 21
101.611197211
  0
LINE
  5
25F
100
AcDbEntity
  8
00_COMPONENTS_1
100
AcDbLine
 62
7
  6
CONTINUOUS
 10
59.0700954818
 20
47.581094302
 11
51.8474354246
 21
43.4111144652
  0
LINE
  5
260
100
AcDbEntity
  8
00_COMPONENTS_1
100
AcDbLine
 62
7
  6
CONTINUOUS
 10
96.8236611819
 20
90.4385121113
 11
101.5568351807
 21
87.7058746495
  0
LINE
  5
261
100
AcDbEntity
  8
00_COMPONENTS_1
100
AcDbLine
 62
7
  6
CONTINUOUS
 10
96.8236611819
 20
87.7900763409
 11
96.8236611819
 21
97.0982038961
  0
LINE
  5
262
100
AcDbEntity
  8
00_COMPONENTS_1
100
AcDbLine
 62
7
  6
CONTINUOUS
 10
101.5568351807
 20
85.0930669147
 11
101.5568351807
 21
87.7058746495
  0
ARC
  5
263
100
AcDbEntity
  8
00_COMPONENTS_1
100
AcDbCircle
 62
7
  6
CONTINUOUS
 10
126.1831742296
 20
220.0412474208
 40
190.7033686812
100
AcDbArc
 50
241.9366279779
 51
242.564629647
  0
ARC
  5
264
100
AcDbEntity
  8
00_COMPONENTS_1
100
AcDbCircle
 62
7
  6
CONTINUOUS
 10
125.9034283021
 20
232.655212624
 40
190.1025550543
100
AcDbArc
 50
241.9356355774
 51
242.5656220476
  0
ARC
  5
265
100
AcDbEntity
  8
00_COMPONENTS_1
100
AcDbCircle
 62
7
  6
CONTINUOUS
 10
113.8399044102
 20
198.6144115942
 40
165.9690508886
100
AcDbArc
 50
237.2992190879
 51
237.9881246673
  0
ARC
  5
266
100
AcDbEntity
  8
00_COMPONENTS_1
100
AcDbCircle
 62
7
  6
CONTINUOUS
 10
113.5329198254
 20
211.2755542473
 40
165.3954546166
100
AcDbArc
 50
237.2980245011
 51
237.9893192541
  0
SPLINE
  5
267
100
AcDbEntity
  8
00_COMPONENTS_1
100
AcDbSpline
 62
7
  6
CONTINUOUS
 70
0
 71
3
 72
13
 73
9
 74
0
 42
0.0000001
 43
0.0000001
 44
0.0000000001
 40
0.0
 40
0.0
 40
0.0
 40
0.0
 40
0.1032074123
 40
0.2097971257
 40
0.4401127775
 40
0.5671486693
 40
0.702837784
 40
1.0
 40
1.0
 40
1.0
 40
1.0
 10
21.0417528081
 20
63.9065427629
 30
0.0
 10
21.1009459905
 20
63.940738491
 30
0.0
 10
21.2150676966
 20
64.0216262703
 30
0.0
 10
21.4202117035
 20
64.2304945706
 30
0.0
 10
21.5768704612
 20
64.5010450125
 30
0.0
 10
21.6846930899
 20
64.8096746695
 30
0.0
 10
21.7674710501
 20
65.1718759653
 30
0.0
 10
21.7887432341
 20
65.4597838217
 30
0.0
 10
21.7887432341
 20
65.6566127757
 30
0.0
  0
SPLINE
  5
268
100
AcDbEntity
  8
00_COMPONENTS_1
100
AcDbSpline
 62
7
  6
CONTINUOUS
 70
0
 71
3
 72
18
 73
14
 74
0
 42
0.0000001
 43
0.0000001
 44
0.0000000001
 40
0.0
 40
0.0
 40
0.0
 40
0.0
 40
0.0417423811
 40
0.0870160191
 40
0.1364291406
 40
0.1902249678
 40
0.2484421159
 40
0.3107830114
 40
0.4454586508
 40
0.5887717646
 40
0.733778766
 40
0.8731158795
 40
1.0
 40
1.0
 40
1.0
 40
1.0
 10
21.4153508833
 20
64.2508321557
 30
0.0
 10
21.3169008137
 20
64.2426333874
 30
0.0
 10
21.1091628963
 20
64.2501274951
 30
0.0
 10
20.7937145981
 20
64.3262806701
 30
0.0
 10
20.4687339911
 20
64.4633748032
 30
0.0
 10
20.1394019489
 20
64.6590224719
 30
0.0
 10
19.8114603085
 20
64.9108664225
 30
0.0
 10
19.371548374
 20
65.3260198215
 30
0.0
 10
18.8630172693
 20
65.9557085988
 30
0.0
 10
18.352738338
 20
66.8204856096
 30
0.0
 10
17.9594507333
 20
67.7565876208
 30
0.0
 10
17.7078453367
 20
68.699804364
 30
0.0
 10
17.641208998
 20
69.3303617172
 30
0.0
 10
17.641208998
 20
69.6306558623
 30
0.0
  0
SPLINE
  5
269
100
AcDbEntity
  8
00_COMPONENTS_1
100
AcDbSpline
 62
7
  6
CONTINUOUS
 70
0
 71
3
 72
11
 73
7
 74
0
 42
0.0000001
 43
0.0000001
 44
0.0000000001
 40
0.0
 40
0.0
 40
0.0
 40
0.0
 40
0.2362524947
 40
0.4818608447
 40
0.7365778802
 40
1.0
 40
1.0
 40
1.0
 40
1.0
 10
13.0978224865
 20
65.7827078129
 30
0.0
 10
15.8886257549
 20
63.6171664603
 30
0.0
 10
21.7482165894
 20
59.4127288102
 30
0.0
 10
31.1176973753
 20
53.6102578626
 30
0.0
 10
41.1913077429
 20
48.2171744712
 30
0.0
 10
48.2285085321
 20
44.9656524141
 30
0.0
 10
51.8474354246
 20
43.4111144652
 30
0.0
  0
SPLINE
  5
26A
100
AcDbEntity
  8
00_COMPONENTS_1
100
AcDbSpline
 62
7
  6
CONTINUOUS
 70
0
 71
3
 72
12
 73
8
 74
0
 42
0.0000001
 43
0.0000001
 44
0.0000000001
 40
0.0
 40
0.0
 40
0.0
 40
0.0
 40
0.1089630227
 40
0.219851538
 40
0.4535230118
 40
0.7121859549
 40
1.0
 40
1.0
 40
1.0
 40
1.0
 10
33.0225661228
 20
56.5350787533
 30
0.0
 10
33.0874199353
 20
56.5725434272
 30
0.0
 10
33.2121769566
 20
56.6593028252
 30
0.0
 10
33.4362188845
 20
56.877789865
 30
0.0
 10
33.6587758569
 20
57.2355205229
 30
0.0
 10
33.8134903681
 20
57.7537292767
 30
0.0
 10
33.8446515099
 20
58.1306743753
 30
0.0
 10
33.8446515099
 20
58.3285077299
 30
0.0
  0
SPLINE
  5
26B
100
AcDbEntity
  8
00_COMPONENTS_1
100
AcDbSpline
 62
7
  6
CONTINUOUS
 70
0
 71
3
 72
17
 73
13
 74
0
 42
0.0000001
 43
0.0000001
 44
0.0000000001
 40
0.0
 40
0.0
 40
0.0
 40
0.0
 40
0.0448457425
 40
0.0927909949
 40
0.1443764377
 40
0.1998033555
 40
0.3218305682
 40
0.4562497527
 40
0.5977513984
 40
0.7398612653
 40
0.8758978765
 40
1.0
 40
1.0
 40
1.0
 40
1.0
 10
33.4005660461
 20
56.8580487923
 30
0.0
 10
33.2930997772
 20
56.8401456528
 30
0.0
 10
33.0661904344
 20
56.8273434797
 30
0.0
 10
32.7169761956
 20
56.8748028778
 30
0.0
 10
32.3554488796
 20
56.9846670097
 30
0.0
 10
31.8490744697
 20
57.2188566978
 30
0.0
 10
31.2274814097
 20
57.6637077793
 30
0.0
 10
30.5568720512
 20
58.3660721372
 30
0.0
 10
29.9805792491
 20
59.2073653701
 30
0.0
 10
29.5365877479
 20
60.1295584289
 30
0.0
 10
29.2525441008
 20
61.0686267196
 30
0.0
 10
29.1779027223
 20
61.7012927747
 30
0.0
 10
29.1779027223
 20
62.0027839447
 30
0.0
  0
SPLINE
  5
26C
100
AcDbEntity
  8
00_COMPONENTS_1
100
AcDbSpline
 62
7
  6
CONTINUOUS
 70
0
 71
3
 72
12
 73
8
 74
0
 42
0.0000001
 43
0.0000001
 44
0.0000000001
 40
0.0
 40
0.0
 40
0.0
 40
0.0
 40
0.1139997727
 40
0.2286858211
 40
0.4653734742
 40
0.7206536474
 40
1.0
 40
1.0
 40
1.0
 40
1.0
 10
46.1539971723
 20
49.8276816749
 30
0.0
 10
46.2244015771
 20
49.8683049139
 30
0.0
 10
46.3596288564
 20
49.9608195989
 30
0.0
 10
46.6020781218
 20
50.1889911451
 30
0.0
 10
46.8449600992
 20
50.5549639582
 30
0.0
 10
47.0170013733
 20
51.0828774864
 30
0.0
 10
47.0514346698
 20
51.4656783122
 30
0.0
 10
47.0514346698
 20
51.6648566419
 30
0.0
  0
SPLINE
  5
26D
100
AcDbEntity
  8
00_COMPONENTS_1
100
AcDbSpline
 62
7
  6
CONTINUOUS
 70
0
 71
3
 72
17
 73
13
 74
0
 42
0.0000001
 43
0.0000001
 44
0.0000000001
 40
0.0
 40
0.0
 40
0.0
 40
0.0
 40
0.0478274216
 40
0.0983885074
 40
0.1521350948
 40
0.2092519468
 40
0.3329536474
 40
0.4670082089
 40
0.6065842578
 40
0.7457896866
 40
0.8786057794
 40
1.0
 40
1.0
 40
1.0
 40
1.0
 10
46.5369688035
 20
50.1381753709
 30
0.0
 10
46.420381928
 20
50.1118486017
 30
0.0
 10
46.1747140417
 20
50.081398681
 30
0.0
 10
45.7934369828
 20
50.1013287312
 30
0.0
 10
45.3971958359
 20
50.1845159163
 30
0.0
 10
44.843997979
 20
50.3829066391
 30
0.0
 10
44.1590442177
 20
50.7846264906
 30
0.0
 10
43.4139174916
 20
51.4488065027
 30
0.0
 10
42.7711917352
 20
52.2622171457
 30
0.0
 10
42.2744562914
 20
53.1686588684
 30
0.0
 10
41.956126694
 20
54.1040681999
 30
0.0
 10
41.8728792196
 20
54.7402745626
 30
0.0
 10
41.8728792196
 20
55.0436429062
 30
0.0
  0
SPLINE
  5
26E
100
AcDbEntity
  8
00_COMPONENTS_1
100
AcDbSpline
 62
7
  6
CONTINUOUS
 70
0
 71
3
 72
22
 73
18
 74
0
 42
0.0000001
 43
0.0000001
 44
0.0000000001
 40
0.0
 40
0.0
 40
0.0
 40
0.0
 40
0.0643913973
 40
0.1331218439
 40
0.2052288815
 40
0.2797328546
 40
0.4312282066
 40
0.5059879913
 40
0.5784169197
 40
0.6474582374
 40
0.7124326178
 40
0.7723731583
 40
0.826777883
 40
0.8759700231
 40
0.9203166834
 40
0.9609997499
 40
1.0
 40
1.0
 40
1.0
 40
1.0
 10
21.7887432341
 20
65.6566127757
 30
0.0
 10
21.7887432341
 20
65.8191748785
 30
0.0
 10
21.7680923603
 20
66.1554330104
 30
0.0
 10
21.6841440203
 20
66.6674268062
 30
0.0
 10
21.5477764017
 20
67.1944511469
 30
0.0
 10
21.2991635169
 20
67.9054714287
 30
0.0
 10
20.9637993576
 20
68.5907535925
 30
0.0
 10
20.5577570266
 20
69.2267667024
 30
0.0
 10
20.2278021027
 20
69.6625530103
 30
0.0
 10
19.8767577318
 20
70.0487141842
 30
0.0
 10
19.5159361059
 20
70.3807837624
 30
0.0
 10
19.15082239
 20
70.6504816014
 30
0.0
 10
18.7864523891
 20
70.8476645858
 30
0.0
 10
18.4334877115
 20
70.9748395575
 30
0.0
 10
18.0956910542
 20
71.0266309212
 30
0.0
 10
17.7805418966
 20
70.9954293759
 30
0.0
 10
17.5905871686
 20
70.9200721148
 30
0.0
 10
17.5052348481
 20
70.8709874003
 30
0.0
  0
SPLINE
  5
26F
100
AcDbEntity
  8
00_COMPONENTS_1
100
AcDbSpline
 62
7
  6
CONTINUOUS
 70
0
 71
3
 72
22
 73
18
 74
0
 42
0.0000001
 43
0.0000001
 44
0.0000000001
 40
0.0
 40
0.0
 40
0.0
 40
0.0
 40
0.0624636314
 40
0.1289046826
 40
0.1985540912
 40
0.2706101264
 40
0.4178702114
 40
0.4911359125
 40
0.5626380545
 40
0.631415007
 40
0.6968111885
 40
0.7579169498
 40
0.8142621273
 40
0.8660694695
 40
0.9135758108
 40
0.9577031634
 40
1.0
 40
1.0
 40
1.0
 40
1.0
 10
33.8446515099
 20
58.3285077299
 30
0.0
 10
33.8446515099
 20
58.4901684253
 30
0.0
 10
33.8221763026
 20
58.8240111683
 30
0.0
 10
33.7302028074
 20
59.3304808308
 30
0.0
 10
33.5806672897
 20
59.8489447281
 30
0.0
 10
33.3074481798
 20
60.5459714963
 30
0.0
 10
32.9382490071
 20
61.2121833465
 30
0.0
 10
32.4926032907
 20
61.8233649348
 30
0.0
 10
32.1289282749
 20
62.2406442751
 30
0.0
 10
31.741709564
 20
62.6070445329
 30
0.0
 10
31.3430173943
 20
62.9189533692
 30
0.0
 10
30.9390262669
 20
63.1679134118
 30
0.0
 10
30.5361712178
 20
63.3437232271
 30
0.0
 10
30.1458183308
 20
63.4498696984
 30
0.0
 10
29.7731740749
 20
63.4809325146
 30
0.0
 10
29.4270345463
 20
63.4307369947
 30
0.0
 10
29.217648817
 20
63.3443628144
 30
0.0
 10
29.1227590753
 20
63.2897820024
 30
0.0
  0
SPLINE
  5
270
100
AcDbEntity
  8
00_COMPONENTS_1
100
AcDbSpline
 62
7
  6
CONTINUOUS
 70
0
 71
3
 72
21
 73
17
 74
0
 42
0.0000001
 43
0.0000001
 44
0.0000000001
 40
0.0
 40
0.0
 40
0.0
 40
0.0
 40
0.1249673097
 40
0.1924495215
 40
0.262326388
 40
0.4057208001
 40
0.4775725219
 40
0.5481620004
 40
0.6166334339
 40
0.6823753364
 40
0.7445502481
 40
0.8027068804
 40
0.856955404
 40
0.9073949231
 40
0.954685821
 40
1.0
 40
1.0
 40
1.0
 40
1.0
 10
47.0514346698
 20
51.6648566419
 30
0.0
 10
47.0514346698
 20
51.9971728207
 30
0.0
 10
46.9749155566
 20
52.5103432286
 30
0.0
 10
46.7618516021
 20
53.1751313839
 30
0.0
 10
46.46180981
 20
53.8601226459
 30
0.0
 10
46.0568392575
 20
54.5072679248
 30
0.0
 10
45.5708249209
 20
55.0926053189
 30
0.0
 10
45.1734358349
 20
55.4897659507
 30
0.0
 10
44.7506644516
 20
55.8344771963
 30
0.0
 10
44.3151495837
 20
56.1242666995
 30
0.0
 10
43.8737311065
 20
56.3508673313
 30
0.0
 10
43.4339594277
 20
56.5042436638
 30
0.0
 10
43.0075940821
 20
56.5886916766
 30
0.0
 10
42.6011003625
 20
56.5991640379
 30
0.0
 10
42.2241488108
 20
56.5303901159
 30
0.0
 10
41.9952258063
 20
56.4329209595
 30
0.0
 10
41.8907848381
 20
56.3728170756
 30
0.0
  0
SPLINE
  5
271
100
AcDbEntity
  8
00_COMPONENTS_1
100
AcDbSpline
 62
7
  6
CONTINUOUS
 70
0
 71
3
 72
15
 73
11
 74
0
 42
0.0000001
 43
0.0000001
 44
0.0000000001
 40
0.0
 40
0.0
 40
0.0
 40
0.0
 40
0.0968637543
 40
0.2011439656
 40
0.3140048674
 40
0.4358820693
 40
0.566465573
 40
0.7048879624
 40
0.8499586061
 40
1.0
 40
1.0
 40
1.0
 40
1.0
 10
47.4199472761
 20
106.7051306064
 30
0.0
 10
47.5293786551
 20
106.4385282945
 30
0.0
 10
47.819353476
 20
105.9093750751
 30
0.0
 10
48.4175640709
 20
105.1860569063
 30
0.0
 10
49.1798073004
 20
104.5197009919
 30
0.0
 10
50.0908481358
 20
103.9216370068
 30
0.0
 10
51.1339537761
 20
103.4020750103
 30
0.0
 10
52.289818965
 20
102.970025061
 30
0.0
 10
53.5367695683
 20
102.6336582245
 30
0.0
 10
54.4023187498
 20
102.4791125374
 30
0.0
 10
54.8445993901
 20
102.4186026839
 30
0.0
  0
SPLINE
  5
272
100
AcDbEntity
  8
00_COMPONENTS_1
100
AcDbSpline
 62
7
  6
CONTINUOUS
 70
0
 71
3
 72
15
 73
11
 74
0
 42
0.0000001
 43
0.0000001
 44
0.0000000001
 40
0.0
 40
0.0
 40
0.0
 40
0.0
 40
0.1518073691
 40
0.2986770117
 40
0.4385485511
 40
0.5698270767
 40
0.691428608
 40
0.8030247127
 40
0.9052790102
 40
1.0
 40
1.0
 40
1.0
 40
1.0
 10
62.9531053473
 20
116.6529360377
 30
0.0
 10
63.5108600715
 20
116.5970968259
 30
0.0
 10
64.6040661613
 20
116.4382938884
 30
0.0
 10
66.1799361612
 20
116.0550433189
 30
0.0
 10
67.6374548149
 20
115.5379469218
 30
0.0
 10
68.9432226957
 20
114.8987441384
 30
0.0
 10
70.0676340782
 20
114.1510640029
 30
0.0
 10
70.9851886972
 20
113.3100392646
 30
0.0
 10
71.6731815306
 20
112.3926977751
 30
0.0
 10
71.9742072786
 20
111.7215997403
 30
0.0
 10
72.0748208017
 20
111.3866303044
 30
0.0
  0
SPLINE
  5
273
100
AcDbEntity
  8
00_COMPONENTS_1
100
AcDbSpline
 62
7
  6
CONTINUOUS
 70
0
 71
3
 72
15
 73
11
 74
0
 42
0.0000001
 43
0.0000001
 44
0.0000000001
 40
0.0
 40
0.0
 40
0.0
 40
0.0
 40
0.0968637543
 40
0.2011439656
 40
0.3140048674
 40
0.4358820693
 40
0.566465573
 40
0.7048879624
 40
0.8499586061
 40
1.0
 40
1.0
 40
1.0
 40
1.0
 10
59.7943674662
 20
99.5609174023
 30
0.0
 10
59.9037988452
 20
99.2943150904
 30
0.0
 10
60.193773666
 20
98.765161871
 30
0.0
 10
60.791984261
 20
98.0418437022
 30
0.0
 10
61.5542274905
 20
97.3754877878
 30
0.0
 10
62.4652683259
 20
96.7774238027
 30
0.0
 10
63.5083739662
 20
96.2578618062
 30
0.0
 10
64.6642391551
 20
95.8258118569
 30
0.0
 10
65.9111897583
 20
95.4894450204
 30
0.0
 10
66.7767389399
 20
95.3348993333
 30
0.0
 10
67.2190195802
 20
95.2743894798
 30
0.0
  0
SPLINE
  5
274
100
AcDbEntity
  8
00_COMPONENTS_1
100
AcDbSpline
 62
7
  6
CONTINUOUS
 70
0
 71
3
 72
15
 73
11
 74
0
 42
0.0000001
 43
0.0000001
 44
0.0000000001
 40
0.0
 40
0.0
 40
0.0
 40
0.0
 40
0.1518073691
 40
0.2986770117
 40
0.4385485511
 40
0.5698270767
 40
0.691428608
 40
0.8030247127
 40
0.9052790102
 40
1.0
 40
1.0
 40
1.0
 40
1.0
 10
75.3275255374
 20
109.5087228336
 30
0.0
 10
75.8852802616
 20
109.4528836218
 30
0.0
 10
76.9784863514
 20
109.2940806843
 30
0.0
 10
78.5543563513
 20
108.9108301148
 30
0.0
 10
80.011875005
 20
108.3937337177
 30
0.0
 10
81.3176428858
 20
107.7545309343
 30
0.0
 10
82.4420542682
 20
107.0068507988
 30
0.0
 10
83.3596088873
 20
106.1658260605
 30
0.0
 10
84.0476017207
 20
105.248484571
 30
0.0
 10
84.3486274687
 20
104.5773865362
 30
0.0
 10
84.4492409918
 20
104.2424171002
 30
0.0
  0
SPLINE
  5
275
100
AcDbEntity
  8
00_COMPONENTS_1
100
AcDbSpline
 62
7
  6
CONTINUOUS
 70
0
 71
3
 72
15
 73
11
 74
0
 42
0.0000001
 43
0.0000001
 44
0.0000000001
 40
0.0
 40
0.0
 40
0.0
 40
0.0
 40
0.0968637543
 40
0.2011439656
 40
0.3140048674
 40
0.4358820693
 40
0.566465573
 40
0.7048879624
 40
0.8499586061
 40
1.0
 40
1.0
 40
1.0
 40
1.0
 10
72.1687876562
 20
92.4167041982
 30
0.0
 10
72.2782190353
 20
92.1501018863
 30
0.0
 10
72.5681938561
 20
91.6209486669
 30
0.0
 10
73.1664044511
 20
90.8976304981
 30
0.0
 10
73.9286476806
 20
90.2312745837
 30
0.0
 10
74.8396885159
 20
89.6332105986
 30
0.0
 10
75.8827941563
 20
89.1136486021
 30
0.0
 10
77.0386593451
 20
88.6815986528
 30
0.0
 10
78.2856099484
 20
88.3452318163
 30
0.0
 10
79.1511591299
 20
88.1906861292
 30
0.0
 10
79.5934397703
 20
88.1301762757
 30
0.0
  0
SPLINE
  5
276
100
AcDbEntity
  8
00_COMPONENTS_1
100
AcDbSpline
 62
7
  6
CONTINUOUS
 70
0
 71
3
 72
15
 73
11
 74
0
 42
0.0000001
 43
0.0000001
 44
0.0000000001
 40
0.0
 40
0.0
 40
0.0
 40
0.0
 40
0.1518073691
 40
0.2986770117
 40
0.4385485511
 40
0.5698270767
 40
0.691428608
 40
0.8030247127
 40
0.9052790102
 40
1.0
 40
1.0
 40
1.0
 40
1.0
 10
87.7019457275
 20
102.3645096295
 30
0.0
 10
88.2597004517
 20
102.3086704177
 30
0.0
 10
89.3529065415
 20
102.1498674802
 30
0.0
 10
90.9287765413
 20
101.7666169107
 30
0.0
 10
92.386295195
 20
101.2495205136
 30
0.0
 10
93.6920630759
 20
100.6103177302
 30
0.0
 10
94.8164744583
 20
99.8626375947
 30
0.0
 10
95.7340290774
 20
99.0216128564
 30
0.0
 10
96.4220219107
 20
98.1042713669
 30
0.0
 10
96.7230476587
 20
97.4331733321
 30
0.0
 10
96.8236611819
 20
97.0982038961
 30
0.0
  0
SPLINE
  5
277
100
AcDbEntity
  8
00_COMPONENTS_1
100
AcDbSpline
 62
7
  6
CONTINUOUS
 70
0
 71
3
 72
15
 73
11
 74
0
 42
0.0000001
 43
0.0000001
 44
0.0000000001
 40
0.0
 40
0.0
 40
0.0
 40
0.0
 40
0.0947209898
 40
0.1969752873
 40
0.308571392
 40
0.4301729233
 40
0.5614514489
 40
0.7013229883
 40
0.8481926309
 40
1.0
 40
1.0
 40
1.0
 40
1.0
 10
70.8639903541
 20
83.3350420353
 30
0.0
 10
70.9646038772
 20
83.0000725994
 30
0.0
 10
71.2656296252
 20
82.3289745646
 30
0.0
 10
71.9536224586
 20
81.411633075
 30
0.0
 10
72.8711770777
 20
80.5706083367
 30
0.0
 10
73.9955884601
 20
79.8229282013
 30
0.0
 10
75.3013563409
 20
79.1837254178
 30
0.0
 10
76.7588749946
 20
78.6666290207
 30
0.0
 10
78.3347449945
 20
78.2833784512
 30
0.0
 10
79.4279510843
 20
78.1245755138
 30
0.0
 10
79.9857058085
 20
78.068736302
 30
0.0
  0
SPLINE
  5
278
100
AcDbEntity
  8
00_COMPONENTS_1
100
AcDbSpline
 62
7
  6
CONTINUOUS
 70
0
 71
3
 72
20
 73
16
 74
0
 42
0.0000001
 43
0.0000001
 44
0.0000000001
 40
0.0
 40
0.0
 40
0.0
 40
0.0
 40
0.0642238422
 40
0.132861478
 40
0.2791363633
 40
0.4300660791
 40
0.5762312582
 40
0.6448993852
 40
0.7094096818
 40
0.769078346
 40
0.8236005191
 40
0.8731400366
 40
0.9181673163
 40
0.9598370237
 40
1.0
 40
1.0
 40
1.0
 40
1.0
 10
16.7871384335
 20
69.1375609353
 30
0.0
 10
16.7871384335
 20
68.9747869315
 30
0.0
 10
16.8067905935
 20
68.637872019
 30
0.0
 10
16.9161518922
 20
67.9380990106
 30
0.0
 10
17.1792080547
 20
67.0442494574
 30
0.0
 10
17.6552401643
 20
66.0222426328
 30
0.0
 10
18.1724652055
 20
65.2472500976
 30
0.0
 10
18.6413003396
 20
64.715517665
 30
0.0
 10
18.9998631482
 20
64.3819999296
 30
0.0
 10
19.3656589786
 20
64.1129086297
 30
0.0
 10
19.7318365375
 20
63.9144829612
 30
0.0
 10
20.0903528546
 20
63.7891494183
 30
0.0
 10
20.4352561648
 20
63.7413268392
 30
0.0
 10
20.7584174467
 20
63.7766592514
 30
0.0
 10
20.9536113856
 20
63.8556237213
 30
0.0
 10
21.0417528081
 20
63.9065427629
 30
0.0
  0
SPLINE
  5
279
100
AcDbEntity
  8
00_COMPONENTS_1
100
AcDbSpline
 62
7
  6
CONTINUOUS
 70
0
 71
3
 72
12
 73
8
 74
0
 42
0.0000001
 43
0.0000001
 44
0.0000000001
 40
0.0
 40
0.0
 40
0.0
 40
0.0
 40
0.1073182308
 40
0.2168060204
 40
0.4491403674
 40
0.7087884586
 40
1.0
 40
1.0
 40
1.0
 40
1.0
 10
29.1227590753
 20
63.2897820024
 30
0.0
 10
29.0596958165
 20
63.2535078614
 30
0.0
 10
28.9383810226
 20
63.1689845526
 30
0.0
 10
28.7212264803
 20
62.9537427679
 30
0.0
 10
28.5069386376
 20
62.5991291627
 30
0.0
 10
28.358345201
 20
62.0849311596
 30
0.0
 10
28.3291956538
 20
61.7101993318
 30
0.0
 10
28.3291956538
 20
61.5127856151
 30
0.0
  0
SPLINE
  5
27A
100
AcDbEntity
  8
00_COMPONENTS_1
100
AcDbSpline
 62
7
  6
CONTINUOUS
 70
0
 71
3
 72
15
 73
11
 74
0
 42
0.0000001
 43
0.0000001
 44
0.0000000001
 40
0.0
 40
0.0
 40
0.0
 40
0.0
 40
0.0968637543
 40
0.2011439656
 40
0.3140048674
 40
0.4358820693
 40
0.566465573
 40
0.7048879624
 40
0.8499586061
 40
1.0
 40
1.0
 40
1.0
 40
1.0
 10
70.7700234996
 20
111.6130956968
 30
0.0
 10
70.6605921205
 20
111.8796980087
 30
0.0
 10
70.3706172997
 20
112.4088512281
 30
0.0
 10
69.7724067047
 20
113.1321693968
 30
0.0
 10
69.0101634753
 20
113.7985253112
 30
0.0
 10
68.0991226399
 20
114.3965892963
 30
0.0
 10
67.0560169995
 20
114.9161512928
 30
0.0
 10
65.9001518107
 20
115.3482012422
 30
0.0
 10
64.6532012074
 20
115.6845680787
 30
0.0
 10
63.7876520259
 20
115.8391137657
 30
0.0
 10
63.3453713855
 20
115.8996236192
 30
0.0
  0
SPLINE
  5
27B
100
AcDbEntity
  8
00_COMPONENTS_1
100
AcDbSpline
 62
7
  6
CONTINUOUS
 70
0
 71
3
 72
19
 73
15
 74
0
 42
0.0000001
 43
0.0000001
 44
0.0000000001
 40
0.0
 40
0.0
 40
0.0
 40
0.0
 40
0.1285296487
 40
0.2699841123
 40
0.4168299715
 40
0.5606982682
 40
0.6291279842
 40
0.694082045
 40
0.7549242873
 40
0.8113533132
 40
0.8634655812
 40
0.911599711
 40
0.956635726
 40
1.0
 40
1.0
 40
1.0
 40
1.0
 10
28.3291956538
 20
61.5127856151
 30
0.0
 10
28.3291956538
 20
61.1790741797
 30
0.0
 10
28.420499923
 20
60.477332053
 30
0.0
 10
28.7617576977
 20
59.4450503734
 30
0.0
 10
29.2891227682
 20
58.4488376827
 30
0.0
 10
29.8607280997
 20
57.7051881128
 30
0.0
 10
30.3772434162
 20
57.2022878056
 30
0.0
 10
30.7740109015
 20
56.8893467472
 30
0.0
 10
31.178598025
 20
56.6415987478
 30
0.0
 10
31.5830585488
 20
56.4649726728
 30
0.0
 10
31.978398774
 20
56.3613848683
 30
0.0
 10
32.3573527847
 20
56.334635111
 30
0.0
 10
32.7108293044
 20
56.3889053367
 30
0.0
 10
32.9250741889
 20
56.4787597279
 30
0.0
 10
33.0225661228
 20
56.5350787533
 30
0.0
  0
SPLINE
  5
27C
100
AcDbEntity
  8
00_COMPONENTS_1
100
AcDbSpline
 62
7
  6
CONTINUOUS
 70
0
 71
3
 72
11
 73
7
 74
0
 42
0.0000001
 43
0.0000001
 44
0.0000000001
 40
0.0
 40
0.0
 40
0.0
 40
0.0
 40
0.2634221198
 40
0.5181391553
 40
0.7637475053
 40
1.0
 40
1.0
 40
1.0
 40
1.0
 10
51.8474354246
 20
59.0063106323
 30
0.0
 10
48.2285085321
 20
60.5608485813
 30
0.0
 10
41.1913077429
 20
63.8123706383
 30
0.0
 10
31.1176973753
 20
69.2054540298
 30
0.0
 10
21.7482165894
 20
75.0079249774
 30
0.0
 10
15.8886257549
 20
79.2123626275
 30
0.0
 10
13.0978224865
 20
81.37790398
 30
0.0
  0
SPLINE
  5
27D
100
AcDbEntity
  8
00_COMPONENTS_1
100
AcDbSpline
 62
7
  6
CONTINUOUS
 70
0
 71
3
 72
17
 73
13
 74
0
 42
0.0000001
 43
0.0000001
 44
0.0000000001
 40
0.0
 40
0.0
 40
0.0
 40
0.0
 40
0.1248883648
 40
0.2620793019
 40
0.4052016208
 40
0.5468508722
 40
0.6801340355
 40
0.8000596952
 40
0.8545401161
 40
0.9055329953
 40
0.9536821695
 40
1.0
 40
1.0
 40
1.0
 40
1.0
 10
41.0221277581
 20
54.5524642528
 30
0.0
 10
41.0221277581
 20
54.2195231788
 30
0.0
 10
41.1223361523
 20
53.519817476
 30
0.0
 10
41.4989071919
 20
52.5007814669
 30
0.0
 10
42.0805072967
 20
51.5303769002
 30
0.0
 10
42.8221483204
 20
50.6895463353
 30
0.0
 10
43.6648202421
 20
50.0466943964
 30
0.0
 10
44.4246690449
 20
49.709159136
 30
0.0
 10
45.0177143451
 20
49.5979064705
 30
0.0
 10
45.4296407271
 20
49.5931619716
 30
0.0
 10
45.8133656904
 20
49.6653978451
 30
0.0
 10
46.0470448125
 20
49.7659703192
 30
0.0
 10
46.1539971723
 20
49.8276816749
 30
0.0
  0
SPLINE
  5
27E
100
AcDbEntity
  8
00_COMPONENTS_1
100
AcDbSpline
 62
7
  6
CONTINUOUS
 70
0
 71
3
 72
15
 73
11
 74
0
 42
0.0000001
 43
0.0000001
 44
0.0000000001
 40
0.0
 40
0.0
 40
0.0
 40
0.0
 40
0.1518073691
 40
0.2986770117
 40
0.4385485511
 40
0.5698270767
 40
0.691428608
 40
0.8030247127
 40
0.9052790102
 40
1.0
 40
1.0
 40
1.0
 40
1.0
 10
55.2368654283
 20
101.6652902655
 30
0.0
 10
54.6791107041
 20
101.7211294773
 30
0.0
 10
53.5859046144
 20
101.8799324147
 30
0.0
 10
52.0100346145
 20
102.2631829842
 30
0.0
 10
50.5525159608
 20
102.7802793813
 30
0.0
 10
49.2467480799
 20
103.4194821648
 30
0.0
 10
48.1223366975
 20
104.1671623002
 30
0.0
 10
47.2047820784
 20
105.0081870385
 30
0.0
 10
46.5167892451
 20
105.925528528
 30
0.0
 10
46.2157634971
 20
106.5966265629
 30
0.0
 10
46.1151499739
 20
106.9315959988
 30
0.0
  0
SPLINE
  5
27F
100
AcDbEntity
  8
00_COMPONENTS_1
100
AcDbSpline
 62
7
  6
CONTINUOUS
 70
0
 71
3
 72
12
 73
8
 74
0
 42
0.0000001
 43
0.0000001
 44
0.0000000001
 40
0.0
 40
0.0
 40
0.0
 40
0.0
 40
0.1125738365
 40
0.2260039893
 40
0.46142523
 40
0.7176333596
 40
1.0
 40
1.0
 40
1.0
 40
1.0
 10
41.8907848381
 20
56.3728170756
 30
0.0
 10
41.8221609401
 20
56.3333252663
 30
0.0
 10
41.6903629897
 20
56.2430188601
 30
0.0
 10
41.4545390241
 20
56.0183523023
 30
0.0
 10
41.2197686822
 20
55.6554039348
 30
0.0
 10
41.054835859
 20
55.1313655787
 30
0.0
 10
41.0221277581
 20
54.7510598402
 30
0.0
 10
41.0221277581
 20
54.5524642528
 30
0.0
  0
SPLINE
  5
280
100
AcDbEntity
  8
00_COMPONENTS_1
100
AcDbSpline
 62
7
  6
CONTINUOUS
 70
0
 71
3
 72
15
 73
11
 74
0
 42
0.0000001
 43
0.0000001
 44
0.0000000001
 40
0.0
 40
0.0
 40
0.0
 40
0.0
 40
0.0968637543
 40
0.2011439656
 40
0.3140048674
 40
0.4358820693
 40
0.566465573
 40
0.7048879624
 40
0.8499586061
 40
1.0
 40
1.0
 40
1.0
 40
1.0
 10
83.1444436897
 20
104.4688824927
 30
0.0
 10
83.0350123106
 20
104.7354848046
 30
0.0
 10
82.7450374898
 20
105.264638024
 30
0.0
 10
82.1468268948
 20
105.9879561927
 30
0.0
 10
81.3845836653
 20
106.6543121071
 30
0.0
 10
80.4735428299
 20
107.2523760922
 30
0.0
 10
79.4304371896
 20
107.7719380887
 30
0.0
 10
78.2745720007
 20
108.2039880381
 30
0.0
 10
77.0276213975
 20
108.5403548746
 30
0.0
 10
76.162072216
 20
108.6949005616
 30
0.0
 10
75.7197915756
 20
108.7554104151
 30
0.0
  0
SPLINE
  5
281
100
AcDbEntity
  8
00_COMPONENTS_1
100
AcDbSpline
 62
7
  6
CONTINUOUS
 70
0
 71
3
 72
15
 73
11
 74
0
 42
0.0000001
 43
0.0000001
 44
0.0000000001
 40
0.0
 40
0.0
 40
0.0
 40
0.0
 40
0.0947209898
 40
0.1969752873
 40
0.308571392
 40
0.4301729233
 40
0.5614514489
 40
0.7013229883
 40
0.8481926309
 40
1.0
 40
1.0
 40
1.0
 40
1.0
 10
46.1151499739
 20
97.6234684435
 30
0.0
 10
46.2157634971
 20
97.2884990076
 30
0.0
 10
46.5167892451
 20
96.6174009728
 30
0.0
 10
47.2047820784
 20
95.7000594832
 30
0.0
 10
48.1223366975
 20
94.8590347449
 30
0.0
 10
49.2467480799
 20
94.1113546095
 30
0.0
 10
50.5525159608
 20
93.472151826
 30
0.0
 10
52.0100346145
 20
92.9550554289
 30
0.0
 10
53.5859046144
 20
92.5718048594
 30
0.0
 10
54.6791107042
 20
92.413001922
 30
0.0
 10
55.2368654283
 20
92.3571627102
 30
0.0
  0
SPLINE
  5
282
100
AcDbEntity
  8
00_COMPONENTS_1
100
AcDbSpline
 62
7
  6
CONTINUOUS
 70
0
 71
3
 72
15
 73
11
 74
0
 42
0.0000001
 43
0.0000001
 44
0.0000000001
 40
0.0
 40
0.0
 40
0.0
 40
0.0
 40
0.1518073691
 40
0.2986770117
 40
0.4385485511
 40
0.5698270767
 40
0.691428608
 40
0.8030247127
 40
0.9052790102
 40
1.0
 40
1.0
 40
1.0
 40
1.0
 10
67.6112856184
 20
94.5210770614
 30
0.0
 10
67.0535308942
 20
94.5769162732
 30
0.0
 10
65.9603248044
 20
94.7357192106
 30
0.0
 10
64.3844548045
 20
95.1189697801
 30
0.0
 10
62.9269361508
 20
95.6360661772
 30
0.0
 10
61.62116827
 20
96.2752689607
 30
0.0
 10
60.4967568876
 20
97.0229490961
 30
0.0
 10
59.5792022685
 20
97.8639738344
 30
0.0
 10
58.8912094352
 20
98.7813153239
 30
0.0
 10
58.5901836871
 20
99.4524133588
 30
0.0
 10
58.489570164
 20
99.7873827947
 30
0.0
  0
SPLINE
  5
283
100
AcDbEntity
  8
00_COMPONENTS_1
100
AcDbSpline
 62
7
  6
CONTINUOUS
 70
0
 71
3
 72
12
 73
8
 74
0
 42
0.0000001
 43
0.0000001
 44
0.0000000001
 40
0.0
 40
0.0
 40
0.0
 40
0.0
 40
0.1013436705
 40
0.2063895897
 40
0.4353316072
 40
0.6988810907
 40
1.0
 40
1.0
 40
1.0
 40
1.0
 10
17.5052348481
 20
70.8709874003
 30
0.0
 10
17.4479021881
 20
70.8380163313
 30
0.0
 10
17.3373423242
 20
70.7594215453
 30
0.0
 10
17.1392372776
 20
70.5538832435
 30
0.0
 10
16.9456681001
 20
70.2080031593
 30
0.0
 10
16.8129075668
 20
69.7036943774
 30
0.0
 10
16.7871384335
 20
69.3340720001
 30
0.0
 10
16.7871384335
 20
69.1375609353
 30
0.0
  0
SPLINE
  5
284
100
AcDbEntity
  8
00_COMPONENTS_1
100
AcDbSpline
 62
7
  6
CONTINUOUS
 70
0
 71
3
 72
15
 73
11
 74
0
 42
0.0000001
 43
0.0000001
 44
0.0000000001
 40
0.0
 40
0.0
 40
0.0
 40
0.0
 40
0.0947209898
 40
0.1969752873
 40
0.308571392
 40
0.4301729233
 40
0.5614514489
 40
0.7013229883
 40
0.8481926309
 40
1.0
 40
1.0
 40
1.0
 40
1.0
 10
58.489570164
 20
90.4792552394
 30
0.0
 10
58.5901836871
 20
90.1442858035
 30
0.0
 10
58.8912094352
 20
89.4731877687
 30
0.0
 10
59.5792022685
 20
88.5558462791
 30
0.0
 10
60.4967568876
 20
87.7148215408
 30
0.0
 10
61.62116827
 20
86.9671414054
 30
0.0
 10
62.9269361508
 20
86.3279386219
 30
0.0
 10
64.3844548045
 20
85.8108422248
 30
0.0
 10
65.9603248044
 20
85.4275916553
 30
0.0
 10
67.0535308942
 20
85.2687887179
 30
0.0
 10
67.6112856184
 20
85.2129495061
 30
0.0
  0
SPLINE
  5
285
100
AcDbEntity
  8
00_COMPONENTS_1
100
AcDbSpline
 62
7
  6
CONTINUOUS
 70
0
 71
3
 72
15
 73
11
 74
0
 42
0.0000001
 43
0.0000001
 44
0.0000000001
 40
0.0
 40
0.0
 40
0.0
 40
0.0
 40
0.0968637543
 40
0.2011439656
 40
0.3140048674
 40
0.4358820693
 40
0.566465573
 40
0.7048879624
 40
0.8499586061
 40
1.0
 40
1.0
 40
1.0
 40
1.0
 10
95.5188638797
 20
97.3246692886
 30
0.0
 10
95.4094325007
 20
97.5912716005
 30
0.0
 10
95.1194576799
 20
98.1204248199
 30
0.0
 10
94.5212470849
 20
98.8437429886
 30
0.0
 10
93.7590038554
 20
99.510098903
 30
0.0
 10
92.84796302
 20
100.1081628881
 30
0.0
 10
91.8048573797
 20
100.6277248846
 30
0.0
 10
90.6489921908
 20
101.059774834
 30
0.0
 10
89.4020415876
 20
101.3961416705
 30
0.0
 10
88.536492406
 20
101.5506873575
 30
0.0
 10
88.0942117657
 20
101.611197211
 30
0.0
  0
SPLINE
  5
286
100
AcDbEntity
  8
00_COMPONENTS_1
100
AcDbSpline
 62
7
  6
CONTINUOUS
 70
0
 71
3
 72
15
 73
11
 74
0
 42
0.0000001
 43
0.0000001
 44
0.0000000001
 40
0.0
 40
0.0
 40
0.0
 40
0.0
 40
0.1518073691
 40
0.2986770117
 40
0.4385485511
 40
0.5698270767
 40
0.691428608
 40
0.8030247127
 40
0.9052790102
 40
1.0
 40
1.0
 40
1.0
 40
1.0
 10
79.9857058085
 20
87.3768638573
 30
0.0
 10
79.4279510843
 20
87.4327030691
 30
0.0
 10
78.3347449945
 20
87.5915060065
 30
0.0
 10
76.7588749946
 20
87.974756576
 30
0.0
 10
75.3013563409
 20
88.4918529731
 30
0.0
 10
73.9955884601
 20
89.1310557566
 30
0.0
 10
72.8711770777
 20
89.878735892
 30
0.0
 10
71.9536224586
 20
90.7197606303
 30
0.0
 10
71.2656296252
 20
91.6371021198
 30
0.0
 10
70.9646038772
 20
92.3082001547
 30
0.0
 10
70.8639903541
 20
92.6431695906
 30
0.0
  0
ENDSEC
  0
SECTION
  2
OBJECTS
  0
DICTIONARY
  5
C
100
AcDbDictionary
280
0
281
1
  3
ACAD_GROUP
350
D
  3
ACAD_MLINESTYLE
350
17
  3
ACAD_LAYOUT
350
1A
  3
ACAD_PLOTSETTINGS
350
19
  3
ACAD_PLOTSTYLENAME
350
E
  0
DICTIONARY
  5
D
102
{ACAD_REACTORS
330
C
102
}
100
AcDbDictionary
280
0
281
1
  0
ACDBDICTIONARYWDFLT
  5
E
102
{ACAD_REACTORS
330
C
102
}
100
AcDbDictionary
281
1
  3
Normal
350
F
100
AcDbDictionaryWithDefault
340
F
  0
DICTIONARY
  5
17
102
{ACAD_REACTORS
330
C
102
}
100
AcDbDictionary
280
0
281
1
  3
Standard
350
18
  0
DICTIONARY
  5
19
102
{ACAD_REACTORS
330
C
102
}
100
AcDbDictionary
281
1
  0
DICTIONARY
  5
1A
102
{ACAD_REACTORS
330
C
102
}
100
AcDbDictionary
281
1
  3
Model
350
287
  3
Layout1
350
288
  0
ACDBPLACEHOLDER
  5
F
102
{ACAD_REACTORS
330
E
102
}
  0
MLINESTYLE
  5
18
102
{ACAD_REACTORS
330
17
102
}
100
AcDbMlineStyle
  2
STANDARD
 70
0
  3

 62
256
 51
90.0
 52
90.0
 71
2
 49
0.5
 62
256
  6
BYLAYER
 49
-0.5
 62
256
  6
BYLAYER
  0
LAYOUT
  5
287
102
{ACAD_REACTORS
330
1A
102
}
100
AcDbPlotSettings
  1

  2
none_device
  4

  6

 40
0.0
 41
0.0
 42
0.0
 43
0.0
 44
210.0
 45
297.0
 46
0.0
 47
0.0
 48
0.0
 49
0.0
140
0.0
141
0.0
142
1.0
143
1.0
 70
1024
 72
1
 73
0
 74
0
  7

 75
0
147
1.0
148
0.0
149
0.0
100
AcDbLayout
  1
Model
 70
0
 71
0
 10
0.0
 20
0.0
 11
210.0
 21
297.0
 12
0.0
 22
0.0
 32
0.0
 14
0.0
 24
0.0
 34
0.0
 15
0.0
 25
0.0
 35
0.0
146
0.0
 13
0.0
 23
0.0
 33
0.0
 16
1.0
 26
0.0
 36
0.0
 17
0.0
 27
1.0
 37
0.0
 76
0
330
211
345
0
346
0
  0
LAYOUT
  5
288
102
{ACAD_REACTORS
330
1A
102
}
100
AcDbPlotSettings
  1

  2
none_device
  4

  6

 40
0.0
 41
0.0
 42
0.0
 43
0.0
 44
210.0
 45
297.0
 46
0.0
 47
0.0
 48
0.0
 49
0.0
140
0.0
141
0.0
142
1.0
143
1.0
 70
0
 72
1
 73
0
 74
0
  7

 75
0
147
1.0
148
0.0
149
0.0
100
AcDbLayout
  1
Layout1
 70
0
 71
1
 10
0.0
 20
0.0
 11
210.0
 21
297.0
 12
0.0
 22
0.0
 32
0.0
 14
0.0
 24
0.0
 34
0.0
 15
0.0
 25
0.0
 35
0.0
146
0.0
 13
0.0
 23
0.0
 33
0.0
 16
1.0
 26
0.0
 36
0.0
 17
0.0
 27
1.0
 37
0.0
 76
0
330
212
345
0
346
0
  0
ENDSEC
  0
EOF
