999
DXF file: C:\Users\sesa63760\Dev\_Creo\CAD\MCADID0001431_3D-CAD\drw0001_6.dxf
999
Pro/ENGINEER 2019471 by Parametric Technology Corporation
  0
SECTION
  2
HEADER
  9
$ACADVER
  1
AC1024
  9
$DWGCODEPAGE
  3
ANSI_1252
  9
$EXTMAX
 10
321.640817364
 20
454.8920131291
 30
0.0
  9
$EXTMIN
 10
0.0
 20
0.0
 30
0.0
  9
$LIMMIN
 10
0.0
 20
0.0
  9
$LIMMAX
 10
321.640817364
 20
454.8920131291
  9
$VIEWCTR
 10
160.820408682
 20
227.4460065646
  9
$VIEWSIZE
 40
454.8920131291
  9
$CLAYER
  8
0
  9
$LTSCALE
 40
29.6522201151
  9
$CELTYPE
  6
BYLAYER
  9
$DIMSCALE
 40
1.0
  9
$DIMASZ
 40
3.8290573496
  9
$DIMEXO
 40
1.0
  9
$DIMDLI
 40
20.4869884431
  9
$DIMEXE
 40
1.0
  9
$DIMCEN
 40
4.8521814734
  9
$DIMLFAC
 40
1.0
  9
$DIMBLK
  1
_FILLED
  9
$DIMALT
 70
0
  9
$DIMALTF
 40
0.0393700787
  9
$DIMTXT
 40
5.3606802894
  9
$DIMTOL
 70
1
  9
$DIMLIM
 70
0
  9
$DIMTFAC
 40
1.0
  9
$DIMTP
 40
0.01
  9
$DIMTM
 40
0.01
  9
$DIMGAP
 40
0.625
  9
$DIMDSEP
 70
46
  9
$AUNITS
 70
0
  9
$PDMODE
 70
3
  9
$PDSIZE
 40
0.3125
  9
$HANDSEED
  5
2E0
  9
$TILEMODE
 70
1
  9
$MEASUREMENT
 70
1
  9
$INSUNITS
 70
4
  0
ENDSEC
  0
SECTION
  2
CLASSES
  0
CLASS
  1
ACDBDICTIONARYWDFLT
  2
AcDbDictionaryWithDefault
  3
AutoCAD 2000
 90
0
 91
1
280
0
281
0
  0
CLASS
  1
ACDBPLACEHOLDER
  2
AcDbPlaceHolder
  3
AutoCAD 2000
 90
0
 91
1
280
0
281
0
  0
CLASS
  1
LAYOUT
  2
AcDbLayout
  3
AutoCAD 2000
 90
0
 91
0
280
0
281
0
  0
ENDSEC
  0
SECTION
  2
TABLES
  0
TABLE
  2
VPORT
  5
8
100
AcDbSymbolTable
 70
2
  0
VPORT
  5
1F4
100
AcDbSymbolTableRecord
100
AcDbViewportTableRecord
  2
*ACTIVE
 70
0
 10
0.0
 20
0.0
 11
1.0
 21
1.0
 12
160.820408682
 22
227.4460065646
 13
0.0
 23
0.0
 14
1.0
 24
1.0
 15
0.0
 25
0.0
 16
0.0
 26
0.0
 36
1.0
 17
0.0
 27
0.0
 37
0.0
 40
454.8920131291
 41
0.7070707071
 42
50.0
 43
0.0
 44
0.0
 50
0.0
 51
0.0
 71
0
 72
100
 73
1
 74
1
 75
0
 76
0
 77
0
 78
0
  0
ENDTAB
  0
TABLE
  2
LTYPE
  5
5
100
AcDbSymbolTable
 70
6
  0
LTYPE
  5
14
100
AcDbSymbolTableRecord
100
AcDbLinetypeTableRecord
  2
BYBLOCK
 70
0
  3

 72
65
 73
0
 40
0.0
  0
LTYPE
  5
15
100
AcDbSymbolTableRecord
100
AcDbLinetypeTableRecord
  2
BYLAYER
 70
0
  3

 72
65
 73
0
 40
0.0
  0
LTYPE
  5
16
100
AcDbSymbolTableRecord
100
AcDbLinetypeTableRecord
  2
CONTINUOUS
 70
64
  3
Solid line
 72
65
 73
0
 40
0.0
  0
LTYPE
  5
1F5
100
AcDbSymbolTableRecord
100
AcDbLinetypeTableRecord
  2
CENTER
 70
64
  3
____ _ ____ _ ____ _ ____ _ ____ _ ____ _ ____
 72
65
 73
4
 40
0.6
 49
0.375
 74
0
 49
-0.075
 74
0
 49
0.075
 74
0
 49
-0.075
 74
0
  0
LTYPE
  5
1F6
100
AcDbSymbolTableRecord
100
AcDbLinetypeTableRecord
  2
HIDDEN
 70
64
  3
- - - - - - - - - - - - - - - - - - - -
 72
65
 73
2
 40
0.2
 49
0.1
 74
0
 49
-0.1
 74
0
  0
LTYPE
  5
1F7
100
AcDbSymbolTableRecord
100
AcDbLinetypeTableRecord
  2
PHANTOM
 70
64
  3
_____ _ _ _____ _ _ _____ _ _ _____
 72
65
 73
6
 40
0.8
 49
0.45
 74
0
 49
-0.05
 74
0
 49
0.1
 74
0
 49
-0.05
 74
0
 49
0.1
 74
0
 49
-0.05
 74
0
  0
LTYPE
  5
1F8
100
AcDbSymbolTableRecord
100
AcDbLinetypeTableRecord
  2
DOT
 70
64
  3
. . . . . . . . . . . . . . . . . . . .
 72
65
 73
2
 40
0.2
 49
0.1
 74
0
 49
-0.1
 74
0
  0
LTYPE
  5
1F9
100
AcDbSymbolTableRecord
100
AcDbLinetypeTableRecord
  2
DASHED
 70
64
  3
- - - - - - - - - - - - - - - - - - - -
 72
65
 73
2
 40
0.2
 49
0.1
 74
0
 49
-0.1
 74
0
  0
ENDTAB
  0
TABLE
  2
LAYER
  5
2
100
AcDbSymbolTable
 70
36
  0
LAYER
  5
10
100
AcDbSymbolTableRecord
100
AcDbLayerTableRecord
  2
0
 70
0
 62
7
  6
CONTINUOUS
370
-3
390
F
  0
LAYER
  5
1FA
100
AcDbSymbolTableRecord
100
AcDbLayerTableRecord
  2
DEFAULT_1
 70
0
 62
7
  6
CENTER
370
-3
390
F
  0
LAYER
  5
1FB
100
AcDbSymbolTableRecord
100
AcDbLayerTableRecord
  2
DEFAULT_2
 70
0
 62
8
  6
HIDDEN
370
-3
390
F
  0
LAYER
  5
1FC
100
AcDbSymbolTableRecord
100
AcDbLayerTableRecord
  2
DEFAULT_3
 70
0
 62
7
  6
PHANTOM
370
-3
390
F
  0
LAYER
  5
1FD
100
AcDbSymbolTableRecord
100
AcDbLayerTableRecord
  2
00_COMPONENTS
 70
0
 62
7
  6
CONTINUOUS
370
-3
390
F
  0
LAYER
  5
1FE
100
AcDbSymbolTableRecord
100
AcDbLayerTableRecord
  2
01_1_DEFAULT_DATUMS
 70
0
 62
7
  6
CONTINUOUS
370
-3
390
F
  0
LAYER
  5
1FF
100
AcDbSymbolTableRecord
100
AcDbLayerTableRecord
  2
01_PLANES
 70
0
 62
7
  6
CONTINUOUS
370
-3
390
F
  0
LAYER
  5
200
100
AcDbSymbolTableRecord
100
AcDbLayerTableRecord
  2
02_COORD_SYS
 70
0
 62
7
  6
CONTINUOUS
370
-3
390
F
  0
LAYER
  5
201
100
AcDbSymbolTableRecord
100
AcDbLayerTableRecord
  2
03_AXES
 70
0
 62
7
  6
CONTINUOUS
370
-3
390
F
  0
LAYER
  5
202
100
AcDbSymbolTableRecord
100
AcDbLayerTableRecord
  2
04_POINTS
 70
0
 62
7
  6
CONTINUOUS
370
-3
390
F
  0
LAYER
  5
203
100
AcDbSymbolTableRecord
100
AcDbLayerTableRecord
  2
05_CURVES
 70
0
 62
7
  6
CONTINUOUS
370
-3
390
F
  0
LAYER
  5
204
100
AcDbSymbolTableRecord
100
AcDbLayerTableRecord
  2
06_SURFS
 70
0
 62
7
  6
CONTINUOUS
370
-3
390
F
  0
LAYER
  5
205
100
AcDbSymbolTableRecord
100
AcDbLayerTableRecord
  2
07_COSMETICS
 70
0
 62
7
  6
CONTINUOUS
370
-3
390
F
  0
LAYER
  5
206
100
AcDbSymbolTableRecord
100
AcDbLayerTableRecord
  2
10_NOTES
 70
0
 62
7
  6
CONTINUOUS
370
-3
390
F
  0
LAYER
  5
207
100
AcDbSymbolTableRecord
100
AcDbLayerTableRecord
  2
11_NOTES_PUB
 70
0
 62
7
  6
CONTINUOUS
370
-3
390
F
  0
LAYER
  5
208
100
AcDbSymbolTableRecord
100
AcDbLayerTableRecord
  2
13_REF_GTOL
 70
0
 62
7
  6
CONTINUOUS
370
-3
390
F
  0
LAYER
  5
209
100
AcDbSymbolTableRecord
100
AcDbLayerTableRecord
  2
16_MISC
 70
0
 62
7
  6
CONTINUOUS
370
-3
390
F
  0
LAYER
  5
20A
100
AcDbSymbolTableRecord
100
AcDbLayerTableRecord
  2
17_NO_PRINT
 70
0
 62
7
  6
CONTINUOUS
370
-3
390
F
  0
LAYER
  5
20B
100
AcDbSymbolTableRecord
100
AcDbLayerTableRecord
  2
18_DATUM_CAMS_JOINTS
 70
0
 62
7
  6
CONTINUOUS
370
-3
390
F
  0
LAYER
  5
20C
100
AcDbSymbolTableRecord
100
AcDbLayerTableRecord
  2
19_DATUM_FUNCTIONAL
 70
0
 62
7
  6
CONTINUOUS
370
-3
390
F
  0
LAYER
  5
20D
100
AcDbSymbolTableRecord
100
AcDbLayerTableRecord
  2
20_DATUM_KINEMATIC_SCHEME
 70
0
 62
7
  6
CONTINUOUS
370
-3
390
F
  0
LAYER
  5
20E
100
AcDbSymbolTableRecord
100
AcDbLayerTableRecord
  2
INTFCLR_18151
 70
0
 62
7
  6
CONTINUOUS
370
-3
390
F
  0
LAYER
  5
20F
100
AcDbSymbolTableRecord
100
AcDbLayerTableRecord
  2
_1
 70
0
 62
7
  6
CONTINUOUS
370
-3
390
F
  0
ENDTAB
  0
TABLE
  2
STYLE
  5
3
100
AcDbSymbolTable
 70
1
  0
STYLE
  5
11
100
AcDbSymbolTableRecord
100
AcDbTextStyleTableRecord
  2
STANDARD
 70
0
 40
0.0
 41
0.8
 50
0.0
 71
0
 42
0.2
  3
txt
  4

  0
STYLE
  5
210
100
AcDbSymbolTableRecord
100
AcDbTextStyleTableRecord
  2
TEXTSTYLE_1
 70
0
 40
0.0
 41
0.8
 50
0.0
 71
0
 42
0.2
  3
gdt
  4

  0
ENDTAB
  0
TABLE
  2
VIEW
  5
6
100
AcDbSymbolTable
 70
0
  0
ENDTAB
  0
TABLE
  2
UCS
  5
7
100
AcDbSymbolTable
 70
0
  0
ENDTAB
  0
TABLE
  2
APPID
  5
9
100
AcDbSymbolTable
 70
1
  0
APPID
  5
211
100
AcDbSymbolTableRecord
100
AcDbRegAppTableRecord
  2
ACAD
 70
0
  0
ENDTAB
  0
TABLE
  2
BLOCK_RECORD
  5
1
100
AcDbSymbolTable
 70
0
  0
BLOCK_RECORD
  5
212
100
AcDbSymbolTableRecord
100
AcDbBlockTableRecord
  2
*Model_Space
  0
BLOCK_RECORD
  5
213
100
AcDbSymbolTableRecord
100
AcDbBlockTableRecord
  2
*Paper_Space
  0
BLOCK_RECORD
  5
214
100
AcDbSymbolTableRecord
100
AcDbBlockTableRecord
  2
_FILLED
  0
ENDTAB
  0
TABLE
  2
DIMSTYLE
  5
A
100
AcDbSymbolTable
 70
1
100
AcDbDimStyleTable
 71
0
  0
DIMSTYLE
105
215
100
AcDbSymbolTableRecord
100
AcDbDimStyleTableRecord
  2
STANDARD
 70
0
  3

  4

 40
1.0
 41
3.8290573496
 42
1.0
 43
0.38
 44
1.0
 45
0.0
 46
0.0
 47
0.01
 48
0.01
140
5.3606802894
141
0.09
142
0.0
143
25.4
144
1.0
145
0.0
146
1.0
147
0.625
 71
1
 72
0
 73
0
 74
0
 75
0
 76
0
 77
1
 78
8
 79
2
170
0
171
1
172
0
173
0
174
0
175
0
176
0
177
0
178
0
270
2
179
2
271
2
272
2
273
2
274
2
275
0
280
0
281
0
282
0
283
1
284
8
285
0
286
0
287
3
288
0
340
11
278
46
341
214
342
214
343
214
344
214
  0
ENDTAB
  0
ENDSEC
  0
SECTION
  2
BLOCKS
  0
BLOCK
  5
20
100
AcDbEntity
  8
0
100
AcDbBlockBegin
  2
*Model_Space
 70
0
 10
0.0
 20
0.0
 30
0.0
  3
*Model_Space
  1

  0
ENDBLK
  5
21
100
AcDbEntity
  8
0
100
AcDbBlockEnd
  0
BLOCK
  5
1C
100
AcDbEntity
  8
0
100
AcDbBlockBegin
  2
*Paper_Space
 70
0
 10
0.0
 20
0.0
 30
0.0
  3
*Paper_Space
  1

  0
ENDBLK
  5
1D
100
AcDbEntity
  8
0
100
AcDbBlockEnd
  0
BLOCK
  5
216
100
AcDbEntity
  8
0
100
AcDbBlockBegin
  2
_FILLED
 70
64
 10
0.0
 20
0.0
  3
_FILLED
  1

  0
SOLID
  5
217
100
AcDbEntity
  8
0
  6
BYBLOCK
 62
0
100
AcDbTrace
 10
0.0
 20
0.0
 11
-1.0
 21
0.25
 12
-1.0
 22
-0.25
 13
-1.0
 23
-0.25
  0
ENDBLK
  5
218
100
AcDbEntity
  8
0
  6
BYBLOCK
 62
0
100
AcDbBlockEnd
  0
ENDSEC
  0
SECTION
  2
ENTITIES
  0
LINE
  5
219
100
AcDbEntity
  8
_1
100
AcDbLine
 62
7
  6
CONTINUOUS
 10
36.379325531
 20
201.2463808689
 11
36.379325531
 21
212.2456322607
  0
LINE
  5
21A
100
AcDbEntity
  8
_1
100
AcDbLine
 62
7
  6
CONTINUOUS
 10
38.879325531
 20
213.7460065648
 11
38.879325531
 21
212.2460065648
  0
LINE
  5
21B
100
AcDbEntity
  8
_1
100
AcDbLine
 62
7
  6
CONTINUOUS
 10
40.879325531
 20
211.8694819478
 11
40.879325531
 21
213.7460065648
  0
LINE
  5
21C
100
AcDbEntity
  8
_1
100
AcDbLine
 62
7
  6
CONTINUOUS
 10
54.879325531
 20
213.7460065648
 11
54.879325531
 21
211.8694819478
  0
LINE
  5
21D
100
AcDbEntity
  8
_1
100
AcDbLine
 62
7
  6
CONTINUOUS
 10
56.879325531
 20
176.7465066199
 11
56.879325531
 21
236.7455065097
  0
LINE
  5
21E
100
AcDbEntity
  8
_1
100
AcDbLine
 62
7
  6
CONTINUOUS
 10
59.379325531
 20
171.7460065648
 11
59.379325531
 21
241.7460065648
  0
LINE
  5
21F
100
AcDbEntity
  8
_1
100
AcDbLine
 62
7
  6
CONTINUOUS
 10
59.879325531
 20
241.8460065648
 11
59.879325531
 21
241.7460065648
  0
LINE
  5
220
100
AcDbEntity
  8
_1
100
AcDbLine
 62
7
  6
CONTINUOUS
 10
63.379325531
 20
245.5460065648
 11
63.379325531
 21
246.3460065648
  0
LINE
  5
221
100
AcDbEntity
  8
_1
100
AcDbLine
 62
7
  6
CONTINUOUS
 10
63.8378736467
 20
242.3460065648
 11
63.8378736467
 21
245.5460065648
  0
LINE
  5
222
100
AcDbEntity
  8
_1
100
AcDbLine
 62
7
  6
CONTINUOUS
 10
63.8378736467
 20
247.2460065648
 11
63.8378736467
 21
250.4460065648
  0
LINE
  5
223
100
AcDbEntity
  8
_1
100
AcDbLine
 62
7
  6
CONTINUOUS
 10
63.879325531
 20
242.3460065648
 11
63.879325531
 21
241.8460065648
  0
LINE
  5
224
100
AcDbEntity
  8
_1
100
AcDbLine
 62
7
  6
CONTINUOUS
 10
64.079325531
 20
246.3460065648
 11
64.079325531
 21
247.2460065648
  0
LINE
  5
225
100
AcDbEntity
  8
_1
100
AcDbLine
 62
7
  6
CONTINUOUS
 10
65.8585995889
 20
242.3460065648
 11
65.8585995889
 21
245.5460065648
  0
LINE
  5
226
100
AcDbEntity
  8
_1
100
AcDbLine
 62
7
  6
CONTINUOUS
 10
65.8585995889
 20
247.2460065648
 11
65.8585995889
 21
250.4460065648
  0
LINE
  5
227
100
AcDbEntity
  8
_1
100
AcDbLine
 62
7
  6
CONTINUOUS
 10
65.879325531
 20
250.4460065648
 11
65.879325531
 21
254.3460065648
  0
LINE
  5
228
100
AcDbEntity
  8
_1
100
AcDbLine
 62
7
  6
CONTINUOUS
 10
66.879325531
 20
241.7460065648
 11
66.879325531
 21
241.8460065648
  0
LINE
  5
229
100
AcDbEntity
  8
_1
100
AcDbLine
 62
7
  6
CONTINUOUS
 10
67.879325531
 20
241.7460065648
 11
67.879325531
 21
217.1685338476
  0
LINE
  5
22A
100
AcDbEntity
  8
_1
100
AcDbLine
 62
7
  6
CONTINUOUS
 10
67.879325531
 20
196.323479282
 11
67.879325531
 21
171.7460065648
  0
LINE
  5
22B
100
AcDbEntity
  8
_1
100
AcDbLine
 62
7
  6
CONTINUOUS
 10
69.879325531
 20
250.4460065648
 11
69.879325531
 21
254.3460065648
  0
LINE
  5
22C
100
AcDbEntity
  8
_1
100
AcDbLine
 62
7
  6
CONTINUOUS
 10
69.9000514732
 20
242.3460065648
 11
69.9000514732
 21
245.5460065648
  0
LINE
  5
22D
100
AcDbEntity
  8
_1
100
AcDbLine
 62
7
  6
CONTINUOUS
 10
69.9000514732
 20
247.2460065648
 11
69.9000514732
 21
250.4460065648
  0
LINE
  5
22E
100
AcDbEntity
  8
_1
100
AcDbLine
 62
7
  6
CONTINUOUS
 10
71.679325531
 20
246.3460065648
 11
71.679325531
 21
247.2460065648
  0
LINE
  5
22F
100
AcDbEntity
  8
_1
100
AcDbLine
 62
7
  6
CONTINUOUS
 10
71.879325531
 20
242.3460065648
 11
71.879325531
 21
241.8460065648
  0
LINE
  5
230
100
AcDbEntity
  8
_1
100
AcDbLine
 62
7
  6
CONTINUOUS
 10
71.9207774153
 20
242.3460065648
 11
71.9207774153
 21
245.5460065648
  0
LINE
  5
231
100
AcDbEntity
  8
_1
100
AcDbLine
 62
7
  6
CONTINUOUS
 10
71.9207774153
 20
247.2460065648
 11
71.9207774153
 21
250.4460065648
  0
LINE
  5
232
100
AcDbEntity
  8
_1
100
AcDbLine
 62
7
  6
CONTINUOUS
 10
72.379325531
 20
245.5460065648
 11
72.379325531
 21
246.3460065648
  0
LINE
  5
233
100
AcDbEntity
  8
_1
100
AcDbLine
 62
7
  6
CONTINUOUS
 10
85.379325531
 20
241.8460065648
 11
85.379325531
 21
241.7460065648
  0
LINE
  5
234
100
AcDbEntity
  8
_1
100
AcDbLine
 62
7
  6
CONTINUOUS
 10
87.379325531
 20
241.7460065648
 11
87.379325531
 21
241.8460065648
  0
LINE
  5
235
100
AcDbEntity
  8
_1
100
AcDbLine
 62
7
  6
CONTINUOUS
 10
87.8793291774
 20
229.2460065648
 11
87.879325531
 21
240.2590239576
  0
LINE
  5
236
100
AcDbEntity
  8
_1
100
AcDbLine
 62
7
  6
CONTINUOUS
 10
87.879325531
 20
174.6028224702
 11
87.879325531
 21
184.2460065648
  0
LINE
  5
237
100
AcDbEntity
  8
_1
100
AcDbLine
 62
7
  6
CONTINUOUS
 10
59.379325531
 20
171.7460065648
 11
270.1832131928
 21
171.7460065648
  0
LINE
  5
238
100
AcDbEntity
  8
_1
100
AcDbLine
 62
7
  6
CONTINUOUS
 10
87.9911997331
 20
173.1439907481
 11
269.5360737557
 21
173.1439907494
  0
LINE
  5
239
100
AcDbEntity
  8
_1
100
AcDbLine
 62
7
  6
CONTINUOUS
 10
269.6142653635
 20
174.5992020568
 11
87.879325531
 21
174.5992020592
  0
LINE
  5
23A
100
AcDbEntity
  8
_1
100
AcDbLine
 62
7
  6
CONTINUOUS
 10
67.879325531
 20
176.6744505083
 11
59.379325531
 21
176.6744505083
  0
LINE
  5
23B
100
AcDbEntity
  8
_1
100
AcDbLine
 62
7
  6
CONTINUOUS
 10
59.379325531
 20
176.7460065648
 11
56.879325531
 21
176.7460065648
  0
LINE
  5
23C
100
AcDbEntity
  8
_1
100
AcDbLine
 62
7
  6
CONTINUOUS
 10
87.879325531
 20
178.2983657778
 11
268.379325531
 21
178.2983659376
  0
LINE
  5
23D
100
AcDbEntity
  8
_1
100
AcDbLine
 62
7
  6
CONTINUOUS
 10
87.879325531
 20
178.2983657761
 11
67.879325531
 21
178.3245453818
  0
LINE
  5
23E
100
AcDbEntity
  8
_1
100
AcDbLine
 62
7
  6
CONTINUOUS
 10
87.879325531
 20
184.2460065648
 11
67.879325531
 21
187.2460065648
  0
LINE
  5
23F
100
AcDbEntity
  8
_1
100
AcDbLine
 62
7
  6
CONTINUOUS
 10
67.879325531
 20
188.5220494924
 11
87.9911997391
 21
185.4391443515
  0
LINE
  5
240
100
AcDbEntity
  8
_1
100
AcDbLine
 62
7
  6
CONTINUOUS
 10
87.879325531
 20
184.2460065648
 11
268.379325531
 21
184.2460065648
  0
LINE
  5
241
100
AcDbEntity
  8
_1
100
AcDbLine
 62
7
  6
CONTINUOUS
 10
268.379325531
 20
185.4394030234
 11
87.9911996731
 21
185.4391443515
  0
LINE
  5
242
100
AcDbEntity
  8
_1
100
AcDbLine
 62
7
  6
CONTINUOUS
 10
268.379325531
 20
185.7460065648
 11
269.9794698188
 21
185.7460065648
  0
LINE
  5
243
100
AcDbEntity
  8
_1
100
AcDbLine
 62
7
  6
CONTINUOUS
 10
270.6044126338
 20
188.8057954126
 11
270.8845806406
 21
188.8057954126
  0
LINE
  5
244
100
AcDbEntity
  8
_1
100
AcDbLine
 62
7
  6
CONTINUOUS
 10
268.379325531
 20
191.7460065648
 11
269.9794694995
 21
191.7460065648
  0
LINE
  5
245
100
AcDbEntity
  8
_1
100
AcDbLine
 62
7
  6
CONTINUOUS
 10
268.379325531
 20
195.5973888811
 11
270.5976899927
 21
195.5973888811
  0
LINE
  5
246
100
AcDbEntity
  8
_1
100
AcDbLine
 62
7
  6
CONTINUOUS
 10
264.379325531
 20
196.323479282
 11
67.879325531
 21
196.323479282
  0
LINE
  5
247
100
AcDbEntity
  8
_1
100
AcDbLine
 62
7
  6
CONTINUOUS
 10
269.9994572161
 20
196.3337605498
 11
264.379325531
 21
196.3337605498
  0
LINE
  5
248
100
AcDbEntity
  8
_1
100
AcDbLine
 62
7
  6
CONTINUOUS
 10
271.7523835695
 20
200.0793400648
 11
272.2999492046
 21
200.0793400648
  0
LINE
  5
249
100
AcDbEntity
  8
_1
100
AcDbLine
 62
7
  6
CONTINUOUS
 10
36.379325531
 20
201.2460065648
 11
56.879325531
 21
201.2460065648
  0
LINE
  5
24A
100
AcDbEntity
  8
_1
100
AcDbLine
 62
7
  6
CONTINUOUS
 10
59.379325531
 20
206.7460065648
 11
270.1832131928
 21
206.7460065648
  0
LINE
  5
24B
100
AcDbEntity
  8
_1
100
AcDbLine
 62
7
  6
CONTINUOUS
 10
54.879325531
 20
211.8694819478
 11
40.879325531
 21
211.8694819478
  0
LINE
  5
24C
100
AcDbEntity
  8
_1
100
AcDbLine
 62
7
  6
CONTINUOUS
 10
36.379325531
 20
212.2460065648
 11
38.8793255311
 21
212.2460065648
  0
LINE
  5
24D
100
AcDbEntity
  8
_1
100
AcDbLine
 62
7
  6
CONTINUOUS
 10
271.7523835695
 20
213.4126730648
 11
272.2999492046
 21
213.4126730648
  0
LINE
  5
24E
100
AcDbEntity
  8
_1
100
AcDbLine
 62
7
  6
CONTINUOUS
 10
38.879325531
 20
213.7460065648
 11
56.879325531
 21
213.7460065648
  0
LINE
  5
24F
100
AcDbEntity
  8
_1
100
AcDbLine
 62
7
  6
CONTINUOUS
 10
264.379325531
 20
217.1582525798
 11
269.9994572161
 21
217.1582525798
  0
LINE
  5
250
100
AcDbEntity
  8
_1
100
AcDbLine
 62
7
  6
CONTINUOUS
 10
67.879325531
 20
217.1685338476
 11
264.379325531
 21
217.1685338476
  0
LINE
  5
251
100
AcDbEntity
  8
_1
100
AcDbLine
 62
7
  6
CONTINUOUS
 10
190.379338856
 20
229.2459559131
 11
235.3794011965
 21
241.084149128
  0
LINE
  5
252
100
AcDbEntity
  8
_1
100
AcDbLine
 62
7
  6
CONTINUOUS
 10
190.379325531
 20
229.2460065648
 11
235.379325576
 21
240.5114484286
  0
LINE
  5
253
100
AcDbEntity
  8
_1
100
AcDbLine
 62
7
  6
CONTINUOUS
 10
87.9911997343
 20
228.0528687781
 11
235.379325531
 21
228.0528687781
  0
LINE
  5
254
100
AcDbEntity
  8
_1
100
AcDbLine
 62
7
  6
CONTINUOUS
 10
190.379325531
 20
235.1936473531
 11
235.379325531
 21
241.7460065648
  0
LINE
  5
255
100
AcDbEntity
  8
_1
100
AcDbLine
 62
7
  6
CONTINUOUS
 10
87.879325531
 20
235.1936473538
 11
67.879325531
 21
235.1674677479
  0
LINE
  5
256
100
AcDbEntity
  8
_1
100
AcDbLine
 62
7
  6
CONTINUOUS
 10
190.379325531
 20
229.2460065648
 11
87.879325531
 21
229.2460065648
  0
LINE
  5
257
100
AcDbEntity
  8
_1
100
AcDbLine
 62
7
  6
CONTINUOUS
 10
268.379325531
 20
229.4460065648
 11
270.1726794832
 21
229.4460065648
  0
LINE
  5
258
100
AcDbEntity
  8
_1
100
AcDbLine
 62
7
  6
CONTINUOUS
 10
268.379325531
 20
232.2460065648
 11
269.9794698188
 21
232.2460065648
  0
LINE
  5
259
100
AcDbEntity
  8
_1
100
AcDbLine
 62
7
  6
CONTINUOUS
 10
190.379325531
 20
235.1936473518
 11
87.879325531
 21
235.1936473518
  0
LINE
  5
25A
100
AcDbEntity
  8
_1
100
AcDbLine
 62
7
  6
CONTINUOUS
 10
59.379325531
 20
236.7460065648
 11
56.879325531
 21
236.7460065648
  0
LINE
  5
25B
100
AcDbEntity
  8
_1
100
AcDbLine
 62
7
  6
CONTINUOUS
 10
59.379325531
 20
236.8175626213
 11
67.879325531
 21
236.8175626213
  0
LINE
  5
25C
100
AcDbEntity
  8
_1
100
AcDbLine
 62
7
  6
CONTINUOUS
 10
87.9911997391
 20
228.0528687781
 11
67.879325531
 21
224.9699636373
  0
LINE
  5
25D
100
AcDbEntity
  8
_1
100
AcDbLine
 62
7
  6
CONTINUOUS
 10
87.879325531
 20
229.2460065648
 11
67.879325531
 21
226.2460065648
  0
LINE
  5
25E
100
AcDbEntity
  8
_1
100
AcDbLine
 62
7
  6
CONTINUOUS
 10
190.379325531
 20
240.2590963676
 11
235.379325531
 21
241.7460065648
  0
LINE
  5
25F
100
AcDbEntity
  8
_1
100
AcDbLine
 62
7
  6
CONTINUOUS
 10
268.379325531
 20
238.2460065648
 11
269.9794694995
 21
238.2460065648
  0
LINE
  5
260
100
AcDbEntity
  8
_1
100
AcDbLine
 62
7
  6
CONTINUOUS
 10
190.379325531
 20
240.2590963681
 11
67.879325531
 21
240.2589515471
  0
LINE
  5
261
100
AcDbEntity
  8
_1
100
AcDbLine
 62
7
  6
CONTINUOUS
 10
235.3793255809
 20
240.5114483588
 11
239.4291112502
 21
240.5114483588
  0
LINE
  5
262
100
AcDbEntity
  8
_1
100
AcDbLine
 62
7
  6
CONTINUOUS
 10
262.2695398119
 20
240.5114483588
 11
268.379325531
 21
240.5107983787
  0
LINE
  5
263
100
AcDbEntity
  8
_1
100
AcDbLine
 62
7
  6
CONTINUOUS
 10
240.599325531
 20
240.5268062964
 11
261.099325531
 21
240.5268062964
  0
LINE
  5
264
100
AcDbEntity
  8
_1
100
AcDbLine
 62
7
  6
CONTINUOUS
 10
59.379325531
 20
241.7460065648
 11
270.1832131928
 21
241.7460065648
  0
LINE
  5
265
100
AcDbEntity
  8
_1
100
AcDbLine
 62
7
  6
CONTINUOUS
 10
59.879325531
 20
241.8460065648
 11
87.379325531
 21
241.8460065648
  0
LINE
  5
266
100
AcDbEntity
  8
_1
100
AcDbLine
 62
7
  6
CONTINUOUS
 10
63.8378736467
 20
242.3460065648
 11
71.9207774153
 21
242.3460065648
  0
LINE
  5
267
100
AcDbEntity
  8
_1
100
AcDbLine
 62
7
  6
CONTINUOUS
 10
233.8845328127
 20
243.7460065648
 11
264.0644154012
 21
243.7460065648
  0
LINE
  5
268
100
AcDbEntity
  8
_1
100
AcDbLine
 62
7
  6
CONTINUOUS
 10
72.379325531
 20
245.5460065648
 11
63.379325531
 21
245.5460065648
  0
LINE
  5
269
100
AcDbEntity
  8
_1
100
AcDbLine
 62
7
  6
CONTINUOUS
 10
63.379325531
 20
246.3460065648
 11
72.379325531
 21
246.3460065648
  0
LINE
  5
26A
100
AcDbEntity
  8
_1
100
AcDbLine
 62
7
  6
CONTINUOUS
 10
190.379325531
 20
241.7460065648
 11
190.379325531
 21
171.7460065648
  0
LINE
  5
26B
100
AcDbEntity
  8
_1
100
AcDbLine
 62
7
  6
CONTINUOUS
 10
63.8378736467
 20
247.2460065648
 11
71.9207774153
 21
247.2460065648
  0
LINE
  5
26C
100
AcDbEntity
  8
_1
100
AcDbLine
 62
7
  6
CONTINUOUS
 10
237.879325531
 20
248.3460065648
 11
263.879325531
 21
248.3460065648
  0
LINE
  5
26D
100
AcDbEntity
  8
_1
100
AcDbLine
 62
7
  6
CONTINUOUS
 10
238.129325531
 20
250.3460065648
 11
243.629325531
 21
250.3460065648
  0
LINE
  5
26E
100
AcDbEntity
  8
_1
100
AcDbLine
 62
7
  6
CONTINUOUS
 10
258.129325531
 20
250.3460065648
 11
263.629325531
 21
250.3460065648
  0
LINE
  5
26F
100
AcDbEntity
  8
_1
100
AcDbLine
 62
7
  6
CONTINUOUS
 10
63.8378736467
 20
250.4460065648
 11
71.9207774153
 21
250.4460065648
  0
LINE
  5
270
100
AcDbEntity
  8
_1
100
AcDbLine
 62
7
  6
CONTINUOUS
 10
238.6294696066
 20
250.8460065648
 11
243.1291814554
 21
250.8460065648
  0
LINE
  5
271
100
AcDbEntity
  8
_1
100
AcDbLine
 62
7
  6
CONTINUOUS
 10
258.6294696066
 20
250.8460065648
 11
263.1291814554
 21
250.8460065648
  0
LINE
  5
272
100
AcDbEntity
  8
_1
100
AcDbLine
 62
7
  6
CONTINUOUS
 10
269.879325531
 20
251.9460065648
 11
236.8793407621
 21
251.9460065648
  0
LINE
  5
273
100
AcDbEntity
  8
_1
100
AcDbLine
 62
7
  6
CONTINUOUS
 10
65.879325531
 20
254.3460065648
 11
69.879325531
 21
254.3460065648
  0
LINE
  5
274
100
AcDbEntity
  8
_1
100
AcDbLine
 62
7
  6
CONTINUOUS
 10
290.829325531
 20
257.6460065648
 11
272.879325531
 21
257.6460065648
  0
LINE
  5
275
100
AcDbEntity
  8
_1
100
AcDbLine
 62
7
  6
CONTINUOUS
 10
290.829325531
 20
280.6460065648
 11
272.879325531
 21
280.6460065648
  0
LINE
  5
276
100
AcDbEntity
  8
_1
100
AcDbLine
 62
7
  6
CONTINUOUS
 10
236.8793316716
 20
283.1460065648
 11
252.5995666816
 21
283.1460065648
  0
LINE
  5
277
100
AcDbEntity
  8
_1
100
AcDbLine
 62
7
  6
CONTINUOUS
 10
252.5995666816
 20
283.1460065648
 11
274.879325531
 21
281.1967802394
  0
LINE
  5
278
100
AcDbEntity
  8
INTFCLR_18151
100
AcDbLine
 62
7
  6
CONTINUOUS
 10
235.3793287005
 20
232.3349038382
 11
235.3793248944
 21
231.3817450486
  0
LINE
  5
279
100
AcDbEntity
  8
INTFCLR_18151
100
AcDbLine
 62
7
  6
CONTINUOUS
 10
235.379328382
 20
230.6213789737
 11
235.3793249754
 21
229.9731246196
  0
LINE
  5
27A
100
AcDbEntity
  8
_1
100
AcDbLine
 62
7
  6
CONTINUOUS
 10
235.379325531
 20
228.0528687781
 11
235.379325531
 21
231.5257471444
  0
LINE
  5
27B
100
AcDbEntity
  8
_1
100
AcDbLine
 62
7
  6
CONTINUOUS
 10
235.379325531
 20
233.7940146199
 11
235.3793226398
 21
240.5114483588
  0
LINE
  5
27C
100
AcDbEntity
  8
_1
100
AcDbLine
 62
7
  6
CONTINUOUS
 10
236.879325531
 20
251.9460065648
 11
236.879325531
 21
283.1460065648
  0
LINE
  5
27D
100
AcDbEntity
  8
_1
100
AcDbLine
 62
7
  6
CONTINUOUS
 10
237.879325531
 20
248.3460065648
 11
237.879325531
 21
243.7460065648
  0
LINE
  5
27E
100
AcDbEntity
  8
_1
100
AcDbLine
 62
7
  6
CONTINUOUS
 10
238.129325531
 20
248.3460065648
 11
238.129325531
 21
250.3460065648
  0
LINE
  5
27F
100
AcDbEntity
  8
_1
100
AcDbLine
 62
7
  6
CONTINUOUS
 10
238.879325531
 20
250.8460065648
 11
238.879325531
 21
251.9460065648
  0
LINE
  5
280
100
AcDbEntity
  8
_1
100
AcDbLine
 62
7
  6
CONTINUOUS
 10
236.2219563213
 20
243.7460065648
 11
236.1932094003
 21
241.7460065648
  0
LINE
  5
281
100
AcDbEntity
  8
_1
100
AcDbLine
 62
7
  6
CONTINUOUS
 10
233.8842356609
 20
243.7460065648
 11
233.849325531
 21
241.7460065648
  0
LINE
  5
282
100
AcDbEntity
  8
_1
100
AcDbLine
 62
7
  6
CONTINUOUS
 10
237.6342356609
 20
243.7460065648
 11
237.599325531
 21
241.7460065648
  0
LINE
  5
283
100
AcDbEntity
  8
_1
100
AcDbLine
 62
7
  6
CONTINUOUS
 10
239.4291112502
 20
241.7460065648
 11
239.4291112502
 21
240.5114483588
  0
LINE
  5
284
100
AcDbEntity
  8
_1
100
AcDbLine
 62
7
  6
CONTINUOUS
 10
240.599325531
 20
240.5268062964
 11
240.599325531
 21
243.7460065648
  0
LINE
  5
285
100
AcDbEntity
  8
_1
100
AcDbLine
 62
7
  6
CONTINUOUS
 10
240.879325531
 20
243.7460065648
 11
240.879325531
 21
248.3460065648
  0
LINE
  5
286
100
AcDbEntity
  8
_1
100
AcDbLine
 62
7
  6
CONTINUOUS
 10
241.1407365167
 20
251.9460065648
 11
241.1407365167
 21
250.8460065648
  0
LINE
  5
287
100
AcDbEntity
  8
_1
100
AcDbLine
 62
7
  6
CONTINUOUS
 10
243.629325531
 20
248.3460065648
 11
243.629325531
 21
250.3460065648
  0
LINE
  5
288
100
AcDbEntity
  8
_1
100
AcDbLine
 62
7
  6
CONTINUOUS
 10
243.8679145454
 20
248.3460065648
 11
243.8679145454
 21
251.9460065648
  0
LINE
  5
289
100
AcDbEntity
  8
_1
100
AcDbLine
 62
7
  6
CONTINUOUS
 10
250.879325531
 20
251.9460065648
 11
250.879325531
 21
269.2430304384
  0
LINE
  5
28A
100
AcDbEntity
  8
_1
100
AcDbLine
 62
7
  6
CONTINUOUS
 10
238.1395950948
 20
283.1460065648
 11
250.879325531
 21
269.2430304384
  0
LINE
  5
28B
100
AcDbEntity
  8
_1
100
AcDbLine
 62
7
  6
CONTINUOUS
 10
264.099325531
 20
241.7460065648
 11
264.0644154012
 21
243.7460065648
  0
LINE
  5
28C
100
AcDbEntity
  8
_1
100
AcDbLine
 62
7
  6
CONTINUOUS
 10
257.8907365167
 20
251.9460065648
 11
257.8907365167
 21
248.3460065648
  0
LINE
  5
28D
100
AcDbEntity
  8
_1
100
AcDbLine
 62
7
  6
CONTINUOUS
 10
258.129325531
 20
248.3460065648
 11
258.129325531
 21
250.3460065648
  0
LINE
  5
28E
100
AcDbEntity
  8
_1
100
AcDbLine
 62
7
  6
CONTINUOUS
 10
260.6179145454
 20
250.8460065648
 11
260.6179145454
 21
251.9460065648
  0
LINE
  5
28F
100
AcDbEntity
  8
_1
100
AcDbLine
 62
7
  6
CONTINUOUS
 10
260.879325531
 20
248.3460065648
 11
260.879325531
 21
243.7460065648
  0
LINE
  5
290
100
AcDbEntity
  8
_1
100
AcDbLine
 62
7
  6
CONTINUOUS
 10
261.099325531
 20
243.7460065648
 11
261.099325531
 21
240.5268062964
  0
LINE
  5
291
100
AcDbEntity
  8
_1
100
AcDbLine
 62
7
  6
CONTINUOUS
 10
262.2695398119
 20
240.5114483588
 11
262.2695398119
 21
241.7460065648
  0
LINE
  5
292
100
AcDbEntity
  8
_1
100
AcDbLine
 62
7
  6
CONTINUOUS
 10
262.879325531
 20
250.8460065648
 11
262.879325531
 21
251.9460065648
  0
LINE
  5
293
100
AcDbEntity
  8
_1
100
AcDbLine
 62
7
  6
CONTINUOUS
 10
263.629325531
 20
248.3460065648
 11
263.629325531
 21
250.3460065648
  0
LINE
  5
294
100
AcDbEntity
  8
_1
100
AcDbLine
 62
7
  6
CONTINUOUS
 10
263.879325531
 20
243.7460065648
 11
263.879325531
 21
248.3460065648
  0
LINE
  5
295
100
AcDbEntity
  8
_1
100
AcDbLine
 62
7
  6
CONTINUOUS
 10
264.379325531
 20
171.7460065648
 11
264.379325531
 21
241.7460065648
  0
LWPOLYLINE
  5
296
100
AcDbEntity
  8
_1
100
AcDbPolyline
 62
7
  6
CONTINUOUS
 90
3
 70
0
 10
269.9794794675
 20
232.2460065648
 10
270.6187377852
 20
235.2383978532
 10
269.9794794683
 20
238.2460065648
  0
LINE
  5
297
100
AcDbEntity
  8
_1
100
AcDbLine
 62
7
  6
CONTINUOUS
 10
271.7998828973
 20
200.0793400648
 11
271.651198371
 21
204.0870490903
  0
LINE
  5
298
100
AcDbEntity
  8
_1
100
AcDbLine
 62
7
  6
CONTINUOUS
 10
268.379325531
 20
241.7460065648
 11
268.379325531
 21
229.4460065648
  0
LINE
  5
299
100
AcDbEntity
  8
_1
100
AcDbLine
 62
7
  6
CONTINUOUS
 10
268.379325531
 20
195.5973888811
 11
268.379325531
 21
178.2983657925
  0
LINE
  5
29A
100
AcDbEntity
  8
_1
100
AcDbLine
 62
7
  6
CONTINUOUS
 10
269.979467969
 20
238.2460065648
 11
269.9794685098
 21
232.2460065648
  0
LINE
  5
29B
100
AcDbEntity
  8
_1
100
AcDbLine
 62
7
  6
CONTINUOUS
 10
269.979467969
 20
191.7460065648
 11
269.9794685098
 21
185.7460065648
  0
LINE
  5
29C
100
AcDbEntity
  8
_1
100
AcDbLine
 62
7
  6
CONTINUOUS
 10
272.879325531
 20
256.9460065648
 11
272.879325531
 21
281.3717575665
  0
LINE
  5
29D
100
AcDbEntity
  8
_1
100
AcDbLine
 62
7
  6
CONTINUOUS
 10
274.879325531
 20
281.1967802394
 11
274.879325531
 21
280.6460065648
  0
LINE
  5
29E
100
AcDbEntity
  8
_1
100
AcDbLine
 62
7
  6
CONTINUOUS
 10
274.879325531
 20
257.6460065648
 11
274.879325531
 21
256.9460065648
  0
LINE
  5
29F
100
AcDbEntity
  8
_1
100
AcDbLine
 62
7
  6
CONTINUOUS
 10
271.6511652841
 20
209.4086843128
 11
271.7998828973
 21
213.4126730648
  0
LWPOLYLINE
  5
2A0
100
AcDbEntity
  8
_1
100
AcDbPolyline
 62
7
  6
CONTINUOUS
 90
3
 70
0
 10
269.9794794675
 20
185.7460065648
 10
270.6187377852
 20
188.7383978531
 10
269.9794794683
 20
191.7460065648
  0
LINE
  5
2A1
100
AcDbEntity
  8
_1
100
AcDbLine
 62
7
  6
CONTINUOUS
 10
287.829325531
 20
280.6458149207
 11
287.829325531
 21
257.6461982089
  0
LINE
  5
2A2
100
AcDbEntity
  8
_1
100
AcDbLine
 62
7
  6
CONTINUOUS
 10
290.829325531
 20
280.645817254
 11
290.829325531
 21
257.6461958756
  0
ARC
  5
2A3
100
AcDbEntity
  8
_1
100
AcDbCircle
 62
7
  6
CONTINUOUS
 10
-2.7143490485
 20
3057.9844671368
 40
2884.8044857324
100
AcDbArc
 50
271.4022175232
 51
271.7995981258
  0
ARC
  5
2A4
100
AcDbEntity
  8
_1
100
AcDbCircle
 62
7
  6
CONTINUOUS
 10
-2.5119373686
 20
2995.4995237393
 40
2823.8062207126
100
AcDbArc
 50
271.4284054115
 51
271.8366472574
  0
ARC
  5
2A5
100
AcDbEntity
  8
_1
100
AcDbCircle
 62
7
  6
CONTINUOUS
 10
-7.620674469
 20
206.7460065648
 40
280.0
100
AcDbArc
 50
352.8192442185
 51
358.6356858834
  0
ARC
  5
2A6
100
AcDbEntity
  8
_1
100
AcDbCircle
 62
7
  6
CONTINUOUS
 10
-7.6206288021
 20
206.7460099765
 40
279.9999542648
100
AcDbArc
 50
1.3643136411
 51
7.1807562569
  0
ARC
  5
2A7
100
AcDbEntity
  8
_1
100
AcDbCircle
 62
7
  6
CONTINUOUS
 10
-7.620674469
 20
206.7460065648
 40
279.2848008754
100
AcDbArc
 50
359.1451691559
 51
0.8548308441
  0
ARC
  5
2A8
100
AcDbEntity
  8
_1
100
AcDbCircle
 62
7
  6
CONTINUOUS
 10
-7.620674469
 20
206.7460065648
 40
279.2151455419
100
AcDbArc
 50
6.4777314159
 51
7.2010471908
  0
ARC
  5
2A9
100
AcDbEntity
  8
_1
100
AcDbCircle
 62
7
  6
CONTINUOUS
 10
-7.6450812906
 20
206.5510761076
 40
279.0943703524
100
AcDbArc
 50
353.4261290786
 51
356.3545807783
  0
ARC
  5
2AA
100
AcDbEntity
  8
_1
100
AcDbCircle
 62
7
  6
CONTINUOUS
 10
-7.6239335902
 20
207.0509929312
 40
277.8073141953
100
AcDbArc
 50
359.9370987219
 51
2.0850104506
  0
ARC
  5
2AB
100
AcDbEntity
  8
_1
100
AcDbCircle
 62
7
  6
CONTINUOUS
 10
-7.6239335904
 20
206.4410201984
 40
277.8073141954
100
AcDbArc
 50
357.9149895494
 51
0.0629012781
  0
ARC
  5
2AC
100
AcDbEntity
  8
_1
100
AcDbCircle
 62
7
  6
CONTINUOUS
 10
190.9926110515
 20
193.1247400325
 40
48.6142704941
100
AcDbArc
 50
90.4939140431
 51
90.7228248764
  0
ARC
  5
2AD
100
AcDbEntity
  8
_1
100
AcDbCircle
 62
7
  6
CONTINUOUS
 10
309.8273868399
 20
211.4847910751
 40
38.1986282099
100
AcDbArc
 50
179.4221674405
 51
180.8581767092
  0
ARC
  5
2AE
100
AcDbEntity
  8
_1
100
AcDbCircle
 62
7
  6
CONTINUOUS
 10
308.3333656368
 20
202.0109138791
 40
36.7047240505
100
AcDbArc
 50
179.1126558173
 51
180.6103301104
  0
ARC
  5
2AF
100
AcDbEntity
  8
_1
100
AcDbCircle
 62
7
  6
CONTINUOUS
 10
299.4649980052
 20
211.5685693322
 40
27.8359291668
100
AcDbArc
 50
178.4924993877
 51
179.3794985635
  0
ARC
  5
2B0
100
AcDbEntity
  8
_1
100
AcDbCircle
 62
7
  6
CONTINUOUS
 10
298.2540443595
 20
201.9009388467
 40
26.6248032882
100
AcDbArc
 50
180.6047281615
 51
181.5354207706
  0
ARC
  5
2B1
100
AcDbEntity
  8
_1
100
AcDbCircle
 62
7
  6
CONTINUOUS
 10
290.8316954378
 20
211.7905666415
 40
19.1997751165
100
AcDbArc
 50
177.3429430673
 51
178.476973121
  0
ARC
  5
2B2
100
AcDbEntity
  8
_1
100
AcDbCircle
 62
7
  6
CONTINUOUS
 10
289.2832430058
 20
201.6447668778
 40
17.6503657676
100
AcDbArc
 50
181.4844305194
 51
182.7104172499
  0
ARC
  5
2B3
100
AcDbEntity
  8
_1
100
AcDbCircle
 62
7
  6
CONTINUOUS
 10
269.879325531
 20
256.9460065648
 40
5.0
100
AcDbArc
 50
270.0
 51
360.0
  0
ARC
  5
2B4
100
AcDbEntity
  8
_1
100
AcDbCircle
 62
7
  6
CONTINUOUS
 10
267.879325531
 20
256.9460065648
 40
5.0
100
AcDbArc
 50
270.0
 51
360.0
  0
ARC
  5
2B5
100
AcDbEntity
  8
_1
100
AcDbCircle
 62
7
  6
CONTINUOUS
 10
243.129325531
 20
250.3460065648
 40
0.5
100
AcDbArc
 50
0.0
 51
90.0
  0
ARC
  5
2B6
100
AcDbEntity
  8
_1
100
AcDbCircle
 62
7
  6
CONTINUOUS
 10
238.629325531
 20
250.3460065648
 40
0.5
100
AcDbArc
 50
90.0
 51
180.0
  0
ARC
  5
2B7
100
AcDbEntity
  8
_1
100
AcDbCircle
 62
7
  6
CONTINUOUS
 10
263.129325531
 20
250.3460065648
 40
0.5
100
AcDbArc
 50
0.0
 51
90.0
  0
ARC
  5
2B8
100
AcDbEntity
  8
_1
100
AcDbCircle
 62
7
  6
CONTINUOUS
 10
258.629325531
 20
250.3460065648
 40
0.5
100
AcDbArc
 50
90.0
 51
180.0
  0
SPLINE
  5
2B9
100
AcDbEntity
  8
_1
100
AcDbSpline
 62
7
  6
CONTINUOUS
 70
0
 71
3
 72
9
 73
5
 74
0
 42
0.0000001
 43
0.0000001
 44
0.0000000001
 40
0.0
 40
0.0
 40
0.0
 40
0.0
 40
0.2273132489
 40
1.0
 40
1.0
 40
1.0
 40
1.0
 10
271.6717861611
 20
200.4989806716
 30
0.0
 10
271.6699235442
 20
200.5225273475
 30
0.0
 10
271.6622702138
 20
200.6261569841
 30
0.0
 10
271.6564600255
 20
200.7299167516
 30
0.0
 10
271.6526228123
 20
200.8101152623
 30
0.0
  0
SPLINE
  5
2BA
100
AcDbEntity
  8
_1
100
AcDbSpline
 62
7
  6
CONTINUOUS
 70
0
 71
3
 72
9
 73
5
 74
0
 42
0.0000001
 43
0.0000001
 44
0.0000000001
 40
0.0
 40
0.0
 40
0.0
 40
0.0
 40
0.2157698251
 40
1.0
 40
1.0
 40
1.0
 40
1.0
 10
271.6953374566
 20
200.2692749079
 30
0.0
 10
271.6930893621
 20
200.2857311446
 30
0.0
 10
271.6835236614
 20
200.3621150112
 30
0.0
 10
271.6765434193
 20
200.4388015641
 30
0.0
 10
271.6717861611
 20
200.4989806716
 30
0.0
  0
SPLINE
  5
2BB
100
AcDbEntity
  8
_1
100
AcDbSpline
 62
7
  6
CONTINUOUS
 70
0
 71
3
 72
11
 73
7
 74
0
 42
0.0000001
 43
0.0000001
 44
0.0000000001
 40
0.0
 40
0.0
 40
0.0
 40
0.0
 40
0.0953212279
 40
0.2865733832
 40
0.5880012986
 40
1.0
 40
1.0
 40
1.0
 40
1.0
 10
271.7523835695
 20
200.0793400648
 30
0.0
 10
271.7459395147
 20
200.0793400648
 30
0.0
 10
271.7313173413
 20
200.0974833608
 30
0.0
 10
271.7202981764
 20
200.1336291613
 30
0.0
 10
271.7060807004
 20
200.1942478257
 30
0.0
 10
271.6991045242
 20
200.2416782521
 30
0.0
 10
271.6953374566
 20
200.2692749089
 30
0.0
  0
SPLINE
  5
2BC
100
AcDbEntity
  8
_1
100
AcDbSpline
 62
7
  6
CONTINUOUS
 70
0
 71
3
 72
12
 73
8
 74
0
 42
0.0000001
 43
0.0000001
 44
0.0000000001
 40
0.0
 40
0.0
 40
0.0
 40
0.0
 40
0.4180755841
 40
0.7253046311
 40
0.9164870944
 40
0.9695715435
 40
1.0
 40
1.0
 40
1.0
 40
1.0
 10
271.67159958
 20
212.9906685771
 30
0.0
 10
271.6763742498
 20
213.0512937898
 30
0.0
 10
271.6860450496
 20
213.1565312167
 30
0.0
 10
271.7038291385
 20
213.2882251045
 30
0.0
 10
271.7216962074
 20
213.3675030907
 30
0.0
 10
271.7372939281
 20
213.4037324286
 30
0.0
 10
271.7479574704
 20
213.4126730648
 30
0.0
 10
271.7523835695
 20
213.4126730648
 30
0.0
  0
SPLINE
  5
2BD
100
AcDbEntity
  8
_1
100
AcDbSpline
 62
7
  6
CONTINUOUS
 70
0
 71
3
 72
9
 73
5
 74
0
 42
0.0000001
 43
0.0000001
 44
0.0000000001
 40
0.0
 40
0.0
 40
0.0
 40
0.0
 40
0.2719862434
 40
1.0
 40
1.0
 40
1.0
 40
1.0
 10
271.6525619883
 20
212.6806254326
 30
0.0
 10
271.6539044804
 20
212.7087561002
 30
0.0
 10
271.6591422367
 20
212.8121673381
 30
0.0
 10
271.665677176
 20
212.9155197551
 30
0.0
 10
271.67159958
 20
212.9906685779
 30
0.0
  0
SPLINE
  5
2BE
100
AcDbEntity
  8
_1
100
AcDbSpline
 62
7
  6
CONTINUOUS
 70
0
 71
3
 72
8
 73
4
 74
0
 42
0.0000001
 43
0.0000001
 44
0.0000000001
 40
0.0
 40
0.0
 40
0.0
 40
0.0
 40
1.0
 40
1.0
 40
1.0
 40
1.0
 10
269.9758674726
 20
195.5973888811
 30
0.0
 10
269.9838944421
 20
195.8428408045
 30
0.0
 10
269.9917575934
 20
196.0882981397
 30
0.0
 10
269.9994572161
 20
196.3337605498
 30
0.0
  0
SPLINE
  5
2BF
100
AcDbEntity
  8
_1
100
AcDbSpline
 62
7
  6
CONTINUOUS
 70
0
 71
3
 72
17
 73
13
 74
0
 42
0.0000001
 43
0.0000001
 44
0.0000000001
 40
0.0
 40
0.0
 40
0.0
 40
0.0
 40
0.0261664438
 40
0.0495699083
 40
0.0809185343
 40
0.1203259095
 40
0.1677176514
 40
0.2228636889
 40
0.2854794992
 40
0.4315646858
 40
0.6023664863
 40
1.0
 40
1.0
 40
1.0
 40
1.0
 10
270.1726794832
 20
229.4460065648
 30
0.0
 10
270.2092921685
 20
229.4460065648
 30
0.0
 10
270.2595311976
 20
229.5187032881
 30
0.0
 10
270.2923899078
 20
229.6206728267
 30
0.0
 10
270.3222542448
 20
229.7514616142
 30
0.0
 10
270.345796731
 20
229.9143588915
 30
0.0
 10
270.3654524842
 20
230.1123309461
 30
0.0
 10
270.380030733
 20
230.342900746
 30
0.0
 10
270.393542973
 20
230.7119046846
 30
0.0
 10
270.3955684445
 20
231.2430187468
 30
0.0
 10
270.3707470041
 20
232.2425677502
 30
0.0
 10
270.3236504731
 20
233.0368129529
 30
0.0
 10
270.2826468913
 20
233.5916778531
 30
0.0
  0
SPLINE
  5
2C0
100
AcDbEntity
  8
_1
100
AcDbSpline
 62
7
  6
CONTINUOUS
 70
0
 71
3
 72
20
 73
16
 74
0
 42
0.0000001
 43
0.0000001
 44
0.0000000001
 40
0.0
 40
0.0
 40
0.0
 40
0.0
 40
0.1933268476
 40
0.3789698684
 40
0.5498437268
 40
0.6994517928
 40
0.7644995768
 40
0.8222440029
 40
0.8721762131
 40
0.9139242848
 40
0.9472289647
 40
0.9720802641
 40
0.9814604772
 40
0.9889975167
 40
1.0
 40
1.0
 40
1.0
 40
1.0
 10
270.8845806406
 20
188.8057954126
 30
0.0
 10
270.9127734713
 20
189.2483388062
 30
0.0
 10
270.9592408627
 20
190.1164239212
 30
0.0
 10
271.0000104705
 20
191.3770665099
 30
0.0
 10
271.0098178742
 20
192.5380526114
 30
0.0
 10
270.9917540879
 20
193.4223796798
 30
0.0
 10
270.9592217974
 20
194.0463943886
 30
0.0
 10
270.9285584599
 20
194.4414511197
 30
0.0
 10
270.8907943477
 20
194.7821652438
 30
0.0
 10
270.8467366795
 20
195.0656242863
 30
0.0
 10
270.7964624987
 20
195.2893223964
 30
0.0
 10
270.7476631149
 20
195.4369955976
 30
0.0
 10
270.7019934298
 20
195.5218689471
 30
0.0
 10
270.6640204896
 20
195.5728325663
 30
0.0
 10
270.6229267715
 20
195.5973888811
 30
0.0
 10
270.5976899927
 20
195.5973888811
 30
0.0
  0
SPLINE
  5
2C1
100
AcDbEntity
  8
_1
100
AcDbSpline
 62
7
  6
CONTINUOUS
 70
0
 71
3
 72
9
 73
5
 74
0
 42
0.0000001
 43
0.0000001
 44
0.0000000001
 40
0.0
 40
0.0
 40
0.0
 40
0.0
 40
0.2520506147
 40
1.0
 40
1.0
 40
1.0
 40
1.0
 10
269.9994572161
 20
217.1582525798
 30
0.0
 10
269.9670597694
 20
218.1910766094
 30
0.0
 10
269.8271541569
 20
222.2883951358
 30
0.0
 10
269.6411380031
 20
226.3841546276
 30
0.0
 10
269.4747704632
 20
229.4460065648
 30
0.0
  0
SPLINE
  5
2C2
100
AcDbEntity
  8
_1
100
AcDbSpline
 62
7
  6
CONTINUOUS
 70
0
 71
3
 72
13
 73
9
 74
0
 42
0.0000001
 43
0.0000001
 44
0.0000000001
 40
0.0
 40
0.0
 40
0.0
 40
0.0
 40
0.050397544
 40
0.1279294517
 40
0.2306688138
 40
0.3558005485
 40
0.658027187
 40
1.0
 40
1.0
 40
1.0
 40
1.0
 10
269.5360737557
 20
173.1439907494
 30
0.0
 10
269.530188763
 20
173.1677994462
 30
0.0
 10
269.524108334
 20
173.230126228
 30
0.0
 10
269.5207313775
 20
173.3422067227
 30
0.0
 10
269.5232524595
 20
173.4909103788
 30
0.0
 10
269.534649636
 20
173.7486081643
 30
0.0
 10
269.5631105065
 20
174.1220140646
 30
0.0
 10
269.5952126706
 20
174.4338801874
 30
0.0
 10
269.6142653635
 20
174.5992020568
 30
0.0
  0
SPLINE
  5
2C3
100
AcDbEntity
  8
_1
100
AcDbSpline
 62
7
  6
CONTINUOUS
 70
0
 71
3
 72
11
 73
7
 74
0
 42
0.0000001
 43
0.0000001
 44
0.0000000001
 40
0.0
 40
0.0
 40
0.0
 40
0.0
 40
0.1425767294
 40
0.3562506903
 40
0.6420478886
 40
1.0
 40
1.0
 40
1.0
 40
1.0
 10
269.9880668173
 20
171.7460065648
 30
0.0
 10
269.9501905257
 20
171.8048610993
 30
0.0
 10
269.8784240452
 20
171.965654492
 30
0.0
 10
269.7746848984
 20
172.262950236
 30
0.0
 10
269.6570907141
 20
172.6674275509
 30
0.0
 10
269.5782375055
 20
172.9734104276
 30
0.0
 10
269.5360737557
 20
173.1439907494
 30
0.0
  0
SPLINE
  5
2C4
100
AcDbEntity
  8
_1
100
AcDbSpline
 62
7
  6
CONTINUOUS
 70
0
 71
3
 72
8
 73
4
 74
0
 42
0.0000001
 43
0.0000001
 44
0.0000000001
 40
0.0
 40
0.0
 40
0.0
 40
0.0
 40
1.0
 40
1.0
 40
1.0
 40
1.0
 10
261.099325531
 20
240.5263473444
 30
0.0
 10
261.4894307436
 20
240.5263473132
 30
0.0
 10
261.8794345598
 20
240.5109685878
 30
0.0
 10
262.2695397715
 20
240.5109420453
 30
0.0
  0
SPLINE
  5
2C5
100
AcDbEntity
  8
_1
100
AcDbSpline
 62
7
  6
CONTINUOUS
 70
0
 71
3
 72
14
 73
10
 74
0
 42
0.0000001
 43
0.0000001
 44
0.0000000001
 40
0.0
 40
0.0
 40
0.0
 40
0.0
 40
0.1342983479
 40
0.2663656536
 40
0.3903434982
 40
0.5127872302
 40
0.6369591945
 40
0.7598994715
 40
1.0
 40
1.0
 40
1.0
 40
1.0
 10
190.379325531
 20
228.3351630112
 30
0.0
 10
190.390716652
 20
228.3387478198
 30
0.0
 10
190.4124660824
 20
228.348118337
 30
0.0
 10
190.4421029245
 20
228.3679881701
 30
0.0
 10
190.4549893102
 20
228.4025476453
 30
0.0
 10
190.4422479802
 20
228.4345219074
 30
0.0
 10
190.4257526097
 20
228.4626028842
 30
0.0
 10
190.4025885445
 20
228.4993209059
 30
0.0
 10
190.3876429632
 20
228.5280423291
 30
0.0
 10
190.379325531
 20
228.5477054179
 30
0.0
  0
SPLINE
  5
2C6
100
AcDbEntity
  8
_1
100
AcDbSpline
 62
7
  6
CONTINUOUS
 70
0
 71
3
 72
11
 73
7
 74
0
 42
0.0000001
 43
0.0000001
 44
0.0000000001
 40
0.0
 40
0.0
 40
0.0
 40
0.0
 40
0.3027534101
 40
0.5401934836
 40
0.7808630922
 40
1.0
 40
1.0
 40
1.0
 40
1.0
 10
190.379325531
 20
241.4778587865
 30
0.0
 10
190.3930791873
 20
241.4898709566
 30
0.0
 10
190.4161489048
 20
241.512104602
 30
0.0
 10
190.4343566014
 20
241.5629978321
 30
0.0
 10
190.4007438862
 20
241.595530966
 30
0.0
 10
190.3856583124
 20
241.6179802454
 30
0.0
 10
190.379325531
 20
241.6295817516
 30
0.0
  0
SPLINE
  5
2C7
100
AcDbEntity
  8
_1
100
AcDbSpline
 62
7
  6
CONTINUOUS
 70
0
 71
3
 72
14
 73
10
 74
0
 42
0.0000001
 43
0.0000001
 44
0.0000000001
 40
0.0
 40
0.0
 40
0.0
 40
0.0
 40
0.2614989169
 40
0.3807916464
 40
0.4904931753
 40
0.5821920795
 40
0.6699505039
 40
0.8060794754
 40
1.0
 40
1.0
 40
1.0
 40
1.0
 10
190.379325531
 20
241.6295817516
 30
0.0
 10
190.3853540377
 20
241.6365269847
 30
0.0
 10
190.3940224821
 20
241.6466923475
 30
0.0
 10
190.4047887628
 20
241.6602874087
 30
0.0
 10
190.4113576407
 20
241.6691811838
 30
0.0
 10
190.4164703796
 20
241.6788770191
 30
0.0
 10
190.4110664587
 20
241.6900927424
 30
0.0
 10
190.397007374
 20
241.6960429784
 30
0.0
 10
190.3859759504
 20
241.6991796525
 30
0.0
 10
190.379325531
 20
241.7006911336
 30
0.0
  0
SPLINE
  5
2C8
100
AcDbEntity
  8
_1
100
AcDbSpline
 62
7
  6
CONTINUOUS
 70
0
 71
3
 72
8
 73
4
 74
0
 42
0.0000001
 43
0.0000001
 44
0.0000000001
 40
0.0
 40
0.0
 40
0.0
 40
0.0
 40
1.0
 40
1.0
 40
1.0
 40
1.0
 10
239.4291112906
 20
240.5109416892
 30
0.0
 10
239.8192165024
 20
240.5109682506
 30
0.0
 10
240.2092203184
 20
240.5263469905
 30
0.0
 10
240.5993255311
 20
240.5263470216
 30
0.0
  0
SPLINE
  5
2C9
100
AcDbEntity
  8
_1
100
AcDbSpline
 62
7
  6
CONTINUOUS
 70
0
 71
3
 72
11
 73
7
 74
0
 42
0.0000001
 43
0.0000001
 44
0.0000000001
 40
0.0
 40
0.0
 40
0.0
 40
0.0
 40
0.2490946425
 40
0.4988194657
 40
0.7490919893
 40
1.0
 40
1.0
 40
1.0
 40
1.0
 10
235.379325531
 20
233.7940146199
 30
0.0
 10
235.3902222468
 20
233.6058310857
 30
0.0
 10
235.4067807431
 20
233.2286895428
 30
0.0
 10
235.4234154082
 20
232.6620447289
 30
0.0
 10
235.4207068871
 20
232.0935857699
 30
0.0
 10
235.3962291729
 20
231.7148642034
 30
0.0
 10
235.379325531
 20
231.5257471444
 30
0.0
  0
SPLINE
  5
2CA
100
AcDbEntity
  8
_1
100
AcDbSpline
 62
7
  6
CONTINUOUS
 70
0
 71
3
 72
12
 73
8
 74
0
 42
0.0000001
 43
0.0000001
 44
0.0000000001
 40
0.0
 40
0.0
 40
0.0
 40
0.0
 40
0.2547379168
 40
0.3804084553
 40
0.5059501486
 40
0.7546155174
 40
1.0
 40
1.0
 40
1.0
 40
1.0
 10
235.3793255809
 20
240.5114483588
 30
0.0
 10
235.3799448085
 20
240.5266863586
 30
0.0
 10
235.3757444151
 20
240.5492823266
 30
0.0
 10
235.3743007121
 20
240.5796576414
 30
0.0
 10
235.3789431329
 20
240.6092986185
 30
0.0
 10
235.3826454011
 20
240.6463136714
 30
0.0
 10
235.3770084821
 20
240.6761376669
 30
0.0
 10
235.379325531
 20
240.6906443977
 30
0.0
  0
SPLINE
  5
2CB
100
AcDbEntity
  8
_1
100
AcDbSpline
 62
7
  6
CONTINUOUS
 70
0
 71
3
 72
11
 73
7
 74
0
 42
0.0000001
 43
0.0000001
 44
0.0000000001
 40
0.0
 40
0.0
 40
0.0
 40
0.0
 40
0.1791464059
 40
0.4079690901
 40
0.683016929
 40
1.0
 40
1.0
 40
1.0
 40
1.0
 10
235.379325531
 20
241.6277562568
 30
0.0
 10
235.381370073
 20
241.5953580626
 30
0.0
 10
235.3788348089
 20
241.5213278287
 30
0.0
 10
235.3783836086
 20
241.3976178898
 30
0.0
 10
235.3795904001
 20
241.248854815
 30
0.0
 10
235.3794140909
 20
241.1415793548
 30
0.0
 10
235.3794011801
 20
241.0841396997
 30
0.0
  0
SPLINE
  5
2CC
100
AcDbEntity
  8
_1
100
AcDbSpline
 62
7
  6
CONTINUOUS
 70
0
 71
3
 72
11
 73
7
 74
0
 42
0.0000001
 43
0.0000001
 44
0.0000000001
 40
0.0
 40
0.0
 40
0.0
 40
0.0
 40
0.2336653462
 40
0.4786455179
 40
0.7348249042
 40
1.0
 40
1.0
 40
1.0
 40
1.0
 10
235.3794011801
 20
241.0841396997
 30
0.0
 10
235.3794293916
 20
241.0534873705
 30
0.0
 10
235.380293735
 20
240.9907108789
 30
0.0
 10
235.3773416592
 20
240.8942582722
 30
0.0
 10
235.3799427336
 20
240.7940152503
 30
0.0
 10
235.3848120582
 20
240.7249948042
 30
0.0
 10
235.379325531
 20
240.6906443977
 30
0.0
  0
SPLINE
  5
2CD
100
AcDbEntity
  8
_1
100
AcDbSpline
 62
7
  6
CONTINUOUS
 70
0
 71
3
 72
9
 73
5
 74
0
 42
0.0000001
 43
0.0000001
 44
0.0000000001
 40
0.0
 40
0.0
 40
0.0
 40
0.0
 40
0.5426754221
 40
1.0
 40
1.0
 40
1.0
 40
1.0
 10
235.379325531
 20
241.6277562568
 30
0.0
 10
235.378643737
 20
241.6385600918
 30
0.0
 10
235.3806137744
 20
241.6584928886
 30
0.0
 10
235.3781441858
 20
241.6785537857
 30
0.0
 10
235.379325531
 20
241.6875997154
 30
0.0
  0
SPLINE
  5
2CE
100
AcDbEntity
  8
_1
100
AcDbSpline
 62
7
  6
CONTINUOUS
 70
0
 71
3
 72
9
 73
5
 74
0
 42
0.0000001
 43
0.0000001
 44
0.0000000001
 40
0.0
 40
0.0
 40
0.0
 40
0.0
 40
0.5659950199
 40
1.0
 40
1.0
 40
1.0
 40
1.0
 10
235.379325531
 20
241.6875997154
 30
0.0
 10
235.380274018
 20
241.6948625769
 30
0.0
 10
235.3768510686
 20
241.7075441195
 30
0.0
 10
235.3817014794
 20
241.7213295344
 30
0.0
 10
235.379325531
 20
241.7264186798
 30
0.0
  0
SPLINE
  5
2CF
100
AcDbEntity
  8
_1
100
AcDbSpline
 62
7
  6
CONTINUOUS
 70
0
 71
3
 72
11
 73
7
 74
0
 42
0.0000001
 43
0.0000001
 44
0.0000000001
 40
0.0
 40
0.0
 40
0.0
 40
0.0
 40
0.4270959079
 40
0.710605622
 40
0.9106493527
 40
1.0
 40
1.0
 40
1.0
 40
1.0
 10
235.379325531
 20
241.7264186798
 30
0.0
 10
235.3780227067
 20
241.7292092549
 30
0.0
 10
235.3754439396
 20
241.7336473331
 30
0.0
 10
235.375395114
 20
241.7408648721
 30
0.0
 10
235.375924644
 20
241.7439417439
 30
0.0
 10
235.379970813
 20
241.7460065648
 30
0.0
 10
235.3793265204
 20
241.7460065648
 30
0.0
  0
SPLINE
  5
2D0
100
AcDbEntity
  8
_1
100
AcDbSpline
 62
7
  6
CONTINUOUS
 70
0
 71
3
 72
11
 73
7
 74
0
 42
0.0000001
 43
0.0000001
 44
0.0000000001
 40
0.0
 40
0.0
 40
0.0
 40
0.0
 40
0.2642498025
 40
0.517480401
 40
0.7581633273
 40
1.0
 40
1.0
 40
1.0
 40
1.0
 10
190.379325531
 20
240.98606934
 30
0.0
 10
190.3903061556
 20
241.0085230701
 30
0.0
 10
190.4071865425
 20
241.054738871
 30
0.0
 10
190.4217767861
 20
241.1253946601
 30
0.0
 10
190.4153207245
 20
241.1963447794
 30
0.0
 10
190.3927648037
 20
241.2373413743
 30
0.0
 10
190.379325531
 20
241.2558520599
 30
0.0
  0
LINE
  5
2D1
100
AcDbEntity
  8
_1
100
AcDbLine
 62
7
  6
CONTINUOUS
 10
190.379325531
 20
241.7460065631
 11
190.5780122328
 21
241.7459995801
  0
SPLINE
  5
2D2
100
AcDbEntity
  8
_1
100
AcDbSpline
 62
7
  6
CONTINUOUS
 70
0
 71
3
 72
9
 73
5
 74
0
 42
0.0000001
 43
0.0000001
 44
0.0000000001
 40
0.0
 40
0.0
 40
0.0
 40
0.0
 40
0.498957363
 40
1.0
 40
1.0
 40
1.0
 40
1.0
 10
190.5780122328
 20
241.7459995801
 30
0.0
 10
190.9368087747
 20
241.7459742567
 30
0.0
 10
192.3734867764
 20
241.7466195403
 30
0.0
 10
190.9338229019
 20
241.7403408132
 30
0.0
 10
190.5735405073
 20
241.737204232
 30
0.0
  0
SPLINE
  5
2D3
100
AcDbEntity
  8
_1
100
AcDbSpline
 62
7
  6
CONTINUOUS
 70
0
 71
3
 72
18
 73
14
 74
0
 42
0.0000001
 43
0.0000001
 44
0.0000000001
 40
0.0
 40
0.0
 40
0.0
 40
0.0
 40
0.0048955102
 40
0.0188221552
 40
0.0417032881
 40
0.073401683
 40
0.113731799
 40
0.1623421443
 40
0.2828265243
 40
0.4314736793
 40
0.6040528771
 40
0.7957163964
 40
1.0
 40
1.0
 40
1.0
 40
1.0
 10
87.8793472621
 20
229.2460065648
 30
0.0
 10
87.881303489
 20
229.2460065648
 30
0.0
 10
87.8811923277
 20
229.2347120975
 30
0.0
 10
87.8860051861
 20
229.2220450697
 30
0.0
 10
87.8890215436
 20
229.1928811303
 30
0.0
 10
87.8943096697
 20
229.1561729538
 30
0.0
 10
87.8995802861
 20
229.1079262745
 30
0.0
 10
87.9083564018
 20
229.0248542638
 30
0.0
 10
87.9203583375
 20
228.8983554282
 30
0.0
 10
87.936253443
 20
228.72260695
 30
0.0
 10
87.9537904829
 20
228.5183954539
 30
0.0
 10
87.9723883206
 20
228.2919810792
 30
0.0
 10
87.9848670295
 20
228.1342537043
 30
0.0
 10
87.9911997343
 20
228.0528687781
 30
0.0
  0
SPLINE
  5
2D4
100
AcDbEntity
  8
_1
100
AcDbSpline
 62
7
  6
CONTINUOUS
 70
0
 71
3
 72
15
 73
11
 74
0
 42
0.0000001
 43
0.0000001
 44
0.0000000001
 40
0.0
 40
0.0
 40
0.0
 40
0.0
 40
0.0086680407
 40
0.0245856667
 40
0.0823970008
 40
0.1745064643
 40
0.2979599362
 40
0.4481783624
 40
0.619655087
 40
1.0
 40
1.0
 40
1.0
 40
1.0
 10
87.9911997391
 20
241.7460065648
 30
0.0
 10
87.9868636232
 20
241.7460065648
 30
0.0
 10
87.9765659963
 20
241.7360827162
 30
0.0
 10
87.9617698658
 20
241.6986698466
 30
0.0
 10
87.9440165827
 20
241.6162076296
 30
0.0
 10
87.9266455961
 20
241.4811738866
 30
0.0
 10
87.9105184749
 20
241.2985989637
 30
0.0
 10
87.8972095577
 20
241.0763918686
 30
0.0
 10
87.8833736629
 20
240.7254191049
 30
0.0
 10
87.8793883329
 20
240.4493607654
 30
0.0
 10
87.8793264115
 20
240.2590963681
 30
0.0
  0
SPLINE
  5
2D5
100
AcDbEntity
  8
_1
100
AcDbSpline
 62
7
  6
CONTINUOUS
 70
0
 71
3
 72
18
 73
14
 74
0
 42
0.0000001
 43
0.0000001
 44
0.0000000001
 40
0.0
 40
0.0
 40
0.0
 40
0.0
 40
0.2042920874
 40
0.3959644662
 40
0.5685531031
 40
0.7172058481
 40
0.8376895084
 40
0.8863017638
 40
0.9266398818
 40
0.9583546359
 40
0.98125173
 40
0.9951764836
 40
1.0
 40
1.0
 40
1.0
 40
1.0
 10
87.9911996731
 20
185.4391443515
 30
0.0
 10
87.9848669753
 20
185.3577595151
 30
0.0
 10
87.9723920988
 20
185.2000316109
 30
0.0
 10
87.9537922536
 20
184.9736165417
 30
0.0
 10
87.9362302742
 20
184.7694057742
 30
0.0
 10
87.9203264412
 20
184.5936616967
 30
0.0
 10
87.9084334337
 20
184.4671514483
 30
0.0
 10
87.8996510432
 20
184.3840855799
 30
0.0
 10
87.8943726889
 20
184.3358189142
 30
0.0
 10
87.8888343777
 20
184.2991579446
 30
0.0
 10
87.8859250653
 20
184.2699033583
 30
0.0
 10
87.8806393095
 20
184.2574396103
 30
0.0
 10
87.8812934988
 20
184.2460065648
 30
0.0
 10
87.8793661225
 20
184.2460065648
 30
0.0
  0
SPLINE
  5
2D6
100
AcDbEntity
  8
_1
100
AcDbSpline
 62
7
  6
CONTINUOUS
 70
0
 71
3
 72
12
 73
8
 74
0
 42
0.0000001
 43
0.0000001
 44
0.0000000001
 40
0.0
 40
0.0
 40
0.0
 40
0.0
 40
0.3412662497
 40
0.6427095702
 40
0.8704766793
 40
0.9485947995
 40
1.0
 40
1.0
 40
1.0
 40
1.0
 10
87.879322411
 20
174.5992020592
 30
0.0
 10
87.8793221804
 20
174.4328987332
 30
0.0
 10
87.8919704134
 20
174.1197718924
 30
0.0
 10
87.9144626496
 20
173.6963210175
 30
0.0
 10
87.9410704744
 20
173.401147661
 30
0.0
 10
87.9684306659
 20
173.2293352518
 30
0.0
 10
87.9824422794
 20
173.1674605054
 30
0.0
 10
87.9911997331
 20
173.1439907481
 30
0.0
  0
SPLINE
  5
2D7
100
AcDbEntity
  8
_1
100
AcDbSpline
 62
7
  6
CONTINUOUS
 70
0
 71
3
 72
22
 73
18
 74
0
 42
0.0000001
 43
0.0000001
 44
0.0000000001
 40
0.0
 40
0.0
 40
0.0
 40
0.0
 40
0.1922306132
 40
0.3774557788
 40
0.5483832387
 40
0.6994017492
 40
0.7657615781
 40
0.8251127394
 40
0.8767934859
 40
0.9201822391
 40
0.9546509363
 40
0.9683582158
 40
0.9796544469
 40
0.9885032543
 40
0.9948681683
 40
0.9987126278
 40
1.0
 40
1.0
 40
1.0
 40
1.0
 10
54.879325531
 20
211.8694819479
 30
0.0
 10
55.0103887566
 20
211.8694819479
 30
0.0
 10
55.2678333727
 20
211.8797072533
 30
0.0
 10
55.6396663697
 20
211.9215625079
 30
0.0
 10
55.980131609
 20
211.9832978286
 30
0.0
 10
56.2376967193
 20
212.0450570277
 30
0.0
 10
56.4195034126
 20
212.0955457174
 30
0.0
 10
56.5353976889
 20
212.1301464575
 30
0.0
 10
56.6357867697
 20
212.1619280944
 30
0.0
 10
56.7195775939
 20
212.1897495269
 30
0.0
 10
56.7786490789
 20
212.2101906631
 30
0.0
 10
56.8168202357
 20
212.2235045509
 30
0.0
 10
56.8387542295
 20
212.2314869818
 30
0.0
 10
56.8552891105
 20
212.2369109852
 30
0.0
 10
56.8685989143
 20
212.2428838107
 30
0.0
 10
56.8740321963
 20
212.2428338068
 30
0.0
 10
56.879325531
 20
212.246884282
 30
0.0
 10
56.879325531
 20
212.246006549
 30
0.0
  0
SPLINE
  5
2D8
100
AcDbEntity
  8
_1
100
AcDbSpline
 62
7
  6
CONTINUOUS
 70
0
 71
3
 72
9
 73
5
 74
0
 42
0.0000001
 43
0.0000001
 44
0.0000000001
 40
0.0
 40
0.0
 40
0.0
 40
0.0
 40
0.301059638
 40
1.0
 40
1.0
 40
1.0
 40
1.0
 10
38.879325531
 20
212.2460065648
 30
0.0
 10
39.0708710283
 20
212.1755735187
 30
0.0
 10
39.7212732272
 20
211.9691327683
 30
0.0
 10
40.4037135213
 20
211.8694819479
 30
0.0
 10
40.879325531
 20
211.8694819479
 30
0.0
  0
SPLINE
  5
2D9
100
AcDbEntity
  8
INTFCLR_18151
100
AcDbSpline
 62
7
  6
CONTINUOUS
 70
0
 71
3
 72
10
 73
6
 74
0
 42
0.0000001
 43
0.0000001
 44
0.0000000001
 40
0.0
 40
0.0
 40
0.0
 40
0.0
 40
0.3486785605
 40
0.6807142157
 40
1.0
 40
1.0
 40
1.0
 40
1.0
 10
235.379325531
 20
232.3349496044
 30
0.0
 10
235.3428119257
 20
232.2282352741
 30
0.0
 10
235.2914454436
 20
232.0118473888
 30
0.0
 10
235.293501283
 20
231.6856271675
 30
0.0
 10
235.3430610239
 20
231.4785101274
 30
0.0
 10
235.379325531
 20
231.3818057194
 30
0.0
  0
SPLINE
  5
2DA
100
AcDbEntity
  8
INTFCLR_18151
100
AcDbSpline
 62
7
  6
CONTINUOUS
 70
0
 71
3
 72
10
 73
6
 74
0
 42
0.0000001
 43
0.0000001
 44
0.0000000001
 40
0.0
 40
0.0
 40
0.0
 40
0.0
 40
0.3663738349
 40
0.6904718604
 40
1.0
 40
1.0
 40
1.0
 40
1.0
 10
235.379325531
 20
230.6214517089
 30
0.0
 10
235.3456671941
 20
230.5464248075
 30
0.0
 10
235.2965122347
 20
230.3976056638
 30
0.0
 10
235.289389911
 20
230.1688416529
 30
0.0
 10
235.3427425483
 20
230.0322673322
 30
0.0
 10
235.379325531
 20
229.9732074994
 30
0.0
  0
SPLINE
  5
2DB
100
AcDbEntity
  8
INTFCLR_18151
100
AcDbSpline
 62
7
  6
CONTINUOUS
 70
0
 71
3
 72
10
 73
6
 74
0
 42
0.0000001
 43
0.0000001
 44
0.0000000001
 40
0.0
 40
0.0
 40
0.0
 40
0.0
 40
0.3202716245
 40
0.6509493767
 40
1.0
 40
1.0
 40
1.0
 40
1.0
 10
235.379325531
 20
231.3818057151
 30
0.0
 10
235.3430830982
 20
231.4788435567
 30
0.0
 10
235.2933842803
 20
231.6858010889
 30
0.0
 10
235.2922286408
 20
232.0119826178
 30
0.0
 10
235.3431834813
 20
232.2279983334
 30
0.0
 10
235.379325531
 20
232.3349496115
 30
0.0
  0
SPLINE
  5
2DC
100
AcDbEntity
  8
INTFCLR_18151
100
AcDbSpline
 62
7
  6
CONTINUOUS
 70
0
 71
3
 72
10
 73
6
 74
0
 42
0.0000001
 43
0.0000001
 44
0.0000000001
 40
0.0
 40
0.0
 40
0.0
 40
0.0
 40
0.3093016797
 40
0.634712782
 40
1.0
 40
1.0
 40
1.0
 40
1.0
 10
235.379325531
 20
229.9732074998
 30
0.0
 10
235.3424271364
 20
230.0320364088
 30
0.0
 10
235.2885899201
 20
230.1689145822
 30
0.0
 10
235.2966881602
 20
230.3977489032
 30
0.0
 10
235.3456448331
 20
230.5466741652
 30
0.0
 10
235.379325531
 20
230.6214517186
 30
0.0
  0
ELLIPSE
  5
2DD
100
AcDbEntity
  8
_1
100
AcDbEllipse
 62
7
  6
CONTINUOUS
 10
651.7868714918
 20
234.1681650448
 30
0.0
 11
400.905684634
 21
-35.1175265754
 31
0.0
 40
0.0347875628
 41
2.8118190307
 42
3.1446398775
  0
ENDSEC
  0
SECTION
  2
OBJECTS
  0
DICTIONARY
  5
C
100
AcDbDictionary
280
0
281
1
  3
ACAD_GROUP
350
D
  3
ACAD_MLINESTYLE
350
17
  3
ACAD_LAYOUT
350
1A
  3
ACAD_PLOTSETTINGS
350
19
  3
ACAD_PLOTSTYLENAME
350
E
  0
DICTIONARY
  5
D
102
{ACAD_REACTORS
330
C
102
}
100
AcDbDictionary
280
0
281
1
  0
ACDBDICTIONARYWDFLT
  5
E
102
{ACAD_REACTORS
330
C
102
}
100
AcDbDictionary
281
1
  3
Normal
350
F
100
AcDbDictionaryWithDefault
340
F
  0
DICTIONARY
  5
17
102
{ACAD_REACTORS
330
C
102
}
100
AcDbDictionary
280
0
281
1
  3
Standard
350
18
  0
DICTIONARY
  5
19
102
{ACAD_REACTORS
330
C
102
}
100
AcDbDictionary
281
1
  0
DICTIONARY
  5
1A
102
{ACAD_REACTORS
330
C
102
}
100
AcDbDictionary
281
1
  3
Model
350
2DE
  3
Layout1
350
2DF
  0
ACDBPLACEHOLDER
  5
F
102
{ACAD_REACTORS
330
E
102
}
  0
MLINESTYLE
  5
18
102
{ACAD_REACTORS
330
17
102
}
100
AcDbMlineStyle
  2
STANDARD
 70
0
  3

 62
256
 51
90.0
 52
90.0
 71
2
 49
0.5
 62
256
  6
BYLAYER
 49
-0.5
 62
256
  6
BYLAYER
  0
LAYOUT
  5
2DE
102
{ACAD_REACTORS
330
1A
102
}
100
AcDbPlotSettings
  1

  2
none_device
  4

  6

 40
0.0
 41
0.0
 42
0.0
 43
0.0
 44
210.0
 45
297.0
 46
0.0
 47
0.0
 48
0.0
 49
0.0
140
0.0
141
0.0
142
1.0
143
1.0
 70
1024
 72
1
 73
0
 74
0
  7

 75
0
147
1.0
148
0.0
149
0.0
100
AcDbLayout
  1
Model
 70
0
 71
0
 10
0.0
 20
0.0
 11
210.0
 21
297.0
 12
0.0
 22
0.0
 32
0.0
 14
0.0
 24
0.0
 34
0.0
 15
0.0
 25
0.0
 35
0.0
146
0.0
 13
0.0
 23
0.0
 33
0.0
 16
1.0
 26
0.0
 36
0.0
 17
0.0
 27
1.0
 37
0.0
 76
0
330
212
345
0
346
0
  0
LAYOUT
  5
2DF
102
{ACAD_REACTORS
330
1A
102
}
100
AcDbPlotSettings
  1

  2
none_device
  4

  6

 40
0.0
 41
0.0
 42
0.0
 43
0.0
 44
210.0
 45
297.0
 46
0.0
 47
0.0
 48
0.0
 49
0.0
140
0.0
141
0.0
142
1.0
143
1.0
 70
0
 72
1
 73
0
 74
0
  7

 75
0
147
1.0
148
0.0
149
0.0
100
AcDbLayout
  1
Layout1
 70
0
 71
1
 10
0.0
 20
0.0
 11
210.0
 21
297.0
 12
0.0
 22
0.0
 32
0.0
 14
0.0
 24
0.0
 34
0.0
 15
0.0
 25
0.0
 35
0.0
146
0.0
 13
0.0
 23
0.0
 33
0.0
 16
1.0
 26
0.0
 36
0.0
 17
0.0
 27
1.0
 37
0.0
 76
0
330
213
345
0
346
0
  0
ENDSEC
  0
EOF
