999
DXF file: C:\Gen2D\CAD\METSECTSP5A4120U_3D-CAD\drw0001_6.dxf
999
Pro/ENGINEER 2019471 by Parametric Technology Corporation
  0
SECTION
  2
HEADER
  9
$ACADVER
  1
AC1024
  9
$DWGCODEPAGE
  3
ANSI_1252
  9
$EXTMAX
 10
223.8015136793
 20
316.5192836321
 30
0.0
  9
$EXTMIN
 10
0.0
 20
0.0
 30
0.0
  9
$LIMMIN
 10
0.0
 20
0.0
  9
$LIMMAX
 10
223.8015136793
 20
316.5192836321
  9
$VIEWCTR
 10
111.9007568396
 20
158.2596418161
  9
$VIEWSIZE
 40
316.5192836321
  9
$CLAYER
  8
0
  9
$LTSCALE
 40
20.6323681182
  9
$CELTYPE
  6
BYLAYER
  9
$DIMSCALE
 40
1.0
  9
$DIMASZ
 40
2.6643037343
  9
$DIMEXO
 40
1.0
  9
$DIMDLI
 40
14.2550906999
  9
$DIMEXE
 40
1.0
  9
$DIMCEN
 40
3.3762056921
  9
$DIMLFAC
 40
1.0
  9
$DIMBLK
  1
_FILLED
  9
$DIMALT
 70
0
  9
$DIMALTF
 40
0.0393700787
  9
$DIMTXT
 40
3.730025228
  9
$DIMTOL
 70
1
  9
$DIMLIM
 70
0
  9
$DIMTFAC
 40
1.0
  9
$DIMTP
 40
0.01
  9
$DIMTM
 40
0.01
  9
$DIMGAP
 40
0.625
  9
$DIMDSEP
 70
46
  9
$AUNITS
 70
0
  9
$PDMODE
 70
3
  9
$PDSIZE
 40
0.3125
  9
$HANDSEED
  5
25D
  9
$TILEMODE
 70
1
  9
$MEASUREMENT
 70
1
  9
$INSUNITS
 70
4
  0
ENDSEC
  0
SECTION
  2
CLASSES
  0
CLASS
  1
ACDBDICTIONARYWDFLT
  2
AcDbDictionaryWithDefault
  3
AutoCAD 2000
 90
0
 91
1
280
0
281
0
  0
CLASS
  1
ACDBPLACEHOLDER
  2
AcDbPlaceHolder
  3
AutoCAD 2000
 90
0
 91
1
280
0
281
0
  0
CLASS
  1
LAYOUT
  2
AcDbLayout
  3
AutoCAD 2000
 90
0
 91
0
280
0
281
0
  0
ENDSEC
  0
SECTION
  2
TABLES
  0
TABLE
  2
VPORT
  5
8
100
AcDbSymbolTable
 70
2
  0
VPORT
  5
1F4
100
AcDbSymbolTableRecord
100
AcDbViewportTableRecord
  2
*ACTIVE
 70
0
 10
0.0
 20
0.0
 11
1.0
 21
1.0
 12
111.9007568396
 22
158.2596418161
 13
0.0
 23
0.0
 14
1.0
 24
1.0
 15
0.0
 25
0.0
 16
0.0
 26
0.0
 36
1.0
 17
0.0
 27
0.0
 37
0.0
 40
316.5192836321
 41
0.7070707071
 42
50.0
 43
0.0
 44
0.0
 50
0.0
 51
0.0
 71
0
 72
100
 73
1
 74
1
 75
0
 76
0
 77
0
 78
0
  0
ENDTAB
  0
TABLE
  2
LTYPE
  5
5
100
AcDbSymbolTable
 70
6
  0
LTYPE
  5
14
100
AcDbSymbolTableRecord
100
AcDbLinetypeTableRecord
  2
BYBLOCK
 70
0
  3

 72
65
 73
0
 40
0.0
  0
LTYPE
  5
15
100
AcDbSymbolTableRecord
100
AcDbLinetypeTableRecord
  2
BYLAYER
 70
0
  3

 72
65
 73
0
 40
0.0
  0
LTYPE
  5
16
100
AcDbSymbolTableRecord
100
AcDbLinetypeTableRecord
  2
CONTINUOUS
 70
64
  3
Solid line
 72
65
 73
0
 40
0.0
  0
LTYPE
  5
1F5
100
AcDbSymbolTableRecord
100
AcDbLinetypeTableRecord
  2
CENTER
 70
64
  3
____ _ ____ _ ____ _ ____ _ ____ _ ____ _ ____
 72
65
 73
4
 40
0.6
 49
0.375
 74
0
 49
-0.075
 74
0
 49
0.075
 74
0
 49
-0.075
 74
0
  0
LTYPE
  5
1F6
100
AcDbSymbolTableRecord
100
AcDbLinetypeTableRecord
  2
HIDDEN
 70
64
  3
- - - - - - - - - - - - - - - - - - - -
 72
65
 73
2
 40
0.2
 49
0.1
 74
0
 49
-0.1
 74
0
  0
LTYPE
  5
1F7
100
AcDbSymbolTableRecord
100
AcDbLinetypeTableRecord
  2
PHANTOM
 70
64
  3
_____ _ _ _____ _ _ _____ _ _ _____
 72
65
 73
6
 40
0.8
 49
0.45
 74
0
 49
-0.05
 74
0
 49
0.1
 74
0
 49
-0.05
 74
0
 49
0.1
 74
0
 49
-0.05
 74
0
  0
LTYPE
  5
1F8
100
AcDbSymbolTableRecord
100
AcDbLinetypeTableRecord
  2
DOT
 70
64
  3
. . . . . . . . . . . . . . . . . . . .
 72
65
 73
2
 40
0.2
 49
0.1
 74
0
 49
-0.1
 74
0
  0
LTYPE
  5
1F9
100
AcDbSymbolTableRecord
100
AcDbLinetypeTableRecord
  2
DASHED
 70
64
  3
- - - - - - - - - - - - - - - - - - - -
 72
65
 73
2
 40
0.2
 49
0.1
 74
0
 49
-0.1
 74
0
  0
ENDTAB
  0
TABLE
  2
LAYER
  5
2
100
AcDbSymbolTable
 70
36
  0
LAYER
  5
10
100
AcDbSymbolTableRecord
100
AcDbLayerTableRecord
  2
0
 70
0
 62
7
  6
CONTINUOUS
370
-3
390
F
  0
LAYER
  5
1FA
100
AcDbSymbolTableRecord
100
AcDbLayerTableRecord
  2
DEFAULT_1
 70
0
 62
7
  6
CENTER
370
-3
390
F
  0
LAYER
  5
1FB
100
AcDbSymbolTableRecord
100
AcDbLayerTableRecord
  2
DEFAULT_2
 70
0
 62
8
  6
HIDDEN
370
-3
390
F
  0
LAYER
  5
1FC
100
AcDbSymbolTableRecord
100
AcDbLayerTableRecord
  2
DEFAULT_3
 70
0
 62
7
  6
PHANTOM
370
-3
390
F
  0
LAYER
  5
1FD
100
AcDbSymbolTableRecord
100
AcDbLayerTableRecord
  2
00_COMPONENTS
 70
0
 62
7
  6
CONTINUOUS
370
-3
390
F
  0
LAYER
  5
1FE
100
AcDbSymbolTableRecord
100
AcDbLayerTableRecord
  2
01_1_DEFAULT_DATUMS
 70
0
 62
7
  6
CONTINUOUS
370
-3
390
F
  0
LAYER
  5
1FF
100
AcDbSymbolTableRecord
100
AcDbLayerTableRecord
  2
01_PLANES
 70
0
 62
7
  6
CONTINUOUS
370
-3
390
F
  0
LAYER
  5
200
100
AcDbSymbolTableRecord
100
AcDbLayerTableRecord
  2
02_COORD_SYS
 70
0
 62
7
  6
CONTINUOUS
370
-3
390
F
  0
LAYER
  5
201
100
AcDbSymbolTableRecord
100
AcDbLayerTableRecord
  2
03_AXES
 70
0
 62
7
  6
CONTINUOUS
370
-3
390
F
  0
LAYER
  5
202
100
AcDbSymbolTableRecord
100
AcDbLayerTableRecord
  2
04_POINTS
 70
0
 62
7
  6
CONTINUOUS
370
-3
390
F
  0
LAYER
  5
203
100
AcDbSymbolTableRecord
100
AcDbLayerTableRecord
  2
05_CURVES
 70
0
 62
7
  6
CONTINUOUS
370
-3
390
F
  0
LAYER
  5
204
100
AcDbSymbolTableRecord
100
AcDbLayerTableRecord
  2
06_SURFS
 70
0
 62
7
  6
CONTINUOUS
370
-3
390
F
  0
LAYER
  5
205
100
AcDbSymbolTableRecord
100
AcDbLayerTableRecord
  2
07_COSMETICS
 70
0
 62
7
  6
CONTINUOUS
370
-3
390
F
  0
LAYER
  5
206
100
AcDbSymbolTableRecord
100
AcDbLayerTableRecord
  2
10_NOTES
 70
0
 62
7
  6
CONTINUOUS
370
-3
390
F
  0
LAYER
  5
207
100
AcDbSymbolTableRecord
100
AcDbLayerTableRecord
  2
11_NOTES_PUB
 70
0
 62
7
  6
CONTINUOUS
370
-3
390
F
  0
LAYER
  5
208
100
AcDbSymbolTableRecord
100
AcDbLayerTableRecord
  2
13_REF_GTOL
 70
0
 62
7
  6
CONTINUOUS
370
-3
390
F
  0
LAYER
  5
209
100
AcDbSymbolTableRecord
100
AcDbLayerTableRecord
  2
16_MISC
 70
0
 62
7
  6
CONTINUOUS
370
-3
390
F
  0
LAYER
  5
20A
100
AcDbSymbolTableRecord
100
AcDbLayerTableRecord
  2
17_NO_PRINT
 70
0
 62
7
  6
CONTINUOUS
370
-3
390
F
  0
LAYER
  5
20B
100
AcDbSymbolTableRecord
100
AcDbLayerTableRecord
  2
18_DATUM_CAMS_JOINTS
 70
0
 62
7
  6
CONTINUOUS
370
-3
390
F
  0
LAYER
  5
20C
100
AcDbSymbolTableRecord
100
AcDbLayerTableRecord
  2
19_DATUM_FUNCTIONAL
 70
0
 62
7
  6
CONTINUOUS
370
-3
390
F
  0
LAYER
  5
20D
100
AcDbSymbolTableRecord
100
AcDbLayerTableRecord
  2
20_DATUM_KINEMATIC_SCHEME
 70
0
 62
7
  6
CONTINUOUS
370
-3
390
F
  0
ENDTAB
  0
TABLE
  2
STYLE
  5
3
100
AcDbSymbolTable
 70
1
  0
STYLE
  5
11
100
AcDbSymbolTableRecord
100
AcDbTextStyleTableRecord
  2
STANDARD
 70
0
 40
0.0
 41
0.8
 50
0.0
 71
0
 42
0.2
  3
txt
  4

  0
STYLE
  5
20E
100
AcDbSymbolTableRecord
100
AcDbTextStyleTableRecord
  2
TEXTSTYLE_1
 70
0
 40
0.0
 41
0.8
 50
0.0
 71
0
 42
0.2
  3
gdt
  4

  0
ENDTAB
  0
TABLE
  2
VIEW
  5
6
100
AcDbSymbolTable
 70
0
  0
ENDTAB
  0
TABLE
  2
UCS
  5
7
100
AcDbSymbolTable
 70
0
  0
ENDTAB
  0
TABLE
  2
APPID
  5
9
100
AcDbSymbolTable
 70
1
  0
APPID
  5
20F
100
AcDbSymbolTableRecord
100
AcDbRegAppTableRecord
  2
ACAD
 70
0
  0
ENDTAB
  0
TABLE
  2
BLOCK_RECORD
  5
1
100
AcDbSymbolTable
 70
0
  0
BLOCK_RECORD
  5
210
100
AcDbSymbolTableRecord
100
AcDbBlockTableRecord
  2
*Model_Space
  0
BLOCK_RECORD
  5
211
100
AcDbSymbolTableRecord
100
AcDbBlockTableRecord
  2
*Paper_Space
  0
BLOCK_RECORD
  5
212
100
AcDbSymbolTableRecord
100
AcDbBlockTableRecord
  2
_FILLED
  0
ENDTAB
  0
TABLE
  2
DIMSTYLE
  5
A
100
AcDbSymbolTable
 70
1
100
AcDbDimStyleTable
 71
0
  0
DIMSTYLE
105
213
100
AcDbSymbolTableRecord
100
AcDbDimStyleTableRecord
  2
STANDARD
 70
0
  3

  4

 40
1.0
 41
2.6643037343
 42
1.0
 43
0.38
 44
1.0
 45
0.0
 46
0.0
 47
0.01
 48
0.01
140
3.730025228
141
0.09
142
0.0
143
25.4
144
1.0
145
0.0
146
1.0
147
0.625
 71
1
 72
0
 73
0
 74
0
 75
0
 76
0
 77
1
 78
8
 79
2
170
0
171
1
172
0
173
0
174
0
175
0
176
0
177
0
178
0
270
2
179
2
271
2
272
2
273
2
274
2
275
0
280
0
281
0
282
0
283
1
284
8
285
0
286
0
287
3
288
0
340
11
278
46
341
212
342
212
343
212
344
212
  0
ENDTAB
  0
ENDSEC
  0
SECTION
  2
BLOCKS
  0
BLOCK
  5
20
100
AcDbEntity
  8
0
100
AcDbBlockBegin
  2
*Model_Space
 70
0
 10
0.0
 20
0.0
 30
0.0
  3
*Model_Space
  1

  0
ENDBLK
  5
21
100
AcDbEntity
  8
0
100
AcDbBlockEnd
  0
BLOCK
  5
1C
100
AcDbEntity
  8
0
100
AcDbBlockBegin
  2
*Paper_Space
 70
0
 10
0.0
 20
0.0
 30
0.0
  3
*Paper_Space
  1

  0
ENDBLK
  5
1D
100
AcDbEntity
  8
0
100
AcDbBlockEnd
  0
BLOCK
  5
214
100
AcDbEntity
  8
0
100
AcDbBlockBegin
  2
_FILLED
 70
64
 10
0.0
 20
0.0
  3
_FILLED
  1

  0
SOLID
  5
215
100
AcDbEntity
  8
0
  6
BYBLOCK
 62
0
100
AcDbTrace
 10
0.0
 20
0.0
 11
-1.0
 21
0.25
 12
-1.0
 22
-0.25
 13
-1.0
 23
-0.25
  0
ENDBLK
  5
216
100
AcDbEntity
  8
0
  6
BYBLOCK
 62
0
100
AcDbBlockEnd
  0
ENDSEC
  0
SECTION
  2
ENTITIES
  0
LINE
  5
217
100
AcDbEntity
  8
0
100
AcDbLine
 62
7
  6
CONTINUOUS
 10
92.8378393151
 20
284.8286838348
 11
96.6831777083
 21
285.9786834986
  0
LINE
  5
218
100
AcDbEntity
  8
0
100
AcDbLine
 62
7
  6
CONTINUOUS
 10
101.3430834154
 20
280.3286830912
 11
99.8431771575
 21
279.6786832223
  0
LINE
  5
219
100
AcDbEntity
  8
0
100
AcDbLine
 62
7
  6
CONTINUOUS
 10
101.4754385283
 20
84.2286705389
 11
130.8378385283
 21
84.2286705389
  0
LINE
  5
21A
100
AcDbEntity
  8
0
100
AcDbLine
 62
7
  6
CONTINUOUS
 10
101.4754385283
 20
96.3762240397
 11
130.8378385283
 21
96.3762240397
  0
LINE
  5
21B
100
AcDbEntity
  8
0
100
AcDbLine
 62
7
  6
CONTINUOUS
 10
133.3378397522
 20
289.8286802941
 11
130.8378394244
 21
286.0786805127
  0
LINE
  5
21C
100
AcDbEntity
  8
0
100
AcDbLine
 62
7
  6
CONTINUOUS
 10
92.8378393151
 20
284.8286838348
 11
92.8378392233
 21
283.7786839886
  0
LINE
  5
21D
100
AcDbEntity
  8
0
100
AcDbLine
 62
7
  6
CONTINUOUS
 10
92.8378390572
 20
281.8786839886
 11
92.8378389654
 21
280.8286838348
  0
LINE
  5
21E
100
AcDbEntity
  8
0
100
AcDbLine
 62
7
  6
CONTINUOUS
 10
96.6831777083
 20
285.9786834986
 11
96.683177513
 21
283.7451260032
  0
LINE
  5
21F
100
AcDbEntity
  8
0
100
AcDbLine
 62
7
  6
CONTINUOUS
 10
96.6831773528
 20
281.9122415209
 11
96.6831771575
 21
279.6786834986
  0
LINE
  5
220
100
AcDbEntity
  8
0
100
AcDbLine
 62
7
  6
CONTINUOUS
 10
99.8431771575
 20
279.6786832223
 11
99.8431773552
 21
281.9398181476
  0
LINE
  5
221
100
AcDbEntity
  8
0
100
AcDbLine
 62
7
  6
CONTINUOUS
 10
99.8431775106
 20
283.7175488254
 11
99.8431777083
 21
285.9786832223
  0
LINE
  5
222
100
AcDbEntity
  8
0
100
AcDbLine
 62
7
  6
CONTINUOUS
 10
101.3430838525
 20
285.3286830912
 11
101.3430837105
 21
283.7044591517
  0
LINE
  5
223
100
AcDbEntity
  8
0
100
AcDbLine
 62
7
  6
CONTINUOUS
 10
101.3430835574
 20
281.9529074401
 11
101.3430834154
 21
280.3286830912
  0
LINE
  5
224
100
AcDbEntity
  8
0
100
AcDbLine
 62
7
  6
CONTINUOUS
 10
101.4754385283
 20
290.208675003
 11
101.4754385283
 21
84.2286705389
  0
LINE
  5
225
100
AcDbEntity
  8
0
100
AcDbLine
 62
7
  6
CONTINUOUS
 10
103.7254385283
 20
264.118675003
 11
103.7254385283
 21
290.208675003
  0
LINE
  5
226
100
AcDbEntity
  8
0
100
AcDbLine
 62
7
  6
CONTINUOUS
 10
103.8778389098
 20
290.3686696234
 11
103.8778389098
 21
263.9386696234
  0
LWPOLYLINE
  5
227
100
AcDbEntity
  8
0
100
AcDbPolyline
 62
7
  6
CONTINUOUS
 90
5
 70
0
 10
116.9967516683
 20
63.7355220426
 10
117.8603981388
 20
54.4238181605
 10
118.2159944174
 20
44.4483926539
 10
118.0438353619
 20
33.0945382936
 10
117.7612840174
 20
27.3725162476
  0
LWPOLYLINE
  5
228
100
AcDbEntity
  8
0
100
AcDbPolyline
 62
7
  6
CONTINUOUS
 90
5
 70
0
 10
114.4068786812
 20
84.2266297566
 10
114.5384718582
 20
80.8991994841
 10
115.2663072759
 20
74.9633174459
 10
116.3894572976
 20
68.0559569475
 10
116.9967516683
 20
63.7355220426
  0
LINE
  5
229
100
AcDbEntity
  8
0
100
AcDbLine
 62
7
  6
CONTINUOUS
 10
117.8212723528
 20
81.2422080845
 11
117.7078393819
 21
84.2286705389
  0
LINE
  5
22A
100
AcDbEntity
  8
0
100
AcDbLine
 62
7
  6
CONTINUOUS
 10
114.4584348795
 20
82.9229933623
 11
114.4584350118
 21
26.2286710816
  0
LINE
  5
22B
100
AcDbEntity
  8
0
100
AcDbLine
 62
7
  6
CONTINUOUS
 10
115.9878381468
 20
26.3067270691
 11
115.9878381468
 21
70.5259103856
  0
LINE
  5
22C
100
AcDbEntity
  8
0
100
AcDbLine
 62
7
  6
CONTINUOUS
 10
117.5172412818
 20
26.2286710816
 11
117.5172413896
 21
58.1236816378
  0
LINE
  5
22D
100
AcDbEntity
  8
0
100
AcDbLine
 62
7
  6
CONTINUOUS
 10
128.4378389098
 20
290.3686696234
 11
128.4378389098
 21
263.9386696234
  0
LINE
  5
22E
100
AcDbEntity
  8
0
100
AcDbLine
 62
7
  6
CONTINUOUS
 10
128.5854385283
 20
264.1186750031
 11
128.5854385283
 21
290.208675003
  0
LINE
  5
22F
100
AcDbEntity
  8
0
100
AcDbLine
 62
7
  6
CONTINUOUS
 10
130.8378385283
 20
84.2286705389
 11
130.8378385283
 21
290.208675003
  0
LWPOLYLINE
  5
230
100
AcDbEntity
  8
0
100
AcDbPolyline
 62
7
  6
CONTINUOUS
 90
8
 70
0
 10
121.0551268697
 20
27.1716824127
 10
121.3474633515
 20
33.1301814392
 10
121.5113750907
 20
44.913409605
 10
121.1097233591
 20
55.3047414264
 10
120.1645686982
 20
64.9839027115
 10
119.5765062662
 20
69.0297574919
 10
118.5084203871
 20
75.5930574383
 10
117.8212723528
 20
81.2422080845
  0
LINE
  5
231
100
AcDbEntity
  8
0
100
AcDbLine
 62
7
  6
CONTINUOUS
 10
133.3378397522
 20
289.8286802941
 11
133.3378395686
 21
287.7286807312
  0
LINE
  5
232
100
AcDbEntity
  8
0
100
AcDbLine
 62
7
  6
CONTINUOUS
 10
133.3378387119
 20
277.9286807312
 11
133.3378385283
 21
275.8286802941
  0
LINE
  5
233
100
AcDbEntity
  8
0
100
AcDbLine
 62
7
  6
CONTINUOUS
 10
134.8378385283
 20
275.828680163
 11
134.8378397522
 21
289.8286801624
  0
LINE
  5
234
100
AcDbEntity
  8
0
100
AcDbLine
 62
7
  6
CONTINUOUS
 10
133.3378385283
 20
275.8286802941
 11
130.8378388561
 21
279.5786805127
  0
LINE
  5
235
100
AcDbEntity
  8
0
100
AcDbLine
 62
7
  6
CONTINUOUS
 10
128.4362793863
 20
264.1173733109
 11
128.5854385283
 21
264.1186750031
  0
LINE
  5
236
100
AcDbEntity
  8
0
100
AcDbLine
 62
7
  6
CONTINUOUS
 10
101.4754385283
 20
262.9962240397
 11
130.8378385283
 21
262.9962240397
  0
LINE
  5
237
100
AcDbEntity
  8
0
100
AcDbLine
 62
7
  6
CONTINUOUS
 10
101.4754385283
 20
263.2186750031
 11
130.8378385283
 21
263.2186750031
  0
LINE
  5
238
100
AcDbEntity
  8
0
100
AcDbLine
 62
7
  6
CONTINUOUS
 10
103.8778389098
 20
263.9386696234
 11
128.4378389098
 21
263.9386696234
  0
LINE
  5
239
100
AcDbEntity
  8
0
100
AcDbLine
 62
7
  6
CONTINUOUS
 10
103.7254385283
 20
264.118675003
 11
103.8793980676
 21
264.1173314185
  0
LINE
  5
23A
100
AcDbEntity
  8
0
100
AcDbLine
 62
7
  6
CONTINUOUS
 10
92.8378389654
 20
280.8286838348
 11
96.6831771575
 21
279.6786834986
  0
LINE
  5
23B
100
AcDbEntity
  8
0
100
AcDbLine
 62
7
  6
CONTINUOUS
 10
101.3430838525
 20
285.3286830912
 11
99.8431777083
 21
285.9786832223
  0
LINE
  5
23C
100
AcDbEntity
  8
0
100
AcDbLine
 62
7
  6
CONTINUOUS
 10
92.8378390572
 20
281.8786839886
 11
101.4754385283
 21
281.9540624729
  0
LINE
  5
23D
100
AcDbEntity
  8
0
100
AcDbLine
 62
7
  6
CONTINUOUS
 10
103.7254385283
 20
281.9736977294
 11
103.8778389098
 21
281.9750276941
  0
LINE
  5
23E
100
AcDbEntity
  8
0
100
AcDbLine
 62
7
  6
CONTINUOUS
 10
134.8378385283
 20
275.828680163
 11
133.3378385283
 21
275.8286802941
  0
LINE
  5
23F
100
AcDbEntity
  8
0
100
AcDbLine
 62
7
  6
CONTINUOUS
 10
133.3378387119
 20
277.9286807312
 11
134.8378387119
 21
277.9286806
  0
LINE
  5
240
100
AcDbEntity
  8
0
100
AcDbLine
 62
7
  6
CONTINUOUS
 10
99.8431771575
 20
279.6786832223
 11
96.6831771575
 21
279.6786834986
  0
LINE
  5
241
100
AcDbEntity
  8
0
100
AcDbLine
 62
7
  6
CONTINUOUS
 10
128.5854385283
 20
280.3286807096
 11
128.4378389098
 21
280.3286807225
  0
LINE
  5
242
100
AcDbEntity
  8
0
100
AcDbLine
 62
7
  6
CONTINUOUS
 10
103.8778389098
 20
280.3286828696
 11
103.7254385283
 21
280.3286828829
  0
LINE
  5
243
100
AcDbEntity
  8
0
100
AcDbLine
 62
7
  6
CONTINUOUS
 10
101.4754385283
 20
280.3286830796
 11
101.3430834154
 21
280.3286830912
  0
LINE
  5
244
100
AcDbEntity
  8
0
100
AcDbLine
 62
7
  6
CONTINUOUS
 10
128.5854385283
 20
285.3286807096
 11
128.4378389098
 21
285.3286807225
  0
LINE
  5
245
100
AcDbEntity
  8
0
100
AcDbLine
 62
7
  6
CONTINUOUS
 10
103.8778389098
 20
285.3286828696
 11
103.7254385283
 21
285.3286828829
  0
LINE
  5
246
100
AcDbEntity
  8
0
100
AcDbLine
 62
7
  6
CONTINUOUS
 10
101.4754385283
 20
285.3286830796
 11
101.3430838525
 21
285.3286830912
  0
LINE
  5
247
100
AcDbEntity
  8
0
100
AcDbLine
 62
7
  6
CONTINUOUS
 10
99.8431777083
 20
285.9786832223
 11
96.6831777083
 21
285.9786834986
  0
LINE
  5
248
100
AcDbEntity
  8
0
100
AcDbLine
 62
7
  6
CONTINUOUS
 10
134.8378395686
 20
287.7286806
 11
133.3378395686
 21
287.7286807312
  0
LINE
  5
249
100
AcDbEntity
  8
0
100
AcDbLine
 62
7
  6
CONTINUOUS
 10
134.8378397522
 20
289.828680163
 11
133.3378397522
 21
289.8286802941
  0
LINE
  5
24A
100
AcDbEntity
  8
0
100
AcDbLine
 62
7
  6
CONTINUOUS
 10
101.4754385283
 20
290.208675003
 11
103.7254385283
 21
290.208675003
  0
LINE
  5
24B
100
AcDbEntity
  8
0
100
AcDbLine
 62
7
  6
CONTINUOUS
 10
128.5854385283
 20
290.208675003
 11
130.8378385283
 21
290.208675003
  0
LINE
  5
24C
100
AcDbEntity
  8
0
100
AcDbLine
 62
7
  6
CONTINUOUS
 10
103.8778389098
 20
290.3686696234
 11
128.4378389098
 21
290.3686696234
  0
LINE
  5
24D
100
AcDbEntity
  8
0
100
AcDbLine
 62
7
  6
CONTINUOUS
 10
103.8778389098
 20
283.6823384573
 11
103.7254385283
 21
283.6836684485
  0
LINE
  5
24E
100
AcDbEntity
  8
0
100
AcDbLine
 62
7
  6
CONTINUOUS
 10
92.8378392233
 20
283.7786839886
 11
101.4754385283
 21
283.7033040972
  0
ARC
  5
24F
100
AcDbEntity
  8
0
100
AcDbCircle
 62
7
  6
CONTINUOUS
 10
128.2378391403
 20
282.8286809551
 40
0.6
100
AcDbArc
 50
298.7655522357
 51
312.0862570923
  0
ARC
  5
250
100
AcDbEntity
  8
0
100
AcDbCircle
 62
7
  6
CONTINUOUS
 10
128.2378391403
 20
282.8286809551
 40
0.6
100
AcDbArc
 50
47.8930391765
 51
61.2126723611
  0
SPLINE
  5
251
100
AcDbEntity
  8
0
100
AcDbSpline
 62
7
  6
CONTINUOUS
 70
0
 71
3
 72
18
 73
14
 74
0
 42
0.0000001
 43
0.0000001
 44
0.0000000001
 40
0.0
 40
0.0
 40
0.0
 40
0.0
 40
0.0059786321
 40
0.019123319
 40
0.0409859542
 40
0.0722280881
 40
0.1131707927
 40
0.1637421763
 40
0.292202926
 40
0.4511056061
 40
0.6300122246
 40
0.8167732522
 40
1.0
 40
1.0
 40
1.0
 40
1.0
 10
117.5172412818
 20
26.2286710817
 30
0.0
 10
117.5172416905
 20
26.2256087824
 30
0.0
 10
117.5074370806
 20
26.2187435099
 30
0.0
 10
117.4885304616
 20
26.2134040664
 30
0.0
 10
117.454617365
 20
26.2060095222
 30
0.0
 10
117.4072208615
 20
26.1993446818
 30
0.0
 10
117.3446008238
 20
26.1923446078
 30
0.0
 10
117.2323969254
 20
26.1826706444
 30
0.0
 10
117.0595552413
 20
26.1722595069
 30
0.0
 10
116.8209328051
 20
26.1625830005
 30
0.0
 10
116.5523215248
 20
26.1555870254
 30
0.0
 10
116.2712003405
 20
26.1514968187
 30
0.0
 10
116.0816882333
 20
26.1506140088
 30
0.0
 10
115.9878381468
 20
26.1506140088
 30
0.0
  0
SPLINE
  5
252
100
AcDbEntity
  8
0
100
AcDbSpline
 62
7
  6
CONTINUOUS
 70
0
 71
3
 72
18
 73
14
 74
0
 42
0.0000001
 43
0.0000001
 44
0.0000000001
 40
0.0
 40
0.0
 40
0.0
 40
0.0
 40
0.1832267477
 40
0.3699877752
 40
0.5488943936
 40
0.7077970737
 40
0.8362578234
 40
0.8868292071
 40
0.9277719117
 40
0.9590140456
 40
0.9808766809
 40
0.9940213679
 40
1.0
 40
1.0
 40
1.0
 40
1.0
 10
115.9878381468
 20
26.1506140088
 30
0.0
 10
115.8939880605
 20
26.1506140088
 30
0.0
 10
115.7044759534
 20
26.1514968187
 30
0.0
 10
115.4233547692
 20
26.1555870254
 30
0.0
 10
115.154743489
 20
26.1625830005
 30
0.0
 10
114.9161210529
 20
26.1722595069
 30
0.0
 10
114.7432793687
 20
26.1826706443
 30
0.0
 10
114.6310754703
 20
26.1923446077
 30
0.0
 10
114.5684554325
 20
26.1993446817
 30
0.0
 10
114.521058929
 20
26.2060095221
 30
0.0
 10
114.4871458322
 20
26.2134040664
 30
0.0
 10
114.4682392131
 20
26.2187435099
 30
0.0
 10
114.4584346032
 20
26.2256087823
 30
0.0
 10
114.4584350118
 20
26.2286710816
 30
0.0
  0
SPLINE
  5
253
100
AcDbEntity
  8
0
100
AcDbSpline
 62
7
  6
CONTINUOUS
 70
0
 71
3
 72
18
 73
14
 74
0
 42
0.0000001
 43
0.0000001
 44
0.0000000001
 40
0.0
 40
0.0
 40
0.0
 40
0.0
 40
0.1832250174
 40
0.3699843534
 40
0.5488896712
 40
0.7077917761
 40
0.8362528717
 40
0.8868247751
 40
0.9277682012
 40
0.9590112285
 40
0.9808748732
 40
0.9940206125
 40
1.0
 40
1.0
 40
1.0
 40
1.0
 10
115.9878381468
 20
26.3067270691
 30
0.0
 10
116.0816872908
 20
26.3067270691
 30
0.0
 10
116.2711975319
 20
26.3058442768
 30
0.0
 10
116.5523161299
 20
26.3017541493
 30
0.0
 10
116.8209254248
 20
26.29475831
 30
0.0
 10
117.0595469398
 20
26.2850819611
 30
0.0
 10
117.2323886799
 20
26.2746710202
 30
0.0
 10
117.3445933359
 20
26.2649971693
 30
0.0
 10
117.4072144535
 20
26.2579972681
 30
0.0
 10
117.4546122639
 20
26.2513322499
 30
0.0
 10
117.4885269669
 20
26.2439382394
 30
0.0
 10
117.507434885
 20
26.238597921
 30
0.0
 10
117.5172408731
 20
26.231733766
 30
0.0
 10
117.5172412818
 20
26.2286710817
 30
0.0
  0
SPLINE
  5
254
100
AcDbEntity
  8
0
100
AcDbSpline
 62
7
  6
CONTINUOUS
 70
0
 71
3
 72
18
 73
14
 74
0
 42
0.0000001
 43
0.0000001
 44
0.0000000001
 40
0.0
 40
0.0
 40
0.0
 40
0.0
 40
0.0059793874
 40
0.0191251266
 40
0.0409887713
 40
0.0722317986
 40
0.1131752247
 40
0.163747128
 40
0.2922082236
 40
0.4511103285
 40
0.6300156464
 40
0.8167749825
 40
1.0
 40
1.0
 40
1.0
 40
1.0
 10
114.4584350118
 20
26.2286710816
 30
0.0
 10
114.4584354205
 20
26.2317337659
 30
0.0
 10
114.4682414085
 20
26.238597921
 30
0.0
 10
114.4871493265
 20
26.2439382393
 30
0.0
 10
114.5210640294
 20
26.2513322499
 30
0.0
 10
114.5684618398
 20
26.2579972681
 30
0.0
 10
114.6310829574
 20
26.2649971693
 30
0.0
 10
114.7432876132
 20
26.2746710202
 30
0.0
 10
114.9161293534
 20
26.2850819611
 30
0.0
 10
115.1547508684
 20
26.29475831
 30
0.0
 10
115.4233601634
 20
26.3017541493
 30
0.0
 10
115.7044787616
 20
26.3058442768
 30
0.0
 10
115.8939890028
 20
26.3067270691
 30
0.0
 10
115.9878381468
 20
26.3067270691
 30
0.0
  0
SPLINE
  5
255
100
AcDbEntity
  8
0
100
AcDbSpline
 62
7
  6
CONTINUOUS
 70
0
 71
3
 72
19
 73
15
 74
0
 42
0.0000001
 43
0.0000001
 44
0.0000000001
 40
0.0
 40
0.0
 40
0.0
 40
0.0
 40
0.1640085632
 40
0.3404970175
 40
0.5162182212
 40
0.6750865493
 40
0.7443329845
 40
0.8053082501
 40
0.8571232114
 40
0.8996528041
 40
0.9335370219
 40
0.9604360516
 40
0.9818419078
 40
1.0
 40
1.0
 40
1.0
 40
1.0
 10
119.8523014607
 20
26.9162034513
 30
0.0
 10
119.731886472
 20
26.9162034513
 30
0.0
 10
119.4818641402
 20
26.9225102986
 30
0.0
 10
119.1036984205
 20
26.9498453941
 30
0.0
 10
118.7311034639
 20
26.9955832125
 30
0.0
 10
118.4391409079
 20
27.0487549029
 30
0.0
 10
118.2329640784
 20
27.0994069284
 30
0.0
 10
118.1047096369
 20
27.1372238794
 30
0.0
 10
117.9973958562
 20
27.1760458063
 30
0.0
 10
117.9113979726
 20
27.2146305175
 30
0.0
 10
117.8455933671
 20
27.2527497199
 30
0.0
 10
117.7982164738
 20
27.2905813077
 30
0.0
 10
117.7675994521
 20
27.3295461103
 30
0.0
 10
117.7604738053
 20
27.359209219
 30
0.0
 10
117.7612840167
 20
27.372516237
 30
0.0
  0
SPLINE
  5
256
100
AcDbEntity
  8
0
100
AcDbSpline
 62
7
  6
CONTINUOUS
 70
0
 71
3
 72
15
 73
11
 74
0
 42
0.0000001
 43
0.0000001
 44
0.0000000001
 40
0.0
 40
0.0
 40
0.0
 40
0.0
 40
0.1088833514
 40
0.1524352779
 40
0.2033187317
 40
0.3267991618
 40
0.4749089794
 40
0.6412093352
 40
0.818722211
 40
1.0
 40
1.0
 40
1.0
 40
1.0
 10
121.0551268703
 20
27.1716824233
 30
0.0
 10
121.0523324007
 20
27.1257867782
 30
0.0
 10
120.9869032308
 20
27.078088833
 30
0.0
 10
120.9112033396
 20
27.0435178837
 30
0.0
 10
120.8237599658
 20
27.0121722734
 30
0.0
 10
120.6914863073
 20
26.98046016
 30
0.0
 10
120.5086495882
 20
26.9510471423
 30
0.0
 10
120.3018801833
 20
26.9304604296
 30
0.0
 10
120.0803794597
 20
26.9187007841
 30
0.0
 10
119.928853741
 20
26.9162034513
 30
0.0
 10
119.8523014607
 20
26.9162034513
 30
0.0
  0
SPLINE
  5
257
100
AcDbEntity
  8
0
100
AcDbSpline
 62
7
  6
CONTINUOUS
 70
0
 71
3
 72
22
 73
18
 74
0
 42
0.0000001
 43
0.0000001
 44
0.0000000001
 40
0.0
 40
0.0
 40
0.0
 40
0.0
 40
0.0688806923
 40
0.1333370396
 40
0.1946201506
 40
0.2539842147
 40
0.3124055282
 40
0.3712070706
 40
0.4312892007
 40
0.4924832474
 40
0.5546133831
 40
0.6174740135
 40
0.6809222986
 40
0.7448518805
 40
0.8090242227
 40
0.873066409
 40
1.0
 40
1.0
 40
1.0
 40
1.0
 10
115.5407224629
 20
84.2268198264
 30
0.0
 10
115.5764151077
 20
82.9222445047
 30
0.0
 10
115.7268861001
 20
80.3985436089
 30
0.0
 10
116.1444179594
 20
76.7336957246
 30
0.0
 10
116.6697215266
 20
73.2657248263
 30
0.0
 10
117.2332202606
 20
69.9201378838
 30
0.0
 10
117.7737468392
 20
66.6181775074
 30
0.0
 10
118.2300928349
 20
63.2895412151
 30
0.0
 10
118.6093289243
 20
59.8984877527
 30
0.0
 10
118.9159730647
 20
56.436801012
 30
0.0
 10
119.1504816312
 20
52.9167458947
 30
0.0
 10
119.3137279966
 20
49.3499304234
 30
0.0
 10
119.4061808251
 20
45.74648014
 30
0.0
 10
119.4294982515
 20
42.1171188439
 30
0.0
 10
119.3943805415
 20
38.4766386255
 30
0.0
 10
119.2767673786
 20
33.6437378062
 30
0.0
 10
119.1102697526
 20
30.0285255932
 30
0.0
 10
118.9641094326
 20
27.6279953112
 30
0.0
  0
SPLINE
  5
258
100
AcDbEntity
  8
0
100
AcDbSpline
 62
7
  6
CONTINUOUS
 70
0
 71
3
 72
19
 73
15
 74
0
 42
0.0000001
 43
0.0000001
 44
0.0000000001
 40
0.0
 40
0.0
 40
0.0
 40
0.0
 40
0.1640085837
 40
0.3404970599
 40
0.5162182803
 40
0.6750866131
 40
0.7443330457
 40
0.8053083049
 40
0.8571232563
 40
0.8996528369
 40
0.9335370427
 40
0.9604360619
 40
0.9818419097
 40
1.0
 40
1.0
 40
1.0
 40
1.0
 10
118.9641094326
 20
27.6279953112
 30
0.0
 10
119.0845244418
 20
27.6279953112
 30
0.0
 10
119.3345468161
 20
27.6216884619
 30
0.0
 10
119.7127125961
 20
27.5943533573
 30
0.0
 10
120.0853076006
 20
27.5486155255
 30
0.0
 10
120.3772701818
 20
27.4954438195
 30
0.0
 10
120.5834470148
 20
27.4447917807
 30
0.0
 10
120.711701446
 20
27.4069748218
 30
0.0
 10
120.8190152074
 20
27.368152888
 30
0.0
 10
120.9050130664
 20
27.329568172
 30
0.0
 10
120.9708176435
 20
27.2914489637
 30
0.0
 10
121.0181945074
 20
27.2536173704
 30
0.0
 10
121.0488114946
 20
27.2146525537
 30
0.0
 10
121.0559371009
 20
27.1849894393
 30
0.0
 10
121.0551268703
 20
27.1716824233
 30
0.0
  0
SPLINE
  5
259
100
AcDbEntity
  8
0
100
AcDbSpline
 62
7
  6
CONTINUOUS
 70
0
 71
3
 72
15
 73
11
 74
0
 42
0.0000001
 43
0.0000001
 44
0.0000000001
 40
0.0
 40
0.0
 40
0.0
 40
0.0
 40
0.1088832987
 40
0.1524352127
 40
0.2033186564
 40
0.3267990774
 40
0.4749089021
 40
0.6412092771
 40
0.8187221803
 40
1.0
 40
1.0
 40
1.0
 40
1.0
 10
117.7612840167
 20
27.372516237
 30
0.0
 10
117.7640784192
 20
27.4184118671
 30
0.0
 10
117.8295075497
 20
27.4661098665
 30
0.0
 10
117.9052074078
 20
27.5006808189
 30
0.0
 10
117.9926507694
 20
27.5320264461
 30
0.0
 10
118.1249244294
 20
27.5637385723
 30
0.0
 10
118.307761167
 20
27.5931516035
 30
0.0
 10
118.5145306084
 20
27.6137383262
 30
0.0
 10
118.73603138
 20
27.6254979773
 30
0.0
 10
118.8875571339
 20
27.6279953112
 30
0.0
 10
118.9641094326
 20
27.6279953112
 30
0.0
  0
SPLINE
  5
25A
100
AcDbEntity
  8
0
100
AcDbSpline
 62
7
  6
CONTINUOUS
 70
0
 71
3
 72
17
 73
13
 74
0
 42
0.0000001
 43
0.0000001
 44
0.0000000001
 40
0.0
 40
0.0
 40
0.0
 40
0.0
 40
0.1250229216
 40
0.2500250279
 40
0.3749847986
 40
0.4374932097
 40
0.5000000052
 40
0.5625068038
 40
0.6250152143
 40
0.7499749749
 40
0.8749770756
 40
1.0
 40
1.0
 40
1.0
 40
1.0
 10
133.3378395686
 20
287.7286807312
 30
0.0
 10
133.157444773
 20
287.342120543
 30
0.0
 10
132.8141494634
 20
286.5605858083
 30
0.0
 10
132.381528572
 20
285.355061461
 30
0.0
 10
132.1292264669
 20
284.3157344611
 30
0.0
 10
132.0221798536
 20
283.4687017528
 30
0.0
 10
131.9946688285
 20
282.8286807847
 30
0.0
 10
132.0221797476
 20
282.1886598136
 30
0.0
 10
132.1292262232
 20
281.3416271135
 30
0.0
 10
132.3815281458
 20
280.3023001271
 30
0.0
 10
132.8141488202
 20
279.0967757496
 30
0.0
 10
133.1574439797
 20
278.3152409596
 30
0.0
 10
133.3378387119
 20
277.9286807312
 30
0.0
  0
ENDSEC
  0
SECTION
  2
OBJECTS
  0
DICTIONARY
  5
C
100
AcDbDictionary
280
0
281
1
  3
ACAD_GROUP
350
D
  3
ACAD_MLINESTYLE
350
17
  3
ACAD_LAYOUT
350
1A
  3
ACAD_PLOTSETTINGS
350
19
  3
ACAD_PLOTSTYLENAME
350
E
  0
DICTIONARY
  5
D
102
{ACAD_REACTORS
330
C
102
}
100
AcDbDictionary
280
0
281
1
  0
ACDBDICTIONARYWDFLT
  5
E
102
{ACAD_REACTORS
330
C
102
}
100
AcDbDictionary
281
1
  3
Normal
350
F
100
AcDbDictionaryWithDefault
340
F
  0
DICTIONARY
  5
17
102
{ACAD_REACTORS
330
C
102
}
100
AcDbDictionary
280
0
281
1
  3
Standard
350
18
  0
DICTIONARY
  5
19
102
{ACAD_REACTORS
330
C
102
}
100
AcDbDictionary
281
1
  0
DICTIONARY
  5
1A
102
{ACAD_REACTORS
330
C
102
}
100
AcDbDictionary
281
1
  3
Model
350
25B
  3
Layout1
350
25C
  0
ACDBPLACEHOLDER
  5
F
102
{ACAD_REACTORS
330
E
102
}
  0
MLINESTYLE
  5
18
102
{ACAD_REACTORS
330
17
102
}
100
AcDbMlineStyle
  2
STANDARD
 70
0
  3

 62
256
 51
90.0
 52
90.0
 71
2
 49
0.5
 62
256
  6
BYLAYER
 49
-0.5
 62
256
  6
BYLAYER
  0
LAYOUT
  5
25B
102
{ACAD_REACTORS
330
1A
102
}
100
AcDbPlotSettings
  1

  2
none_device
  4

  6

 40
0.0
 41
0.0
 42
0.0
 43
0.0
 44
210.0
 45
297.0
 46
0.0
 47
0.0
 48
0.0
 49
0.0
140
0.0
141
0.0
142
1.0
143
1.0
 70
1024
 72
1
 73
0
 74
0
  7

 75
0
147
1.0
148
0.0
149
0.0
100
AcDbLayout
  1
Model
 70
0
 71
0
 10
0.0
 20
0.0
 11
210.0
 21
297.0
 12
0.0
 22
0.0
 32
0.0
 14
0.0
 24
0.0
 34
0.0
 15
0.0
 25
0.0
 35
0.0
146
0.0
 13
0.0
 23
0.0
 33
0.0
 16
1.0
 26
0.0
 36
0.0
 17
0.0
 27
1.0
 37
0.0
 76
0
330
210
345
0
346
0
  0
LAYOUT
  5
25C
102
{ACAD_REACTORS
330
1A
102
}
100
AcDbPlotSettings
  1

  2
none_device
  4

  6

 40
0.0
 41
0.0
 42
0.0
 43
0.0
 44
210.0
 45
297.0
 46
0.0
 47
0.0
 48
0.0
 49
0.0
140
0.0
141
0.0
142
1.0
143
1.0
 70
0
 72
1
 73
0
 74
0
  7

 75
0
147
1.0
148
0.0
149
0.0
100
AcDbLayout
  1
Layout1
 70
0
 71
1
 10
0.0
 20
0.0
 11
210.0
 21
297.0
 12
0.0
 22
0.0
 32
0.0
 14
0.0
 24
0.0
 34
0.0
 15
0.0
 25
0.0
 35
0.0
146
0.0
 13
0.0
 23
0.0
 33
0.0
 16
1.0
 26
0.0
 36
0.0
 17
0.0
 27
1.0
 37
0.0
 76
0
330
211
345
0
346
0
  0
ENDSEC
  0
EOF
