999
DXF file: C:\Users\SESA654545\Desktop\sachin babu tesys\Gen2D (4)\Gen2D\CAD\SB115113_3D-CAD\drw0001_1.dxf
999
Pro/ENGINEER 2019471 by Parametric Technology Corporation
  0
SECTION
  2
HEADER
  9
$ACADVER
  1
AC1024
  9
$DWGCODEPAGE
  3
ANSI_1252
  9
$EXTMAX
 10
86.3490497197
 20
122.1222274607
 30
0.0
  9
$EXTMIN
 10
-0.0
 20
0.0
 30
0.0
  9
$LIMMIN
 10
-0.0
 20
0.0
  9
$LIMMAX
 10
86.3490497197
 20
122.1222274607
  9
$VIEWCTR
 10
43.1745248598
 20
61.0611137304
  9
$VIEWSIZE
 40
122.1222274607
  9
$CLAYER
  8
0
  9
$LTSCALE
 40
7.9605600123
  9
$CELTYPE
  6
BYLAYER
  9
$DIMSCALE
 40
1.0
  9
$DIMASZ
 40
1.0279648776
  9
$DIMEXO
 40
1.0
  9
$DIMDLI
 40
5.5000232812
  9
$DIMEXE
 40
1.0
  9
$DIMCEN
 40
1.3026370929
  9
$DIMLFAC
 40
1.0
  9
$DIMBLK
  1
_FILLED
  9
$DIMALT
 70
0
  9
$DIMALTF
 40
0.0393700787
  9
$DIMTXT
 40
1.4391508287
  9
$DIMTOL
 70
1
  9
$DIMLIM
 70
0
  9
$DIMTFAC
 40
1.0
  9
$DIMTP
 40
0.01
  9
$DIMTM
 40
0.01
  9
$DIMGAP
 40
0.625
  9
$DIMDSEP
 70
46
  9
$AUNITS
 70
0
  9
$PDMODE
 70
3
  9
$PDSIZE
 40
0.3125
  9
$HANDSEED
  5
2E3
  9
$TILEMODE
 70
1
  9
$MEASUREMENT
 70
1
  9
$INSUNITS
 70
4
  0
ENDSEC
  0
SECTION
  2
CLASSES
  0
CLASS
  1
ACDBDICTIONARYWDFLT
  2
AcDbDictionaryWithDefault
  3
AutoCAD 2000
 90
0
 91
1
280
0
281
0
  0
CLASS
  1
ACDBPLACEHOLDER
  2
AcDbPlaceHolder
  3
AutoCAD 2000
 90
0
 91
1
280
0
281
0
  0
CLASS
  1
LAYOUT
  2
AcDbLayout
  3
AutoCAD 2000
 90
0
 91
0
280
0
281
0
  0
ENDSEC
  0
SECTION
  2
TABLES
  0
TABLE
  2
VPORT
  5
8
100
AcDbSymbolTable
 70
2
  0
VPORT
  5
1F4
100
AcDbSymbolTableRecord
100
AcDbViewportTableRecord
  2
*ACTIVE
 70
0
 10
0.0
 20
0.0
 11
1.0
 21
1.0
 12
43.1745248598
 22
61.0611137304
 13
0.0
 23
0.0
 14
1.0
 24
1.0
 15
0.0
 25
0.0
 16
0.0
 26
0.0
 36
1.0
 17
0.0
 27
0.0
 37
0.0
 40
122.1222274607
 41
0.7070707071
 42
50.0
 43
0.0
 44
0.0
 50
0.0
 51
0.0
 71
0
 72
100
 73
1
 74
1
 75
0
 76
0
 77
0
 78
0
  0
ENDTAB
  0
TABLE
  2
LTYPE
  5
5
100
AcDbSymbolTable
 70
6
  0
LTYPE
  5
14
100
AcDbSymbolTableRecord
100
AcDbLinetypeTableRecord
  2
BYBLOCK
 70
0
  3

 72
65
 73
0
 40
0.0
  0
LTYPE
  5
15
100
AcDbSymbolTableRecord
100
AcDbLinetypeTableRecord
  2
BYLAYER
 70
0
  3

 72
65
 73
0
 40
0.0
  0
LTYPE
  5
16
100
AcDbSymbolTableRecord
100
AcDbLinetypeTableRecord
  2
CONTINUOUS
 70
64
  3
Solid line
 72
65
 73
0
 40
0.0
  0
LTYPE
  5
1F5
100
AcDbSymbolTableRecord
100
AcDbLinetypeTableRecord
  2
CENTER
 70
64
  3
____ _ ____ _ ____ _ ____ _ ____ _ ____ _ ____
 72
65
 73
4
 40
0.6
 49
0.375
 74
0
 49
-0.075
 74
0
 49
0.075
 74
0
 49
-0.075
 74
0
  0
LTYPE
  5
1F6
100
AcDbSymbolTableRecord
100
AcDbLinetypeTableRecord
  2
HIDDEN
 70
64
  3
- - - - - - - - - - - - - - - - - - - -
 72
65
 73
2
 40
0.2
 49
0.1
 74
0
 49
-0.1
 74
0
  0
LTYPE
  5
1F7
100
AcDbSymbolTableRecord
100
AcDbLinetypeTableRecord
  2
PHANTOM
 70
64
  3
_____ _ _ _____ _ _ _____ _ _ _____
 72
65
 73
6
 40
0.8
 49
0.45
 74
0
 49
-0.05
 74
0
 49
0.1
 74
0
 49
-0.05
 74
0
 49
0.1
 74
0
 49
-0.05
 74
0
  0
LTYPE
  5
1F8
100
AcDbSymbolTableRecord
100
AcDbLinetypeTableRecord
  2
DOT
 70
64
  3
. . . . . . . . . . . . . . . . . . . .
 72
65
 73
2
 40
0.2
 49
0.1
 74
0
 49
-0.1
 74
0
  0
LTYPE
  5
1F9
100
AcDbSymbolTableRecord
100
AcDbLinetypeTableRecord
  2
DASHED
 70
64
  3
- - - - - - - - - - - - - - - - - - - -
 72
65
 73
2
 40
0.2
 49
0.1
 74
0
 49
-0.1
 74
0
  0
ENDTAB
  0
TABLE
  2
LAYER
  5
2
100
AcDbSymbolTable
 70
36
  0
LAYER
  5
10
100
AcDbSymbolTableRecord
100
AcDbLayerTableRecord
  2
0
 70
0
 62
7
  6
CONTINUOUS
370
-3
390
F
  0
LAYER
  5
1FA
100
AcDbSymbolTableRecord
100
AcDbLayerTableRecord
  2
DEFAULT_1
 70
0
 62
7
  6
CENTER
370
-3
390
F
  0
LAYER
  5
1FB
100
AcDbSymbolTableRecord
100
AcDbLayerTableRecord
  2
DEFAULT_2
 70
0
 62
8
  6
HIDDEN
370
-3
390
F
  0
LAYER
  5
1FC
100
AcDbSymbolTableRecord
100
AcDbLayerTableRecord
  2
DEFAULT_3
 70
0
 62
7
  6
PHANTOM
370
-3
390
F
  0
LAYER
  5
1FD
100
AcDbSymbolTableRecord
100
AcDbLayerTableRecord
  2
00_COMPONENTS
 70
0
 62
7
  6
CONTINUOUS
370
-3
390
F
  0
LAYER
  5
1FE
100
AcDbSymbolTableRecord
100
AcDbLayerTableRecord
  2
01_1_DEFAULT_DATUMS
 70
0
 62
7
  6
CONTINUOUS
370
-3
390
F
  0
LAYER
  5
1FF
100
AcDbSymbolTableRecord
100
AcDbLayerTableRecord
  2
01_PLANES
 70
0
 62
7
  6
CONTINUOUS
370
-3
390
F
  0
LAYER
  5
200
100
AcDbSymbolTableRecord
100
AcDbLayerTableRecord
  2
02_COORD_SYS
 70
0
 62
7
  6
CONTINUOUS
370
-3
390
F
  0
LAYER
  5
201
100
AcDbSymbolTableRecord
100
AcDbLayerTableRecord
  2
03_AXES
 70
0
 62
7
  6
CONTINUOUS
370
-3
390
F
  0
LAYER
  5
202
100
AcDbSymbolTableRecord
100
AcDbLayerTableRecord
  2
04_POINTS
 70
0
 62
7
  6
CONTINUOUS
370
-3
390
F
  0
LAYER
  5
203
100
AcDbSymbolTableRecord
100
AcDbLayerTableRecord
  2
05_CURVES
 70
0
 62
7
  6
CONTINUOUS
370
-3
390
F
  0
LAYER
  5
204
100
AcDbSymbolTableRecord
100
AcDbLayerTableRecord
  2
06_SURFS
 70
0
 62
7
  6
CONTINUOUS
370
-3
390
F
  0
LAYER
  5
205
100
AcDbSymbolTableRecord
100
AcDbLayerTableRecord
  2
07_COSMETICS
 70
0
 62
7
  6
CONTINUOUS
370
-3
390
F
  0
LAYER
  5
206
100
AcDbSymbolTableRecord
100
AcDbLayerTableRecord
  2
10_NOTES
 70
0
 62
7
  6
CONTINUOUS
370
-3
390
F
  0
LAYER
  5
207
100
AcDbSymbolTableRecord
100
AcDbLayerTableRecord
  2
11_NOTES_PUB
 70
0
 62
7
  6
CONTINUOUS
370
-3
390
F
  0
LAYER
  5
208
100
AcDbSymbolTableRecord
100
AcDbLayerTableRecord
  2
13_REF_GTOL
 70
0
 62
7
  6
CONTINUOUS
370
-3
390
F
  0
LAYER
  5
209
100
AcDbSymbolTableRecord
100
AcDbLayerTableRecord
  2
16_MISC
 70
0
 62
7
  6
CONTINUOUS
370
-3
390
F
  0
LAYER
  5
20A
100
AcDbSymbolTableRecord
100
AcDbLayerTableRecord
  2
17_NO_PRINT
 70
0
 62
7
  6
CONTINUOUS
370
-3
390
F
  0
LAYER
  5
20B
100
AcDbSymbolTableRecord
100
AcDbLayerTableRecord
  2
18_DATUM_CAMS_JOINTS
 70
0
 62
7
  6
CONTINUOUS
370
-3
390
F
  0
LAYER
  5
20C
100
AcDbSymbolTableRecord
100
AcDbLayerTableRecord
  2
19_DATUM_FUNCTIONAL
 70
0
 62
7
  6
CONTINUOUS
370
-3
390
F
  0
LAYER
  5
20D
100
AcDbSymbolTableRecord
100
AcDbLayerTableRecord
  2
20_DATUM_KINEMATIC_SCHEME
 70
0
 62
7
  6
CONTINUOUS
370
-3
390
F
  0
ENDTAB
  0
TABLE
  2
STYLE
  5
3
100
AcDbSymbolTable
 70
1
  0
STYLE
  5
11
100
AcDbSymbolTableRecord
100
AcDbTextStyleTableRecord
  2
STANDARD
 70
0
 40
0.0
 41
0.8
 50
0.0
 71
0
 42
0.2
  3
txt
  4

  0
STYLE
  5
20E
100
AcDbSymbolTableRecord
100
AcDbTextStyleTableRecord
  2
TEXTSTYLE_1
 70
0
 40
0.0
 41
0.8
 50
0.0
 71
0
 42
0.2
  3
gdt
  4

  0
ENDTAB
  0
TABLE
  2
VIEW
  5
6
100
AcDbSymbolTable
 70
0
  0
ENDTAB
  0
TABLE
  2
UCS
  5
7
100
AcDbSymbolTable
 70
0
  0
ENDTAB
  0
TABLE
  2
APPID
  5
9
100
AcDbSymbolTable
 70
1
  0
APPID
  5
20F
100
AcDbSymbolTableRecord
100
AcDbRegAppTableRecord
  2
ACAD
 70
0
  0
ENDTAB
  0
TABLE
  2
BLOCK_RECORD
  5
1
100
AcDbSymbolTable
 70
0
  0
BLOCK_RECORD
  5
210
100
AcDbSymbolTableRecord
100
AcDbBlockTableRecord
  2
*Model_Space
  0
BLOCK_RECORD
  5
211
100
AcDbSymbolTableRecord
100
AcDbBlockTableRecord
  2
*Paper_Space
  0
BLOCK_RECORD
  5
212
100
AcDbSymbolTableRecord
100
AcDbBlockTableRecord
  2
_FILLED
  0
ENDTAB
  0
TABLE
  2
DIMSTYLE
  5
A
100
AcDbSymbolTable
 70
1
100
AcDbDimStyleTable
 71
0
  0
DIMSTYLE
105
213
100
AcDbSymbolTableRecord
100
AcDbDimStyleTableRecord
  2
STANDARD
 70
0
  3

  4

 40
1.0
 41
1.0279648776
 42
1.0
 43
0.38
 44
1.0
 45
0.0
 46
0.0
 47
0.01
 48
0.01
140
1.4391508287
141
0.09
142
0.0
143
25.4
144
1.0
145
0.0
146
1.0
147
0.625
 71
1
 72
0
 73
0
 74
0
 75
0
 76
0
 77
1
 78
8
 79
2
170
0
171
1
172
0
173
0
174
0
175
0
176
0
177
0
178
0
270
2
179
2
271
2
272
2
273
2
274
2
275
0
280
0
281
0
282
0
283
1
284
8
285
0
286
0
287
3
288
0
340
11
278
46
341
212
342
212
343
212
344
212
  0
ENDTAB
  0
ENDSEC
  0
SECTION
  2
BLOCKS
  0
BLOCK
  5
20
100
AcDbEntity
  8
0
100
AcDbBlockBegin
  2
*Model_Space
 70
0
 10
0.0
 20
0.0
 30
0.0
  3
*Model_Space
  1

  0
ENDBLK
  5
21
100
AcDbEntity
  8
0
100
AcDbBlockEnd
  0
BLOCK
  5
1C
100
AcDbEntity
  8
0
100
AcDbBlockBegin
  2
*Paper_Space
 70
0
 10
0.0
 20
0.0
 30
0.0
  3
*Paper_Space
  1

  0
ENDBLK
  5
1D
100
AcDbEntity
  8
0
100
AcDbBlockEnd
  0
BLOCK
  5
214
100
AcDbEntity
  8
0
100
AcDbBlockBegin
  2
_FILLED
 70
64
 10
0.0
 20
0.0
  3
_FILLED
  1

  0
SOLID
  5
215
100
AcDbEntity
  8
0
  6
BYBLOCK
 62
0
100
AcDbTrace
 10
0.0
 20
0.0
 11
-1.0
 21
0.25
 12
-1.0
 22
-0.25
 13
-1.0
 23
-0.25
  0
ENDBLK
  5
216
100
AcDbEntity
  8
0
  6
BYBLOCK
 62
0
100
AcDbBlockEnd
  0
ENDSEC
  0
SECTION
  2
ENTITIES
  0
LINE
  5
217
100
AcDbEntity
  8
0
100
AcDbLine
 62
7
  6
CONTINUOUS
 10
11.2395881761
 20
107.5829943726
 11
18.876309618
 21
111.9920312344
  0
LINE
  5
218
100
AcDbEntity
  8
0
100
AcDbLine
 62
7
  6
CONTINUOUS
 10
28.2683646274
 20
108.1566728217
 11
27.9891319607
 21
107.9954587287
  0
LINE
  5
219
100
AcDbEntity
  8
0
100
AcDbLine
 62
7
  6
CONTINUOUS
 10
28.9194513271
 20
106.2336927637
 11
28.9031055641
 21
106.2229162066
  0
LINE
  5
21A
100
AcDbEntity
  8
0
100
AcDbLine
 62
7
  6
CONTINUOUS
 10
30.3189828303
 20
106.9727746336
 11
29.5507857267
 21
106.5292584765
  0
LINE
  5
21B
100
AcDbEntity
  8
0
100
AcDbLine
 62
7
  6
CONTINUOUS
 10
28.9630595108
 20
106.1685752138
 11
21.3263380689
 21
101.759538352
  0
LINE
  5
21C
100
AcDbEntity
  8
0
100
AcDbLine
 62
7
  6
CONTINUOUS
 10
30.9624526802
 20
106.601275547
 11
29.5507857267
 21
105.7862541164
  0
LINE
  5
21D
100
AcDbEntity
  8
0
100
AcDbLine
 62
7
  6
CONTINUOUS
 10
28.9630595108
 20
103.6646528237
 11
29.5507857267
 21
104.0415079491
  0
LINE
  5
21E
100
AcDbEntity
  8
0
100
AcDbLine
 62
7
  6
CONTINUOUS
 10
33.0130708831
 20
105.4173773589
 11
28.9630595108
 21
103.0791161604
  0
LINE
  5
21F
100
AcDbEntity
  8
0
100
AcDbLine
 62
7
  6
CONTINUOUS
 10
33.0130708831
 20
102.1513676904
 11
28.9630595108
 21
99.8131064919
  0
LINE
  5
220
100
AcDbEntity
  8
0
100
AcDbLine
 62
7
  6
CONTINUOUS
 10
49.4379494836
 20
11.2239381584
 11
47.4606612751
 21
12.3656740954
  0
LINE
  5
221
100
AcDbEntity
  8
0
100
AcDbLine
 62
7
  6
CONTINUOUS
 10
29.5507857267
 20
95.6968532461
 11
28.9630595108
 21
95.3199981206
  0
LINE
  5
222
100
AcDbEntity
  8
0
100
AcDbLine
 62
7
  6
CONTINUOUS
 10
51.2627062664
 20
14.246434664
 11
61.2479127496
 21
9.4255410456
  0
LINE
  5
223
100
AcDbEntity
  8
0
100
AcDbLine
 62
7
  6
CONTINUOUS
 10
11.2395881761
 20
92.8962742478
 11
11.2395881761
 21
107.5829943726
  0
LINE
  5
224
100
AcDbEntity
  8
0
100
AcDbLine
 62
7
  6
CONTINUOUS
 10
21.3263380689
 20
87.0728182272
 11
28.9630595108
 21
91.481855089
  0
LINE
  5
225
100
AcDbEntity
  8
0
100
AcDbLine
 62
7
  6
CONTINUOUS
 10
47.3037566619
 20
20.8728406008
 11
47.0633393554
 21
21.0116424574
  0
LINE
  5
226
100
AcDbEntity
  8
0
100
AcDbLine
 62
7
  6
CONTINUOUS
 10
49.7644985055
 20
19.4929878959
 11
49.5240811989
 21
19.6317897525
  0
LWPOLYLINE
  5
227
100
AcDbEntity
  8
0
100
AcDbPolyline
 62
7
  6
CONTINUOUS
 90
3
 70
0
 10
29.569397063
 20
27.7147268481
 10
43.9962683311
 20
17.754697045
 10
47.4606612751
 20
16.0820756662
  0
LINE
  5
228
100
AcDbEntity
  8
0
100
AcDbLine
 62
7
  6
CONTINUOUS
 10
28.3642683655
 20
31.2018869651
 11
28.8019528845
 21
30.8117872565
  0
LINE
  5
229
100
AcDbEntity
  8
0
100
AcDbLine
 62
7
  6
CONTINUOUS
 10
14.7129183229
 20
90.1826546494
 11
14.7129183229
 21
91.4547537064
  0
LINE
  5
22A
100
AcDbEntity
  8
0
100
AcDbLine
 62
7
  6
CONTINUOUS
 10
23.2269970881
 20
85.2671601857
 11
28.1767239486
 21
88.1248692628
  0
LINE
  5
22B
100
AcDbEntity
  8
0
100
AcDbLine
 62
7
  6
CONTINUOUS
 10
68.4008807148
 20
33.8485155735
 11
69.4867385248
 21
33.8907500439
  0
LINE
  5
22C
100
AcDbEntity
  8
0
100
AcDbLine
 62
7
  6
CONTINUOUS
 10
48.0426863247
 20
23.042677388
 11
48.8558625086
 21
22.5813948553
  0
LINE
  5
22D
100
AcDbEntity
  8
0
100
AcDbLine
 62
7
  6
CONTINUOUS
 10
47.4606612751
 20
22.3647081323
 11
48.0426863247
 21
22.0287345985
  0
LINE
  5
22E
100
AcDbEntity
  8
0
100
AcDbLine
 62
7
  6
CONTINUOUS
 10
49.5240811989
 20
21.5015802877
 11
48.908895738
 21
21.8567497441
  0
LINE
  5
22F
100
AcDbEntity
  8
0
100
AcDbLine
 62
7
  6
CONTINUOUS
 10
47.8482311503
 20
22.4691108759
 11
47.3037566619
 21
22.7834562569
  0
LINE
  5
230
100
AcDbEntity
  8
0
100
AcDbLine
 62
7
  6
CONTINUOUS
 10
48.908895738
 20
22.754902403
 11
47.8482311503
 21
23.3672635348
  0
LINE
  5
231
100
AcDbEntity
  8
0
100
AcDbLine
 62
7
  6
CONTINUOUS
 10
48.8558625086
 20
21.5593292417
 11
49.4379494836
 21
21.2232175839
  0
LINE
  5
232
100
AcDbEntity
  8
0
100
AcDbLine
 62
7
  6
CONTINUOUS
 10
32.6114452691
 20
26.6508316748
 11
32.5633518104
 21
26.7014978565
  0
LINE
  5
233
100
AcDbEntity
  8
0
100
AcDbLine
 62
7
  6
CONTINUOUS
 10
28.3641383983
 20
31.202026258
 11
32.563313491
 21
26.7015389255
  0
LINE
  5
234
100
AcDbEntity
  8
0
100
AcDbLine
 62
7
  6
CONTINUOUS
 10
33.0271768104
 20
26.2833819515
 11
28.8019528962
 21
30.8117872415
  0
LINE
  5
235
100
AcDbEntity
  8
0
100
AcDbLine
 62
7
  6
CONTINUOUS
 10
30.4425610161
 20
29.8969254163
 11
34.5241211981
 21
25.5224924644
  0
LINE
  5
236
100
AcDbEntity
  8
0
100
AcDbLine
 62
7
  6
CONTINUOUS
 10
17.2481355153
 20
62.9274863044
 11
17.2481355153
 21
88.2294115168
  0
LINE
  5
237
100
AcDbEntity
  8
0
100
AcDbLine
 62
7
  6
CONTINUOUS
 10
67.8620977993
 20
35.0005780443
 11
66.4973476341
 21
34.9474960479
  0
LINE
  5
238
100
AcDbEntity
  8
0
100
AcDbLine
 62
7
  6
CONTINUOUS
 10
49.0081937868
 20
28.1606516618
 11
48.9376384465
 21
28.196982978
  0
LINE
  5
239
100
AcDbEntity
  8
0
100
AcDbLine
 62
7
  6
CONTINUOUS
 10
26.6455009356
 20
42.0209120154
 11
22.1553541809
 21
44.6132408066
  0
LINE
  5
23A
100
AcDbEntity
  8
0
100
AcDbLine
 62
7
  6
CONTINUOUS
 10
36.605967181
 20
31.8690446769
 11
37.6715821086
 21
30.7269664407
  0
LINE
  5
23B
100
AcDbEntity
  8
0
100
AcDbLine
 62
7
  6
CONTINUOUS
 10
22.1553541809
 20
44.6132408066
 11
29.4583014183
 21
34.2235145051
  0
LINE
  5
23C
100
AcDbEntity
  8
0
100
AcDbLine
 62
7
  6
CONTINUOUS
 10
33.7951157435
 20
31.8493280506
 11
26.6455009356
 21
42.0209120154
  0
LINE
  5
23D
100
AcDbEntity
  8
0
100
AcDbLine
 62
7
  6
CONTINUOUS
 10
21.3263380689
 20
101.759538352
 11
21.3263380689
 21
87.0728182272
  0
LINE
  5
23E
100
AcDbEntity
  8
0
100
AcDbLine
 62
7
  6
CONTINUOUS
 10
21.73828227
 20
60.3351575132
 11
21.73828227
 21
85.8391695484
  0
LINE
  5
23F
100
AcDbEntity
  8
0
100
AcDbLine
 62
7
  6
CONTINUOUS
 10
23.2269970881
 20
88.1701576734
 11
23.2269970881
 21
85.2671601857
  0
LINE
  5
240
100
AcDbEntity
  8
0
100
AcDbLine
 62
7
  6
CONTINUOUS
 10
54.7778416895
 20
28.7528196947
 11
55.7649199824
 21
28.182942669
  0
LINE
  5
241
100
AcDbEntity
  8
0
100
AcDbLine
 62
7
  6
CONTINUOUS
 10
54.5374317609
 20
30.9361581499
 11
54.7778416895
 21
30.7973605529
  0
LINE
  5
242
100
AcDbEntity
  8
0
100
AcDbLine
 62
7
  6
CONTINUOUS
 10
57.5355696176
 20
29.2052216103
 11
57.7759797178
 21
29.0664239142
  0
LINE
  5
243
100
AcDbEntity
  8
0
100
AcDbLine
 62
7
  6
CONTINUOUS
 10
31.3228939954
 20
41.7814499437
 11
31.5733617575
 21
41.5734590818
  0
LINE
  5
244
100
AcDbEntity
  8
0
100
AcDbLine
 62
7
  6
CONTINUOUS
 10
31.7046179236
 20
41.7174865913
 11
31.4377449639
 21
41.9391004886
  0
LINE
  5
245
100
AcDbEntity
  8
0
100
AcDbLine
 62
7
  6
CONTINUOUS
 10
28.8500325257
 20
44.7633956757
 11
35.8909281608
 21
34.7464838472
  0
LINE
  5
246
100
AcDbEntity
  8
0
100
AcDbLine
 62
7
  6
CONTINUOUS
 10
24.2838560839
 20
85.8773343692
 11
24.2838560839
 21
61.8048364671
  0
LINE
  5
247
100
AcDbEntity
  8
0
100
AcDbLine
 62
7
  6
CONTINUOUS
 10
59.1972368449
 20
31.7566802518
 11
62.4938454493
 21
29.853425444
  0
LINE
  5
248
100
AcDbEntity
  8
0
100
AcDbLine
 62
7
  6
CONTINUOUS
 10
42.9265560929
 20
41.9668311597
 11
44.7240599099
 21
40.9290653245
  0
LINE
  5
249
100
AcDbEntity
  8
0
100
AcDbLine
 62
7
  6
CONTINUOUS
 10
48.3558738438
 20
38.8322840077
 11
49.9412447433
 21
37.9169903988
  0
LINE
  5
24A
100
AcDbEntity
  8
0
100
AcDbLine
 62
7
  6
CONTINUOUS
 10
54.5231555853
 20
35.2716827856
 11
56.3687920564
 21
34.2061281782
  0
LINE
  5
24B
100
AcDbEntity
  8
0
100
AcDbLine
 62
7
  6
CONTINUOUS
 10
39.0970454432
 20
45.6474168628
 11
40.1942274735
 21
45.0139728527
  0
LINE
  5
24C
100
AcDbEntity
  8
0
100
AcDbLine
 62
7
  6
CONTINUOUS
 10
68.4420990368
 20
28.7054255502
 11
69.5392810671
 21
28.0719815401
  0
LINE
  5
24D
100
AcDbEntity
  8
0
100
AcDbLine
 62
7
  6
CONTINUOUS
 10
28.1767239486
 20
91.0278667505
 11
28.1767239486
 21
88.1248692628
  0
LINE
  5
24E
100
AcDbEntity
  8
0
100
AcDbLine
 62
7
  6
CONTINUOUS
 10
28.9630595108
 20
106.1685752138
 11
28.9630595108
 21
91.481855089
  0
LINE
  5
24F
100
AcDbEntity
  8
0
100
AcDbLine
 62
7
  6
CONTINUOUS
 10
29.5507857267
 20
91.9631592273
 11
29.5507857267
 21
95.696853246
  0
LINE
  5
250
100
AcDbEntity
  8
0
100
AcDbLine
 62
7
  6
CONTINUOUS
 10
29.5507857267
 20
104.0415079491
 11
29.5507857267
 21
106.6498793521
  0
LINE
  5
251
100
AcDbEntity
  8
0
100
AcDbLine
 62
7
  6
CONTINUOUS
 10
29.569397063
 20
27.7147268481
 11
29.569397063
 21
29.9102841342
  0
LINE
  5
252
100
AcDbEntity
  8
0
100
AcDbLine
 62
7
  6
CONTINUOUS
 10
30.3189828303
 20
106.2297702735
 11
30.3189828303
 21
106.9727746336
  0
LINE
  5
253
100
AcDbEntity
  8
0
100
AcDbLine
 62
7
  6
CONTINUOUS
 10
64.892261683
 20
33.2043023564
 11
66.595029598
 21
32.2212310823
  0
LINE
  5
254
100
AcDbEntity
  8
0
100
AcDbLine
 62
7
  6
CONTINUOUS
 10
53.8712837741
 20
40.3537190274
 11
54.0165469594
 21
40.2698531855
  0
LINE
  5
255
100
AcDbEntity
  8
0
100
AcDbLine
 62
7
  6
CONTINUOUS
 10
67.0429243615
 20
32.8599662444
 11
65.1393912807
 21
33.9589467187
  0
LINE
  5
256
100
AcDbEntity
  8
0
100
AcDbLine
 62
7
  6
CONTINUOUS
 10
67.2200570661
 20
33.1667707915
 11
65.3165239853
 21
34.2657512658
  0
LINE
  5
257
100
AcDbEntity
  8
0
100
AcDbLine
 62
7
  6
CONTINUOUS
 10
17.2481355153
 20
62.9274863044
 11
21.73828227
 21
60.3351575132
  0
LINE
  5
258
100
AcDbEntity
  8
0
100
AcDbLine
 62
7
  6
CONTINUOUS
 10
33.0130708831
 20
102.1513676904
 11
33.0130708831
 21
105.4173773589
  0
LINE
  5
259
100
AcDbEntity
  8
0
100
AcDbLine
 62
7
  6
CONTINUOUS
 10
50.2394698402
 20
44.1133697247
 11
53.8712837741
 21
42.0165884079
  0
LINE
  5
25A
100
AcDbEntity
  8
0
100
AcDbLine
 62
7
  6
CONTINUOUS
 10
61.8842019867
 20
37.3904325784
 11
65.4197506124
 21
35.3492288058
  0
LINE
  5
25B
100
AcDbEntity
  8
0
100
AcDbLine
 62
7
  6
CONTINUOUS
 10
68.4008807148
 20
33.8485155735
 11
66.4973476341
 21
34.9474960479
  0
LINE
  5
25C
100
AcDbEntity
  8
0
100
AcDbLine
 62
7
  6
CONTINUOUS
 10
69.6355779087
 20
33.9766819894
 11
67.8620977993
 21
35.0005780443
  0
LINE
  5
25D
100
AcDbEntity
  8
0
100
AcDbLine
 62
7
  6
CONTINUOUS
 10
45.1074280596
 20
49.1174921707
 11
45.1963977534
 21
49.0661266561
  0
LINE
  5
25E
100
AcDbEntity
  8
0
100
AcDbLine
 62
7
  6
CONTINUOUS
 10
46.2046100899
 20
48.4840481606
 11
50.2097256162
 21
46.1717459446
  0
LINE
  5
25F
100
AcDbEntity
  8
0
100
AcDbLine
 62
7
  6
CONTINUOUS
 10
57.2244142666
 20
42.1219051836
 11
61.8063251086
 21
39.4765975705
  0
LINE
  5
260
100
AcDbEntity
  8
0
100
AcDbLine
 62
7
  6
CONTINUOUS
 10
70.4841188099
 20
34.4665843827
 11
74.4524816532
 21
32.1755008581
  0
LINE
  5
261
100
AcDbEntity
  8
0
100
AcDbLine
 62
7
  6
CONTINUOUS
 10
75.4606939897
 20
31.5934223626
 11
75.5496636835
 21
31.542056848
  0
LINE
  5
262
100
AcDbEntity
  8
0
100
AcDbLine
 62
7
  6
CONTINUOUS
 10
76.4506452497
 20
31.3484792697
 11
75.7435355245
 21
31.7567200242
  0
LINE
  5
263
100
AcDbEntity
  8
0
100
AcDbLine
 62
7
  6
CONTINUOUS
 10
45.4792392882
 20
49.2294243177
 11
44.7721295631
 21
49.6376650722
  0
LINE
  5
264
100
AcDbEntity
  8
0
100
AcDbLine
 62
7
  6
CONTINUOUS
 10
45.1074280596
 20
49.1174921707
 11
45.1074280596
 21
47.8505936013
  0
LINE
  5
265
100
AcDbEntity
  8
0
100
AcDbLine
 62
7
  6
CONTINUOUS
 10
45.1963977534
 20
47.9019599713
 11
45.1963977534
 21
49.0661266561
  0
LINE
  5
266
100
AcDbEntity
  8
0
100
AcDbLine
 62
7
  6
CONTINUOUS
 10
45.4792392882
 20
49.2294243177
 11
45.4792392882
 21
48.0652576329
  0
LINE
  5
267
100
AcDbEntity
  8
0
100
AcDbLine
 62
7
  6
CONTINUOUS
 10
47.3037566619
 20
22.7834562569
 11
47.3037566619
 21
20.8728406008
  0
LINE
  5
268
100
AcDbEntity
  8
0
100
AcDbLine
 62
7
  6
CONTINUOUS
 10
47.4606612751
 20
12.3656740954
 11
47.4606612751
 21
22.3647081323
  0
LINE
  5
269
100
AcDbEntity
  8
0
100
AcDbLine
 62
7
  6
CONTINUOUS
 10
47.8482311503
 20
23.3672635348
 11
47.8482311503
 21
22.4691108759
  0
LINE
  5
26A
100
AcDbEntity
  8
0
100
AcDbLine
 62
7
  6
CONTINUOUS
 10
48.0426863247
 20
22.0287345985
 11
48.0426863247
 21
23.042677388
  0
LINE
  5
26B
100
AcDbEntity
  8
0
100
AcDbLine
 62
7
  6
CONTINUOUS
 10
31.4377449639
 20
41.9391004886
 11
31.1311049209
 21
41.5181691816
  0
LINE
  5
26C
100
AcDbEntity
  8
0
100
AcDbLine
 62
7
  6
CONTINUOUS
 10
31.3017510649
 20
41.2753950423
 11
31.7046179244
 21
41.7174865907
  0
LINE
  5
26D
100
AcDbEntity
  8
0
100
AcDbLine
 62
7
  6
CONTINUOUS
 10
48.8558625086
 20
22.5813948553
 11
48.8558625086
 21
21.5593292417
  0
LINE
  5
26E
100
AcDbEntity
  8
0
100
AcDbLine
 62
7
  6
CONTINUOUS
 10
48.908895738
 20
21.8567497441
 11
48.908895738
 21
22.754902403
  0
LINE
  5
26F
100
AcDbEntity
  8
0
100
AcDbLine
 62
7
  6
CONTINUOUS
 10
48.9376384465
 20
27.8580418409
 11
48.9376384465
 21
28.196982978
  0
LINE
  5
270
100
AcDbEntity
  8
0
100
AcDbLine
 62
7
  6
CONTINUOUS
 10
49.4379494836
 20
21.2232175839
 11
49.4379494836
 21
11.2239381584
  0
LINE
  5
271
100
AcDbEntity
  8
0
100
AcDbLine
 62
7
  6
CONTINUOUS
 10
49.5240811989
 20
19.6317897525
 11
49.5240811989
 21
21.5015802877
  0
LINE
  5
272
100
AcDbEntity
  8
0
100
AcDbLine
 62
7
  6
CONTINUOUS
 10
50.2097256162
 20
46.1717459446
 11
50.2097256162
 21
44.1133697247
  0
LINE
  5
273
100
AcDbEntity
  8
0
100
AcDbLine
 62
7
  6
CONTINUOUS
 10
50.4986052394
 20
19.9168220864
 11
50.4986052394
 21
11.8363043892
  0
LINE
  5
274
100
AcDbEntity
  8
0
100
AcDbLine
 62
7
  6
CONTINUOUS
 10
53.6424006098
 20
15.6203436326
 11
53.6424006098
 21
21.7318823554
  0
LINE
  5
275
100
AcDbEntity
  8
0
100
AcDbLine
 62
7
  6
CONTINUOUS
 10
53.8712837741
 20
42.0165884079
 11
53.8712837741
 21
40.185985947
  0
LINE
  5
276
100
AcDbEntity
  8
0
100
AcDbLine
 62
7
  6
CONTINUOUS
 10
54.7778416895
 20
30.7973605529
 11
54.7778416895
 21
28.7528196947
  0
LINE
  5
277
100
AcDbEntity
  8
0
100
AcDbLine
 62
7
  6
CONTINUOUS
 10
31.4377449639
 20
41.9391004886
 11
44.7721295631
 21
49.6376650722
  0
LINE
  5
278
100
AcDbEntity
  8
0
100
AcDbLine
 62
7
  6
CONTINUOUS
 10
45.1074280596
 20
49.1174921707
 11
39.0970454432
 21
45.6474168628
  0
LINE
  5
279
100
AcDbEntity
  8
0
100
AcDbLine
 62
7
  6
CONTINUOUS
 10
45.1963977534
 20
49.0661266561
 11
45.4792392882
 21
49.2294243177
  0
LINE
  5
27A
100
AcDbEntity
  8
0
100
AcDbLine
 62
7
  6
CONTINUOUS
 10
46.2046100899
 20
48.4840481606
 11
40.1942274735
 21
45.0139728527
  0
LINE
  5
27B
100
AcDbEntity
  8
0
100
AcDbLine
 62
7
  6
CONTINUOUS
 10
42.9265560929
 20
41.9668311597
 11
50.2097256162
 21
46.1717459446
  0
LINE
  5
27C
100
AcDbEntity
  8
0
100
AcDbLine
 62
7
  6
CONTINUOUS
 10
61.2479127496
 20
22.5712299614
 11
61.2479127496
 21
9.4255410456
  0
LINE
  5
27D
100
AcDbEntity
  8
0
100
AcDbLine
 62
7
  6
CONTINUOUS
 10
61.8063251086
 20
39.4765975705
 11
61.8063251086
 21
37.3454706103
  0
LINE
  5
27E
100
AcDbEntity
  8
0
100
AcDbLine
 62
7
  6
CONTINUOUS
 10
44.7240599099
 20
40.9290653245
 11
50.2394698402
 21
44.1133697247
  0
LINE
  5
27F
100
AcDbEntity
  8
0
100
AcDbLine
 62
7
  6
CONTINUOUS
 10
65.4197506124
 20
35.3492288058
 11
65.4197506124
 21
34.325348831
  0
LINE
  5
280
100
AcDbEntity
  8
0
100
AcDbLine
 62
7
  6
CONTINUOUS
 10
48.3558738438
 20
38.8322840077
 11
53.8712837741
 21
42.0165884079
  0
LINE
  5
281
100
AcDbEntity
  8
0
100
AcDbLine
 62
7
  6
CONTINUOUS
 10
49.9412447433
 20
37.9169903988
 11
57.2244142666
 21
42.1219051836
  0
LINE
  5
282
100
AcDbEntity
  8
0
100
AcDbLine
 62
7
  6
CONTINUOUS
 10
65.1393912807
 20
33.9589467187
 11
64.892261683
 21
33.2043023564
  0
LINE
  5
283
100
AcDbEntity
  8
0
100
AcDbLine
 62
7
  6
CONTINUOUS
 10
46.7592821736
 20
26.4454615481
 11
47.2049920064
 21
26.8782078836
  0
LINE
  5
284
100
AcDbEntity
  8
0
100
AcDbLine
 62
7
  6
CONTINUOUS
 10
54.5231555853
 20
35.2716827856
 11
61.8063251086
 21
39.4765975705
  0
LINE
  5
285
100
AcDbEntity
  8
0
100
AcDbLine
 62
7
  6
CONTINUOUS
 10
25.0703559225
 20
110.5103854861
 11
29.5507857267
 21
106.6498793521
  0
LINE
  5
286
100
AcDbEntity
  8
0
100
AcDbLine
 62
7
  6
CONTINUOUS
 10
74.4524816532
 20
30.9086022887
 11
74.4524816532
 21
32.1755008581
  0
LINE
  5
287
100
AcDbEntity
  8
0
100
AcDbLine
 62
7
  6
CONTINUOUS
 10
75.4606939897
 20
31.490690478
 11
75.4606939897
 21
31.5934223626
  0
LINE
  5
288
100
AcDbEntity
  8
0
100
AcDbLine
 62
7
  6
CONTINUOUS
 10
76.4506452497
 20
31.3484792697
 11
76.4506452497
 21
21.3054995386
  0
LINE
  5
289
100
AcDbEntity
  8
0
100
AcDbLine
 62
7
  6
CONTINUOUS
 10
66.8894107007
 20
32.3911910767
 11
67.0429243615
 21
32.8599662444
  0
LINE
  5
28A
100
AcDbEntity
  8
0
100
AcDbLine
 62
7
  6
CONTINUOUS
 10
65.3165239853
 20
34.2657512658
 11
65.1393912807
 21
33.9589467187
  0
LINE
  5
28B
100
AcDbEntity
  8
0
100
AcDbLine
 62
7
  6
CONTINUOUS
 10
48.9376384465
 20
28.196982978
 11
50.6750047611
 21
29.314180897
  0
LINE
  5
28C
100
AcDbEntity
  8
0
100
AcDbLine
 62
7
  6
CONTINUOUS
 10
56.3687920564
 20
34.2061281782
 11
61.8842019867
 21
37.3904325784
  0
LINE
  5
28D
100
AcDbEntity
  8
0
100
AcDbLine
 62
7
  6
CONTINUOUS
 10
48.8311539098
 20
27.8174766652
 11
47.2048150842
 21
26.8785151113
  0
LINE
  5
28E
100
AcDbEntity
  8
0
100
AcDbLine
 62
7
  6
CONTINUOUS
 10
49.2831862371
 20
27.9026375543
 11
54.5374317609
 21
30.9361581499
  0
LINE
  5
28F
100
AcDbEntity
  8
0
100
AcDbLine
 62
7
  6
CONTINUOUS
 10
49.6388144529
 20
27.8303595051
 11
54.7778416895
 21
30.7973605529
  0
LINE
  5
290
100
AcDbEntity
  8
0
100
AcDbLine
 62
7
  6
CONTINUOUS
 10
50.0049022698
 20
27.7559556416
 11
48.3785634442
 21
26.8169940877
  0
LINE
  5
291
100
AcDbEntity
  8
0
100
AcDbLine
 62
7
  6
CONTINUOUS
 10
59.1972368449
 20
31.7566802518
 11
65.4197506124
 21
35.3492288058
  0
LINE
  5
292
100
AcDbEntity
  8
0
100
AcDbLine
 62
7
  6
CONTINUOUS
 10
33.0130708831
 20
105.4173773589
 11
30.9624526802
 21
106.601275547
  0
LINE
  5
293
100
AcDbEntity
  8
0
100
AcDbLine
 62
7
  6
CONTINUOUS
 10
30.3189828303
 20
106.9727746336
 11
28.2683646274
 21
108.1566728217
  0
LINE
  5
294
100
AcDbEntity
  8
0
100
AcDbLine
 62
7
  6
CONTINUOUS
 10
20.8348841735
 20
112.9947272387
 11
25.0703559225
 21
110.5103854861
  0
LINE
  5
295
100
AcDbEntity
  8
0
100
AcDbLine
 62
7
  6
CONTINUOUS
 10
67.0429243615
 20
32.8599662444
 11
67.2200570661
 21
33.1667707915
  0
LINE
  5
296
100
AcDbEntity
  8
0
100
AcDbLine
 62
7
  6
CONTINUOUS
 10
51.0779796335
 20
26.6167160915
 11
54.7778416895
 21
28.7528196947
  0
LINE
  5
297
100
AcDbEntity
  8
0
100
AcDbLine
 62
7
  6
CONTINUOUS
 10
66.4973476341
 20
34.9474960479
 11
65.3165239853
 21
34.2657512658
  0
LINE
  5
298
100
AcDbEntity
  8
0
100
AcDbLine
 62
7
  6
CONTINUOUS
 10
51.5172004781
 20
25.7305353086
 11
57.5355696176
 21
29.2052216103
  0
LINE
  5
299
100
AcDbEntity
  8
0
100
AcDbLine
 62
7
  6
CONTINUOUS
 10
60.7910775343
 20
30.836496718
 11
64.892261683
 21
33.2043023564
  0
LINE
  5
29A
100
AcDbEntity
  8
0
100
AcDbLine
 62
7
  6
CONTINUOUS
 10
57.7759797178
 20
29.0664239142
 11
49.9978417175
 21
24.5757267852
  0
LINE
  5
29B
100
AcDbEntity
  8
0
100
AcDbLine
 62
7
  6
CONTINUOUS
 10
48.2265634145
 20
23.1488382416
 11
48.0426863247
 21
23.042677388
  0
LINE
  5
29C
100
AcDbEntity
  8
0
100
AcDbLine
 62
7
  6
CONTINUOUS
 10
47.4606612751
 20
22.3647081323
 11
47.7448613199
 21
22.5287901252
  0
LINE
  5
29D
100
AcDbEntity
  8
0
100
AcDbLine
 62
7
  6
CONTINUOUS
 10
48.0426863247
 20
22.5813789531
 11
47.8482311503
 21
22.4691108759
  0
LINE
  5
29E
100
AcDbEntity
  8
0
100
AcDbLine
 62
7
  6
CONTINUOUS
 10
48.8558625086
 20
22.5813948553
 11
48.908895738
 21
22.6120134218
  0
LINE
  5
29F
100
AcDbEntity
  8
0
100
AcDbLine
 62
7
  6
CONTINUOUS
 10
68.4008807148
 20
33.8485155735
 11
67.2200570661
 21
33.1667707915
  0
LINE
  5
2A0
100
AcDbEntity
  8
0
100
AcDbLine
 62
7
  6
CONTINUOUS
 10
62.4938454493
 20
29.853425444
 11
70.4841188099
 21
34.4665843827
  0
LINE
  5
2A1
100
AcDbEntity
  8
0
100
AcDbLine
 62
7
  6
CONTINUOUS
 10
47.4606612751
 20
20.9634289807
 11
47.3037566619
 21
20.8728406008
  0
LINE
  5
2A2
100
AcDbEntity
  8
0
100
AcDbLine
 62
7
  6
CONTINUOUS
 10
48.8558625086
 20
21.5593292417
 11
49.1399562956
 21
21.723349887
  0
LINE
  5
2A3
100
AcDbEntity
  8
0
100
AcDbLine
 62
7
  6
CONTINUOUS
 10
58.278034829
 20
26.6536473647
 11
50.4998926196
 21
22.1629616722
  0
LINE
  5
2A4
100
AcDbEntity
  8
0
100
AcDbLine
 62
7
  6
CONTINUOUS
 10
55.4711825562
 20
24.9514698811
 11
50.4998926196
 21
22.0813114305
  0
LINE
  5
2A5
100
AcDbEntity
  8
0
100
AcDbLine
 62
7
  6
CONTINUOUS
 10
55.4711825562
 20
24.7881693977
 11
50.4998926195
 21
21.9180109471
  0
LINE
  5
2A6
100
AcDbEntity
  8
0
100
AcDbLine
 62
7
  6
CONTINUOUS
 10
49.4379494836
 20
21.2232175839
 11
49.5240811989
 21
21.2729454561
  0
LINE
  5
2A7
100
AcDbEntity
  8
0
100
AcDbLine
 62
7
  6
CONTINUOUS
 10
54.6493432189
 20
22.3132374716
 11
49.7644985055
 21
19.4929878959
  0
LINE
  5
2A8
100
AcDbEntity
  8
0
100
AcDbLine
 62
7
  6
CONTINUOUS
 10
74.4524816532
 20
32.1755008581
 11
68.4420990368
 21
28.7054255502
  0
LINE
  5
2A9
100
AcDbEntity
  8
0
100
AcDbLine
 62
7
  6
CONTINUOUS
 10
75.4606939897
 20
31.5934223626
 11
75.7435355245
 21
31.7567200242
  0
LINE
  5
2AA
100
AcDbEntity
  8
0
100
AcDbLine
 62
7
  6
CONTINUOUS
 10
75.5496636835
 20
31.542056848
 11
69.5392810671
 21
28.0719815401
  0
LINE
  5
2AB
100
AcDbEntity
  8
0
100
AcDbLine
 62
7
  6
CONTINUOUS
 10
61.2479127496
 20
22.5712299614
 11
76.4506452497
 21
31.3484792697
  0
LINE
  5
2AC
100
AcDbEntity
  8
0
100
AcDbLine
 62
7
  6
CONTINUOUS
 10
50.4986052394
 20
13.8052833637
 11
53.6424006098
 21
15.6203436326
  0
LINE
  5
2AD
100
AcDbEntity
  8
0
100
AcDbLine
 62
7
  6
CONTINUOUS
 10
49.4379494836
 20
11.2239381584
 11
50.4986052394
 21
11.8363043892
  0
LINE
  5
2AE
100
AcDbEntity
  8
0
100
AcDbLine
 62
7
  6
CONTINUOUS
 10
76.1678037148
 20
18.0394926923
 11
61.2479127496
 21
9.4255410456
  0
ARC
  5
2AF
100
AcDbEntity
  8
0
100
AcDbCircle
 62
7
  6
CONTINUOUS
 10
-211.9535072371
 20
-411.900572408
 40
507.2537422878
100
AcDbArc
 50
61.0223229339
 51
61.5807818168
  0
ARC
  5
2B0
100
AcDbEntity
  8
0
100
AcDbCircle
 62
7
  6
CONTINUOUS
 10
512.6651313611
 20
-18.1166391352
 40
437.9922178658
100
AcDbArc
 50
174.8360200044
 51
175.264861534
  0
ARC
  5
2B1
100
AcDbEntity
  8
0
100
AcDbCircle
 62
7
  6
CONTINUOUS
 10
116.1855059451
 20
159.4885531207
 40
147.5279381243
100
AcDbArc
 50
245.6981000806
 51
248.1370499888
  0
ARC
  5
2B2
100
AcDbEntity
  8
0
100
AcDbCircle
 62
7
  6
CONTINUOUS
 10
108.5816466755
 20
143.2619439033
 40
129.604602553
100
AcDbArc
 50
242.6350362725
 51
242.8247250147
  0
ARC
  5
2B3
100
AcDbEntity
  8
0
100
AcDbCircle
 62
7
  6
CONTINUOUS
 10
88.9139055377
 20
187.1514162611
 40
109.0317251536
100
AcDbArc
 50
236.6371186728
 51
237.0124140861
  0
ARC
  5
2B4
100
AcDbEntity
  8
0
100
AcDbCircle
 62
7
  6
CONTINUOUS
 10
94.3568167711
 20
118.1108506009
 40
101.4946284666
100
AcDbArc
 50
234.3974802393
 51
234.9464268227
  0
ARC
  5
2B5
100
AcDbEntity
  8
0
100
AcDbCircle
 62
7
  6
CONTINUOUS
 10
-37.5985165515
 20
34.9807764167
 40
75.390202709
100
AcDbArc
 50
356.7654320502
 51
358.7045388151
  0
ARC
  5
2B6
100
AcDbEntity
  8
0
100
AcDbCircle
 62
7
  6
CONTINUOUS
 10
77.8144083662
 20
77.3718411405
 40
67.9406263085
100
AcDbArc
 50
228.292325573
 51
228.7601789868
  0
ARC
  5
2B7
100
AcDbEntity
  8
0
100
AcDbCircle
 62
7
  6
CONTINUOUS
 10
5.6672148987
 20
80.5267154755
 40
34.6439222235
100
AcDbArc
 50
47.7445900846
 51
47.8784130812
  0
ARC
  5
2B8
100
AcDbEntity
  8
0
100
AcDbCircle
 62
7
  6
CONTINUOUS
 10
10.7305470771
 20
54.50957807
 40
34.3821666261
100
AcDbArc
 50
318.8146507254
 51
321.8610519745
  0
ARC
  5
2B9
100
AcDbEntity
  8
0
100
AcDbCircle
 62
7
  6
CONTINUOUS
 10
15.1915726945
 20
97.0237297358
 40
15.4151657774
100
AcDbArc
 50
75.9409058761
 51
76.1705119331
  0
ARC
  5
2BA
100
AcDbEntity
  8
0
100
AcDbCircle
 62
7
  6
CONTINUOUS
 10
33.3518668315
 20
37.0762010883
 40
7.7463578218
100
AcDbArc
 50
240.9103426123
 51
247.9404037604
  0
ARC
  5
2BB
100
AcDbEntity
  8
0
100
AcDbCircle
 62
7
  6
CONTINUOUS
 10
44.7843651385
 20
22.9178370456
 40
7.316195145
100
AcDbArc
 50
20.7901766345
 51
22.5599652836
  0
ARC
  5
2BC
100
AcDbEntity
  8
0
100
AcDbCircle
 62
7
  6
CONTINUOUS
 10
33.1462703614
 20
36.696105854
 40
7.3142531931
100
AcDbArc
 50
233.5620204769
 51
240.8701470626
  0
ARC
  5
2BD
100
AcDbEntity
  8
0
100
AcDbCircle
 62
7
  6
CONTINUOUS
 10
43.8780577027
 20
21.9175284949
 40
6.6218349345
100
AcDbArc
 50
359.2605955966
 51
0.0041744429
  0
ARC
  5
2BE
100
AcDbEntity
  8
0
100
AcDbCircle
 62
7
  6
CONTINUOUS
 10
50.5358353662
 20
24.4491057159
 40
4.2793801085
100
AcDbArc
 50
178.9067346158
 51
181.0932653842
  0
ARC
  5
2BF
100
AcDbEntity
  8
0
100
AcDbCircle
 62
7
  6
CONTINUOUS
 10
46.2389916612
 20
21.9996611887
 40
4.261683205
100
AcDbArc
 50
358.9021942091
 51
1.0978057909
  0
ARC
  5
2C0
100
AcDbEntity
  8
0
100
AcDbCircle
 62
7
  6
CONTINUOUS
 10
51.6155187496
 20
24.8716044876
 40
3.8565664527
100
AcDbArc
 50
358.760334724
 51
1.1861069862
  0
SPLINE
  5
2C1
100
AcDbEntity
  8
0
100
AcDbSpline
 62
7
  6
CONTINUOUS
 70
0
 71
3
 72
11
 73
7
 74
0
 42
0.0000001
 43
0.0000001
 44
0.0000000001
 40
0.0
 40
0.0
 40
0.0
 40
0.0
 40
0.291232199
 40
0.5478189992
 40
0.7795970054
 40
1.0
 40
1.0
 40
1.0
 40
1.0
 10
50.0049022698
 20
27.7559556416
 30
0.0
 10
49.9014009874
 20
27.815710783
 30
0.0
 10
49.6948841671
 20
27.9100203118
 30
0.0
 10
49.3762140149
 20
27.9675139611
 30
0.0
 10
49.0830619139
 20
27.9354364427
 30
0.0
 10
48.9094824494
 20
27.862699437
 30
0.0
 10
48.8311535665
 20
27.817476467
 30
0.0
  0
SPLINE
  5
2C2
100
AcDbEntity
  8
0
100
AcDbSpline
 62
7
  6
CONTINUOUS
 70
0
 71
3
 72
11
 73
7
 74
0
 42
0.0000001
 43
0.0000001
 44
0.0000000001
 40
0.0
 40
0.0
 40
0.0
 40
0.0
 40
0.2590369363
 40
0.519187898
 40
0.7710731713
 40
1.0
 40
1.0
 40
1.0
 40
1.0
 10
51.5407141541
 20
25.7246963899
 30
0.0
 10
51.4550389652
 20
25.9307922606
 30
0.0
 10
51.2636171488
 20
26.3360622214
 30
0.0
 10
50.9135273873
 20
26.9028737465
 30
0.0
 10
50.5024669715
 20
27.3944452453
 30
0.0
 10
50.1757272597
 20
27.6573320188
 30
0.0
 10
50.0049022698
 20
27.7559556416
 30
0.0
  0
SPLINE
  5
2C3
100
AcDbEntity
  8
0
100
AcDbSpline
 62
7
  6
CONTINUOUS
 70
0
 71
3
 72
11
 73
7
 74
0
 42
0.0000001
 43
0.0000001
 44
0.0000000001
 40
0.0
 40
0.0
 40
0.0
 40
0.0
 40
0.274038359
 40
0.5324098813
 40
0.7743675293
 40
1.0
 40
1.0
 40
1.0
 40
1.0
 10
46.2572342687
 20
24.6124061993
 30
0.0
 10
46.264155452
 20
24.7878616333
 30
0.0
 10
46.2943065519
 20
25.1283535079
 30
0.0
 10
46.389787449
 20
25.6163122453
 30
0.0
 10
46.5365967212
 20
26.0592935939
 30
0.0
 10
46.6782893873
 20
26.3257024436
 30
0.0
 10
46.7592821736
 20
26.4454615481
 30
0.0
  0
SPLINE
  5
2C4
100
AcDbEntity
  8
0
100
AcDbSpline
 62
7
  6
CONTINUOUS
 70
0
 71
3
 72
9
 73
5
 74
0
 42
0.0000001
 43
0.0000001
 44
0.0000000001
 40
0.0
 40
0.0
 40
0.0
 40
0.0
 40
0.5006170384
 40
1.0
 40
1.0
 40
1.0
 40
1.0
 10
46.2572342687
 20
24.5307559576
 30
0.0
 10
46.2571505469
 20
24.5443809002
 30
0.0
 10
46.2573662323
 20
24.5715927068
 30
0.0
 10
46.2566985376
 20
24.5988251494
 30
0.0
 10
46.2572342687
 20
24.6124061993
 30
0.0
  0
SPLINE
  5
2C5
100
AcDbEntity
  8
0
100
AcDbSpline
 62
7
  6
CONTINUOUS
 70
0
 71
3
 72
11
 73
7
 74
0
 42
0.0000001
 43
0.0000001
 44
0.0000000001
 40
0.0
 40
0.0
 40
0.0
 40
0.0
 40
0.2682520828
 40
0.5258602478
 40
0.7702465784
 40
1.0
 40
1.0
 40
1.0
 40
1.0
 10
47.0633393554
 20
21.0116424574
 30
0.0
 10
46.9209257429
 20
21.2883220973
 30
0.0
 10
46.6818692706
 20
21.8519772307
 30
0.0
 10
46.4344882143
 20
22.7123866322
 30
0.0
 10
46.290277285
 20
23.5505061628
 30
0.0
 10
46.2568244849
 20
24.1009349561
 30
0.0
 10
46.2572342687
 20
24.3674554741
 30
0.0
  0
SPLINE
  5
2C6
100
AcDbEntity
  8
0
100
AcDbSpline
 62
7
  6
CONTINUOUS
 70
0
 71
3
 72
11
 73
7
 74
0
 42
0.0000001
 43
0.0000001
 44
0.0000000001
 40
0.0
 40
0.0
 40
0.0
 40
0.0
 40
0.2349257391
 40
0.4805464934
 40
0.7358498598
 40
1.0
 40
1.0
 40
1.0
 40
1.0
 10
58.278034829
 20
26.6536473647
 30
0.0
 10
58.2707297913
 20
26.8472686382
 30
0.0
 10
58.2372365011
 20
27.2427475561
 30
0.0
 10
58.1391790594
 20
27.8422274553
 30
0.0
 10
57.9892664297
 20
28.455849022
 30
0.0
 10
57.8533241415
 20
28.8627530302
 30
0.0
 10
57.7759795873
 20
29.0664239049
 30
0.0
  0
SPLINE
  5
2C7
100
AcDbEntity
  8
0
100
AcDbSpline
 62
7
  6
CONTINUOUS
 70
0
 71
3
 72
11
 73
7
 74
0
 42
0.0000001
 43
0.0000001
 44
0.0000000001
 40
0.0
 40
0.0
 40
0.0
 40
0.0
 40
0.2750530468
 40
0.5343643817
 40
0.7762147317
 40
1.0
 40
1.0
 40
1.0
 40
1.0
 10
21.3263380689
 20
87.0728182272
 30
0.0
 10
20.5285764346
 20
87.7975903884
 30
0.0
 10
18.9120742247
 20
89.1349608099
 30
0.0
 10
16.3719929234
 20
90.8197206417
 30
0.0
 10
13.8273729324
 20
92.0988759484
 30
0.0
 10
12.091098631
 20
92.6866602605
 30
0.0
 10
11.2395881761
 20
92.8962742478
 30
0.0
  0
SPLINE
  5
2C8
100
AcDbEntity
  8
0
100
AcDbSpline
 62
7
  6
CONTINUOUS
 70
0
 71
3
 72
11
 73
7
 74
0
 42
0.0000001
 43
0.0000001
 44
0.0000000001
 40
0.0
 40
0.0
 40
0.0
 40
0.0
 40
0.2190545269
 40
0.459496311
 40
0.7206571488
 40
1.0
 40
1.0
 40
1.0
 40
1.0
 10
23.2269970881
 20
85.2671601857
 30
0.0
 10
22.5111286869
 20
85.3960206992
 30
0.0
 10
21.0368459751
 20
85.8292815281
 30
0.0
 10
18.8803943795
 20
86.8864091885
 30
0.0
 10
16.730313598
 20
88.3492654353
 30
0.0
 10
15.3771629067
 20
89.5352363459
 30
0.0
 10
14.7129183229
 20
90.1826546494
 30
0.0
  0
SPLINE
  5
2C9
100
AcDbEntity
  8
0
100
AcDbSpline
 62
7
  6
CONTINUOUS
 70
0
 71
3
 72
12
 73
8
 74
0
 42
0.0000001
 43
0.0000001
 44
0.0000000001
 40
0.0
 40
0.0
 40
0.0
 40
0.0
 40
0.2780172787
 40
0.5366062931
 40
0.6588512335
 40
0.7766411857
 40
1.0
 40
1.0
 40
1.0
 40
1.0
 10
17.2481355153
 20
62.9274863044
 30
0.0
 10
17.2481355153
 20
61.1445365838
 30
0.0
 10
17.4356471446
 20
57.6990951045
 30
0.0
 10
18.2104708592
 20
53.5303744503
 30
0.0
 10
19.152971319
 20
50.4710582616
 30
0.0
 10
20.2562555319
 20
47.7096779969
 30
0.0
 10
21.3316352478
 20
45.7851257985
 30
0.0
 10
22.1553541809
 20
44.6132408066
 30
0.0
  0
SPLINE
  5
2CA
100
AcDbEntity
  8
0
100
AcDbSpline
 62
7
  6
CONTINUOUS
 70
0
 71
3
 72
12
 73
8
 74
0
 42
0.0000001
 43
0.0000001
 44
0.0000000001
 40
0.0
 40
0.0
 40
0.0
 40
0.0
 40
0.2780172787
 40
0.5366062931
 40
0.6588512335
 40
0.7766411857
 40
1.0
 40
1.0
 40
1.0
 40
1.0
 10
24.2838560839
 20
61.8048364671
 30
0.0
 10
24.2838560839
 20
60.1457983101
 30
0.0
 10
24.458336017
 20
56.9398083622
 30
0.0
 10
25.1793109793
 20
53.0608057457
 30
0.0
 10
26.0563094766
 20
50.2141061262
 30
0.0
 10
27.0829175666
 20
47.644636459
 30
0.0
 10
28.0835604682
 20
45.853836923
 30
0.0
 10
28.8500325257
 20
44.7633956757
 30
0.0
  0
SPLINE
  5
2CB
100
AcDbEntity
  8
0
100
AcDbSpline
 62
7
  6
CONTINUOUS
 70
0
 71
3
 72
14
 73
10
 74
0
 42
0.0000001
 43
0.0000001
 44
0.0000000001
 40
0.0
 40
0.0
 40
0.0
 40
0.0
 40
0.2768152378
 40
0.4081586525
 40
0.5343779138
 40
0.6557359084
 40
0.7729555927
 40
0.8871953667
 40
1.0
 40
1.0
 40
1.0
 40
1.0
 10
28.0837255712
 20
36.1021391815
 30
0.0
 10
27.8658547653
 20
35.6726097179
 30
0.0
 10
27.6124257055
 20
34.9991488654
 30
0.0
 10
27.4621127773
 20
34.0793592434
 30
0.0
 10
27.4479429594
 20
33.4177499712
 30
0.0
 10
27.5318358221
 20
32.7859410105
 30
0.0
 10
27.712488371
 20
32.1960838149
 30
0.0
 10
27.9870883825
 20
31.6602559686
 30
0.0
 10
28.2302854848
 20
31.3455685166
 30
0.0
 10
28.3641956663
 20
31.2020810056
 30
0.0
  0
SPLINE
  5
2CC
100
AcDbEntity
  8
0
100
AcDbSpline
 62
7
  6
CONTINUOUS
 70
0
 71
3
 72
11
 73
7
 74
0
 42
0.0000001
 43
0.0000001
 44
0.0000000001
 40
0.0
 40
0.0
 40
0.0
 40
0.0
 40
0.2204029946
 40
0.4521810009
 40
0.708767801
 40
1.0
 40
1.0
 40
1.0
 40
1.0
 10
47.2048147431
 20
26.8785149144
 30
0.0
 10
47.2831436259
 20
26.923737884
 30
0.0
 10
47.4567230902
 20
26.9964748893
 30
0.0
 10
47.7498751906
 20
27.028552407
 30
0.0
 10
48.0685453422
 20
26.9710587576
 30
0.0
 10
48.275062162
 20
26.876749229
 30
0.0
 10
48.3785634442
 20
26.8169940877
 30
0.0
  0
SPLINE
  5
2CD
100
AcDbEntity
  8
0
100
AcDbSpline
 62
7
  6
CONTINUOUS
 70
0
 71
3
 72
12
 73
8
 74
0
 42
0.0000001
 43
0.0000001
 44
0.0000000001
 40
0.0
 40
0.0
 40
0.0
 40
0.0
 40
0.2809231716
 40
0.541716877
 40
0.6642594146
 40
0.7814157123
 40
1.0
 40
1.0
 40
1.0
 40
1.0
 10
50.4993412443
 20
21.8320758132
 30
0.0
 10
50.4963052364
 20
21.5973282114
 30
0.0
 10
50.4662232385
 20
21.1444649981
 30
0.0
 10
50.3570850462
 20
20.5979124306
 30
0.0
 10
50.2218552308
 20
20.2012653162
 30
0.0
 10
50.0616797704
 20
19.8533777017
 30
0.0
 10
49.89671989
 20
19.6190279096
 30
0.0
 10
49.7644985055
 20
19.4929878959
 30
0.0
  0
SPLINE
  5
2CE
100
AcDbEntity
  8
0
100
AcDbSpline
 62
7
  6
CONTINUOUS
 70
0
 71
3
 72
9
 73
5
 74
0
 42
0.0000001
 43
0.0000001
 44
0.0000000001
 40
0.0
 40
0.0
 40
0.0
 40
0.0
 40
0.5006435727
 40
1.0
 40
1.0
 40
1.0
 40
1.0
 10
50.4998926196
 20
22.1629616722
 30
0.0
 10
50.5004063395
 20
22.1493454376
 30
0.0
 10
50.4997725129
 20
22.1221143339
 30
0.0
 10
50.4999767073
 20
22.0949020604
 30
0.0
 10
50.4998926196
 20
22.0813114304
 30
0.0
  0
SPLINE
  5
2CF
100
AcDbEntity
  8
0
100
AcDbSpline
 62
7
  6
CONTINUOUS
 70
0
 71
3
 72
11
 73
7
 74
0
 42
0.0000001
 43
0.0000001
 44
0.0000000001
 40
0.0
 40
0.0
 40
0.0
 40
0.0
 40
0.2641500826
 40
0.5194534014
 40
0.7650741757
 40
1.0
 40
1.0
 40
1.0
 40
1.0
 10
49.9978447148
 20
24.5757188924
 30
0.0
 10
50.0751880792
 20
24.3720495616
 30
0.0
 10
50.2111282904
 20
23.9651487355
 30
0.0
 10
50.3610386645
 20
23.351532129
 30
0.0
 10
50.4590947707
 20
22.7520571089
 30
0.0
 10
50.4925876403
 20
22.3565813999
 30
0.0
 10
50.4998926196
 20
22.1629616722
 30
0.0
  0
SPLINE
  5
2D0
100
AcDbEntity
  8
0
100
AcDbSpline
 62
7
  6
CONTINUOUS
 70
0
 71
3
 72
12
 73
8
 74
0
 42
0.0000001
 43
0.0000001
 44
0.0000000001
 40
0.0
 40
0.0
 40
0.0
 40
0.0
 40
0.1109691754
 40
0.2300458375
 40
0.4830475077
 40
0.7429311723
 40
1.0
 40
1.0
 40
1.0
 40
1.0
 10
48.3785634442
 20
26.8169940877
 30
0.0
 10
48.468632557
 20
26.7649938375
 30
0.0
 10
48.646480262
 20
26.641492173
 30
0.0
 10
48.9826572436
 20
26.3369569801
 30
0.0
 10
49.3546170474
 20
25.8712679837
 30
0.0
 10
49.7181927057
 20
25.2460388998
 30
0.0
 10
49.9123115694
 20
24.8009544842
 30
0.0
 10
49.9978447148
 20
24.5757188924
 30
0.0
  0
SPLINE
  5
2D1
100
AcDbEntity
  8
0
100
AcDbSpline
 62
7
  6
CONTINUOUS
 70
0
 71
3
 72
11
 73
7
 74
0
 42
0.0000001
 43
0.0000001
 44
0.0000000001
 40
0.0
 40
0.0
 40
0.0
 40
0.0
 40
0.2237852683
 40
0.4656356183
 40
0.7249469532
 40
1.0
 40
1.0
 40
1.0
 40
1.0
 10
11.2395881761
 20
107.5829943726
 30
0.0
 10
12.091098631
 20
107.3733803853
 30
0.0
 10
13.8273729324
 20
106.7855960732
 30
0.0
 10
16.3719929234
 20
105.5064407665
 30
0.0
 10
18.9120742247
 20
103.8216809347
 30
0.0
 10
20.5285764346
 20
102.4843105132
 30
0.0
 10
21.3263380689
 20
101.759538352
 30
0.0
  0
SPLINE
  5
2D2
100
AcDbEntity
  8
0
100
AcDbSpline
 62
7
  6
CONTINUOUS
 70
0
 71
3
 72
11
 73
7
 74
0
 42
0.0000001
 43
0.0000001
 44
0.0000000001
 40
0.0
 40
0.0
 40
0.0
 40
0.0
 40
0.2745346481
 40
0.5324307849
 40
0.7735766207
 40
1.0
 40
1.0
 40
1.0
 40
1.0
 10
55.4711825563
 20
24.7881693976
 30
0.0
 10
55.4711950914
 20
24.5435589396
 30
0.0
 10
55.4422584699
 20
24.0684220708
 30
0.0
 10
55.2998308368
 20
23.3909229042
 30
0.0
 10
55.0528774509
 20
22.7892178536
 30
0.0
 10
54.7981843701
 20
22.4494236377
 30
0.0
 10
54.6493432189
 20
22.3132374716
 30
0.0
  0
SPLINE
  5
2D3
100
AcDbEntity
  8
0
100
AcDbSpline
 62
7
  6
CONTINUOUS
 70
0
 71
3
 72
9
 73
5
 74
0
 42
0.0000001
 43
0.0000001
 44
0.0000000001
 40
0.0
 40
0.0
 40
0.0
 40
0.0
 40
0.4999659722
 40
1.0
 40
1.0
 40
1.0
 40
1.0
 10
55.4713351722
 20
25.0330511378
 30
0.0
 10
55.4719118323
 20
25.0194616619
 30
0.0
 10
55.4709439739
 20
24.9922382533
 30
0.0
 10
55.4713532356
 20
24.9650386181
 30
0.0
 10
55.4712588642
 20
24.9514353885
 30
0.0
  0
SPLINE
  5
2D4
100
AcDbEntity
  8
0
100
AcDbSpline
 62
7
  6
CONTINUOUS
 70
0
 71
3
 72
9
 73
5
 74
0
 42
0.0000001
 43
0.0000001
 44
0.0000000001
 40
0.0
 40
0.0
 40
0.0
 40
0.0
 40
0.51528835
 40
1.0
 40
1.0
 40
1.0
 40
1.0
 10
50.6750047611
 20
29.314180897
 30
0.0
 10
47.213739635
 20
31.1083462813
 30
0.0
 10
40.6519483579
 20
34.902118138
 30
0.0
 10
34.5259664275
 20
39.3746113961
 30
0.0
 10
31.7046179236
 20
41.7174865913
 30
0.0
  0
SPLINE
  5
2D5
100
AcDbEntity
  8
0
100
AcDbSpline
 62
7
  6
CONTINUOUS
 70
0
 71
3
 72
12
 73
8
 74
0
 42
0.0000001
 43
0.0000001
 44
0.0000000001
 40
0.0
 40
0.0
 40
0.0
 40
0.0
 40
0.2233588143
 40
0.3411487665
 40
0.4633937069
 40
0.7219827213
 40
1.0
 40
1.0
 40
1.0
 40
1.0
 10
26.6455009356
 20
42.0209120154
 30
0.0
 10
25.8217820024
 20
43.1927970073
 30
0.0
 10
24.7464022866
 20
45.1173492057
 30
0.0
 10
23.6431180737
 20
47.8787294704
 30
0.0
 10
22.7006176139
 20
50.9380456591
 30
0.0
 10
21.9257938993
 20
55.1067663132
 30
0.0
 10
21.73828227
 20
58.5522077926
 30
0.0
 10
21.73828227
 20
60.3351575132
 30
0.0
  0
SPLINE
  5
2D6
100
AcDbEntity
  8
0
100
AcDbSpline
 62
7
  6
CONTINUOUS
 70
0
 71
3
 72
9
 73
5
 74
0
 42
0.0000001
 43
0.0000001
 44
0.0000000001
 40
0.0
 40
0.0
 40
0.0
 40
0.0
 40
0.5090809997
 40
1.0
 40
1.0
 40
1.0
 40
1.0
 10
48.3628996341
 20
27.5457185391
 30
0.0
 10
46.2015515836
 20
28.6864663042
 30
0.0
 10
42.0193981053
 20
31.0501062974
 30
0.0
 10
37.9934219662
 20
33.6722066339
 30
0.0
 10
36.0641771073
 20
35.0257871503
 30
0.0
  0
SPLINE
  5
2D7
100
AcDbEntity
  8
0
100
AcDbSpline
 62
7
  6
CONTINUOUS
 70
0
 71
3
 72
9
 73
5
 74
0
 42
0.0000001
 43
0.0000001
 44
0.0000000001
 40
0.0
 40
0.0
 40
0.0
 40
0.0
 40
0.484761973
 40
1.0
 40
1.0
 40
1.0
 40
1.0
 10
31.5733617575
 20
41.5734590818
 30
0.0
 10
34.3876443528
 20
39.2364514856
 30
0.0
 10
40.4964957312
 20
34.7742646972
 30
0.0
 10
47.038938487
 20
30.986681095
 30
0.0
 10
50.4895848471
 20
29.1949512482
 30
0.0
  0
LINE
  5
2D8
100
AcDbEntity
  8
0
100
AcDbLine
 62
7
  6
CONTINUOUS
 10
33.7951157435
 20
31.8493280506
 11
35.8909281608
 21
34.7464838472
  0
SPLINE
  5
2D9
100
AcDbEntity
  8
0
100
AcDbSpline
 62
7
  6
CONTINUOUS
 70
0
 71
3
 72
13
 73
9
 74
0
 42
0.0000001
 43
0.0000001
 44
0.0000000001
 40
0.0
 40
0.0
 40
0.0
 40
0.0
 40
0.2695637038
 40
0.5311347246
 40
0.6561225075
 40
0.77594248
 40
0.8904707066
 40
1.0
 40
1.0
 40
1.0
 40
1.0
 10
36.605967181
 20
31.8690446769
 30
0.0
 10
36.1997262126
 20
31.4053832113
 30
0.0
 10
35.275353225
 20
30.5933327638
 30
0.0
 10
33.9104629192
 20
29.9223056536
 30
0.0
 10
32.7806541361
 20
29.6505943201
 30
0.0
 10
31.9576071971
 20
29.5857911802
 30
0.0
 10
31.1706848793
 20
29.6594447378
 30
0.0
 10
30.674668662
 20
29.8027790409
 30
0.0
 10
30.4425588974
 20
29.8969276869
 30
0.0
  0
SPLINE
  5
2DA
100
AcDbEntity
  8
0
100
AcDbSpline
 62
7
  6
CONTINUOUS
 70
0
 71
3
 72
9
 73
5
 74
0
 42
0.0000001
 43
0.0000001
 44
0.0000000001
 40
0.0
 40
0.0
 40
0.0
 40
0.0
 40
0.2554695946
 40
1.0
 40
1.0
 40
1.0
 40
1.0
 10
47.87762098
 20
27.2661961269
 30
0.0
 10
46.9928606102
 20
27.7353597314
 30
0.0
 10
43.5514977224
 20
29.6126773541
 30
0.0
 10
40.2000772007
 20
31.6562452199
 30
0.0
 10
37.7724166791
 20
33.2763444137
 30
0.0
  0
SPLINE
  5
2DB
100
AcDbEntity
  8
0
100
AcDbSpline
 62
7
  6
CONTINUOUS
 70
0
 71
3
 72
9
 73
5
 74
0
 42
0.0000001
 43
0.0000001
 44
0.0000000001
 40
0.0
 40
0.0
 40
0.0
 40
0.0
 40
0.2403400332
 40
1.0
 40
1.0
 40
1.0
 40
1.0
 10
33.7715221754
 20
25.8208577672
 30
0.0
 10
33.7088956098
 20
25.8526897538
 30
0.0
 10
33.4512829759
 20
25.9909332137
 30
0.0
 10
33.2059786402
 20
26.1517136952
 30
0.0
 10
33.0271768104
 20
26.2833819515
 30
0.0
  0
SPLINE
  5
2DC
100
AcDbEntity
  8
0
100
AcDbSpline
 62
7
  6
CONTINUOUS
 70
0
 71
3
 72
9
 73
5
 74
0
 42
0.0000001
 43
0.0000001
 44
0.0000000001
 40
0.0
 40
0.0
 40
0.0
 40
0.0
 40
0.2406900647
 40
1.0
 40
1.0
 40
1.0
 40
1.0
 10
34.5241211981
 20
25.5224924644
 30
0.0
 10
34.4616039408
 20
25.5403223046
 30
0.0
 10
34.2037660428
 20
25.6210037906
 30
0.0
 10
33.9543493353
 20
25.7279299236
 30
0.0
 10
33.7715221754
 20
25.8208577672
 30
0.0
  0
SPLINE
  5
2DD
100
AcDbEntity
  8
0
100
AcDbSpline
 62
7
  6
CONTINUOUS
 70
0
 71
3
 72
19
 73
15
 74
0
 42
0.0000001
 43
0.0000001
 44
0.0000000001
 40
0.0
 40
0.0
 40
0.0
 40
0.0
 40
0.152233066
 40
0.2967551742
 40
0.4329778747
 40
0.5601833625
 40
0.6202409256
 40
0.6778625117
 40
0.7331159812
 40
0.7862659606
 40
0.8379312585
 40
0.8893137811
 40
0.9424138559
 40
1.0
 40
1.0
 40
1.0
 40
1.0
 10
37.6715821086
 20
30.7269664407
 30
0.0
 10
37.6519906324
 20
30.3808583464
 30
0.0
 10
37.5910017086
 20
29.7071595124
 30
0.0
 10
37.4257190625
 20
28.7339610349
 30
0.0
 10
37.1861151351
 20
27.8349252352
 30
0.0
 10
36.9150013509
 20
27.1472547947
 30
0.0
 10
36.6501513722
 20
26.6557930704
 30
0.0
 10
36.4314118649
 20
26.327501341
 30
0.0
 10
36.1869504961
 20
26.0378199517
 30
0.0
 10
35.9143610474
 20
25.7936533125
 30
0.0
 10
35.6107539817
 20
25.6042508368
 30
0.0
 10
35.2732969182
 20
25.4825021136
 30
0.0
 10
34.9021760308
 20
25.4453441201
 30
0.0
 10
34.6502268718
 20
25.4865272906
 30
0.0
 10
34.524121198
 20
25.5224924643
 30
0.0
  0
ELLIPSE
  5
2DE
100
AcDbEntity
  8
0
100
AcDbEllipse
 62
7
  6
CONTINUOUS
 10
119.0082300176
 20
143.6739679759
 30
0.0
 11
367.2568139563
 21
191.4147693188
 31
0.0
 40
0.045243827
 41
1.8177482598
 42
1.8231156461
  0
ELLIPSE
  5
2DF
100
AcDbEntity
  8
0
100
AcDbEllipse
 62
7
  6
CONTINUOUS
 10
119.0082300174
 20
128.987247851
 30
0.0
 11
330.6314086864
 21
212.6176998708
 31
0.0
 40
0.0452178308
 41
1.8155881113
 42
1.8174341862
  0
ELLIPSE
  5
2E0
100
AcDbEntity
  8
0
100
AcDbEllipse
 62
7
  6
CONTINUOUS
 10
119.0082300173
 20
143.6739679757
 30
0.0
 11
330.6314086864
 21
212.6176998708
 31
0.0
 40
0.0452178308
 41
1.8155881113
 42
1.8175712218
  0
ENDSEC
  0
SECTION
  2
OBJECTS
  0
DICTIONARY
  5
C
100
AcDbDictionary
280
0
281
1
  3
ACAD_GROUP
350
D
  3
ACAD_MLINESTYLE
350
17
  3
ACAD_LAYOUT
350
1A
  3
ACAD_PLOTSETTINGS
350
19
  3
ACAD_PLOTSTYLENAME
350
E
  0
DICTIONARY
  5
D
102
{ACAD_REACTORS
330
C
102
}
100
AcDbDictionary
280
0
281
1
  0
ACDBDICTIONARYWDFLT
  5
E
102
{ACAD_REACTORS
330
C
102
}
100
AcDbDictionary
281
1
  3
Normal
350
F
100
AcDbDictionaryWithDefault
340
F
  0
DICTIONARY
  5
17
102
{ACAD_REACTORS
330
C
102
}
100
AcDbDictionary
280
0
281
1
  3
Standard
350
18
  0
DICTIONARY
  5
19
102
{ACAD_REACTORS
330
C
102
}
100
AcDbDictionary
281
1
  0
DICTIONARY
  5
1A
102
{ACAD_REACTORS
330
C
102
}
100
AcDbDictionary
281
1
  3
Model
350
2E1
  3
Layout1
350
2E2
  0
ACDBPLACEHOLDER
  5
F
102
{ACAD_REACTORS
330
E
102
}
  0
MLINESTYLE
  5
18
102
{ACAD_REACTORS
330
17
102
}
100
AcDbMlineStyle
  2
STANDARD
 70
0
  3

 62
256
 51
90.0
 52
90.0
 71
2
 49
0.5
 62
256
  6
BYLAYER
 49
-0.5
 62
256
  6
BYLAYER
  0
LAYOUT
  5
2E1
102
{ACAD_REACTORS
330
1A
102
}
100
AcDbPlotSettings
  1

  2
none_device
  4

  6

 40
0.0
 41
0.0
 42
0.0
 43
0.0
 44
210.0
 45
297.0
 46
0.0
 47
0.0
 48
0.0
 49
0.0
140
0.0
141
0.0
142
1.0
143
1.0
 70
1024
 72
1
 73
0
 74
0
  7

 75
0
147
1.0
148
0.0
149
0.0
100
AcDbLayout
  1
Model
 70
0
 71
0
 10
0.0
 20
0.0
 11
210.0
 21
297.0
 12
0.0
 22
0.0
 32
0.0
 14
0.0
 24
0.0
 34
0.0
 15
0.0
 25
0.0
 35
0.0
146
0.0
 13
0.0
 23
0.0
 33
0.0
 16
1.0
 26
0.0
 36
0.0
 17
0.0
 27
1.0
 37
0.0
 76
0
330
210
345
0
346
0
  0
LAYOUT
  5
2E2
102
{ACAD_REACTORS
330
1A
102
}
100
AcDbPlotSettings
  1

  2
none_device
  4

  6

 40
0.0
 41
0.0
 42
0.0
 43
0.0
 44
210.0
 45
297.0
 46
0.0
 47
0.0
 48
0.0
 49
0.0
140
0.0
141
0.0
142
1.0
143
1.0
 70
0
 72
1
 73
0
 74
0
  7

 75
0
147
1.0
148
0.0
149
0.0
100
AcDbLayout
  1
Layout1
 70
0
 71
1
 10
0.0
 20
0.0
 11
210.0
 21
297.0
 12
0.0
 22
0.0
 32
0.0
 14
0.0
 24
0.0
 34
0.0
 15
0.0
 25
0.0
 35
0.0
146
0.0
 13
0.0
 23
0.0
 33
0.0
 16
1.0
 26
0.0
 36
0.0
 17
0.0
 27
1.0
 37
0.0
 76
0
330
211
345
0
346
0
  0
ENDSEC
  0
EOF
