999
DXF file: C:\Users\sesa63760\Dev\_Creo\CAD\MCADID0005215_3D-CAD\drw0001_4.dxf
999
Pro/ENGINEER 2019471 by Parametric Technology Corporation
  0
SECTION
  2
HEADER
  9
$ACADVER
  1
AC1024
  9
$DWGCODEPAGE
  3
ANSI_1252
  9
$EXTMAX
 10
64.7410969967
 20
91.5624086096
 30
0.0
  9
$EXTMIN
 10
0.0
 20
0.0
 30
0.0
  9
$LIMMIN
 10
0.0
 20
0.0
  9
$LIMMAX
 10
64.7410969967
 20
91.5624086096
  9
$VIEWCTR
 10
32.3705484983
 20
45.7812043048
  9
$VIEWSIZE
 40
91.5624086096
  9
$CLAYER
  8
0
  9
$LTSCALE
 40
5.9685125612
  9
$CELTYPE
  6
BYLAYER
  9
$DIMSCALE
 40
1.0
  9
$DIMASZ
 40
0.7707273452
  9
$DIMEXO
 40
1.0
  9
$DIMDLI
 40
4.1236995878
  9
$DIMEXE
 40
1.0
  9
$DIMCEN
 40
0.9766656918
  9
$DIMLFAC
 40
1.0
  9
$DIMBLK
  1
_FILLED
  9
$DIMALT
 70
0
  9
$DIMALTF
 40
0.0393700787
  9
$DIMTXT
 40
1.0790182833
  9
$DIMTOL
 70
1
  9
$DIMLIM
 70
0
  9
$DIMTFAC
 40
1.0
  9
$DIMTP
 40
0.01
  9
$DIMTM
 40
0.01
  9
$DIMGAP
 40
0.625
  9
$DIMDSEP
 70
46
  9
$AUNITS
 70
0
  9
$PDMODE
 70
3
  9
$PDSIZE
 40
0.3125
  9
$HANDSEED
  5
24D
  9
$TILEMODE
 70
1
  9
$MEASUREMENT
 70
1
  9
$INSUNITS
 70
4
  0
ENDSEC
  0
SECTION
  2
CLASSES
  0
CLASS
  1
ACDBDICTIONARYWDFLT
  2
AcDbDictionaryWithDefault
  3
AutoCAD 2000
 90
0
 91
1
280
0
281
0
  0
CLASS
  1
ACDBPLACEHOLDER
  2
AcDbPlaceHolder
  3
AutoCAD 2000
 90
0
 91
1
280
0
281
0
  0
CLASS
  1
LAYOUT
  2
AcDbLayout
  3
AutoCAD 2000
 90
0
 91
0
280
0
281
0
  0
ENDSEC
  0
SECTION
  2
TABLES
  0
TABLE
  2
VPORT
  5
8
100
AcDbSymbolTable
 70
2
  0
VPORT
  5
1F4
100
AcDbSymbolTableRecord
100
AcDbViewportTableRecord
  2
*ACTIVE
 70
0
 10
0.0
 20
0.0
 11
1.0
 21
1.0
 12
32.3705484983
 22
45.7812043048
 13
0.0
 23
0.0
 14
1.0
 24
1.0
 15
0.0
 25
0.0
 16
0.0
 26
0.0
 36
1.0
 17
0.0
 27
0.0
 37
0.0
 40
91.5624086096
 41
0.7070707071
 42
50.0
 43
0.0
 44
0.0
 50
0.0
 51
0.0
 71
0
 72
100
 73
1
 74
1
 75
0
 76
0
 77
0
 78
0
  0
ENDTAB
  0
TABLE
  2
LTYPE
  5
5
100
AcDbSymbolTable
 70
6
  0
LTYPE
  5
14
100
AcDbSymbolTableRecord
100
AcDbLinetypeTableRecord
  2
BYBLOCK
 70
0
  3

 72
65
 73
0
 40
0.0
  0
LTYPE
  5
15
100
AcDbSymbolTableRecord
100
AcDbLinetypeTableRecord
  2
BYLAYER
 70
0
  3

 72
65
 73
0
 40
0.0
  0
LTYPE
  5
16
100
AcDbSymbolTableRecord
100
AcDbLinetypeTableRecord
  2
CONTINUOUS
 70
64
  3
Solid line
 72
65
 73
0
 40
0.0
  0
LTYPE
  5
1F5
100
AcDbSymbolTableRecord
100
AcDbLinetypeTableRecord
  2
CENTER
 70
64
  3
____ _ ____ _ ____ _ ____ _ ____ _ ____ _ ____
 72
65
 73
4
 40
0.6
 49
0.375
 74
0
 49
-0.075
 74
0
 49
0.075
 74
0
 49
-0.075
 74
0
  0
LTYPE
  5
1F6
100
AcDbSymbolTableRecord
100
AcDbLinetypeTableRecord
  2
HIDDEN
 70
64
  3
- - - - - - - - - - - - - - - - - - - -
 72
65
 73
2
 40
0.2
 49
0.1
 74
0
 49
-0.1
 74
0
  0
LTYPE
  5
1F7
100
AcDbSymbolTableRecord
100
AcDbLinetypeTableRecord
  2
PHANTOM
 70
64
  3
_____ _ _ _____ _ _ _____ _ _ _____
 72
65
 73
6
 40
0.8
 49
0.45
 74
0
 49
-0.05
 74
0
 49
0.1
 74
0
 49
-0.05
 74
0
 49
0.1
 74
0
 49
-0.05
 74
0
  0
LTYPE
  5
1F8
100
AcDbSymbolTableRecord
100
AcDbLinetypeTableRecord
  2
DOT
 70
64
  3
. . . . . . . . . . . . . . . . . . . .
 72
65
 73
2
 40
0.2
 49
0.1
 74
0
 49
-0.1
 74
0
  0
LTYPE
  5
1F9
100
AcDbSymbolTableRecord
100
AcDbLinetypeTableRecord
  2
DASHED
 70
64
  3
- - - - - - - - - - - - - - - - - - - -
 72
65
 73
2
 40
0.2
 49
0.1
 74
0
 49
-0.1
 74
0
  0
ENDTAB
  0
TABLE
  2
LAYER
  5
2
100
AcDbSymbolTable
 70
36
  0
LAYER
  5
10
100
AcDbSymbolTableRecord
100
AcDbLayerTableRecord
  2
0
 70
0
 62
7
  6
CONTINUOUS
370
-3
390
F
  0
LAYER
  5
1FA
100
AcDbSymbolTableRecord
100
AcDbLayerTableRecord
  2
DEFAULT_1
 70
0
 62
7
  6
CENTER
370
-3
390
F
  0
LAYER
  5
1FB
100
AcDbSymbolTableRecord
100
AcDbLayerTableRecord
  2
DEFAULT_2
 70
0
 62
7
  6
HIDDEN
370
-3
390
F
  0
LAYER
  5
1FC
100
AcDbSymbolTableRecord
100
AcDbLayerTableRecord
  2
DEFAULT_3
 70
0
 62
7
  6
PHANTOM
370
-3
390
F
  0
LAYER
  5
1FD
100
AcDbSymbolTableRecord
100
AcDbLayerTableRecord
  2
00_COMPONENTS
 70
0
 62
7
  6
CONTINUOUS
370
-3
390
F
  0
LAYER
  5
1FE
100
AcDbSymbolTableRecord
100
AcDbLayerTableRecord
  2
01_1_DEFAULT_DATUMS
 70
0
 62
7
  6
CONTINUOUS
370
-3
390
F
  0
LAYER
  5
1FF
100
AcDbSymbolTableRecord
100
AcDbLayerTableRecord
  2
01_PLANES
 70
0
 62
7
  6
CONTINUOUS
370
-3
390
F
  0
LAYER
  5
200
100
AcDbSymbolTableRecord
100
AcDbLayerTableRecord
  2
02_COORD_SYS
 70
0
 62
7
  6
CONTINUOUS
370
-3
390
F
  0
LAYER
  5
201
100
AcDbSymbolTableRecord
100
AcDbLayerTableRecord
  2
03_AXES
 70
0
 62
7
  6
CONTINUOUS
370
-3
390
F
  0
LAYER
  5
202
100
AcDbSymbolTableRecord
100
AcDbLayerTableRecord
  2
04_POINTS
 70
0
 62
7
  6
CONTINUOUS
370
-3
390
F
  0
LAYER
  5
203
100
AcDbSymbolTableRecord
100
AcDbLayerTableRecord
  2
05_CURVES
 70
0
 62
7
  6
CONTINUOUS
370
-3
390
F
  0
LAYER
  5
204
100
AcDbSymbolTableRecord
100
AcDbLayerTableRecord
  2
06_SURFS
 70
0
 62
7
  6
CONTINUOUS
370
-3
390
F
  0
LAYER
  5
205
100
AcDbSymbolTableRecord
100
AcDbLayerTableRecord
  2
07_COSMETICS
 70
0
 62
7
  6
CONTINUOUS
370
-3
390
F
  0
LAYER
  5
206
100
AcDbSymbolTableRecord
100
AcDbLayerTableRecord
  2
10_NOTES
 70
0
 62
7
  6
CONTINUOUS
370
-3
390
F
  0
LAYER
  5
207
100
AcDbSymbolTableRecord
100
AcDbLayerTableRecord
  2
11_NOTES_PUB
 70
0
 62
7
  6
CONTINUOUS
370
-3
390
F
  0
LAYER
  5
208
100
AcDbSymbolTableRecord
100
AcDbLayerTableRecord
  2
13_REF_GTOL
 70
0
 62
7
  6
CONTINUOUS
370
-3
390
F
  0
LAYER
  5
209
100
AcDbSymbolTableRecord
100
AcDbLayerTableRecord
  2
16_MISC
 70
0
 62
7
  6
CONTINUOUS
370
-3
390
F
  0
LAYER
  5
20A
100
AcDbSymbolTableRecord
100
AcDbLayerTableRecord
  2
17_NO_PRINT
 70
0
 62
7
  6
CONTINUOUS
370
-3
390
F
  0
LAYER
  5
20B
100
AcDbSymbolTableRecord
100
AcDbLayerTableRecord
  2
18_DATUM_CAMS_JOINTS
 70
0
 62
7
  6
CONTINUOUS
370
-3
390
F
  0
LAYER
  5
20C
100
AcDbSymbolTableRecord
100
AcDbLayerTableRecord
  2
19_DATUM_FUNCTIONAL
 70
0
 62
7
  6
CONTINUOUS
370
-3
390
F
  0
LAYER
  5
20D
100
AcDbSymbolTableRecord
100
AcDbLayerTableRecord
  2
20_DATUM_KINEMATIC_SCHEME
 70
0
 62
7
  6
CONTINUOUS
370
-3
390
F
  0
ENDTAB
  0
TABLE
  2
STYLE
  5
3
100
AcDbSymbolTable
 70
1
  0
STYLE
  5
11
100
AcDbSymbolTableRecord
100
AcDbTextStyleTableRecord
  2
STANDARD
 70
0
 40
0.0
 41
1.0
 50
0.0
 71
0
 42
0.2
  3
ARIAL.TTF
  4

  0
STYLE
  5
20E
100
AcDbSymbolTableRecord
100
AcDbTextStyleTableRecord
  2
TEXTSTYLE_1
 70
0
 40
0.0
 41
0.8
 50
0.0
 71
0
 42
0.2
  3
gdt
  4

  0
ENDTAB
  0
TABLE
  2
VIEW
  5
6
100
AcDbSymbolTable
 70
0
  0
ENDTAB
  0
TABLE
  2
UCS
  5
7
100
AcDbSymbolTable
 70
0
  0
ENDTAB
  0
TABLE
  2
APPID
  5
9
100
AcDbSymbolTable
 70
1
  0
APPID
  5
20F
100
AcDbSymbolTableRecord
100
AcDbRegAppTableRecord
  2
ACAD
 70
0
  0
ENDTAB
  0
TABLE
  2
BLOCK_RECORD
  5
1
100
AcDbSymbolTable
 70
0
  0
BLOCK_RECORD
  5
210
100
AcDbSymbolTableRecord
100
AcDbBlockTableRecord
  2
*Model_Space
  0
BLOCK_RECORD
  5
211
100
AcDbSymbolTableRecord
100
AcDbBlockTableRecord
  2
*Paper_Space
  0
BLOCK_RECORD
  5
212
100
AcDbSymbolTableRecord
100
AcDbBlockTableRecord
  2
_FILLED
  0
ENDTAB
  0
TABLE
  2
DIMSTYLE
  5
A
100
AcDbSymbolTable
 70
1
100
AcDbDimStyleTable
 71
0
  0
DIMSTYLE
105
213
100
AcDbSymbolTableRecord
100
AcDbDimStyleTableRecord
  2
STANDARD
 70
0
  3

  4

 40
1.0
 41
0.7707273452
 42
1.0
 43
0.38
 44
1.0
 45
0.0
 46
0.0
 47
0.01
 48
0.01
140
1.0790182833
141
0.09
142
0.0
143
25.4
144
1.0
145
0.0
146
1.0
147
0.625
 71
1
 72
0
 73
0
 74
0
 75
0
 76
0
 77
1
 78
8
 79
2
170
0
171
1
172
0
173
0
174
0
175
0
176
0
177
0
178
0
270
2
179
2
271
2
272
2
273
2
274
2
275
0
280
0
281
0
282
0
283
1
284
8
285
0
286
0
287
3
288
0
340
11
278
46
341
212
342
212
343
212
344
212
  0
ENDTAB
  0
ENDSEC
  0
SECTION
  2
BLOCKS
  0
BLOCK
  5
20
100
AcDbEntity
  8
0
100
AcDbBlockBegin
  2
*Model_Space
 70
0
 10
0.0
 20
0.0
 30
0.0
  3
*Model_Space
  1

  0
ENDBLK
  5
21
100
AcDbEntity
  8
0
100
AcDbBlockEnd
  0
BLOCK
  5
1C
100
AcDbEntity
  8
0
100
AcDbBlockBegin
  2
*Paper_Space
 70
0
 10
0.0
 20
0.0
 30
0.0
  3
*Paper_Space
  1

  0
ENDBLK
  5
1D
100
AcDbEntity
  8
0
100
AcDbBlockEnd
  0
BLOCK
  5
214
100
AcDbEntity
  8
0
100
AcDbBlockBegin
  2
_FILLED
 70
64
 10
0.0
 20
0.0
  3
_FILLED
  1

  0
SOLID
  5
215
100
AcDbEntity
  8
0
  6
BYBLOCK
 62
0
100
AcDbTrace
 10
0.0
 20
0.0
 11
-1.0
 21
0.25
 12
-1.0
 22
-0.25
 13
-1.0
 23
-0.25
  0
ENDBLK
  5
216
100
AcDbEntity
  8
0
  6
BYBLOCK
 62
0
100
AcDbBlockEnd
  0
ENDSEC
  0
SECTION
  2
ENTITIES
  0
LWPOLYLINE
  5
217
100
AcDbEntity
  8
0
100
AcDbPolyline
 62
7
  6
BYLAYER
 90
3
 70
0
 10
28.3349566969
 20
14.2510198846
 10
33.1996149611
 20
14.2710502583
 10
38.0717070746
 20
14.2510299241
  0
LINE
  5
218
100
AcDbEntity
  8
0
100
AcDbLine
 62
7
  6
BYLAYER
 10
13.2110846851
 20
14.2510301463
 11
53.2110846851
 21
14.2510301463
  0
LINE
  5
219
100
AcDbEntity
  8
0
100
AcDbLine
 62
7
  6
BYLAYER
 10
7.5110846852
 20
68.7510301463
 11
7.5110846852
 21
69.0510301463
  0
LINE
  5
21A
100
AcDbEntity
  8
0
100
AcDbLine
 62
7
  6
BYLAYER
 10
13.2110846851
 20
60.7510301463
 11
13.2110846851
 21
14.2510301463
  0
LINE
  5
21B
100
AcDbEntity
  8
0
100
AcDbLine
 62
7
  6
BYLAYER
 10
13.2110846851
 20
27.4726593039
 11
53.2110846851
 21
27.4726593039
  0
LINE
  5
21C
100
AcDbEntity
  8
0
100
AcDbLine
 62
7
  6
BYLAYER
 10
33.2110846743
 20
60.7458076507
 11
33.2110846732
 21
60.4127432039
  0
LINE
  5
21D
100
AcDbEntity
  8
0
100
AcDbLine
 62
7
  6
BYLAYER
 10
33.211084683
 20
70.7510299189
 11
33.2110849793
 21
76.265496063
  0
LINE
  5
21E
100
AcDbEntity
  8
0
100
AcDbLine
 62
7
  6
BYLAYER
 10
53.2110846851
 20
47.529400989
 11
13.2110846851
 21
47.529400989
  0
LINE
  5
21F
100
AcDbEntity
  8
0
100
AcDbLine
 62
7
  6
BYLAYER
 10
13.2110846851
 20
60.7510301463
 11
53.2110846851
 21
60.7510301463
  0
LINE
  5
220
100
AcDbEntity
  8
0
100
AcDbLine
 62
7
  6
BYLAYER
 10
53.2110846851
 20
14.2510301463
 11
53.2110846851
 21
60.7510301463
  0
LINE
  5
221
100
AcDbEntity
  8
0
100
AcDbLine
 62
7
  6
BYLAYER
 10
7.2126789164
 20
66.7510301463
 11
59.2110846851
 21
66.7510301463
  0
LINE
  5
222
100
AcDbEntity
  8
0
100
AcDbLine
 62
7
  6
BYLAYER
 10
59.2110846851
 20
68.7510301463
 11
7.2110846851
 21
68.7510301463
  0
LINE
  5
223
100
AcDbEntity
  8
0
100
AcDbLine
 62
7
  6
BYLAYER
 10
7.2110846851
 20
69.0510301463
 11
59.2110846851
 21
69.0510301463
  0
LWPOLYLINE
  5
224
100
AcDbEntity
  8
0
100
AcDbPolyline
 62
7
  6
BYLAYER
 90
32
 70
0
 10
59.2095657384
 20
71.0409383345
 10
59.1927432334
 20
71.4497909673
 10
59.1582162181
 20
71.8526735824
 10
59.10497561
 20
72.2481154614
 10
59.0321089035
 20
72.6345261294
 10
58.93881831
 20
73.0103142917
 10
58.8244263348
 20
73.373952198
 10
58.6883799882
 20
73.7240024212
 10
58.5302946318
 20
74.0590576801
 10
58.3505276536
 20
74.3768697087
 10
58.1502498064
 20
74.6750075443
 10
57.9310717229
 20
74.9517170314
 10
57.6949678784
 20
75.2058766066
 10
57.444207811
 20
75.4369328877
 10
57.1813017501
 20
75.6448280017
 10
57.0461250683
 20
75.7401918555
 10
56.7700435443
 20
75.9141632875
 10
56.4886364077
 20
76.0665810191
 10
56.2043615059
 20
76.1987478148
 10
55.9193470566
 20
76.312190709
 10
55.6356121985
 20
76.4084686245
 10
55.3550768337
 20
76.4891428147
 10
55.079552128
 20
76.5557571294
 10
54.8105983595
 20
76.6098442452
 10
54.5496386721
 20
76.652872027
 10
54.2981648617
 20
76.6862105263
 10
54.0575745676
 20
76.7111680868
 10
53.8297957688
 20
76.7289443789
 10
53.6174525523
 20
76.7406851316
 10
53.4256458816
 20
76.747488954
 10
53.2603767751
 20
76.7505864083
 10
53.2114492645
 20
76.7510276786
  0
LINE
  5
225
100
AcDbEntity
  8
0
100
AcDbLine
 62
7
  6
BYLAYER
 10
58.911084685
 20
69.0510301463
 11
58.911084685
 21
68.7510301463
  0
LINE
  5
226
100
AcDbEntity
  8
0
100
AcDbLine
 62
7
  6
BYLAYER
 10
59.2110846851
 20
20.2510301463
 11
59.2095657384
 21
71.0409383345
  0
LINE
  5
227
100
AcDbEntity
  8
0
100
AcDbLine
 62
7
  6
BYLAYER
 10
59.2113712911
 20
70.7510296758
 11
59.2097529264
 21
70.627505312
  0
LINE
  5
228
100
AcDbEntity
  8
0
100
AcDbLine
 62
7
  6
BYLAYER
 10
59.2110846851
 20
70.7510301463
 11
7.2110846851
 21
70.751029462
  0
LINE
  5
229
100
AcDbEntity
  8
0
100
AcDbLine
 62
7
  6
BYLAYER
 10
35.3394999334
 20
76.5966454965
 11
33.9619156388
 21
76.3132224033
  0
LINE
  5
22A
100
AcDbEntity
  8
0
100
AcDbLine
 62
7
  6
BYLAYER
 10
36.1155559727
 20
76.7503733287
 11
35.3394999334
 21
76.5966454965
  0
LWPOLYLINE
  5
22B
100
AcDbEntity
  8
0
100
AcDbPolyline
 62
7
  6
BYLAYER
 90
5
 70
0
 10
36.2523629734
 20
76.7508848825
 10
35.9770300256
 20
76.6993132761
 10
35.3337525314
 20
76.534469426
 10
34.3171065527
 20
76.3409845858
 10
33.2110848325
 20
76.2654926147
  0
LWPOLYLINE
  5
22C
100
AcDbEntity
  8
0
100
AcDbPolyline
 62
7
  6
BYLAYER
 90
3
 70
0
 10
32.4319048739
 20
76.3168037769
 10
31.057959993
 20
76.6028949343
 10
30.3063324694
 20
76.7503852668
  0
LINE
  5
22D
100
AcDbEntity
  8
0
100
AcDbLine
 62
7
  6
BYLAYER
 10
36.1414793728
 20
76.7510301463
 11
36.1144225376
 21
76.7504962203
  0
LINE
  5
22E
100
AcDbEntity
  8
0
100
AcDbLine
 62
7
  6
BYLAYER
 10
36.2518449477
 20
76.7509044826
 11
36.2593197285
 21
76.7510300186
  0
LWPOLYLINE
  5
22F
100
AcDbEntity
  8
0
100
AcDbPolyline
 62
7
  6
BYLAYER
 90
38
 70
0
 10
13.2085427019
 20
76.7510125856
 10
13.118805149
 20
76.7500210485
 10
12.9872964665
 20
76.7472416636
 10
12.8451640856
 20
76.7424139635
 10
12.6977727987
 20
76.7353384022
 10
12.5473988304
 20
76.7258687902
 10
12.3933422486
 20
76.7137179395
 10
12.2353895923
 20
76.6985800377
 10
12.0733600847
 20
76.6801089931
 10
11.9070982253
 20
76.6579136154
 10
11.7364796587
 20
76.6315532691
 10
11.5615019677
 20
76.6005492715
 10
11.3822437214
 20
76.5643806746
 10
11.1988187458
 20
76.5224734837
 10
11.0113755375
 20
76.4741941769
 10
10.8196817194
 20
76.4187144554
 10
10.6228299471
 20
76.3548237703
 10
10.4199660538
 20
76.2810338465
 10
10.2103972634
 20
76.1955547934
 10
9.9936230826
 20
76.0962362623
 10
9.7693445588
 20
75.9804767319
 10
9.5387636664
 20
75.8458935385
 10
9.3052582718
 20
75.6911546658
 10
9.0724771173
 20
75.5153457782
 10
8.8437174583
 20
75.3176755639
 10
8.6207080248
 20
75.0961666052
 10
8.4050820963
 20
74.8484086331
 10
8.198997239
 20
74.57217257
 10
8.0055740767
 20
74.2664782436
 10
7.8284092297
 20
73.9319728604
 10
7.6706736083
 20
73.5703239231
 10
7.5344920278
 20
73.1829608423
 10
7.4212830607
 20
72.7712353726
 10
7.3320510023
 20
72.3370786309
 10
7.2672949178
 20
71.8826961656
 10
7.2270035424
 20
71.4098205868
 10
7.2108832814
 20
70.9212241238
 10
7.2110846851
 20
20.2510301463
  0
LINE
  5
230
100
AcDbEntity
  8
0
100
AcDbLine
 62
7
  6
BYLAYER
 10
36.1155559727
 20
76.7510301463
 11
30.3053750151
 21
76.7510301463
  0
LINE
  5
231
100
AcDbEntity
  8
0
100
AcDbLine
 62
7
  6
BYLAYER
 10
30.1634863977
 20
76.7510301463
 11
13.211629136
 21
76.7510301463
  0
LINE
  5
232
100
AcDbEntity
  8
0
100
AcDbLine
 62
7
  6
BYLAYER
 10
30.1688303285
 20
76.7510301463
 11
30.2807098916
 21
76.7510301463
  0
LINE
  5
233
100
AcDbEntity
  8
0
100
AcDbLine
 62
7
  6
BYLAYER
 10
36.1414789033
 20
76.7510301463
 11
53.210323023
 21
76.7510301463
  0
LINE
  5
234
100
AcDbEntity
  8
0
100
AcDbLine
 62
7
  6
BYLAYER
 10
33.9619156388
 20
76.3132224033
 11
32.4319048739
 21
76.3168037769
  0
LINE
  5
235
100
AcDbEntity
  8
0
100
AcDbLine
 62
7
  6
BYLAYER
 10
30.1688303285
 20
76.7509217076
 11
30.163470446
 21
76.7510152308
  0
LINE
  5
236
100
AcDbEntity
  8
0
100
AcDbLine
 62
7
  6
BYLAYER
 10
30.3053750151
 20
76.7505055894
 11
30.2807100271
 21
76.7510301463
  0
LWPOLYLINE
  5
237
100
AcDbEntity
  8
0
100
AcDbPolyline
 62
7
  6
BYLAYER
 90
5
 70
0
 10
33.2110849797
 20
76.2654959355
 10
31.9977978079
 20
76.3561252663
 10
31.020992242
 20
76.5508372519
 10
30.4315939171
 20
76.7027226199
 10
30.1688303285
 20
76.7509217076
  0
ARC
  5
238
100
AcDbEntity
  8
0
100
AcDbCircle
 62
7
  6
BYLAYER
 10
33.1484272999
 20
72.5056465783
 40
11.7600030976
100
AcDbArc
 50
270.3051857582
 51
270.6253389509
  0
ARC
  5
239
100
AcDbEntity
  8
0
100
AcDbCircle
 62
7
  6
BYLAYER
 10
32.9888331323
 20
69.5939270596
 40
8.8509130721
100
AcDbArc
 50
270.9732399924
 51
271.4387498958
  0
ARC
  5
23A
100
AcDbEntity
  8
0
100
AcDbCircle
 62
7
  6
BYLAYER
 10
13.2110846851
 20
20.2510301463
 40
6.0
100
AcDbArc
 50
180.0
 51
270.0
  0
ARC
  5
23B
100
AcDbEntity
  8
0
100
AcDbCircle
 62
7
  6
BYLAYER
 10
53.2110846851
 20
20.2510301463
 40
6.0
100
AcDbArc
 50
270.0
 51
360.0
  0
ARC
  5
23C
100
AcDbEntity
  8
0
100
AcDbCircle
 62
7
  6
BYLAYER
 10
53.2110846851
 20
66.7510301463
 40
6.0
100
AcDbArc
 50
270.0
 51
360.0
  0
ARC
  5
23D
100
AcDbEntity
  8
0
100
AcDbCircle
 62
7
  6
BYLAYER
 10
13.2110846851
 20
66.7510301463
 40
6.0
100
AcDbArc
 50
180.0
 51
270.0
  0
ARC
  5
23E
100
AcDbEntity
  8
0
100
AcDbCircle
 62
7
  6
BYLAYER
 10
36.1412876527
 20
76.616402607
 40
0.1345121687
100
AcDbArc
 50
89.9184330841
 51
100.6060178756
  0
ARC
  5
23F
100
AcDbEntity
  8
0
100
AcDbCircle
 62
7
  6
BYLAYER
 10
30.2809042168
 20
76.6164237568
 40
0.1344908808
100
AcDbArc
 50
79.5218080518
 51
90.0824087427
  0
SPLINE
  5
240
100
AcDbEntity
  8
0
100
AcDbSpline
 62
7
  6
BYLAYER
 70
0
 71
3
 72
17
 73
13
 74
0
 42
0.0000001
 43
0.0000001
 44
0.0000000001
 40
0.0
 40
0.0
 40
0.0
 40
0.0
 40
0.1757320284
 40
0.3461946544
 40
0.5058581121
 40
0.650446151
 40
0.7760444751
 40
0.8786292741
 40
0.9199359578
 40
0.9539627667
 40
0.9806258721
 40
1.0
 40
1.0
 40
1.0
 40
1.0
 10
33.2110846832
 20
76.2528586665
 30
0.0
 10
33.3921581047
 20
76.2526204901
 30
0.0
 10
33.7489982637
 20
76.2650546716
 30
0.0
 10
34.2679468809
 20
76.3171016695
 30
0.0
 10
34.751165834
 20
76.3945844305
 30
0.0
 10
35.1846942979
 20
76.4859407942
 30
0.0
 10
35.55746642
 20
76.5787559947
 30
0.0
 10
35.8254443645
 20
76.6515606514
 30
0.0
 10
36.0024208083
 20
76.6993467843
 30
0.0
 10
36.1042441281
 20
76.7255001892
 30
0.0
 10
36.1847685447
 20
76.74327464
 30
0.0
 10
36.2318880498
 20
76.7502058888
 30
0.0
 10
36.2518389477
 20
76.7509015843
 30
0.0
  0
SPLINE
  5
241
100
AcDbEntity
  8
0
100
AcDbSpline
 62
7
  6
BYLAYER
 70
0
 71
3
 72
17
 73
13
 74
0
 42
0.0000001
 43
0.0000001
 44
0.0000000001
 40
0.0
 40
0.0
 40
0.0
 40
0.0
 40
0.1759968705
 40
0.3465352223
 40
0.5063455499
 40
0.6510477184
 40
0.7765637994
 40
0.8789666319
 40
0.9203175207
 40
0.9545033168
 40
0.9811480344
 40
1.0
 40
1.0
 40
1.0
 40
1.0
 10
33.2110847096
 20
76.2528590331
 30
0.0
 10
33.0296525063
 20
76.2529173476
 30
0.0
 10
32.6722999695
 20
76.2651217509
 30
0.0
 10
32.1525951998
 20
76.3172664654
 30
0.0
 10
31.6688158632
 20
76.394903372
 30
0.0
 10
31.2349343022
 20
76.4864974211
 30
0.0
 10
30.8621553347
 20
76.5793965861
 30
0.0
 10
30.5943179006
 20
76.6523587499
 30
0.0
 10
30.4171978318
 20
76.7000228247
 30
0.0
 10
30.3150687879
 20
76.72597414
 30
0.0
 10
30.2348405718
 20
76.7433928709
 30
0.0
 10
30.1882555197
 20
76.7503091867
 30
0.0
 10
30.168830996
 20
76.7509215636
 30
0.0
  0
SPLINE
  5
242
100
AcDbEntity
  8
0
100
AcDbSpline
 62
7
  6
BYLAYER
 70
0
 71
3
 72
9
 73
5
 74
0
 42
0.0000001
 43
0.0000001
 44
0.0000000001
 40
0.0
 40
0.0
 40
0.0
 40
0.0
 40
0.2385476061
 40
1.0
 40
1.0
 40
1.0
 40
1.0
 10
36.0514681463
 20
76.7171420528
 30
0.0
 10
36.0558485166
 20
76.7209174619
 30
0.0
 10
36.075145026
 20
76.7356181233
 30
0.0
 10
36.0983864643
 20
76.7452187521
 30
0.0
 10
36.1165300708
 20
76.7486167729
 30
0.0
  0
SPLINE
  5
243
100
AcDbEntity
  8
0
100
AcDbSpline
 62
7
  6
BYLAYER
 70
0
 71
3
 72
9
 73
5
 74
0
 42
0.0000001
 43
0.0000001
 44
0.0000000001
 40
0.0
 40
0.0
 40
0.0
 40
0.0
 40
0.2377726319
 40
1.0
 40
1.0
 40
1.0
 40
1.0
 10
30.3699562892
 20
76.7177969763
 30
0.0
 10
30.3656058746
 20
76.7214937119
 30
0.0
 10
30.3464021766
 20
76.7359314675
 30
0.0
 10
30.3233587405
 20
76.7453430739
 30
0.0
 10
30.3053628983
 20
76.7486718944
 30
0.0
  0
SPLINE
  5
244
100
AcDbEntity
  8
0
100
AcDbSpline
 62
7
  6
BYLAYER
 70
0
 71
3
 72
22
 73
18
 74
0
 42
0.0000001
 43
0.0000001
 44
0.0000000001
 40
0.0
 40
0.0
 40
0.0
 40
0.0
 40
0.0082643356
 40
0.017144675
 40
0.0271249201
 40
0.0385425453
 40
0.0664498875
 40
0.1017870995
 40
0.1447670414
 40
0.1952813036
 40
0.2530132815
 40
0.3175443767
 40
0.3883259
 40
0.4647579888
 40
0.6317107959
 40
0.8123841097
 40
1.0
 40
1.0
 40
1.0
 40
1.0
 10
59.2110846851
 20
48.571290055
 30
0.0
 10
59.2110846851
 20
48.5541019945
 30
0.0
 10
59.2057892449
 20
48.5182783905
 30
0.0
 10
59.1828353384
 20
48.4661767229
 30
0.0
 10
59.145541557
 20
48.4149694992
 30
0.0
 10
59.0720909357
 20
48.3429196839
 30
0.0
 10
58.9413267786
 20
48.2570248667
 30
0.0
 10
58.7411370348
 20
48.1628831082
 30
0.0
 10
58.4886473434
 20
48.0722179604
 30
0.0
 10
58.1860376206
 20
47.9859445168
 30
0.0
 10
57.8358246606
 20
47.9049149658
 30
0.0
 10
57.4412819375
 20
47.830093152
 30
0.0
 10
57.0061054237
 20
47.7621345752
 30
0.0
 10
56.3579093509
 20
47.6793129126
 30
0.0
 10
55.4792452931
 20
47.5996817179
 30
0.0
 10
54.3673211433
 20
47.5422653084
 30
0.0
 10
53.6012858375
 20
47.529400989
 30
0.0
 10
53.2110846851
 20
47.529400989
 30
0.0
  0
SPLINE
  5
245
100
AcDbEntity
  8
0
100
AcDbSpline
 62
7
  6
BYLAYER
 70
0
 71
3
 72
22
 73
18
 74
0
 42
0.0000001
 43
0.0000001
 44
0.0000000001
 40
0.0
 40
0.0
 40
0.0
 40
0.0
 40
0.0082643356
 40
0.017144675
 40
0.0271249201
 40
0.0385425453
 40
0.0664498875
 40
0.1017870995
 40
0.1447670414
 40
0.1952813036
 40
0.2530132815
 40
0.3175443767
 40
0.3883259
 40
0.4647579888
 40
0.6317107959
 40
0.8123841097
 40
1.0
 40
1.0
 40
1.0
 40
1.0
 10
7.2110846851
 20
28.5145483697
 30
0.0
 10
7.2110846851
 20
28.4973603092
 30
0.0
 10
7.2163801252
 20
28.4615367051
 30
0.0
 10
7.2393340318
 20
28.4094350376
 30
0.0
 10
7.2766278132
 20
28.3582278138
 30
0.0
 10
7.3500784344
 20
28.2861779985
 30
0.0
 10
7.4808425916
 20
28.2002831814
 30
0.0
 10
7.6810323353
 20
28.1061414228
 30
0.0
 10
7.9335220267
 20
28.0154762751
 30
0.0
 10
8.2361317496
 20
27.9292028315
 30
0.0
 10
8.5863447096
 20
27.8481732805
 30
0.0
 10
8.9808874326
 20
27.7733514667
 30
0.0
 10
9.4160639465
 20
27.7053928898
 30
0.0
 10
10.0642600192
 20
27.6225712272
 30
0.0
 10
10.9429240771
 20
27.5429400325
 30
0.0
 10
12.0548482269
 20
27.4855236231
 30
0.0
 10
12.8208835326
 20
27.4726593037
 30
0.0
 10
13.2110846851
 20
27.4726593037
 30
0.0
  0
SPLINE
  5
246
100
AcDbEntity
  8
0
100
AcDbSpline
 62
7
  6
BYLAYER
 70
0
 71
3
 72
13
 73
9
 74
0
 42
0.0000001
 43
0.0000001
 44
0.0000000001
 40
0.0
 40
0.0
 40
0.0
 40
0.0
 40
0.1138695641
 40
0.2327040282
 40
0.3553588292
 40
0.4809919232
 40
0.7383825681
 40
1.0
 40
1.0
 40
1.0
 40
1.0
 10
21.1176980628
 20
60.7510301463
 30
0.0
 10
21.576933532
 20
60.7510271413
 30
0.0
 10
22.5154256809
 20
60.7355435384
 30
0.0
 10
23.9477385672
 20
60.6857582559
 30
0.0
 10
25.4270145095
 20
60.6229260056
 30
0.0
 10
27.4644764844
 20
60.5342294117
 30
0.0
 10
30.0627358858
 20
60.4406193669
 30
0.0
 10
32.1559826918
 20
60.4127436599
 30
0.0
 10
33.211084685
 20
60.4127432135
 30
0.0
  0
SPLINE
  5
247
100
AcDbEntity
  8
0
100
AcDbSpline
 62
7
  6
BYLAYER
 70
0
 71
3
 72
12
 73
8
 74
0
 42
0.0000001
 43
0.0000001
 44
0.0000000001
 40
0.0
 40
0.0
 40
0.0
 40
0.0
 40
0.2616328477
 40
0.519042333
 40
0.7672661075
 40
0.8861198478
 40
1.0
 40
1.0
 40
1.0
 40
1.0
 10
33.211084685
 20
60.4127432135
 30
0.0
 10
34.2662489303
 20
60.4127538255
 30
0.0
 10
36.3596325827
 20
60.4407332885
 30
0.0
 10
39.4521437742
 20
60.5517238314
 30
0.0
 10
41.9680317817
 20
60.6679479128
 30
0.0
 10
43.9065783119
 20
60.7356751072
 30
0.0
 10
44.8451931019
 20
60.7510297956
 30
0.0
 10
45.3044713075
 20
60.7510301463
 30
0.0
  0
SPLINE
  5
248
100
AcDbEntity
  8
0
100
AcDbSpline
 62
7
  6
BYLAYER
 70
0
 71
3
 72
11
 73
7
 74
0
 42
0.0000001
 43
0.0000001
 44
0.0000000001
 40
0.0
 40
0.0
 40
0.0
 40
0.0
 40
0.2464925657
 40
0.5000467849
 40
0.7535772793
 40
1.0
 40
1.0
 40
1.0
 40
1.0
 10
38.0716629692
 20
14.2510310834
 30
0.0
 10
37.2716558083
 20
14.2511253171
 30
0.0
 10
35.6487609183
 20
14.264618601
 30
0.0
 10
33.202987325
 20
14.2763451467
 30
0.0
 10
30.7574417142
 20
14.2644803153
 30
0.0
 10
29.1348495473
 20
14.2510307038
 30
0.0
 10
28.335069067
 20
14.2510301463
 30
0.0
  0
SPLINE
  5
249
100
AcDbEntity
  8
0
100
AcDbSpline
 62
7
  6
BYLAYER
 70
0
 71
3
 72
22
 73
18
 74
0
 42
0.0000001
 43
0.0000001
 44
0.0000000001
 40
0.0
 40
0.0
 40
0.0
 40
0.0
 40
0.1876158903
 40
0.3682892041
 40
0.5352420112
 40
0.6116741
 40
0.6824556233
 40
0.7469867185
 40
0.8047186964
 40
0.8552329586
 40
0.8982129005
 40
0.9335501125
 40
0.9614574547
 40
0.9728750799
 40
0.982855325
 40
0.9917356644
 40
1.0
 40
1.0
 40
1.0
 40
1.0
 10
13.2110846851
 20
47.529400989
 30
0.0
 10
12.8208835326
 20
47.529400989
 30
0.0
 10
12.0548482269
 20
47.5422653084
 30
0.0
 10
10.9429240771
 20
47.5996817179
 30
0.0
 10
10.0642600192
 20
47.6793129126
 30
0.0
 10
9.4160639465
 20
47.7621345752
 30
0.0
 10
8.9808874326
 20
47.830093152
 30
0.0
 10
8.5863447096
 20
47.9049149658
 30
0.0
 10
8.2361317496
 20
47.9859445168
 30
0.0
 10
7.9335220267
 20
48.0722179604
 30
0.0
 10
7.6810323353
 20
48.1628831082
 30
0.0
 10
7.4808425916
 20
48.2570248667
 30
0.0
 10
7.3500784344
 20
48.3429196839
 30
0.0
 10
7.2766278132
 20
48.4149694992
 30
0.0
 10
7.2393340318
 20
48.4661767229
 30
0.0
 10
7.2163801252
 20
48.5182783905
 30
0.0
 10
7.2110846851
 20
48.5541019945
 30
0.0
 10
7.2110846851
 20
48.571290055
 30
0.0
  0
SPLINE
  5
24A
100
AcDbEntity
  8
0
100
AcDbSpline
 62
7
  6
BYLAYER
 70
0
 71
3
 72
22
 73
18
 74
0
 42
0.0000001
 43
0.0000001
 44
0.0000000001
 40
0.0
 40
0.0
 40
0.0
 40
0.0
 40
0.1876158903
 40
0.3682892041
 40
0.5352420112
 40
0.6116741
 40
0.6824556233
 40
0.7469867185
 40
0.8047186964
 40
0.8552329586
 40
0.8982129005
 40
0.9335501125
 40
0.9614574547
 40
0.9728750799
 40
0.982855325
 40
0.9917356644
 40
1.0
 40
1.0
 40
1.0
 40
1.0
 10
53.2110846851
 20
27.4726593037
 30
0.0
 10
53.6012858375
 20
27.4726593037
 30
0.0
 10
54.3673211433
 20
27.4855236231
 30
0.0
 10
55.4792452931
 20
27.5429400325
 30
0.0
 10
56.3579093509
 20
27.6225712272
 30
0.0
 10
57.0061054237
 20
27.7053928898
 30
0.0
 10
57.4412819375
 20
27.7733514667
 30
0.0
 10
57.8358246606
 20
27.8481732805
 30
0.0
 10
58.1860376206
 20
27.9292028315
 30
0.0
 10
58.4886473434
 20
28.0154762751
 30
0.0
 10
58.7411370348
 20
28.1061414228
 30
0.0
 10
58.9413267786
 20
28.2002831814
 30
0.0
 10
59.0720909357
 20
28.2861779985
 30
0.0
 10
59.145541557
 20
28.3582278138
 30
0.0
 10
59.1828353384
 20
28.4094350376
 30
0.0
 10
59.2057892449
 20
28.4615367051
 30
0.0
 10
59.2110846851
 20
28.4973603092
 30
0.0
 10
59.2110846851
 20
28.5145483697
 30
0.0
  0
ENDSEC
  0
SECTION
  2
OBJECTS
  0
DICTIONARY
  5
C
100
AcDbDictionary
280
0
281
1
  3
ACAD_GROUP
350
D
  3
ACAD_MLINESTYLE
350
17
  3
ACAD_LAYOUT
350
1A
  3
ACAD_PLOTSETTINGS
350
19
  3
ACAD_PLOTSTYLENAME
350
E
  0
DICTIONARY
  5
D
102
{ACAD_REACTORS
330
C
102
}
100
AcDbDictionary
280
0
281
1
  0
ACDBDICTIONARYWDFLT
  5
E
102
{ACAD_REACTORS
330
C
102
}
100
AcDbDictionary
281
1
  3
Normal
350
F
100
AcDbDictionaryWithDefault
340
F
  0
DICTIONARY
  5
17
102
{ACAD_REACTORS
330
C
102
}
100
AcDbDictionary
280
0
281
1
  3
Standard
350
18
  0
DICTIONARY
  5
19
102
{ACAD_REACTORS
330
C
102
}
100
AcDbDictionary
281
1
  0
DICTIONARY
  5
1A
102
{ACAD_REACTORS
330
C
102
}
100
AcDbDictionary
281
1
  3
Model
350
24B
  3
Layout1
350
24C
  0
ACDBPLACEHOLDER
  5
F
102
{ACAD_REACTORS
330
E
102
}
  0
MLINESTYLE
  5
18
102
{ACAD_REACTORS
330
17
102
}
100
AcDbMlineStyle
  2
STANDARD
 70
0
  3

 62
256
 51
90.0
 52
90.0
 71
2
 49
0.5
 62
256
  6
BYLAYER
 49
-0.5
 62
256
  6
BYLAYER
  0
LAYOUT
  5
24B
102
{ACAD_REACTORS
330
1A
102
}
100
AcDbPlotSettings
  1

  2
none_device
  4

  6

 40
0.0
 41
0.0
 42
0.0
 43
0.0
 44
210.0
 45
297.0
 46
0.0
 47
0.0
 48
0.0
 49
0.0
140
0.0
141
0.0
142
1.0
143
1.0
 70
1024
 72
1
 73
0
 74
0
  7

 75
0
147
1.0
148
0.0
149
0.0
100
AcDbLayout
  1
Model
 70
0
 71
0
 10
0.0
 20
0.0
 11
210.0
 21
297.0
 12
0.0
 22
0.0
 32
0.0
 14
0.0
 24
0.0
 34
0.0
 15
0.0
 25
0.0
 35
0.0
146
0.0
 13
0.0
 23
0.0
 33
0.0
 16
1.0
 26
0.0
 36
0.0
 17
0.0
 27
1.0
 37
0.0
 76
0
330
210
345
0
346
0
  0
LAYOUT
  5
24C
102
{ACAD_REACTORS
330
1A
102
}
100
AcDbPlotSettings
  1

  2
none_device
  4

  6

 40
0.0
 41
0.0
 42
0.0
 43
0.0
 44
210.0
 45
297.0
 46
0.0
 47
0.0
 48
0.0
 49
0.0
140
0.0
141
0.0
142
1.0
143
1.0
 70
0
 72
1
 73
0
 74
0
  7

 75
0
147
1.0
148
0.0
149
0.0
100
AcDbLayout
  1
Layout1
 70
0
 71
1
 10
0.0
 20
0.0
 11
210.0
 21
297.0
 12
0.0
 22
0.0
 32
0.0
 14
0.0
 24
0.0
 34
0.0
 15
0.0
 25
0.0
 35
0.0
146
0.0
 13
0.0
 23
0.0
 33
0.0
 16
1.0
 26
0.0
 36
0.0
 17
0.0
 27
1.0
 37
0.0
 76
0
330
211
345
0
346
0
  0
ENDSEC
  0
EOF
