999
DXF file: C:\Users\sesa63760\Dev\_Creo\CAD\MCADID0005577_3D-CAD\drw0001_1.dxf
999
Pro/ENGINEER 2019471 by Parametric Technology Corporation
  0
SECTION
  2
HEADER
  9
$ACADVER
  1
AC1024
  9
$DWGCODEPAGE
  3
ANSI_1252
  9
$EXTMAX
 10
51.5267868983
 20
72.8735986133
 30
0.0
  9
$EXTMIN
 10
0.0
 20
0.0
 30
0.0
  9
$LIMMIN
 10
0.0
 20
0.0
  9
$LIMMAX
 10
51.5267868983
 20
72.8735986133
  9
$VIEWCTR
 10
25.7633934491
 20
36.4367993066
  9
$VIEWSIZE
 40
72.8735986133
  9
$CLAYER
  8
0
  9
$LTSCALE
 40
4.7502790207
  9
$CELTYPE
  6
BYLAYER
  9
$DIMSCALE
 40
1.0
  9
$DIMASZ
 40
0.6134141297
  9
$DIMEXO
 40
1.0
  9
$DIMDLI
 40
3.2820109598
  9
$DIMEXE
 40
1.0
  9
$DIMCEN
 40
0.7773183852
  9
$DIMLFAC
 40
1.0
  9
$DIMBLK
  1
_FILLED
  9
$DIMALT
 70
0
  9
$DIMALTF
 40
0.0393700787
  9
$DIMTXT
 40
0.8587797816
  9
$DIMTOL
 70
1
  9
$DIMLIM
 70
0
  9
$DIMTFAC
 40
1.0
  9
$DIMTP
 40
0.01
  9
$DIMTM
 40
0.01
  9
$DIMGAP
 40
0.625
  9
$DIMDSEP
 70
46
  9
$AUNITS
 70
0
  9
$PDMODE
 70
3
  9
$PDSIZE
 40
0.3125
  9
$HANDSEED
  5
576
  9
$TILEMODE
 70
1
  9
$MEASUREMENT
 70
1
  9
$INSUNITS
 70
4
  0
ENDSEC
  0
SECTION
  2
CLASSES
  0
CLASS
  1
ACDBDICTIONARYWDFLT
  2
AcDbDictionaryWithDefault
  3
AutoCAD 2000
 90
0
 91
1
280
0
281
0
  0
CLASS
  1
ACDBPLACEHOLDER
  2
AcDbPlaceHolder
  3
AutoCAD 2000
 90
0
 91
1
280
0
281
0
  0
CLASS
  1
LAYOUT
  2
AcDbLayout
  3
AutoCAD 2000
 90
0
 91
0
280
0
281
0
  0
ENDSEC
  0
SECTION
  2
TABLES
  0
TABLE
  2
VPORT
  5
8
100
AcDbSymbolTable
 70
2
  0
VPORT
  5
1F4
100
AcDbSymbolTableRecord
100
AcDbViewportTableRecord
  2
*ACTIVE
 70
0
 10
0.0
 20
0.0
 11
1.0
 21
1.0
 12
25.7633934491
 22
36.4367993066
 13
0.0
 23
0.0
 14
1.0
 24
1.0
 15
0.0
 25
0.0
 16
0.0
 26
0.0
 36
1.0
 17
0.0
 27
0.0
 37
0.0
 40
72.8735986133
 41
0.7070707071
 42
50.0
 43
0.0
 44
0.0
 50
0.0
 51
0.0
 71
0
 72
100
 73
1
 74
1
 75
0
 76
0
 77
0
 78
0
  0
ENDTAB
  0
TABLE
  2
LTYPE
  5
5
100
AcDbSymbolTable
 70
6
  0
LTYPE
  5
14
100
AcDbSymbolTableRecord
100
AcDbLinetypeTableRecord
  2
BYBLOCK
 70
0
  3

 72
65
 73
0
 40
0.0
  0
LTYPE
  5
15
100
AcDbSymbolTableRecord
100
AcDbLinetypeTableRecord
  2
BYLAYER
 70
0
  3

 72
65
 73
0
 40
0.0
  0
LTYPE
  5
16
100
AcDbSymbolTableRecord
100
AcDbLinetypeTableRecord
  2
CONTINUOUS
 70
64
  3
Solid line
 72
65
 73
0
 40
0.0
  0
LTYPE
  5
1F5
100
AcDbSymbolTableRecord
100
AcDbLinetypeTableRecord
  2
CENTER
 70
64
  3
____ _ ____ _ ____ _ ____ _ ____ _ ____ _ ____
 72
65
 73
4
 40
0.6
 49
0.375
 74
0
 49
-0.075
 74
0
 49
0.075
 74
0
 49
-0.075
 74
0
  0
LTYPE
  5
1F6
100
AcDbSymbolTableRecord
100
AcDbLinetypeTableRecord
  2
HIDDEN
 70
64
  3
- - - - - - - - - - - - - - - - - - - -
 72
65
 73
2
 40
0.2
 49
0.1
 74
0
 49
-0.1
 74
0
  0
LTYPE
  5
1F7
100
AcDbSymbolTableRecord
100
AcDbLinetypeTableRecord
  2
PHANTOM
 70
64
  3
_____ _ _ _____ _ _ _____ _ _ _____
 72
65
 73
6
 40
0.8
 49
0.45
 74
0
 49
-0.05
 74
0
 49
0.1
 74
0
 49
-0.05
 74
0
 49
0.1
 74
0
 49
-0.05
 74
0
  0
LTYPE
  5
1F8
100
AcDbSymbolTableRecord
100
AcDbLinetypeTableRecord
  2
DOT
 70
64
  3
. . . . . . . . . . . . . . . . . . . .
 72
65
 73
2
 40
0.2
 49
0.1
 74
0
 49
-0.1
 74
0
  0
LTYPE
  5
1F9
100
AcDbSymbolTableRecord
100
AcDbLinetypeTableRecord
  2
DASHED
 70
64
  3
- - - - - - - - - - - - - - - - - - - -
 72
65
 73
2
 40
0.2
 49
0.1
 74
0
 49
-0.1
 74
0
  0
ENDTAB
  0
TABLE
  2
LAYER
  5
2
100
AcDbSymbolTable
 70
36
  0
LAYER
  5
10
100
AcDbSymbolTableRecord
100
AcDbLayerTableRecord
  2
0
 70
0
 62
7
  6
CONTINUOUS
370
-3
390
F
  0
LAYER
  5
1FA
100
AcDbSymbolTableRecord
100
AcDbLayerTableRecord
  2
DEFAULT_1
 70
0
 62
7
  6
CENTER
370
-3
390
F
  0
LAYER
  5
1FB
100
AcDbSymbolTableRecord
100
AcDbLayerTableRecord
  2
DEFAULT_2
 70
0
 62
7
  6
HIDDEN
370
-3
390
F
  0
LAYER
  5
1FC
100
AcDbSymbolTableRecord
100
AcDbLayerTableRecord
  2
DEFAULT_3
 70
0
 62
7
  6
PHANTOM
370
-3
390
F
  0
LAYER
  5
1FD
100
AcDbSymbolTableRecord
100
AcDbLayerTableRecord
  2
00_COMPONENTS
 70
0
 62
7
  6
CONTINUOUS
370
-3
390
F
  0
LAYER
  5
1FE
100
AcDbSymbolTableRecord
100
AcDbLayerTableRecord
  2
01_1_DEFAULT_DATUMS
 70
0
 62
7
  6
CONTINUOUS
370
-3
390
F
  0
LAYER
  5
1FF
100
AcDbSymbolTableRecord
100
AcDbLayerTableRecord
  2
01_PLANES
 70
0
 62
7
  6
CONTINUOUS
370
-3
390
F
  0
LAYER
  5
200
100
AcDbSymbolTableRecord
100
AcDbLayerTableRecord
  2
02_COORD_SYS
 70
0
 62
7
  6
CONTINUOUS
370
-3
390
F
  0
LAYER
  5
201
100
AcDbSymbolTableRecord
100
AcDbLayerTableRecord
  2
03_AXES
 70
0
 62
7
  6
CONTINUOUS
370
-3
390
F
  0
LAYER
  5
202
100
AcDbSymbolTableRecord
100
AcDbLayerTableRecord
  2
04_POINTS
 70
0
 62
7
  6
CONTINUOUS
370
-3
390
F
  0
LAYER
  5
203
100
AcDbSymbolTableRecord
100
AcDbLayerTableRecord
  2
05_CURVES
 70
0
 62
7
  6
CONTINUOUS
370
-3
390
F
  0
LAYER
  5
204
100
AcDbSymbolTableRecord
100
AcDbLayerTableRecord
  2
06_SURFS
 70
0
 62
7
  6
CONTINUOUS
370
-3
390
F
  0
LAYER
  5
205
100
AcDbSymbolTableRecord
100
AcDbLayerTableRecord
  2
07_COSMETICS
 70
0
 62
7
  6
CONTINUOUS
370
-3
390
F
  0
LAYER
  5
206
100
AcDbSymbolTableRecord
100
AcDbLayerTableRecord
  2
10_NOTES
 70
0
 62
7
  6
CONTINUOUS
370
-3
390
F
  0
LAYER
  5
207
100
AcDbSymbolTableRecord
100
AcDbLayerTableRecord
  2
11_NOTES_PUB
 70
0
 62
7
  6
CONTINUOUS
370
-3
390
F
  0
LAYER
  5
208
100
AcDbSymbolTableRecord
100
AcDbLayerTableRecord
  2
13_REF_GTOL
 70
0
 62
7
  6
CONTINUOUS
370
-3
390
F
  0
LAYER
  5
209
100
AcDbSymbolTableRecord
100
AcDbLayerTableRecord
  2
16_MISC
 70
0
 62
7
  6
CONTINUOUS
370
-3
390
F
  0
LAYER
  5
20A
100
AcDbSymbolTableRecord
100
AcDbLayerTableRecord
  2
17_NO_PRINT
 70
0
 62
7
  6
CONTINUOUS
370
-3
390
F
  0
LAYER
  5
20B
100
AcDbSymbolTableRecord
100
AcDbLayerTableRecord
  2
18_DATUM_CAMS_JOINTS
 70
0
 62
7
  6
CONTINUOUS
370
-3
390
F
  0
LAYER
  5
20C
100
AcDbSymbolTableRecord
100
AcDbLayerTableRecord
  2
19_DATUM_FUNCTIONAL
 70
0
 62
7
  6
CONTINUOUS
370
-3
390
F
  0
LAYER
  5
20D
100
AcDbSymbolTableRecord
100
AcDbLayerTableRecord
  2
20_DATUM_KINEMATIC_SCHEME
 70
0
 62
7
  6
CONTINUOUS
370
-3
390
F
  0
ENDTAB
  0
TABLE
  2
STYLE
  5
3
100
AcDbSymbolTable
 70
1
  0
STYLE
  5
11
100
AcDbSymbolTableRecord
100
AcDbTextStyleTableRecord
  2
STANDARD
 70
0
 40
0.0
 41
1.0
 50
0.0
 71
0
 42
0.2
  3
ARIAL.TTF
  4

  0
STYLE
  5
20E
100
AcDbSymbolTableRecord
100
AcDbTextStyleTableRecord
  2
TEXTSTYLE_1
 70
0
 40
0.0
 41
0.8
 50
0.0
 71
0
 42
0.2
  3
gdt
  4

  0
ENDTAB
  0
TABLE
  2
VIEW
  5
6
100
AcDbSymbolTable
 70
0
  0
ENDTAB
  0
TABLE
  2
UCS
  5
7
100
AcDbSymbolTable
 70
0
  0
ENDTAB
  0
TABLE
  2
APPID
  5
9
100
AcDbSymbolTable
 70
1
  0
APPID
  5
20F
100
AcDbSymbolTableRecord
100
AcDbRegAppTableRecord
  2
ACAD
 70
0
  0
ENDTAB
  0
TABLE
  2
BLOCK_RECORD
  5
1
100
AcDbSymbolTable
 70
0
  0
BLOCK_RECORD
  5
210
100
AcDbSymbolTableRecord
100
AcDbBlockTableRecord
  2
*Model_Space
  0
BLOCK_RECORD
  5
211
100
AcDbSymbolTableRecord
100
AcDbBlockTableRecord
  2
*Paper_Space
  0
BLOCK_RECORD
  5
212
100
AcDbSymbolTableRecord
100
AcDbBlockTableRecord
  2
_FILLED
  0
ENDTAB
  0
TABLE
  2
DIMSTYLE
  5
A
100
AcDbSymbolTable
 70
1
100
AcDbDimStyleTable
 71
0
  0
DIMSTYLE
105
213
100
AcDbSymbolTableRecord
100
AcDbDimStyleTableRecord
  2
STANDARD
 70
0
  3

  4

 40
1.0
 41
0.6134141297
 42
1.0
 43
0.38
 44
1.0
 45
0.0
 46
0.0
 47
0.01
 48
0.01
140
0.8587797816
141
0.09
142
0.0
143
25.4
144
1.0
145
0.0
146
1.0
147
0.625
 71
1
 72
0
 73
0
 74
0
 75
0
 76
0
 77
1
 78
8
 79
2
170
0
171
1
172
0
173
0
174
0
175
0
176
0
177
0
178
0
270
2
179
2
271
2
272
2
273
2
274
2
275
0
280
0
281
0
282
0
283
1
284
8
285
0
286
0
287
3
288
0
340
11
278
46
341
212
342
212
343
212
344
212
  0
ENDTAB
  0
ENDSEC
  0
SECTION
  2
BLOCKS
  0
BLOCK
  5
20
100
AcDbEntity
  8
0
100
AcDbBlockBegin
  2
*Model_Space
 70
0
 10
0.0
 20
0.0
 30
0.0
  3
*Model_Space
  1

  0
ENDBLK
  5
21
100
AcDbEntity
  8
0
100
AcDbBlockEnd
  0
BLOCK
  5
1C
100
AcDbEntity
  8
0
100
AcDbBlockBegin
  2
*Paper_Space
 70
0
 10
0.0
 20
0.0
 30
0.0
  3
*Paper_Space
  1

  0
ENDBLK
  5
1D
100
AcDbEntity
  8
0
100
AcDbBlockEnd
  0
BLOCK
  5
214
100
AcDbEntity
  8
0
100
AcDbBlockBegin
  2
_FILLED
 70
64
 10
0.0
 20
0.0
  3
_FILLED
  1

  0
SOLID
  5
215
100
AcDbEntity
  8
0
  6
BYBLOCK
 62
0
100
AcDbTrace
 10
0.0
 20
0.0
 11
-1.0
 21
0.25
 12
-1.0
 22
-0.25
 13
-1.0
 23
-0.25
  0
ENDBLK
  5
216
100
AcDbEntity
  8
0
  6
BYBLOCK
 62
0
100
AcDbBlockEnd
  0
ENDSEC
  0
SECTION
  2
ENTITIES
  0
LINE
  5
217
100
AcDbEntity
  8
0
100
AcDbLine
 62
7
  6
BYLAYER
 10
10.3029484655
 20
15.5938930422
 11
14.604101486
 21
13.1106773658
  0
LINE
  5
218
100
AcDbEntity
  8
0
100
AcDbLine
 62
7
  6
BYLAYER
 10
10.0640604899
 20
15.764236831
 11
14.7046658241
 21
13.0850427036
  0
LINE
  5
219
100
AcDbEntity
  8
0
100
AcDbLine
 62
7
  6
BYLAYER
 10
7.3632773508
 20
31.67943096
 11
7.3633046983
 21
31.6567216013
  0
LINE
  5
21A
100
AcDbEntity
  8
0
100
AcDbLine
 62
7
  6
BYLAYER
 10
8.6683867812
 20
43.4765693381
 11
8.6659421334
 21
43.462934791
  0
LINE
  5
21B
100
AcDbEntity
  8
0
100
AcDbLine
 62
7
  6
BYLAYER
 10
8.6683867812
 20
43.4765693381
 11
8.6654688844
 21
43.4628140091
  0
LWPOLYLINE
  5
21C
100
AcDbEntity
  8
0
100
AcDbPolyline
 62
7
  6
BYLAYER
 90
4
 70
0
 10
12.7134768844
 20
50.2407119329
 10
11.9604657997
 20
49.702485278
 10
10.4586691882
 20
47.5659261536
 10
10.1612456074
 20
46.2329475738
  0
LINE
  5
21D
100
AcDbEntity
  8
0
100
AcDbLine
 62
7
  6
BYLAYER
 10
27.9111078075
 20
59.271955719
 11
27.0314625456
 21
58.7640953218
  0
LINE
  5
21E
100
AcDbEntity
  8
0
100
AcDbLine
 62
7
  6
BYLAYER
 10
12.7134768851
 20
50.2407119333
 11
19.703958889
 21
54.2766445088
  0
LINE
  5
21F
100
AcDbEntity
  8
0
100
AcDbLine
 62
7
  6
BYLAYER
 10
25.986215327
 20
58.4291192073
 11
24.9049470077
 21
57.8534185114
  0
LINE
  5
220
100
AcDbEntity
  8
0
100
AcDbLine
 62
7
  6
BYLAYER
 10
25.9914951986
 20
56.0179725279
 11
25.9956628943
 21
56.0194487184
  0
LINE
  5
221
100
AcDbEntity
  8
0
100
AcDbLine
 62
7
  6
BYLAYER
 10
26.602408279
 20
56.2343568645
 11
26.6063956918
 21
56.2357691991
  0
LINE
  5
222
100
AcDbEntity
  8
0
100
AcDbLine
 62
7
  6
BYLAYER
 10
26.5709925336
 20
56.298196801
 11
26.5750288583
 21
56.2995637278
  0
LINE
  5
223
100
AcDbEntity
  8
0
100
AcDbLine
 62
7
  6
BYLAYER
 10
10.4008056057
 20
42.4763794907
 11
10.3983610266
 21
42.4627445386
  0
LINE
  5
224
100
AcDbEntity
  8
0
100
AcDbLine
 62
7
  6
BYLAYER
 10
10.4008056057
 20
42.4763794907
 11
10.3978876143
 21
42.462623715
  0
LWPOLYLINE
  5
225
100
AcDbEntity
  8
0
100
AcDbPolyline
 62
7
  6
BYLAYER
 90
3
 70
0
 10
13.1461514525
 20
48.4409248288
 10
12.2106402958
 20
47.7071512806
 10
11.9557365641
 20
47.2689912264
  0
LWPOLYLINE
  5
226
100
AcDbEntity
  8
0
100
AcDbPolyline
 62
7
  6
BYLAYER
 90
3
 70
0
 10
14.1039781003
 20
49.2851068734
 10
12.0910560826
 20
48.0478227892
 10
11.5256359619
 20
47.0206740102
  0
LINE
  5
227
100
AcDbEntity
  8
0
100
AcDbLine
 62
7
  6
BYLAYER
 10
25.4195099815
 20
55.7286867384
 11
25.4236222347
 21
55.7312079829
  0
LINE
  5
228
100
AcDbEntity
  8
0
100
AcDbLine
 62
7
  6
BYLAYER
 10
25.3656641684
 20
55.6977474822
 11
25.3395080802
 21
55.6824999202
  0
LINE
  5
229
100
AcDbEntity
  8
0
100
AcDbLine
 62
7
  6
BYLAYER
 10
25.4077205574
 20
55.7221749987
 11
25.4193823094
 21
55.7289078742
  0
LINE
  5
22A
100
AcDbEntity
  8
0
100
AcDbLine
 62
7
  6
BYLAYER
 10
25.4235582361
 20
55.7313188322
 11
25.8072342677
 21
55.95283297
  0
LINE
  5
22B
100
AcDbEntity
  8
0
100
AcDbLine
 62
7
  6
BYLAYER
 10
16.5257827871
 20
49.9074928937
 11
7.0587324672
 21
44.4417214693
  0
LINE
  5
22C
100
AcDbEntity
  8
0
100
AcDbLine
 62
7
  6
BYLAYER
 10
25.9762561383
 20
56.0453204336
 11
25.9801394774
 21
56.0473295721
  0
LINE
  5
22D
100
AcDbEntity
  8
0
100
AcDbLine
 62
7
  6
BYLAYER
 10
16.8702960047
 20
48.7892756027
 11
9.0004388336
 21
43.9680975461
  0
LINE
  5
22E
100
AcDbEntity
  8
0
100
AcDbLine
 62
7
  6
BYLAYER
 10
9.0357943199
 20
43.9476855084
 11
16.9365380136
 21
48.7877850552
  0
LINE
  5
22F
100
AcDbEntity
  8
0
100
AcDbLine
 62
7
  6
BYLAYER
 10
12.3300331612
 20
47.0260841361
 11
17.2872330324
 21
49.8881077322
  0
LINE
  5
230
100
AcDbEntity
  8
0
100
AcDbLine
 62
7
  6
BYLAYER
 10
34.9106515524
 20
59.8972351091
 11
31.9967277261
 21
58.2148904458
  0
LINE
  5
231
100
AcDbEntity
  8
0
100
AcDbLine
 62
7
  6
BYLAYER
 10
35.5805980193
 20
59.8656715474
 11
32.4057017995
 21
58.0326553019
  0
LINE
  5
232
100
AcDbEntity
  8
0
100
AcDbLine
 62
7
  6
BYLAYER
 10
25.9472019116
 20
54.2438597601
 11
26.1125820241
 21
54.3393414426
  0
LINE
  5
233
100
AcDbEntity
  8
0
100
AcDbLine
 62
7
  6
BYLAYER
 10
16.8702960047
 20
48.7892756027
 11
16.9011825273
 21
48.8071078384
  0
LINE
  5
234
100
AcDbEntity
  8
0
100
AcDbLine
 62
7
  6
BYLAYER
 10
26.8251200111
 20
53.9396350384
 11
28.3712593972
 21
54.8322937007
  0
LWPOLYLINE
  5
235
100
AcDbEntity
  8
0
100
AcDbPolyline
 62
7
  6
BYLAYER
 90
3
 70
0
 10
13.3088532146
 20
48.5347039031
 10
14.2226319216
 20
48.9263253556
 10
14.8661247014
 20
48.9492945708
  0
LINE
  5
236
100
AcDbEntity
  8
0
100
AcDbLine
 62
7
  6
BYLAYER
 10
16.9365379733
 20
48.7877850784
 11
17.8119333621
 21
49.039968227
  0
LINE
  5
237
100
AcDbEntity
  8
0
100
AcDbLine
 62
7
  6
BYLAYER
 10
19.0315052954
 20
48.335863972
 11
18.6336015314
 21
47.8080074031
  0
LINE
  5
238
100
AcDbEntity
  8
0
100
AcDbLine
 62
7
  6
BYLAYER
 10
10.7682131465
 20
42.9474956598
 11
18.6380703177
 21
47.7686737165
  0
LINE
  5
239
100
AcDbEntity
  8
0
100
AcDbLine
 62
7
  6
BYLAYER
 10
18.6336015314
 20
47.8080074031
 11
10.735796077
 21
42.9698349217
  0
LINE
  5
23A
100
AcDbEntity
  8
0
100
AcDbLine
 62
7
  6
BYLAYER
 10
37.1549177847
 20
58.9567581695
 11
33.9800215649
 21
57.1237419239
  0
LINE
  5
23B
100
AcDbEntity
  8
0
100
AcDbLine
 62
7
  6
BYLAYER
 10
18.6689568402
 20
47.7865059522
 11
18.6380703177
 21
47.7686737165
  0
LINE
  5
23C
100
AcDbEntity
  8
0
100
AcDbLine
 62
7
  6
BYLAYER
 10
15.3280265488
 20
44.6060477474
 11
20.8643961703
 21
47.8024531587
  0
LINE
  5
23D
100
AcDbEntity
  8
0
100
AcDbLine
 62
7
  6
BYLAYER
 10
25.998163368
 20
55.999147647
 11
26.0013598051
 21
56.0033647571
  0
LINE
  5
23E
100
AcDbEntity
  8
0
100
AcDbLine
 62
7
  6
BYLAYER
 10
38.1355322149
 20
57.169352412
 11
35.9278153828
 21
55.8947341132
  0
LWPOLYLINE
  5
23F
100
AcDbEntity
  8
0
100
AcDbPolyline
 62
7
  6
BYLAYER
 90
4
 70
0
 10
21.3780732744
 20
25.6437498499
 10
22.8084905569
 20
25.0668717346
 10
25.5146345428
 20
25.0093361992
 10
26.9634130925
 20
25.5589510863
  0
LINE
  5
240
100
AcDbEntity
  8
0
100
AcDbLine
 62
7
  6
BYLAYER
 10
22.2246097136
 20
25.2160129888
 11
21.3808888169
 21
25.5860355886
  0
LINE
  5
241
100
AcDbEntity
  8
0
100
AcDbLine
 62
7
  6
BYLAYER
 10
16.9011825471
 20
48.807107829
 11
16.9011825471
 21
48.7661258312
  0
LINE
  5
242
100
AcDbEntity
  8
0
100
AcDbLine
 62
7
  6
BYLAYER
 10
12.1539592234
 20
39.9766944466
 11
21.8970020457
 21
45.6018092654
  0
LINE
  5
243
100
AcDbEntity
  8
0
100
AcDbLine
 62
7
  6
BYLAYER
 10
32.1106844491
 20
50.8880820226
 11
32.0399740654
 21
50.8472576072
  0
LINE
  5
244
100
AcDbEntity
  8
0
100
AcDbLine
 62
7
  6
BYLAYER
 10
34.9628907059
 20
51.1191621168
 11
33.3366753596
 21
50.1802718533
  0
LINE
  5
245
100
AcDbEntity
  8
0
100
AcDbLine
 62
7
  6
BYLAYER
 10
22.3976036018
 20
45.723241733
 11
21.878865331
 21
45.4242066259
  0
LINE
  5
246
100
AcDbEntity
  8
0
100
AcDbLine
 62
7
  6
BYLAYER
 10
18.505427382
 20
49.2615630809
 11
18.505427382
 21
49.2294974688
  0
LINE
  5
247
100
AcDbEntity
  8
0
100
AcDbLine
 62
7
  6
BYLAYER
 10
18.6336015314
 20
47.8080074031
 11
18.6336015314
 21
47.7686737165
  0
LINE
  5
248
100
AcDbEntity
  8
0
100
AcDbLine
 62
7
  6
BYLAYER
 10
19.3407010737
 20
48.7396085401
 11
19.3407010737
 21
48.671129243
  0
LINE
  5
249
100
AcDbEntity
  8
0
100
AcDbLine
 62
7
  6
BYLAYER
 10
26.6202447223
 20
56.1840003739
 11
26.6226504835
 21
56.1898774074
  0
LINE
  5
24A
100
AcDbEntity
  8
0
100
AcDbLine
 62
7
  6
BYLAYER
 10
43.0916324238
 20
55.4245836478
 11
42.879501633
 21
55.3021106097
  0
LINE
  5
24B
100
AcDbEntity
  8
0
100
AcDbLine
 62
7
  6
BYLAYER
 10
38.0565920275
 20
47.6923608364
 11
37.2163166053
 21
47.3633304253
  0
LINE
  5
24C
100
AcDbEntity
  8
0
100
AcDbLine
 62
7
  6
BYLAYER
 10
22.1897095123
 20
25.3162220324
 11
22.2228100333
 21
25.2255960657
  0
LINE
  5
24D
100
AcDbEntity
  8
0
100
AcDbLine
 62
7
  6
BYLAYER
 10
22.224072894
 20
25.2268108161
 11
22.2246097136
 21
25.2160129888
  0
LINE
  5
24E
100
AcDbEntity
  8
0
100
AcDbLine
 62
7
  6
BYLAYER
 10
7.4074506459
 20
31.6822091239
 11
7.3633046983
 21
31.6567216013
  0
LINE
  5
24F
100
AcDbEntity
  8
0
100
AcDbLine
 62
7
  6
BYLAYER
 10
37.5081668067
 20
48.6499973178
 11
36.7325402039
 21
48.2021762864
  0
LINE
  5
250
100
AcDbEntity
  8
0
100
AcDbLine
 62
7
  6
BYLAYER
 10
45.1233670388
 20
52.6446011963
 11
45.1567773244
 21
52.6638905185
  0
LINE
  5
251
100
AcDbEntity
  8
0
100
AcDbLine
 62
7
  6
BYLAYER
 10
37.2142868893
 20
48.0242052712
 11
37.9893077442
 21
48.4716765639
  0
LINE
  5
252
100
AcDbEntity
  8
0
100
AcDbLine
 62
7
  6
BYLAYER
 10
38.0693080773
 20
48.3331126916
 11
37.2942872223
 21
47.8856413989
  0
LINE
  5
253
100
AcDbEntity
  8
0
100
AcDbLine
 62
7
  6
BYLAYER
 10
37.2075421762
 20
47.3794532642
 11
37.983168779
 21
47.8272742955
  0
LINE
  5
254
100
AcDbEntity
  8
0
100
AcDbLine
 62
7
  6
BYLAYER
 10
37.6805102041
 20
47.175966139
 11
38.520129389
 21
47.5047395843
  0
LINE
  5
255
100
AcDbEntity
  8
0
100
AcDbLine
 62
7
  6
BYLAYER
 10
38.5928528082
 20
47.3626773062
 11
37.7532336233
 21
47.0339038609
  0
LINE
  5
256
100
AcDbEntity
  8
0
100
AcDbLine
 62
7
  6
BYLAYER
 10
37.6481119566
 20
46.5198355957
 11
38.4883873786
 21
46.8488660067
  0
LINE
  5
257
100
AcDbEntity
  8
0
100
AcDbLine
 62
7
  6
BYLAYER
 10
38.5981034057
 20
34.1852862649
 11
38.5928528447
 21
34.1846269808
  0
LINE
  5
258
100
AcDbEntity
  8
0
100
AcDbLine
 62
7
  6
BYLAYER
 10
27.2810196299
 20
56.2818380782
 11
27.2827888854
 21
56.2892504059
  0
LINE
  5
259
100
AcDbEntity
  8
0
100
AcDbLine
 62
7
  6
BYLAYER
 10
36.276954991
 20
50.4655054423
 11
35.6477980451
 21
49.7912058654
  0
LINE
  5
25A
100
AcDbEntity
  8
0
100
AcDbLine
 62
7
  6
BYLAYER
 10
36.9134457343
 20
49.5767298526
 11
36.2083709376
 21
49.0135263893
  0
LINE
  5
25B
100
AcDbEntity
  8
0
100
AcDbLine
 62
7
  6
BYLAYER
 10
36.7061300698
 20
48.8475303485
 11
37.4106542182
 21
49.410293962
  0
LINE
  5
25C
100
AcDbEntity
  8
0
100
AcDbLine
 62
7
  6
BYLAYER
 10
37.4973226143
 20
49.2762830502
 11
36.7927984659
 21
48.7135194368
  0
LINE
  5
25D
100
AcDbEntity
  8
0
100
AcDbLine
 62
7
  6
BYLAYER
 10
36.7229645351
 20
48.2178365709
 11
37.4280393319
 21
48.7810400342
  0
LINE
  5
25E
100
AcDbEntity
  8
0
100
AcDbLine
 62
7
  6
BYLAYER
 10
9.1323628257
 20
30.738923018
 11
9.0955381793
 21
30.7176624254
  0
LINE
  5
25F
100
AcDbEntity
  8
0
100
AcDbLine
 62
7
  6
BYLAYER
 10
43.5440790601
 20
50.4410884185
 11
41.3363622288
 21
49.1664701201
  0
LINE
  5
260
100
AcDbEntity
  8
0
100
AcDbLine
 62
7
  6
BYLAYER
 10
8.8523264427
 20
30.171392293
 11
9.0447385739
 21
30.2824808256
  0
LINE
  5
261
100
AcDbEntity
  8
0
100
AcDbLine
 62
7
  6
BYLAYER
 10
46.094308428
 20
51.4256786312
 11
45.8493604334
 21
51.2842586848
  0
LINE
  5
262
100
AcDbEntity
  8
0
100
AcDbLine
 62
7
  6
BYLAYER
 10
7.0283194277
 20
44.423441245
 11
8.6683867812
 21
43.4765693381
  0
LINE
  5
263
100
AcDbEntity
  8
0
100
AcDbLine
 62
7
  6
BYLAYER
 10
8.7037422674
 20
43.4561573004
 11
10.4008056056
 21
42.4763794908
  0
LINE
  5
264
100
AcDbEntity
  8
0
100
AcDbLine
 62
7
  6
BYLAYER
 10
10.436161094
 20
42.4559674518
 11
12.0749021284
 21
41.5098612782
  0
LINE
  5
265
100
AcDbEntity
  8
0
100
AcDbLine
 62
7
  6
BYLAYER
 10
12.0525634664
 20
42.2059924319
 11
10.7682131465
 21
42.9474956598
  0
LINE
  5
266
100
AcDbEntity
  8
0
100
AcDbLine
 62
7
  6
BYLAYER
 10
9.0004388336
 20
43.9680975461
 11
7.7101283693
 21
44.7130417872
  0
LINE
  5
267
100
AcDbEntity
  8
0
100
AcDbLine
 62
7
  6
BYLAYER
 10
27.9754591946
 20
56.2919161558
 11
27.9767630919
 21
56.300644028
  0
LINE
  5
268
100
AcDbEntity
  8
0
100
AcDbLine
 62
7
  6
BYLAYER
 10
31.4951171357
 20
51.3659472993
 11
32.319140016
 21
53.4275396062
  0
LINE
  5
269
100
AcDbEntity
  8
0
100
AcDbLine
 62
7
  6
BYLAYER
 10
32.3436299645
 20
53.3663347382
 11
31.4969753414
 21
51.2481209128
  0
LINE
  5
26A
100
AcDbEntity
  8
0
100
AcDbLine
 62
7
  6
BYLAYER
 10
35.6035388404
 20
51.3095599138
 11
35.0550880099
 21
50.5292960504
  0
LINE
  5
26B
100
AcDbEntity
  8
0
100
AcDbLine
 62
7
  6
BYLAYER
 10
35.5797751443
 20
50.3946116338
 11
36.1277976464
 21
51.1742661278
  0
LINE
  5
26C
100
AcDbEntity
  8
0
100
AcDbLine
 62
7
  6
BYLAYER
 10
36.2257776441
 20
51.0523784361
 11
35.6777551419
 21
50.2727239421
  0
LINE
  5
26D
100
AcDbEntity
  8
0
100
AcDbLine
 62
7
  6
BYLAYER
 10
35.6368442433
 20
49.8055878531
 11
36.1852950738
 21
50.5858517165
  0
LINE
  5
26E
100
AcDbEntity
  8
0
100
AcDbLine
 62
7
  6
BYLAYER
 10
36.159907126
 20
49.63967537
 11
36.7885727136
 21
50.3134483333
  0
LINE
  5
26F
100
AcDbEntity
  8
0
100
AcDbLine
 62
7
  6
BYLAYER
 10
36.8812495739
 20
50.185010286
 11
36.2525839863
 21
49.5112373228
  0
LINE
  5
270
100
AcDbEntity
  8
0
100
AcDbLine
 62
7
  6
BYLAYER
 10
36.1980669617
 20
49.0286049128
 11
36.8272239074
 21
49.7029044896
  0
LINE
  5
271
100
AcDbEntity
  8
0
100
AcDbLine
 62
7
  6
BYLAYER
 10
44.9503289619
 20
49.2592209498
 11
41.7754327421
 21
47.4262047042
  0
LINE
  5
272
100
AcDbEntity
  8
0
100
AcDbLine
 62
7
  6
BYLAYER
 10
44.8252538837
 20
44.0356898648
 11
45.5455253985
 21
44.2747514032
  0
LINE
  5
273
100
AcDbEntity
  8
0
100
AcDbLine
 62
7
  6
BYLAYER
 10
39.0702651076
 20
34.6300967573
 11
39.0639723546
 21
34.6309521542
  0
LINE
  5
274
100
AcDbEntity
  8
0
100
AcDbLine
 62
7
  6
BYLAYER
 10
29.4439758922
 20
56.0491551178
 11
29.4448594147
 21
56.05944057
  0
LINE
  5
275
100
AcDbEntity
  8
0
100
AcDbLine
 62
7
  6
BYLAYER
 10
28.698278312
 20
56.2141579066
 11
28.6992912803
 21
56.2238797334
  0
LINE
  5
276
100
AcDbEntity
  8
0
100
AcDbLine
 62
7
  6
BYLAYER
 10
34.1666722599
 20
52.8381998329
 11
33.7915097966
 21
51.864583492
  0
LINE
  5
277
100
AcDbEntity
  8
0
100
AcDbLine
 62
7
  6
BYLAYER
 10
34.335669152
 20
51.7702027128
 11
34.7105386215
 21
52.74305868
  0
LINE
  5
278
100
AcDbEntity
  8
0
100
AcDbLine
 62
7
  6
BYLAYER
 10
34.816853148
 20
52.6369977043
 11
34.4419836786
 21
51.6641417371
  0
LINE
  5
279
100
AcDbEntity
  8
0
100
AcDbLine
 62
7
  6
BYLAYER
 10
34.8983221368
 20
52.1024695708
 11
34.4347514634
 21
51.2221796998
  0
LINE
  5
27A
100
AcDbEntity
  8
0
100
AcDbLine
 62
7
  6
BYLAYER
 10
34.9701492793
 20
51.106593619
 11
35.4333579138
 21
51.9861960022
  0
LINE
  5
27B
100
AcDbEntity
  8
0
100
AcDbLine
 62
7
  6
BYLAYER
 10
35.5358953618
 20
51.8717863051
 11
35.0726867274
 21
50.9921839219
  0
LINE
  5
27C
100
AcDbEntity
  8
0
100
AcDbLine
 62
7
  6
BYLAYER
 10
35.0435676239
 20
50.5428720825
 11
35.5071382971
 21
51.4231619533
  0
LINE
  5
27D
100
AcDbEntity
  8
0
100
AcDbLine
 62
7
  6
BYLAYER
 10
45.7374888446
 20
47.2304397969
 11
42.5625926248
 21
45.3974235513
  0
LINE
  5
27E
100
AcDbEntity
  8
0
100
AcDbLine
 62
7
  6
BYLAYER
 10
36.0818430895
 20
41.1149547897
 11
36.6223894714
 21
41.4270375259
  0
LINE
  5
27F
100
AcDbEntity
  8
0
100
AcDbLine
 62
7
  6
BYLAYER
 10
45.5315176816
 20
45.9527355528
 11
42.8409835137
 21
44.3993641991
  0
LINE
  5
280
100
AcDbEntity
  8
0
100
AcDbLine
 62
7
  6
BYLAYER
 10
44.6380039277
 20
45.3700261469
 11
44.9349871665
 21
45.5414884763
  0
LINE
  5
281
100
AcDbEntity
  8
0
100
AcDbLine
 62
7
  6
BYLAYER
 10
37.1577070625
 20
40.8747142241
 11
37.4017033968
 21
41.0155847325
  0
LINE
  5
282
100
AcDbEntity
  8
0
100
AcDbLine
 62
7
  6
BYLAYER
 10
37.8316557271
 20
40.7673572545
 11
39.3843134939
 21
41.6637792832
  0
LINE
  5
283
100
AcDbEntity
  8
0
100
AcDbLine
 62
7
  6
BYLAYER
 10
31.8695559899
 20
54.648748837
 11
31.7739547109
 21
53.4421660768
  0
LINE
  5
284
100
AcDbEntity
  8
0
100
AcDbLine
 62
7
  6
BYLAYER
 10
30.2068767264
 20
55.7981635601
 11
30.2077594688
 21
55.8084669036
  0
LINE
  5
285
100
AcDbEntity
  8
0
100
AcDbLine
 62
7
  6
BYLAYER
 10
30.9811746785
 20
55.463093431
 11
30.9821276129
 21
55.4727480457
  0
LINE
  5
286
100
AcDbEntity
  8
0
100
AcDbLine
 62
7
  6
BYLAYER
 10
31.7609768736
 20
55.0464948164
 11
31.7619818654
 21
55.054710766
  0
LINE
  5
287
100
AcDbEntity
  8
0
100
AcDbLine
 62
7
  6
BYLAYER
 10
32.5403485462
 20
54.5515382834
 11
32.5412590057
 21
54.5574062884
  0
LINE
  5
288
100
AcDbEntity
  8
0
100
AcDbLine
 62
7
  6
BYLAYER
 10
32.6465043899
 20
54.1162026647
 11
32.4560294154
 21
52.9788166861
  0
LINE
  5
289
100
AcDbEntity
  8
0
100
AcDbLine
 62
7
  6
BYLAYER
 10
33.0116136241
 20
52.9325069467
 11
33.2019398417
 21
54.0690046509
  0
LINE
  5
28A
100
AcDbEntity
  8
0
100
AcDbLine
 62
7
  6
BYLAYER
 10
33.313358584
 20
53.9819930002
 11
33.1230323664
 21
52.845495296
  0
LINE
  5
28B
100
AcDbEntity
  8
0
100
AcDbLine
 62
7
  6
BYLAYER
 10
33.1175782645
 20
52.4621849818
 11
33.308053239
 21
53.5995709602
  0
LINE
  5
28C
100
AcDbEntity
  8
0
100
AcDbLine
 62
7
  6
BYLAYER
 10
33.4141572477
 20
53.5111513979
 11
33.1302582072
 21
52.4516183951
  0
LINE
  5
28D
100
AcDbEntity
  8
0
100
AcDbLine
 62
7
  6
BYLAYER
 10
33.6811635393
 20
52.3803884493
 11
33.9648408607
 21
53.4390939792
  0
LINE
  5
28E
100
AcDbEntity
  8
0
100
AcDbLine
 62
7
  6
BYLAYER
 10
34.074123348
 20
53.342188913
 11
33.7904460266
 21
52.2834833831
  0
LINE
  5
28F
100
AcDbEntity
  8
0
100
AcDbLine
 62
7
  6
BYLAYER
 10
33.7791230411
 20
51.8762445315
 11
34.0630220815
 21
52.9357775341
  0
LINE
  5
290
100
AcDbEntity
  8
0
100
AcDbLine
 62
7
  6
BYLAYER
 10
34.4227522966
 20
51.2348464228
 11
34.7979147599
 21
52.2084627636
  0
LINE
  5
291
100
AcDbEntity
  8
0
100
AcDbLine
 62
7
  6
BYLAYER
 10
44.7996424211
 20
44.1778372769
 11
45.3379625825
 21
44.4886347118
  0
LINE
  5
292
100
AcDbEntity
  8
0
100
AcDbLine
 62
7
  6
BYLAYER
 10
37.2417571372
 20
38.2721673481
 11
39.4402894957
 21
39.5414830202
  0
LINE
  5
293
100
AcDbEntity
  8
0
100
AcDbLine
 62
7
  6
BYLAYER
 10
39.486385223
 20
35.1521197805
 11
39.4790811366
 21
35.1542940159
  0
LINE
  5
294
100
AcDbEntity
  8
0
100
AcDbLine
 62
7
  6
BYLAYER
 10
39.8432306333
 20
35.7474346493
 11
39.8350199622
 21
35.7506696186
  0
LINE
  5
295
100
AcDbEntity
  8
0
100
AcDbLine
 62
7
  6
BYLAYER
 10
36.872087867
 20
35.1944135018
 11
36.0536713595
 21
35.6669158033
  0
LINE
  5
296
100
AcDbEntity
  8
0
100
AcDbLine
 62
7
  6
BYLAYER
 10
30.3114501587
 20
55.4806965766
 11
30.4070514377
 21
54.1637254654
  0
LINE
  5
297
100
AcDbEntity
  8
0
100
AcDbLine
 62
7
  6
BYLAYER
 10
30.9639940723
 20
54.2008373558
 11
30.8684674559
 21
55.5167799407
  0
LINE
  5
298
100
AcDbEntity
  8
0
100
AcDbLine
 62
7
  6
BYLAYER
 10
31.0762494489
 20
53.8449772665
 11
30.9806481699
 21
55.1619483777
  0
LINE
  5
299
100
AcDbEntity
  8
0
100
AcDbLine
 62
7
  6
BYLAYER
 10
31.0892249605
 20
55.1047369243
 11
31.0892249605
 21
53.8381402057
  0
LINE
  5
29A
100
AcDbEntity
  8
0
100
AcDbLine
 62
7
  6
BYLAYER
 10
31.6478393176
 20
55.111815843
 11
31.6478393176
 21
53.8462083095
  0
LINE
  5
29B
100
AcDbEntity
  8
0
100
AcDbLine
 62
7
  6
BYLAYER
 10
31.7609791994
 20
53.4503114689
 11
31.7609768736
 21
55.0464973223
  0
LINE
  5
29C
100
AcDbEntity
  8
0
100
AcDbLine
 62
7
  6
BYLAYER
 10
32.3436299645
 20
53.4223535292
 11
32.3436299645
 21
53.3663347382
  0
LINE
  5
29D
100
AcDbEntity
  8
0
100
AcDbLine
 62
7
  6
BYLAYER
 10
32.3321150854
 20
53.4223562497
 11
32.4276417019
 21
54.6279966945
  0
LINE
  5
29E
100
AcDbEntity
  8
0
100
AcDbLine
 62
7
  6
BYLAYER
 10
32.5403487353
 20
54.5515406705
 11
32.4448221189
 21
53.3459002257
  0
LINE
  5
29F
100
AcDbEntity
  8
0
100
AcDbLine
 62
7
  6
BYLAYER
 10
32.443152722
 20
52.9882084128
 11
32.538754001
 21
54.194791173
  0
LINE
  5
2A0
100
AcDbEntity
  8
0
100
AcDbLine
 62
7
  6
BYLAYER
 10
39.3559426418
 20
38.7896410019
 11
37.8316557271
 21
37.9095987945
  0
LINE
  5
2A1
100
AcDbEntity
  8
0
100
AcDbLine
 62
7
  6
BYLAYER
 10
45.1924601827
 20
40.9909034772
 11
44.7312828791
 21
40.7246442262
  0
LINE
  5
2A2
100
AcDbEntity
  8
0
100
AcDbLine
 62
7
  6
BYLAYER
 10
38.041320874
 20
45.645525775
 11
38.939850112
 21
45.8532614455
  0
LINE
  5
2A3
100
AcDbEntity
  8
0
100
AcDbLine
 62
7
  6
BYLAYER
 10
40.138005871
 20
36.4115563461
 11
40.1290799222
 21
36.4155401837
  0
LINE
  5
2A4
100
AcDbEntity
  8
0
100
AcDbLine
 62
7
  6
BYLAYER
 10
21.6965437828
 20
46.6103443096
 11
22.4204515792
 21
46.0294104371
  0
LINE
  5
2A5
100
AcDbEntity
  8
0
100
AcDbLine
 62
7
  6
BYLAYER
 10
21.7565781317
 20
48.2000368614
 11
21.6733485718
 21
48.2682122882
  0
LINE
  5
2A6
100
AcDbEntity
  8
0
100
AcDbLine
 62
7
  6
BYLAYER
 10
29.5421509205
 20
55.773766514
 11
29.732625895
 21
54.4164439555
  0
LINE
  5
2A7
100
AcDbEntity
  8
0
100
AcDbLine
 62
7
  6
BYLAYER
 10
21.3477803206
 20
26.2647084878
 11
21.7039829591
 21
26.4703609495
  0
LINE
  5
2A8
100
AcDbEntity
  8
0
100
AcDbLine
 62
7
  6
BYLAYER
 10
36.7984750173
 20
34.8744941138
 11
37.212628174
 21
35.113604123
  0
LINE
  5
2A9
100
AcDbEntity
  8
0
100
AcDbLine
 62
7
  6
BYLAYER
 10
45.3118533732
 20
38.6735100388
 11
43.3115133044
 21
37.5186200553
  0
LINE
  5
2AA
100
AcDbEntity
  8
0
100
AcDbLine
 62
7
  6
BYLAYER
 10
38.0576638563
 20
33.811699705
 11
38.0694349061
 21
33.8184956832
  0
LINE
  5
2AB
100
AcDbEntity
  8
0
100
AcDbLine
 62
7
  6
BYLAYER
 10
38.0736108338
 20
33.8209066418
 11
38.4571775666
 21
34.0423576763
  0
LINE
  5
2AC
100
AcDbEntity
  8
0
100
AcDbLine
 62
7
  6
BYLAYER
 10
37.9893062097
 20
33.7725284818
 11
38.0155889174
 21
33.7875567532
  0
LINE
  5
2AD
100
AcDbEntity
  8
0
100
AcDbLine
 62
7
  6
BYLAYER
 10
38.0735479134
 20
33.8210156239
 11
38.069308111
 21
33.8187153
  0
LINE
  5
2AE
100
AcDbEntity
  8
0
100
AcDbLine
 62
7
  6
BYLAYER
 10
39.0639723155
 20
46.3723624931
 11
38.1661448097
 21
46.1647890598
  0
LINE
  5
2AF
100
AcDbEntity
  8
0
100
AcDbLine
 62
7
  6
BYLAYER
 10
38.1012517735
 20
46.309268564
 11
38.9990792793
 21
46.5168419974
  0
LINE
  5
2B0
100
AcDbEntity
  8
0
100
AcDbLine
 62
7
  6
BYLAYER
 10
38.5545476634
 20
46.7111085563
 11
37.6560184253
 21
46.5033728857
  0
LINE
  5
2B1
100
AcDbEntity
  8
0
100
AcDbLine
 62
7
  6
BYLAYER
 10
38.3841763714
 20
44.7631778277
 11
39.3341210753
 21
44.8480377638
  0
LINE
  5
2B2
100
AcDbEntity
  8
0
100
AcDbLine
 62
7
  6
BYLAYER
 10
39.4790810953
 20
45.3697051462
 11
38.529878278
 21
45.2849114839
  0
LINE
  5
2B3
100
AcDbEntity
  8
0
100
AcDbLine
 62
7
  6
BYLAYER
 10
38.4733094999
 20
45.4307086379
 11
39.4225123173
 21
45.5155023002
  0
LINE
  5
2B4
100
AcDbEntity
  8
0
100
AcDbLine
 62
7
  6
BYLAYER
 10
38.9982439647
 20
45.7137083973
 11
38.0482992608
 21
45.6288484612
  0
LINE
  5
2B5
100
AcDbEntity
  8
0
100
AcDbLine
 62
7
  6
BYLAYER
 10
38.6740691112
 20
43.8795069545
 11
39.6681996282
 21
43.8408453209
  0
LINE
  5
2B6
100
AcDbEntity
  8
0
100
AcDbLine
 62
7
  6
BYLAYER
 10
39.8350199191
 20
44.3623360932
 11
38.8416657968
 21
44.4009675329
  0
LINE
  5
2B7
100
AcDbEntity
  8
0
100
AcDbLine
 62
7
  6
BYLAYER
 10
38.7938517995
 20
44.5469727324
 11
39.7872059218
 21
44.5083412927
  0
LINE
  5
2B8
100
AcDbEntity
  8
0
100
AcDbLine
 62
7
  6
BYLAYER
 10
38.9087928348
 20
43.0012384244
 11
39.9395432314
 21
42.8393494594
  0
LINE
  5
2B9
100
AcDbEntity
  8
0
100
AcDbLine
 62
7
  6
BYLAYER
 10
40.6288974755
 20
38.7641472924
 11
40.6200600273
 21
38.768149284
  0
LINE
  5
2BA
100
AcDbEntity
  8
0
100
AcDbLine
 62
7
  6
BYLAYER
 10
40.3683723153
 20
37.1394679616
 11
40.3590230426
 21
37.1438456447
  0
LINE
  5
2BB
100
AcDbEntity
  8
0
100
AcDbLine
 62
7
  6
BYLAYER
 10
40.5324636039
 20
37.9256559311
 11
40.5230993175
 21
37.9300431574
  0
LINE
  5
2BC
100
AcDbEntity
  8
0
100
AcDbLine
 62
7
  6
BYLAYER
 10
37.4017033968
 20
38.1578262725
 11
37.8316557271
 21
37.9095987945
  0
LINE
  5
2BD
100
AcDbEntity
  8
0
100
AcDbLine
 62
7
  6
BYLAYER
 10
18.6558968216
 20
49.1414040738
 11
19.1769736153
 21
48.8405670525
  0
LINE
  5
2BE
100
AcDbEntity
  8
0
100
AcDbLine
 62
7
  6
BYLAYER
 10
19.1665930531
 20
48.8886310383
 11
18.7369877298
 21
49.1366581763
  0
LINE
  5
2BF
100
AcDbEntity
  8
0
100
AcDbLine
 62
7
  6
BYLAYER
 10
19.8364491518
 20
49.5260995129
 11
21.6733485718
 21
48.2682122882
  0
LINE
  5
2C0
100
AcDbEntity
  8
0
100
AcDbLine
 62
7
  6
BYLAYER
 10
24.3618167204
 20
55.0046608355
 11
24.5744314456
 21
54.6759055515
  0
LINE
  5
2C1
100
AcDbEntity
  8
0
100
AcDbLine
 62
7
  6
BYLAYER
 10
37.2163166335
 20
35.1284046023
 11
38.0565920555
 21
33.8291296589
  0
LINE
  5
2C2
100
AcDbEntity
  8
0
100
AcDbLine
 62
7
  6
BYLAYER
 10
24.8670353189
 20
55.3997061346
 11
25.4086728706
 21
54.4615675837
  0
LINE
  5
2C3
100
AcDbEntity
  8
0
100
AcDbLine
 62
7
  6
BYLAYER
 10
36.7753535161
 20
34.7740085486
 11
37.5081667777
 21
33.5047457931
  0
LINE
  5
2C4
100
AcDbEntity
  8
0
100
AcDbLine
 62
7
  6
BYLAYER
 10
25.4221648237
 20
55.7124781356
 11
26.1272396204
 21
54.335142843
  0
LINE
  5
2C5
100
AcDbEntity
  8
0
100
AcDbLine
 62
7
  6
BYLAYER
 10
36.6223894714
 20
33.8332891264
 11
36.9134457043
 21
33.2647224672
  0
LINE
  5
2C6
100
AcDbEntity
  8
0
100
AcDbLine
 62
7
  6
BYLAYER
 10
26.0229801886
 20
55.9405963626
 11
26.6521371344
 21
54.5398253565
  0
LINE
  5
2C7
100
AcDbEntity
  8
0
100
AcDbLine
 62
7
  6
BYLAYER
 10
36.7885727136
 20
33.317212075
 11
36.6223894714
 21
33.6872066668
  0
LINE
  5
2C8
100
AcDbEntity
  8
0
100
AcDbLine
 62
7
  6
BYLAYER
 10
27.1562322049
 20
54.762899664
 11
26.5275666173
 21
56.1625766975
  0
LINE
  5
2C9
100
AcDbEntity
  8
0
100
AcDbLine
 62
7
  6
BYLAYER
 10
36.8272239041
 20
33.2381059373
 11
36.6223894714
 21
33.6941545214
  0
LINE
  5
2CA
100
AcDbEntity
  8
0
100
AcDbLine
 62
7
  6
BYLAYER
 10
27.2024060501
 20
54.6670449098
 11
26.5732491044
 21
56.0678159157
  0
LINE
  5
2CB
100
AcDbEntity
  8
0
100
AcDbLine
 62
7
  6
BYLAYER
 10
26.6649090213
 20
56.0823247902
 11
27.2133598519
 21
54.6687787841
  0
LINE
  5
2CC
100
AcDbEntity
  8
0
100
AcDbLine
 62
7
  6
BYLAYER
 10
27.7310610493
 20
54.860646123
 11
27.1830385472
 21
56.2730881797
  0
LINE
  5
2CD
100
AcDbEntity
  8
0
100
AcDbLine
 62
7
  6
BYLAYER
 10
27.795116148
 20
54.7207479257
 11
27.2466653175
 21
56.1342939315
  0
LINE
  5
2CE
100
AcDbEntity
  8
0
100
AcDbLine
 62
7
  6
BYLAYER
 10
27.3430658609
 20
56.1365847683
 11
27.8066365341
 21
54.721021701
  0
LINE
  5
2CF
100
AcDbEntity
  8
0
100
AcDbLine
 62
7
  6
BYLAYER
 10
28.3361294639
 20
54.8814490844
 11
27.8729208294
 21
56.2959066272
  0
LINE
  5
2D0
100
AcDbEntity
  8
0
100
AcDbLine
 62
7
  6
BYLAYER
 10
28.4154526305
 20
54.6973448946
 11
27.9518819572
 21
56.1129079619
  0
LINE
  5
2D1
100
AcDbEntity
  8
0
100
AcDbLine
 62
7
  6
BYLAYER
 10
28.0522893339
 20
56.1029632872
 11
28.4274517973
 21
54.6961564479
  0
LINE
  5
2D2
100
AcDbEntity
  8
0
100
AcDbLine
 62
7
  6
BYLAYER
 10
28.9668325126
 20
54.825150225
 11
28.5919630432
 21
56.230858378
  0
LINE
  5
2D3
100
AcDbEntity
  8
0
100
AcDbLine
 62
7
  6
BYLAYER
 10
29.0586943624
 20
54.5970139278
 11
28.6835318991
 21
56.0038207669
  0
LINE
  5
2D4
100
AcDbEntity
  8
0
100
AcDbLine
 62
7
  6
BYLAYER
 10
28.7871820776
 20
55.9817162973
 11
29.071081118
 21
54.5943723359
  0
LINE
  5
2D5
100
AcDbEntity
  8
0
100
AcDbLine
 62
7
  6
BYLAYER
 10
29.6183701646
 20
54.6921780131
 11
29.3346928432
 21
56.0784384885
  0
LINE
  5
2D6
100
AcDbEntity
  8
0
100
AcDbLine
 62
7
  6
BYLAYER
 10
29.7199458859
 20
54.4205186046
 11
29.4360468454
 21
55.8078625659
  0
LINE
  5
2D7
100
AcDbEntity
  8
0
100
AcDbLine
 62
7
  6
BYLAYER
 10
30.2857838248
 20
54.4835444476
 11
30.0954576072
 21
55.839806966
  0
LINE
  5
2D8
100
AcDbEntity
  8
0
100
AcDbLine
 62
7
  6
BYLAYER
 10
30.3941746774
 20
54.1692021608
 11
30.2036997029
 21
55.5265247192
  0
LINE
  5
2D9
100
AcDbEntity
  8
0
100
AcDbLine
 62
7
  6
BYLAYER
 10
36.6223894714
 20
35.3385736764
 11
36.6223894714
 21
36.9078437221
  0
LINE
  5
2DA
100
AcDbEntity
  8
0
100
AcDbLine
 62
7
  6
BYLAYER
 10
36.6223894714
 20
38.4540376214
 11
36.6223894714
 21
41.4270375259
  0
LINE
  5
2DB
100
AcDbEntity
  8
0
100
AcDbLine
 62
7
  6
BYLAYER
 10
36.6223894714
 20
33.1774341831
 11
36.3068447856
 21
32.7378793062
  0
LINE
  5
2DC
100
AcDbEntity
  8
0
100
AcDbLine
 62
7
  6
BYLAYER
 10
39.1489191958
 20
34.5405839558
 11
39.1465003117
 21
34.5384492315
  0
LINE
  5
2DD
100
AcDbEntity
  8
0
100
AcDbLine
 62
7
  6
BYLAYER
 10
38.6208007968
 20
34.1510832391
 11
38.6168517791
 21
34.1484626406
  0
LINE
  5
2DE
100
AcDbEntity
  8
0
100
AcDbLine
 62
7
  6
BYLAYER
 10
38.6247895478
 20
34.1444153737
 11
38.6207982592
 21
34.1418598285
  0
LINE
  5
2DF
100
AcDbEntity
  8
0
100
AcDbLine
 62
7
  6
BYLAYER
 10
45.7374888446
 20
36.8365272072
 11
42.5625926248
 21
35.0035109616
  0
LINE
  5
2E0
100
AcDbEntity
  8
0
100
AcDbLine
 62
7
  6
BYLAYER
 10
26.9634130933
 20
25.5589510868
 11
33.9538950972
 21
29.5948836622
  0
LINE
  5
2E1
100
AcDbEntity
  8
0
100
AcDbLine
 62
7
  6
BYLAYER
 10
44.9503289619
 20
35.7166594323
 11
41.7754327421
 21
33.8836431867
  0
LINE
  5
2E2
100
AcDbEntity
  8
0
100
AcDbLine
 62
7
  6
BYLAYER
 10
44.8244079966
 20
35.6139998907
 11
41.7137996638
 21
33.8181000525
  0
LINE
  5
2E3
100
AcDbEntity
  8
0
100
AcDbLine
 62
7
  6
BYLAYER
 10
39.3843040296
 20
44.7077512243
 11
38.3901735127
 21
44.7464128579
  0
LINE
  5
2E4
100
AcDbEntity
  8
0
100
AcDbLine
 62
7
  6
BYLAYER
 10
40.1290798774
 20
43.3579220209
 11
39.0991344749
 21
43.519684554
  0
LINE
  5
2E5
100
AcDbEntity
  8
0
100
AcDbLine
 62
7
  6
BYLAYER
 10
39.0604391518
 20
43.6647866112
 11
40.0903845543
 21
43.5030240781
  0
LINE
  5
2E6
100
AcDbEntity
  8
0
100
AcDbLine
 62
7
  6
BYLAYER
 10
39.7097897619
 20
43.7008929553
 11
38.6790393653
 21
43.8627819203
  0
LINE
  5
2E7
100
AcDbEntity
  8
0
100
AcDbLine
 62
7
  6
BYLAYER
 10
39.0865611528
 20
42.1350563911
 11
40.1460867961
 21
41.8511721676
  0
LINE
  5
2E8
100
AcDbEntity
  8
0
100
AcDbLine
 62
7
  6
BYLAYER
 10
40.3590229966
 20
42.3641071268
 11
39.3003248203
 21
42.6477696428
  0
LINE
  5
2E9
100
AcDbEntity
  8
0
100
AcDbLine
 62
7
  6
BYLAYER
 10
39.2710426661
 20
42.7908642435
 11
40.3297408424
 21
42.5072017275
  0
LINE
  5
2EA
100
AcDbEntity
  8
0
100
AcDbLine
 62
7
  6
BYLAYER
 10
39.9722239751
 20
42.7007964132
 11
38.9126983317
 21
42.9846806368
  0
LINE
  5
2EB
100
AcDbEntity
  8
0
100
AcDbLine
 62
7
  6
BYLAYER
 10
39.2060211411
 20
41.2875530229
 11
40.2862584011
 21
40.8838340712
  0
LINE
  5
2EC
100
AcDbEntity
  8
0
100
AcDbLine
 62
7
  6
BYLAYER
 10
40.5230992706
 20
41.3884549424
 11
39.4437056528
 21
41.7918585983
  0
LINE
  5
2ED
100
AcDbEntity
  8
0
100
AcDbLine
 62
7
  6
BYLAYER
 10
39.4240595224
 20
41.9318567061
 11
40.5034531402
 21
41.5284530502
  0
LINE
  5
2EE
100
AcDbEntity
  8
0
100
AcDbLine
 62
7
  6
BYLAYER
 10
40.1696095161
 20
41.7150728666
 11
39.089372256
 21
42.1187918183
  0
LINE
  5
2EF
100
AcDbEntity
  8
0
100
AcDbLine
 62
7
  6
BYLAYER
 10
40.6157360093
 20
40.5720815762
 11
40.6101994396
 21
40.5742268922
  0
LWPOLYLINE
  5
2F0
100
AcDbEntity
  8
0
100
AcDbPolyline
 62
7
  6
BYLAYER
 90
4
 70
0
 10
19.8384449884
 20
49.5349909567
 10
16.86839942
 20
50.7327912846
 10
14.1622554341
 20
50.79032682
 10
12.7134768844
 20
50.2407119329
  0
LINE
  5
2F1
100
AcDbEntity
  8
0
100
AcDbLine
 62
7
  6
BYLAYER
 10
40.6567846473
 20
39.6485480363
 11
40.6491672425
 21
39.6517855307
  0
LINE
  5
2F2
100
AcDbEntity
  8
0
100
AcDbLine
 62
7
  6
BYLAYER
 10
39.2662636369
 20
40.4651783322
 11
40.3589912559
 21
39.9446971973
  0
LINE
  5
2F3
100
AcDbEntity
  8
0
100
AcDbLine
 62
7
  6
BYLAYER
 10
40.6200599798
 20
40.43839077
 11
39.5281857578
 21
40.9584654203
  0
LINE
  5
2F4
100
AcDbEntity
  8
0
100
AcDbLine
 62
7
  6
BYLAYER
 10
39.5183251701
 20
41.0943015651
 11
40.6101993921
 21
40.5742269148
  0
LINE
  5
2F5
100
AcDbEntity
  8
0
100
AcDbLine
 62
7
  6
BYLAYER
 10
40.3004440321
 20
40.7512243367
 11
39.2077164131
 21
41.2717054717
  0
LINE
  5
2F6
100
AcDbEntity
  8
0
100
AcDbLine
 62
7
  6
BYLAYER
 10
39.2668301585
 20
39.674191087
 11
40.3637318195
 21
39.0409089445
  0
LINE
  5
2F7
100
AcDbEntity
  8
0
100
AcDbLine
 62
7
  6
BYLAYER
 10
37.8316557271
 20
40.7673572545
 11
37.4017033968
 21
41.0155847325
  0
LINE
  5
2F8
100
AcDbEntity
  8
0
100
AcDbLine
 62
7
  6
BYLAYER
 10
39.5531221906
 20
40.1539327341
 11
40.6491671949
 21
39.5211451714
  0
LINE
  5
2F9
100
AcDbEntity
  8
0
100
AcDbLine
 62
7
  6
BYLAYER
 10
40.6491671949
 20
39.6517855582
 11
39.266830141
 21
40.4498684322
  0
LINE
  5
2FA
100
AcDbEntity
  8
0
100
AcDbLine
 62
7
  6
BYLAYER
 10
39.2077163943
 20
38.9206111778
 11
40.3004440133
 21
38.1793476873
  0
LINE
  5
2FB
100
AcDbEntity
  8
0
100
AcDbLine
 62
7
  6
BYLAYER
 10
40.6101993921
 20
38.6436989397
 11
39.5183251701
 21
39.3843835193
  0
LINE
  5
2FC
100
AcDbEntity
  8
0
100
AcDbLine
 62
7
  6
BYLAYER
 10
40.3589912717
 20
38.9182718252
 11
39.2662636527
 21
39.6595353157
  0
LINE
  5
2FD
100
AcDbEntity
  8
0
100
AcDbLine
 62
7
  6
BYLAYER
 10
39.0893722358
 20
38.2101738027
 11
40.1696094958
 21
37.366570427
  0
LINE
  5
2FE
100
AcDbEntity
  8
0
100
AcDbLine
 62
7
  6
BYLAYER
 10
40.5034531402
 20
37.8127299704
 11
39.4240595224
 21
38.65567451
  0
LINE
  5
2FF
100
AcDbEntity
  8
0
100
AcDbLine
 62
7
  6
BYLAYER
 10
40.2862583867
 20
38.0631177352
 11
39.2060211265
 21
38.9067211111
  0
LINE
  5
300
100
AcDbEntity
  8
0
100
AcDbLine
 62
7
  6
BYLAYER
 10
38.9126983535
 20
37.5482858192
 11
39.9722239967
 21
36.6087628892
  0
LINE
  5
301
100
AcDbEntity
  8
0
100
AcDbLine
 62
7
  6
BYLAYER
 10
40.3297408424
 20
37.0345624392
 11
39.2710426661
 21
37.9733516218
  0
LINE
  5
302
100
AcDbEntity
  8
0
100
AcDbLine
 62
7
  6
BYLAYER
 10
40.1460868091
 20
37.2576321899
 11
39.0865611658
 21
38.1971551199
  0
LINE
  5
303
100
AcDbEntity
  8
0
100
AcDbLine
 62
7
  6
BYLAYER
 10
38.6790393423
 20
36.9399845944
 11
39.7097897388
 21
35.911692447
  0
LINE
  5
304
100
AcDbEntity
  8
0
100
AcDbLine
 62
7
  6
BYLAYER
 10
40.0903845543
 20
36.3151186708
 11
39.0604391518
 21
37.342607744
  0
LINE
  5
305
100
AcDbEntity
  8
0
100
AcDbLine
 62
7
  6
BYLAYER
 10
39.9395432198
 20
36.5079454807
 11
38.9087928231
 21
37.5362376283
  0
LINE
  5
306
100
AcDbEntity
  8
0
100
AcDbLine
 62
7
  6
BYLAYER
 10
38.3901734883
 20
36.389899668
 11
39.3843040053
 21
35.2806642274
  0
LINE
  5
307
100
AcDbEntity
  8
0
100
AcDbLine
 62
7
  6
BYLAYER
 10
39.7872059218
 20
35.6598740667
 11
38.7938517995
 21
36.7682432181
  0
LINE
  5
308
100
AcDbEntity
  8
0
100
AcDbLine
 62
7
  6
BYLAYER
 10
39.668199618
 20
35.8197631344
 11
38.6740691009
 21
36.9289985752
  0
LINE
  5
309
100
AcDbEntity
  8
0
100
AcDbLine
 62
7
  6
BYLAYER
 10
38.0482992351
 20
35.9022175185
 11
38.998243939
 21
34.720480736
  0
LINE
  5
30A
100
AcDbEntity
  8
0
100
AcDbLine
 62
7
  6
BYLAYER
 10
39.4225123173
 20
35.073815434
 11
38.4733094999
 21
36.2546293052
  0
LINE
  5
30B
100
AcDbEntity
  8
0
100
AcDbLine
 62
7
  6
BYLAYER
 10
39.3341210664
 20
35.198322648
 11
38.3841763624
 21
36.3800594307
  0
LINE
  5
30C
100
AcDbEntity
  8
0
100
AcDbLine
 62
7
  6
BYLAYER
 10
37.6560184523
 20
35.4806497013
 11
38.5545476903
 21
34.2354053075
  0
LINE
  5
30D
100
AcDbEntity
  8
0
100
AcDbLine
 62
7
  6
BYLAYER
 10
38.9990792793
 20
34.5614030327
 11
38.1012517735
 21
35.8056749172
  0
LINE
  5
30E
100
AcDbEntity
  8
0
100
AcDbLine
 62
7
  6
BYLAYER
 10
24.4834428442
 20
54.678182909
 11
24.3448438757
 21
54.8702630119
  0
LINE
  5
30F
100
AcDbEntity
  8
0
100
AcDbLine
 62
7
  6
BYLAYER
 10
38.9398501044
 20
34.6483535591
 11
38.0413208663
 21
35.8935979531
  0
LINE
  5
310
100
AcDbEntity
  8
0
100
AcDbLine
 62
7
  6
BYLAYER
 10
24.487019031
 20
54.6780934005
 11
24.2956564359
 21
54.9432970117
  0
LINE
  5
311
100
AcDbEntity
  8
0
100
AcDbLine
 62
7
  6
BYLAYER
 10
25.3534777468
 20
54.4838809769
 11
24.7936120707
 21
55.3495726603
  0
LINE
  5
312
100
AcDbEntity
  8
0
100
AcDbLine
 62
7
  6
BYLAYER
 10
38.520129389
 20
34.1265366307
 11
37.648111963
 21
35.4733164086
  0
LINE
  5
313
100
AcDbEntity
  8
0
100
AcDbLine
 62
7
  6
BYLAYER
 10
37.9831687737
 20
33.7789961652
 11
37.2075421708
 21
35.1224133915
  0
LINE
  5
314
100
AcDbEntity
  8
0
100
AcDbLine
 62
7
  6
BYLAYER
 10
26.1176639513
 20
54.3305393001
 11
25.3420373486
 21
55.6739565262
  0
LINE
  5
315
100
AcDbEntity
  8
0
100
AcDbLine
 62
7
  6
BYLAYER
 10
37.9893077442
 20
33.7725258239
 11
37.9849712411
 21
33.780036826
  0
LINE
  5
316
100
AcDbEntity
  8
0
100
AcDbLine
 62
7
  6
BYLAYER
 10
25.343839811
 20
55.6749971841
 11
25.3395081139
 21
55.6824998619
  0
LINE
  5
317
100
AcDbEntity
  8
0
100
AcDbLine
 62
7
  6
BYLAYER
 10
37.4280393276
 20
33.466224195
 11
36.7701484751
 21
34.7513875479
  0
LINE
  5
318
100
AcDbEntity
  8
0
100
AcDbLine
 62
7
  6
BYLAYER
 10
26.6418332187
 20
54.5366445595
 11
25.9114935769
 21
55.9652132399
  0
LINE
  5
319
100
AcDbEntity
  8
0
100
AcDbLine
 62
7
  6
BYLAYER
 10
38.1355322149
 20
57.169352412
 11
38.1355322146
 21
56.0891342533
  0
LWPOLYLINE
  5
31A
100
AcDbEntity
  8
0
100
AcDbPolyline
 62
7
  6
BYLAYER
 90
3
 70
0
 10
37.3110984522
 20
39.1083021274
 10
37.206219354
 20
37.7073410293
 10
36.9687935561
 20
37.0458251312
  0
LINE
  5
31B
100
AcDbEntity
  8
0
100
AcDbLine
 62
7
  6
BYLAYER
 10
46.094308428
 20
51.4256786312
 11
46.3494069683
 21
51.9753410496
  0
LINE
  5
31C
100
AcDbEntity
  8
0
100
AcDbLine
 62
7
  6
BYLAYER
 10
46.3494069069
 20
50.1790356093
 11
45.9907824254
 21
49.4063051988
  0
LINE
  5
31D
100
AcDbEntity
  8
0
100
AcDbLine
 62
7
  6
BYLAYER
 10
45.7540639377
 20
44.1543543452
 11
45.1222789453
 21
43.1599390882
  0
LINE
  5
31E
100
AcDbEntity
  8
0
100
AcDbLine
 62
7
  6
BYLAYER
 10
39.1115007884
 20
34.5963472014
 11
39.1093957038
 21
34.5937751794
  0
LINE
  5
31F
100
AcDbEntity
  8
0
100
AcDbLine
 62
7
  6
BYLAYER
 10
44.9503289619
 20
35.7166594323
 11
44.8243942781
 21
35.6140236279
  0
LINE
  5
320
100
AcDbEntity
  8
0
100
AcDbLine
 62
7
  6
BYLAYER
 10
40.6911892855
 20
32.9592051532
 11
39.6519803456
 21
32.3106550405
  0
LINE
  5
321
100
AcDbEntity
  8
0
100
AcDbLine
 62
7
  6
BYLAYER
 10
42.7299809571
 20
50.3683638555
 11
43.5440790601
 21
50.4410884185
  0
LINE
  5
322
100
AcDbEntity
  8
0
100
AcDbLine
 62
7
  6
BYLAYER
 10
36.9500524103
 20
42.3998207056
 11
37.3843210209
 21
39.210362316
  0
LINE
  5
323
100
AcDbEntity
  8
0
100
AcDbLine
 62
7
  6
BYLAYER
 10
45.1222790731
 20
45.7045137729
 11
45.1278159977
 21
45.7196596682
  0
LINE
  5
324
100
AcDbEntity
  8
0
100
AcDbLine
 62
7
  6
BYLAYER
 10
45.7093020496
 20
47.3102767504
 11
45.7540639377
 21
47.4327199692
  0
LINE
  5
325
100
AcDbEntity
  8
0
100
AcDbLine
 62
7
  6
BYLAYER
 10
45.969175383
 20
48.390060107
 11
45.9067216753
 21
48.2554951496
  0
LINE
  5
326
100
AcDbEntity
  8
0
100
AcDbLine
 62
7
  6
BYLAYER
 10
14.6506467253
 20
13.7938327358
 11
21.8970002856
 21
17.9774919414
  0
LINE
  5
327
100
AcDbEntity
  8
0
100
AcDbLine
 62
7
  6
BYLAYER
 10
14.808491666
 20
13.1082589424
 11
21.5315112162
 21
16.98977292
  0
LWPOLYLINE
  5
328
100
AcDbEntity
  8
0
100
AcDbPolyline
 62
7
  6
BYLAYER
 90
3
 70
0
 10
14.7260242098
 20
48.8684079971
 10
14.1232488317
 20
48.8508214318
 10
13.1461514525
 20
48.4409248288
  0
LINE
  5
329
100
AcDbEntity
  8
0
100
AcDbLine
 62
7
  6
BYLAYER
 10
15.5108952299
 20
49.321550787
 11
14.1039781003
 21
49.2851068734
  0
LWPOLYLINE
  5
32A
100
AcDbEntity
  8
0
100
AcDbPolyline
 62
7
  6
BYLAYER
 90
4
 70
0
 10
31.4005126577
 20
51.2766281133
 10
33.7834588487
 20
48.7813074778
 10
35.7026486601
 20
45.7101384602
 10
36.9500524103
 20
42.3998207056
  0
LINE
  5
32B
100
AcDbEntity
  8
0
100
AcDbLine
 62
7
  6
BYLAYER
 10
34.291965701
 20
47.7749894144
 11
34.1975912167
 21
47.9132653117
  0
LINE
  5
32C
100
AcDbEntity
  8
0
100
AcDbLine
 62
7
  6
BYLAYER
 10
34.3852047267
 20
47.635692867
 11
34.291965701
 21
47.7749894144
  0
LINE
  5
32D
100
AcDbEntity
  8
0
100
AcDbLine
 62
7
  6
BYLAYER
 10
45.9067216753
 20
43.9894399987
 11
45.9691708568
 21
44.1240393236
  0
LINE
  5
32E
100
AcDbEntity
  8
0
100
AcDbLine
 62
7
  6
BYLAYER
 10
44.4976841391
 20
39.5180884586
 11
44.4752292784
 21
39.4726697777
  0
LINE
  5
32F
100
AcDbEntity
  8
0
100
AcDbLine
 62
7
  6
BYLAYER
 10
31.9543592904
 20
53.436945504
 11
28.6666782351
 21
52.9989103174
  0
LWPOLYLINE
  5
330
100
AcDbEntity
  8
0
100
AcDbPolyline
 62
7
  6
BYLAYER
 90
3
 70
0
 10
28.6824347686
 20
52.9442301537
 10
28.8093555772
 20
52.9147320179
 10
31.4005126577
 20
51.2766281133
  0
LWPOLYLINE
  5
331
100
AcDbEntity
  8
0
100
AcDbPolyline
 62
7
  6
BYLAYER
 90
3
 70
0
 10
28.633425155
 20
52.9190584414
 10
30.0101873016
 20
52.3457271171
 10
32.0399740654
 20
50.8472576072
  0
LINE
  5
332
100
AcDbEntity
  8
0
100
AcDbLine
 62
7
  6
BYLAYER
 10
32.1106844491
 20
50.8880820226
 11
33.3366753596
 21
50.1802718533
  0
LINE
  5
333
100
AcDbEntity
  8
0
100
AcDbLine
 62
7
  6
BYLAYER
 10
45.5455253985
 20
44.2747514032
 11
45.7540639377
 21
44.1543543452
  0
LINE
  5
334
100
AcDbEntity
  8
0
100
AcDbLine
 62
7
  6
BYLAYER
 10
45.9691708568
 20
44.1240393236
 11
45.9067216753
 21
44.1601109096
  0
LINE
  5
335
100
AcDbEntity
  8
0
100
AcDbLine
 62
7
  6
BYLAYER
 10
45.6648994789
 20
44.2997910456
 11
45.3379625825
 21
44.4886347118
  0
LINE
  5
336
100
AcDbEntity
  8
0
100
AcDbLine
 62
7
  6
BYLAYER
 10
44.5347458447
 20
39.6402362753
 11
45.3118533732
 21
38.6735100388
  0
LWPOLYLINE
  5
337
100
AcDbEntity
  8
0
100
AcDbPolyline
 62
7
  6
BYLAYER
 90
7
 70
0
 10
42.5375425203
 20
39.8156600615
 10
41.959209737
 20
43.3593011607
 10
40.6553216969
 20
47.0184294648
 10
38.7206690946
 20
50.5301144092
 10
36.2973682247
 20
53.6342749411
 10
33.5558727125
 20
56.1063462029
 10
32.1322059171
 20
57.0410060488
  0
LINE
  5
338
100
AcDbEntity
  8
0
100
AcDbLine
 62
7
  6
BYLAYER
 10
45.1222790731
 20
45.7045137729
 11
45.1232998007
 21
45.7168781218
  0
LINE
  5
339
100
AcDbEntity
  8
0
100
AcDbLine
 62
7
  6
BYLAYER
 10
45.1222790731
 20
45.7045137729
 11
45.1236032357
 21
45.7172274434
  0
LWPOLYLINE
  5
33A
100
AcDbEntity
  8
0
100
AcDbPolyline
 62
7
  6
BYLAYER
 90
3
 70
0
 10
24.0600895528
 20
54.6887790362
 10
24.8985464262
 20
54.6677932642
 10
27.7128069345
 20
53.5300894757
  0
LINE
  5
33B
100
AcDbEntity
  8
0
100
AcDbLine
 62
7
  6
BYLAYER
 10
44.5786670081
 20
45.4042835584
 11
44.6380039434
 21
45.3700261378
  0
LINE
  5
33C
100
AcDbEntity
  8
0
100
AcDbLine
 62
7
  6
BYLAYER
 10
41.6888989887
 20
47.6311643346
 11
42.9919854856
 21
43.9757770553
  0
LWPOLYLINE
  5
33D
100
AcDbEntity
  8
0
100
AcDbPolyline
 62
7
  6
BYLAYER
 90
5
 70
0
 10
42.9919854856
 20
43.9757770553
 10
43.5689101826
 20
40.4360247837
 10
43.5685252877
 20
38.7966671844
 10
42.9918330331
 20
35.9289414422
 10
41.7137996638
 20
33.8181000525
  0
LINE
  5
33E
100
AcDbEntity
  8
0
100
AcDbLine
 62
7
  6
BYLAYER
 10
45.9067216753
 20
48.2554951496
 11
45.9067216753
 21
47.9926008634
  0
LINE
  5
33F
100
AcDbEntity
  8
0
100
AcDbLine
 62
7
  6
BYLAYER
 10
45.9067216753
 20
44.252338753
 11
45.9067216753
 21
43.9894399987
  0
LINE
  5
340
100
AcDbEntity
  8
0
100
AcDbLine
 62
7
  6
BYLAYER
 10
45.990782448
 20
41.6302344028
 11
45.9907824676
 21
43.8657536122
  0
LINE
  5
341
100
AcDbEntity
  8
0
100
AcDbLine
 62
7
  6
BYLAYER
 10
45.9907824676
 20
48.7414387731
 11
45.9907824254
 21
49.4063051988
  0
LINE
  5
342
100
AcDbEntity
  8
0
100
AcDbLine
 62
7
  6
BYLAYER
 10
46.3494069683
 20
51.9753410496
 11
46.3494069683
 21
50.1790357417
  0
LINE
  5
343
100
AcDbEntity
  8
0
100
AcDbLine
 62
7
  6
BYLAYER
 10
31.9978612611
 20
58.5552048515
 11
31.1099227179
 21
58.4939984909
  0
LWPOLYLINE
  5
344
100
AcDbEntity
  8
0
100
AcDbPolyline
 62
7
  6
BYLAYER
 90
5
 70
0
 10
33.1928616822
 20
57.6190237914
 10
34.6095442049
 20
56.6891824706
 10
37.3380395374
 20
54.2307605078
 10
39.7553945991
 20
51.1375355215
 10
41.6888989887
 20
47.6311643346
  0
LINE
  5
345
100
AcDbEntity
  8
0
100
AcDbLine
 62
7
  6
BYLAYER
 10
38.1527958164
 20
56.0814316722
 11
38.1367782137
 21
56.0946788485
  0
LINE
  5
346
100
AcDbEntity
  8
0
100
AcDbLine
 62
7
  6
BYLAYER
 10
38.1511023109
 20
56.0739767191
 11
38.1355322146
 21
56.0891342533
  0
LINE
  5
347
100
AcDbEntity
  8
0
100
AcDbLine
 62
7
  6
BYLAYER
 10
42.6790607932
 20
50.3466857642
 11
42.7075505241
 21
50.3016946664
  0
LINE
  5
348
100
AcDbEntity
  8
0
100
AcDbLine
 62
7
  6
BYLAYER
 10
42.7394249091
 20
50.3534043541
 11
42.7252283366
 21
50.375892148
  0
LINE
  5
349
100
AcDbEntity
  8
0
100
AcDbLine
 62
7
  6
BYLAYER
 10
42.739421966
 20
50.3534028764
 11
42.7269276368
 21
50.3766806424
  0
LINE
  5
34A
100
AcDbEntity
  8
0
100
AcDbLine
 62
7
  6
BYLAYER
 10
42.6825608621
 20
50.3483045965
 11
42.7075505241
 21
50.3016946664
  0
LWPOLYLINE
  5
34B
100
AcDbEntity
  8
0
100
AcDbPolyline
 62
7
  6
BYLAYER
 90
4
 70
0
 10
37.6061524513
 20
58.5036338799
 10
39.3835945634
 20
58.0091165917
 10
40.5771091077
 20
57.3200562193
 10
42.879501633
 20
55.3021106097
  0
LINE
  5
34C
100
AcDbEntity
  8
0
100
AcDbLine
 62
7
  6
BYLAYER
 10
45.1567773244
 20
52.6638905185
 11
46.3494069683
 21
51.9753410496
  0
ARC
  5
34D
100
AcDbEntity
  8
0
100
AcDbCircle
 62
7
  6
BYLAYER
 10
-46.9171563995
 20
-112.2439840717
 40
176.1091809673
100
AcDbArc
 50
60.1978709759
 51
60.3139395825
  0
ARC
  5
34E
100
AcDbEntity
  8
0
100
AcDbCircle
 62
7
  6
BYLAYER
 10
-38.9551290281
 20
-95.9408266761
 40
157.9136136813
100
AcDbArc
 50
60.2022995877
 51
60.3320842007
  0
ARC
  5
34F
100
AcDbEntity
  8
0
100
AcDbCircle
 62
7
  6
BYLAYER
 10
-10.711062395
 20
-49.6971228024
 40
104.6185083584
100
AcDbArc
 50
60.6899178759
 51
60.8993795794
  0
ARC
  5
350
100
AcDbEntity
  8
0
100
AcDbCircle
 62
7
  6
BYLAYER
 10
-6.366533476
 20
-39.6582098226
 40
93.561302702
100
AcDbArc
 50
60.6976592562
 51
60.9324206583
  0
ARC
  5
351
100
AcDbEntity
  8
0
100
AcDbCircle
 62
7
  6
BYLAYER
 10
-145.9230859886
 20
55.1709259633
 40
178.4645095575
100
AcDbArc
 50
359.6866117374
 51
359.8011468246
  0
ARC
  5
352
100
AcDbEntity
  8
0
100
AcDbCircle
 62
7
  6
BYLAYER
 10
-123.1630356205
 20
53.8932936969
 40
155.6088205401
100
AcDbArc
 50
359.6667421609
 51
359.7984471561
  0
ARC
  5
353
100
AcDbEntity
  8
0
100
AcDbCircle
 62
7
  6
BYLAYER
 10
-112.4779625541
 20
29.9250175314
 40
121.2260152271
100
AcDbArc
 50
0.2011878474
 51
0.4739414328
  0
ARC
  5
354
100
AcDbEntity
  8
0
100
AcDbCircle
 62
7
  6
BYLAYER
 10
-72.5168582793
 20
55.2589289108
 40
105.837920268
100
AcDbArc
 50
359.1016631612
 51
359.3087088889
  0
ARC
  5
355
100
AcDbEntity
  8
0
100
AcDbCircle
 62
7
  6
BYLAYER
 10
-59.2248980815
 20
53.9678150948
 40
92.3547500659
100
AcDbArc
 50
359.065883751
 51
359.3037091161
  0
ARC
  5
356
100
AcDbEntity
  8
0
100
AcDbCircle
 62
7
  6
BYLAYER
 10
-47.814896367
 20
55.375658317
 40
81.9142633959
100
AcDbArc
 50
358.2931476806
 51
358.5775226492
  0
ARC
  5
357
100
AcDbEntity
  8
0
100
AcDbCircle
 62
7
  6
BYLAYER
 10
-37.7149977693
 20
54.067864362
 40
71.5277044782
100
AcDbArc
 50
358.2441737253
 51
358.5705104443
  0
ARC
  5
358
100
AcDbEntity
  8
0
100
AcDbCircle
 62
7
  6
BYLAYER
 10
-35.1191088899
 20
55.513015139
 40
69.9950731298
100
AcDbArc
 50
357.2939908207
 51
357.6451190646
  0
ARC
  5
359
100
AcDbEntity
  8
0
100
AcDbCircle
 62
7
  6
BYLAYER
 10
-27.0952635181
 20
55.6612437691
 40
62.7456934819
100
AcDbArc
 50
356.1270773846
 51
356.5375771237
  0
ARC
  5
35A
100
AcDbEntity
  8
0
100
AcDbCircle
 62
7
  6
BYLAYER
 10
-26.6631086014
 20
54.1864222662
 40
61.157127153
100
AcDbArc
 50
357.233706582
 51
357.636301174
  0
ARC
  5
35B
100
AcDbEntity
  8
0
100
AcDbCircle
 62
7
  6
BYLAYER
 10
-21.3076030095
 20
55.8097825028
 40
57.7297391548
100
AcDbArc
 50
354.808236146
 51
355.2729971692
  0
ARC
  5
35C
100
AcDbEntity
  8
0
100
AcDbCircle
 62
7
  6
BYLAYER
 10
-19.6797423871
 20
54.3149922544
 40
54.8531635291
100
AcDbArc
 50
356.0567949342
 51
356.5271005515
  0
ARC
  5
35D
100
AcDbEntity
  8
0
100
AcDbCircle
 62
7
  6
BYLAYER
 10
-16.7231049917
 20
55.9479333174
 40
53.9132461484
100
AcDbArc
 50
353.3482239801
 51
353.8637859722
  0
ARC
  5
35E
100
AcDbEntity
  8
0
100
AcDbCircle
 62
7
  6
BYLAYER
 10
-12.8370797775
 20
56.0654746169
 40
50.7902075824
100
AcDbArc
 50
351.7540870019
 51
352.3182070893
  0
ARC
  5
35F
100
AcDbEntity
  8
0
100
AcDbCircle
 62
7
  6
BYLAYER
 10
-14.6428234389
 20
54.4443459179
 40
50.4931981421
100
AcDbArc
 50
354.7288633377
 51
355.2609641027
  0
ARC
  5
360
100
AcDbEntity
  8
0
100
AcDbCircle
 62
7
  6
BYLAYER
 10
-9.3812434049
 20
56.1532208668
 40
48.0906324333
100
AcDbArc
 50
350.0301274005
 51
350.6414682507
  0
ARC
  5
361
100
AcDbEntity
  8
0
100
AcDbCircle
 62
7
  6
BYLAYER
 10
-10.6523318915
 20
54.5651113071
 40
47.1764006232
100
AcDbArc
 50
353.2603768037
 51
353.850264555
  0
ARC
  5
362
100
AcDbEntity
  8
0
100
AcDbCircle
 62
7
  6
BYLAYER
 10
-6.2064908387
 20
56.2035205218
 40
45.6633518257
100
AcDbArc
 50
348.1786190438
 51
348.8365139305
  0
ARC
  5
363
100
AcDbEntity
  8
0
100
AcDbCircle
 62
7
  6
BYLAYER
 10
-7.2685576452
 20
54.6683118164
 40
44.4619236497
100
AcDbArc
 50
351.6581671383
 51
352.3032394345
  0
ARC
  5
364
100
AcDbEntity
  8
0
100
AcDbCircle
 62
7
  6
BYLAYER
 10
-3.2291696475
 20
56.2106818084
 40
43.4223719303
100
AcDbArc
 50
346.2003643401
 51
346.9046305841
  0
ARC
  5
365
100
AcDbEntity
  8
0
100
AcDbCircle
 62
7
  6
BYLAYER
 10
-4.2577837631
 20
54.7458589919
 40
42.1145721646
100
AcDbArc
 50
349.9263776764
 51
350.6250766341
  0
ARC
  5
366
100
AcDbEntity
  8
0
100
AcDbCircle
 62
7
  6
BYLAYER
 10
-0.4038013251
 20
56.1713164652
 40
41.3197182619
100
AcDbArc
 50
344.0951540732
 51
344.845935523
  0
ARC
  5
367
100
AcDbEntity
  8
0
100
AcDbCircle
 62
7
  6
BYLAYER
 10
-1.4901614727
 20
54.7909917786
 40
40.0027058039
100
AcDbArc
 50
348.067164788
 51
348.818705811
  0
ARC
  5
368
100
AcDbEntity
  8
0
100
AcDbCircle
 62
7
  6
BYLAYER
 10
1.1070976721
 20
54.7986527654
 40
38.0514990143
100
AcDbArc
 50
346.0812458386
 51
346.8854029234
  0
ARC
  5
369
100
AcDbEntity
  8
0
100
AcDbCircle
 62
7
  6
BYLAYER
 10
1.5396784165
 20
-28.7006051554
 40
81.0877346093
100
AcDbArc
 50
61.4209030167
 51
61.7081799031
  0
ARC
  5
36A
100
AcDbEntity
  8
0
100
AcDbCircle
 62
7
  6
BYLAYER
 10
4.6733488552
 20
-20.7481358516
 40
72.3478054271
100
AcDbArc
 50
61.4312153503
 51
61.7538565174
  0
ARC
  5
36B
100
AcDbEntity
  8
0
100
AcDbCircle
 62
7
  6
BYLAYER
 10
7.8979120558
 20
-17.953256032
 40
69.3774433843
100
AcDbArc
 50
62.3532289237
 51
62.7074865768
  0
ARC
  5
36C
100
AcDbEntity
  8
0
100
AcDbCircle
 62
7
  6
BYLAYER
 10
11.967329717
 20
-11.1941683347
 40
62.2632724071
100
AcDbArc
 50
63.4607755507
 51
63.8744594495
  0
ARC
  5
36D
100
AcDbEntity
  8
0
100
AcDbCircle
 62
7
  6
BYLAYER
 10
10.4096335507
 20
-11.0591218551
 40
61.7703393177
100
AcDbArc
 50
62.3656091276
 51
62.7642109436
  0
ARC
  5
36E
100
AcDbEntity
  8
0
100
AcDbCircle
 62
7
  6
BYLAYER
 10
14.9386155989
 20
-6.3401067416
 40
57.345142668
100
AcDbArc
 50
64.7254166171
 51
65.1932981609
  0
ARC
  5
36F
100
AcDbEntity
  8
0
100
AcDbCircle
 62
7
  6
BYLAYER
 10
14.0831254384
 20
-4.9607048145
 40
55.3319991811
100
AcDbArc
 50
63.4748783
 51
63.9411179257
  0
ARC
  5
370
100
AcDbEntity
  8
0
100
AcDbCircle
 62
7
  6
BYLAYER
 10
17.3114151731
 20
-2.5043508264
 40
53.6044039258
100
AcDbArc
 50
66.1347286077
 51
66.6532644298
  0
ARC
  5
371
100
AcDbEntity
  8
0
100
AcDbCircle
 62
7
  6
BYLAYER
 10
16.7645655028
 20
-0.5796883658
 40
50.8746125133
100
AcDbArc
 50
64.7410036355
 51
65.2691190568
  0
ARC
  5
372
100
AcDbEntity
  8
0
100
AcDbCircle
 62
7
  6
BYLAYER
 10
19.3254866582
 20
0.7488436499
 40
50.5425376707
100
AcDbArc
 50
67.6804368779
 51
68.2473244798
  0
ARC
  5
373
100
AcDbEntity
  8
0
100
AcDbCircle
 62
7
  6
BYLAYER
 10
21.104953603
 20
3.6529644389
 40
47.8936151414
100
AcDbArc
 50
69.3573261226
 51
69.9711846698
  0
ARC
  5
374
100
AcDbEntity
  8
0
100
AcDbCircle
 62
7
  6
BYLAYER
 10
18.9033291438
 20
2.881071378
 40
47.4822971656
100
AcDbArc
 50
66.1516361415
 51
66.7377274262
  0
ARC
  5
375
100
AcDbEntity
  8
0
100
AcDbCircle
 62
7
  6
BYLAYER
 10
22.7164788241
 20
6.3389945563
 40
45.508852139
100
AcDbArc
 50
71.1624464351
 51
71.822577385
  0
ARC
  5
376
100
AcDbEntity
  8
0
100
AcDbCircle
 62
7
  6
BYLAYER
 10
20.7151962395
 20
5.8132296152
 40
44.7067987073
100
AcDbArc
 50
67.6985541018
 51
68.3400966438
  0
ARC
  5
377
100
AcDbEntity
  8
0
100
AcDbCircle
 62
7
  6
BYLAYER
 10
24.1961061211
 20
8.8810411779
 40
43.3037478468
100
AcDbArc
 50
73.0945071646
 51
73.8007049441
  0
ARC
  5
378
100
AcDbEntity
  8
0
100
AcDbCircle
 62
7
  6
BYLAYER
 10
22.3120647113
 20
8.4266373493
 40
42.3089069957
100
AcDbArc
 50
69.3765805699
 51
70.0720733894
  0
ARC
  5
379
100
AcDbEntity
  8
0
100
AcDbCircle
 62
7
  6
BYLAYER
 10
25.5630039723
 20
11.3194403955
 40
41.2313230388
100
AcDbArc
 50
75.1533874157
 51
75.9057803246
  0
ARC
  5
37A
100
AcDbEntity
  8
0
100
AcDbCircle
 62
7
  6
BYLAYER
 10
23.7542540215
 20
10.8390625921
 40
40.1546350296
100
AcDbArc
 50
71.1827938557
 51
71.931494151
  0
ARC
  5
37B
100
AcDbEntity
  8
0
100
AcDbCircle
 62
7
  6
BYLAYER
 10
25.0746308994
 20
13.1172446413
 40
38.1676734339
100
AcDbArc
 50
73.1159240815
 51
73.9176360092
  0
ARC
  5
37C
100
AcDbEntity
  8
0
100
AcDbCircle
 62
7
  6
BYLAYER
 10
26.8271131055
 20
13.6734692128
 40
39.267448144
100
AcDbArc
 50
77.3397149043
 51
78.1386230439
  0
ARC
  5
37D
100
AcDbEntity
  8
0
100
AcDbCircle
 62
7
  6
BYLAYER
 10
26.2909462831
 20
15.2976726127
 40
36.3053366636
100
AcDbArc
 50
75.1758654412
 51
76.0307613636
  0
ARC
  5
37E
100
AcDbEntity
  8
0
100
AcDbCircle
 62
7
  6
BYLAYER
 10
26.0368966072
 20
31.3105449011
 40
18.2864979426
100
AcDbArc
 50
177.6802184614
 51
179.4039230099
  0
ARC
  5
37F
100
AcDbEntity
  8
0
100
AcDbCircle
 62
7
  6
BYLAYER
 10
10.5890163381
 20
33.5811862555
 40
16.9347757544
100
AcDbArc
 50
45.8014962594
 51
48.3404031153
  0
ARC
  5
380
100
AcDbEntity
  8
0
100
AcDbCircle
 62
7
  6
BYLAYER
 10
3.2570990407
 20
31.9809800069
 40
12.5388259048
100
AcDbArc
 50
59.3642743546
 51
60.6368481717
  0
ARC
  5
381
100
AcDbEntity
  8
0
100
AcDbCircle
 62
7
  6
BYLAYER
 10
24.0624158491
 20
34.2758532083
 40
8.3338818722
100
AcDbArc
 50
252.4535937554
 51
253.1849221492
  0
ARC
  5
382
100
AcDbEntity
  8
0
100
AcDbCircle
 62
7
  6
BYLAYER
 10
23.9789282639
 20
33.9951778525
 40
8.0410557421
100
AcDbArc
 50
253.1758239404
 51
254.8501348565
  0
ARC
  5
383
100
AcDbEntity
  8
0
100
AcDbCircle
 62
7
  6
BYLAYER
 10
9.4716225321
 20
31.8783816833
 40
2.1404942566
100
AcDbArc
 50
214.4606818393
 51
217.0547051207
  0
ARC
  5
384
100
AcDbEntity
  8
0
100
AcDbCircle
 62
7
  6
BYLAYER
 10
7.9976624369
 20
30.7173506332
 40
1.0980124418
100
AcDbArc
 50
355.9005193671
 51
0.0203859523
  0
ARC
  5
385
100
AcDbEntity
  8
0
100
AcDbCircle
 62
7
  6
BYLAYER
 10
8.6587626906
 20
30.4751876821
 40
0.464252347
100
AcDbArc
 50
279.4436821801
 51
281.2903279184
  0
ARC
  5
386
100
AcDbEntity
  8
0
100
AcDbCircle
 62
7
  6
BYLAYER
 10
8.66620418
 20
30.4496936516
 40
0.4378008592
100
AcDbArc
 50
280.988504394
 51
285.9621308125
  0
ARC
  5
387
100
AcDbEntity
  8
0
100
AcDbCircle
 62
7
  6
BYLAYER
 10
8.6777175532
 20
30.4160555583
 40
0.4021855278
100
AcDbArc
 50
299.9889382479
 51
307.482272601
  0
ARC
  5
388
100
AcDbEntity
  8
0
100
AcDbCircle
 62
7
  6
BYLAYER
 10
8.6584280538
 20
30.5074604078
 40
0.3879782048
100
AcDbArc
 50
297.9343241716
 51
299.9834683359
  0
ARC
  5
389
100
AcDbEntity
  8
0
100
AcDbCircle
 62
7
  6
BYLAYER
 10
11.8152379442
 20
36.682621419
 40
14.2488437782
100
AcDbArc
 50
57.8472952356
 51
58.2130665276
  0
ARC
  5
38A
100
AcDbEntity
  8
0
100
AcDbCircle
 62
7
  6
BYLAYER
 10
11.7914810558
 20
36.6808501209
 40
14.2268892416
100
AcDbArc
 50
57.9519412615
 51
58.2108374538
  0
ARC
  5
38B
100
AcDbEntity
  8
0
100
AcDbCircle
 62
7
  6
BYLAYER
 10
11.9069925219
 20
36.7528003087
 40
14.2171947237
100
AcDbArc
 50
58.0227933697
 51
58.2072259598
  0
ARC
  5
38C
100
AcDbEntity
  8
0
100
AcDbCircle
 62
7
  6
BYLAYER
 10
11.8978725134
 20
36.8159673852
 40
14.0919692464
100
AcDbArc
 50
58.2130619033
 51
58.5815431552
  0
ARC
  5
38D
100
AcDbEntity
  8
0
100
AcDbCircle
 62
7
  6
BYLAYER
 10
11.8886288834
 20
36.8379984099
 40
14.0421374068
100
AcDbArc
 50
58.2099804851
 51
58.7325332087
  0
ARC
  5
38E
100
AcDbEntity
  8
0
100
AcDbCircle
 62
7
  6
BYLAYER
 10
12.0299306629
 20
36.95217952
 40
13.9829607626
100
AcDbArc
 50
58.2049712362
 51
58.9927450358
  0
ARC
  5
38F
100
AcDbEntity
  8
0
100
AcDbCircle
 62
7
  6
BYLAYER
 10
11.9641600231
 20
36.924388478
 40
13.9648898824
100
AcDbArc
 50
58.5817498841
 51
58.813697161
  0
ARC
  5
390
100
AcDbEntity
  8
0
100
AcDbCircle
 62
7
  6
BYLAYER
 10
12.0046417524
 20
36.9912274317
 40
13.8867476038
100
AcDbArc
 50
58.8137834831
 51
58.9530691071
  0
ARC
  5
391
100
AcDbEntity
  8
0
100
AcDbCircle
 62
7
  6
BYLAYER
 10
12.2293631523
 20
37.2854396459
 40
13.5945858661
100
AcDbArc
 50
58.9896101204
 51
59.9992309602
  0
ARC
  5
392
100
AcDbEntity
  8
0
100
AcDbCircle
 62
7
  6
BYLAYER
 10
12.4981192704
 20
37.7546566889
 40
13.0538540862
100
AcDbArc
 50
59.991040067
 51
61.6057761128
  0
ARC
  5
393
100
AcDbEntity
  8
0
100
AcDbCircle
 62
7
  6
BYLAYER
 10
12.4859605906
 20
37.8268461066
 40
12.9223523148
100
AcDbArc
 50
61.0702063561
 51
61.460599037
  0
ARC
  5
394
100
AcDbEntity
  8
0
100
AcDbCircle
 62
7
  6
BYLAYER
 10
12.5585691458
 20
37.9603576437
 40
12.7703742478
100
AcDbArc
 50
61.4605942344
 51
61.8540785761
  0
ARC
  5
395
100
AcDbEntity
  8
0
100
AcDbCircle
 62
7
  6
BYLAYER
 10
12.5470444458
 20
37.9838898339
 40
12.7203852679
100
AcDbArc
 50
61.298847295
 51
62.1362953437
  0
ARC
  5
396
100
AcDbEntity
  8
0
100
AcDbCircle
 62
7
  6
BYLAYER
 10
12.6298699872
 20
38.0936372982
 40
12.6192210927
100
AcDbArc
 50
61.8540737666
 51
62.2506935341
  0
ARC
  5
397
100
AcDbEntity
  8
0
100
AcDbCircle
 62
7
  6
BYLAYER
 10
12.7115607793
 20
38.1492310736
 40
12.6052493544
100
AcDbArc
 50
61.6063652581
 51
62.4468554251
  0
ARC
  5
398
100
AcDbEntity
  8
0
100
AcDbCircle
 62
7
  6
BYLAYER
 10
2.2919868297
 20
56.0845931436
 40
39.3305306843
100
AcDbArc
 50
341.862172511
 51
342.6597976713
  0
ARC
  5
399
100
AcDbEntity
  8
0
100
AcDbCircle
 62
7
  6
BYLAYER
 10
4.8664079373
 20
55.9523943012
 40
37.4443155148
100
AcDbArc
 50
339.5003770991
 51
340.3452236136
  0
ARC
  5
39A
100
AcDbEntity
  8
0
100
AcDbCircle
 62
7
  6
BYLAYER
 10
3.5734894554
 20
54.765792989
 40
36.2192798607
100
AcDbArc
 50
343.9683536255
 51
344.825278729
  0
ARC
  5
39B
100
AcDbEntity
  8
0
100
AcDbCircle
 62
7
  6
BYLAYER
 10
7.3191693526
 20
55.7793729964
 40
35.6595188858
100
AcDbArc
 50
337.0088725056
 51
337.9012318477
  0
ARC
  5
39C
100
AcDbEntity
  8
0
100
AcDbCircle
 62
7
  6
BYLAYER
 10
5.9283487326
 20
54.6915977005
 40
34.4845401509
100
AcDbArc
 50
341.7276384902
 51
342.6376994152
  0
ARC
  5
39D
100
AcDbEntity
  8
0
100
AcDbCircle
 62
7
  6
BYLAYER
 10
9.6452386322
 20
55.5729087741
 40
33.980008948
100
AcDbArc
 50
334.3872907624
 51
335.3272297716
  0
ARC
  5
39E
100
AcDbEntity
  8
0
100
AcDbCircle
 62
7
  6
BYLAYER
 10
8.178648648
 20
54.5776276916
 40
32.8383091862
100
AcDbArc
 50
339.3580466889
 51
340.3216726868
  0
ARC
  5
39F
100
AcDbEntity
  8
0
100
AcDbCircle
 62
7
  6
BYLAYER
 10
11.8386116718
 20
55.3423540368
 40
32.4114160099
100
AcDbArc
 50
331.6361616192
 51
332.6234201154
  0
ARC
  5
3A0
100
AcDbEntity
  8
0
100
AcDbCircle
 62
7
  6
BYLAYER
 10
10.3239323062
 20
54.4278728886
 40
31.2794206406
100
AcDbArc
 50
336.8586942323
 51
337.8762221587
  0
ARC
  5
3A1
100
AcDbEntity
  8
0
100
AcDbCircle
 62
7
  6
BYLAYER
 10
13.886105259
 20
55.1032152386
 40
30.9687324856
100
AcDbArc
 50
328.7574527856
 51
329.7910518447
  0
ARC
  5
3A2
100
AcDbEntity
  8
0
100
AcDbCircle
 62
7
  6
BYLAYER
 10
12.3480537763
 20
54.2541926052
 40
29.8242209123
100
AcDbArc
 50
334.2294192857
 51
335.0292665696
  0
ARC
  5
3A3
100
AcDbEntity
  8
0
100
AcDbCircle
 62
7
  6
BYLAYER
 10
12.3810939325
 20
54.2387706939
 40
29.7877587918
100
AcDbArc
 50
335.0293286008
 51
335.3008712253
  0
ARC
  5
3A4
100
AcDbEntity
  8
0
100
AcDbCircle
 62
7
  6
BYLAYER
 10
14.2801631351
 20
54.0483031968
 40
28.4395235434
100
AcDbArc
 50
331.4702922533
 51
332.5955178201
  0
ARC
  5
3A5
100
AcDbEntity
  8
0
100
AcDbCircle
 62
7
  6
BYLAYER
 10
23.0059711048
 20
39.5777898341
 40
23.9850985033
100
AcDbArc
 50
18.6059975547
 51
23.8061550086
  0
ARC
  5
3A6
100
AcDbEntity
  8
0
100
AcDbCircle
 62
7
  6
BYLAYER
 10
18.8119579174
 20
37.3063869345
 40
21.868342322
100
AcDbArc
 50
28.354917724
 51
28.7573527443
  0
ARC
  5
3A7
100
AcDbEntity
  8
0
100
AcDbCircle
 62
7
  6
BYLAYER
 10
18.8112826764
 20
37.3076089092
 40
21.8683161057
100
AcDbArc
 50
31.2429232703
 51
31.6453586952
  0
ARC
  5
3A8
100
AcDbEntity
  8
0
100
AcDbCircle
 62
7
  6
BYLAYER
 10
19.1067590324
 20
37.4557507086
 40
21.5378302417
100
AcDbArc
 50
25.4501497205
 51
25.856691393
  0
ARC
  5
3A9
100
AcDbEntity
  8
0
100
AcDbCircle
 62
7
  6
BYLAYER
 10
19.0880895722
 20
37.4882683855
 40
21.5377394654
100
AcDbArc
 50
34.1435900525
 51
34.5501329511
  0
ARC
  5
3AA
100
AcDbEntity
  8
0
100
AcDbCircle
 62
7
  6
BYLAYER
 10
19.6965998845
 20
37.7192250969
 40
20.8917501859
100
AcDbArc
 50
22.4986838222
 51
22.9135645833
  0
ARC
  5
3AB
100
AcDbEntity
  8
0
100
AcDbCircle
 62
7
  6
BYLAYER
 10
19.6112429542
 20
37.8673937737
 40
20.8915862323
100
AcDbArc
 50
37.0867282943
 51
37.5016111404
  0
ARC
  5
3AC
100
AcDbEntity
  8
0
100
AcDbCircle
 62
7
  6
BYLAYER
 10
20.566442926
 20
38.0553940652
 40
19.9591019529
100
AcDbArc
 50
19.4691597954
 51
19.89686637
  0
ARC
  5
3AD
100
AcDbEntity
  8
0
100
AcDbCircle
 62
7
  6
BYLAYER
 10
20.3373284516
 20
38.452648567
 40
19.9588914394
100
AcDbArc
 50
40.1034442457
 51
40.5311538277
  0
ARC
  5
3AE
100
AcDbEntity
  8
0
100
AcDbCircle
 62
7
  6
BYLAYER
 10
21.2028754688
 20
39.2293209194
 40
18.7958297404
100
AcDbArc
 50
43.2272615345
 51
43.6723201144
  0
ARC
  5
3AF
100
AcDbEntity
  8
0
100
AcDbCircle
 62
7
  6
BYLAYER
 10
21.7003514027
 20
38.4251236484
 40
18.7662892011
100
AcDbArc
 50
16.3276658616
 51
16.7734271742
  0
ARC
  5
3B0
100
AcDbEntity
  8
0
100
AcDbCircle
 62
7
  6
BYLAYER
 10
22.1705517079
 20
40.1993764939
 40
17.4254630468
100
AcDbArc
 50
46.494454665
 51
46.9625241969
  0
ARC
  5
3B1
100
AcDbEntity
  8
0
100
AcDbCircle
 62
7
  6
BYLAYER
 10
23.0284565224
 20
38.7773694776
 40
17.3920825205
100
AcDbArc
 50
13.0373956145
 51
13.5063659492
  0
ARC
  5
3B2
100
AcDbEntity
  8
0
100
AcDbCircle
 62
7
  6
BYLAYER
 10
23.1709849545
 20
41.3271520476
 40
15.9176762999
100
AcDbArc
 50
49.946002368
 51
50.4431541243
  0
ARC
  5
3B3
100
AcDbEntity
  8
0
100
AcDbCircle
 62
7
  6
BYLAYER
 10
24.5081649584
 20
39.078311934
 40
15.8818560847
100
AcDbArc
 50
9.556695279
 51
10.0549717025
  0
ARC
  5
3B4
100
AcDbEntity
  8
0
100
AcDbCircle
 62
7
  6
BYLAYER
 10
24.1465209862
 20
42.5752835316
 40
14.3332666303
100
AcDbArc
 50
53.6280436029
 51
54.1611598497
  0
ARC
  5
3B5
100
AcDbEntity
  8
0
100
AcDbCircle
 62
7
  6
BYLAYER
 10
26.078205735
 20
39.2968975649
 40
14.2964026079
100
AcDbArc
 50
5.8386138252
 51
6.3731088653
  0
ARC
  5
3B6
100
AcDbEntity
  8
0
100
AcDbCircle
 62
7
  6
BYLAYER
 10
25.0456871298
 20
43.8989947984
 40
12.732729371
100
AcDbArc
 50
57.5929047334
 51
58.1697811458
  0
ARC
  5
3B7
100
AcDbEntity
  8
0
100
AcDbCircle
 62
7
  6
BYLAYER
 10
25.8265748233
 20
45.24883555
 40
11.1729260997
100
AcDbArc
 50
61.8995979346
 51
62.5289595451
  0
ARC
  5
3B8
100
AcDbEntity
  8
0
100
AcDbCircle
 62
7
  6
BYLAYER
 10
25.5072208234
 20
45.3491558397
 40
8.2548050837
100
AcDbArc
 50
67.3923524958
 51
67.5987589542
  0
ARC
  5
3B9
100
AcDbEntity
  8
0
100
AcDbCircle
 62
7
  6
BYLAYER
 10
25.6088781262
 20
45.6003734527
 40
7.9838044791
100
AcDbArc
 50
67.5861957413
 51
69.5267398065
  0
ARC
  5
3BA
100
AcDbEntity
  8
0
100
AcDbCircle
 62
7
  6
BYLAYER
 10
15.7872072256
 20
54.8669137196
 40
29.6542347379
100
AcDbArc
 50
325.7546360209
 51
326.8331368292
  0
ARC
  5
3BB
100
AcDbEntity
  8
0
100
AcDbCircle
 62
7
  6
BYLAYER
 10
17.543100745
 20
54.6450781056
 40
28.4693822527
100
AcDbArc
 50
322.6331981255
 51
323.7546722539
  0
ARC
  5
3BC
100
AcDbEntity
  8
0
100
AcDbCircle
 62
7
  6
BYLAYER
 10
19.1408860179
 20
54.4625065614
 40
27.4353932922
100
AcDbArc
 50
319.4013832842
 51
320.56252418
  0
ARC
  5
3BD
100
AcDbEntity
  8
0
100
AcDbCircle
 62
7
  6
BYLAYER
 10
16.0800970209
 20
53.8364690095
 40
27.1697388568
100
AcDbArc
 50
328.5837362005
 51
329.7618907433
  0
ARC
  5
3BE
100
AcDbEntity
  8
0
100
AcDbCircle
 62
7
  6
BYLAYER
 10
20.5864919349
 20
54.3339717335
 40
26.5533593544
100
AcDbArc
 50
316.0696529159
 51
317.2664150581
  0
ARC
  5
3BF
100
AcDbEntity
  8
0
100
AcDbCircle
 62
7
  6
BYLAYER
 10
17.7503286978
 20
53.6274697188
 40
26.0136728453
100
AcDbArc
 50
325.573324174
 51
326.8027489106
  0
ARC
  5
3C0
100
AcDbEntity
  8
0
100
AcDbCircle
 62
7
  6
BYLAYER
 10
21.8845728771
 20
54.2773765805
 40
25.8285824192
100
AcDbArc
 50
312.651205267
 51
313.8785974458
  0
ARC
  5
3C1
100
AcDbEntity
  8
0
100
AcDbCircle
 62
7
  6
BYLAYER
 10
23.0344866477
 20
54.3204294236
 40
25.2784401302
100
AcDbArc
 50
309.1621113479
 51
310.4135899505
  0
ARC
  5
3C2
100
AcDbEntity
  8
0
100
AcDbCircle
 62
7
  6
BYLAYER
 10
19.2802036767
 20
53.4404977803
 40
24.9873153313
100
AcDbArc
 50
322.4450354391
 51
323.722748596
  0
ARC
  5
3C3
100
AcDbEntity
  8
0
100
AcDbCircle
 62
7
  6
BYLAYER
 10
24.0697617317
 20
54.4529891569
 40
24.8708608812
100
AcDbArc
 50
305.6195138176
 51
306.889484807
  0
ARC
  5
3C4
100
AcDbEntity
  8
0
100
AcDbCircle
 62
7
  6
BYLAYER
 10
26.5379110028
 20
55.6399005652
 40
24.6637449561
100
AcDbArc
 50
294.8775017797
 51
296.1574315007
  0
ARC
  5
3C5
100
AcDbEntity
  8
0
100
AcDbCircle
 62
7
  6
BYLAYER
 10
24.9856285448
 20
54.7114190575
 40
24.6357483674
100
AcDbArc
 50
302.0439055569
 51
303.324804424
  0
ARC
  5
3C6
100
AcDbEntity
  8
0
100
AcDbCircle
 62
7
  6
BYLAYER
 10
25.8024223424
 20
55.1034981771
 40
24.5668589227
100
AcDbArc
 50
298.456094705
 51
299.7403420527
  0
ARC
  5
3C7
100
AcDbEntity
  8
0
100
AcDbCircle
 62
7
  6
BYLAYER
 10
20.6819687073
 20
53.2809654015
 40
24.0806293579
100
AcDbArc
 50
319.2065995985
 51
320.529441779
  0
ARC
  5
3C8
100
AcDbEntity
  8
0
100
AcDbCircle
 62
7
  6
BYLAYER
 10
21.9507212388
 20
53.1684676165
 40
23.3066575846
100
AcDbArc
 50
315.8689024465
 51
317.2323101003
  0
ARC
  5
3C9
100
AcDbEntity
  8
0
100
AcDbCircle
 62
7
  6
BYLAYER
 10
23.0903899245
 20
53.1187187534
 40
22.6701734684
100
AcDbArc
 50
312.4453010638
 51
313.843632905
  0
ARC
  5
3CA
100
AcDbEntity
  8
0
100
AcDbCircle
 62
7
  6
BYLAYER
 10
24.107751182
 20
53.1470718163
 40
22.1748479087
100
AcDbArc
 50
308.9516881969
 51
310.3782824875
  0
ARC
  5
3CB
100
AcDbEntity
  8
0
100
AcDbCircle
 62
7
  6
BYLAYER
 10
25.0156313954
 20
53.2634501665
 40
21.8175932984
100
AcDbArc
 50
305.406012093
 51
306.8536974674
  0
ARC
  5
3CC
100
AcDbEntity
  8
0
100
AcDbCircle
 62
7
  6
BYLAYER
 10
25.8180727493
 20
53.4914126088
 40
21.612959693
100
AcDbArc
 50
301.8286060539
 51
303.2886756597
  0
ARC
  5
3CD
100
AcDbEntity
  8
0
100
AcDbCircle
 62
7
  6
BYLAYER
 10
26.4595366181
 20
46.5737220678
 40
9.7041966293
100
AcDbArc
 50
66.6134302958
 51
67.3047683117
  0
ARC
  5
3CE
100
AcDbEntity
  8
0
100
AcDbCircle
 62
7
  6
BYLAYER
 10
26.9290384774
 20
47.8241232566
 40
8.3681051664
100
AcDbArc
 50
71.8038850569
 51
72.5669654374
  0
ARC
  5
3CF
100
AcDbEntity
  8
0
100
AcDbCircle
 62
7
  6
BYLAYER
 10
26.3062721416
 20
54.1686603693
 40
1.7946595241
100
AcDbArc
 50
119.6134197189
 51
120.047066141
  0
ARC
  5
3D0
100
AcDbEntity
  8
0
100
AcDbCircle
 62
7
  6
BYLAYER
 10
26.5097529074
 20
54.8044553999
 40
1.305861082
100
AcDbArc
 50
115.9378740201
 51
117.2667633394
  0
ARC
  5
3D1
100
AcDbEntity
  8
0
100
AcDbCircle
 62
7
  6
BYLAYER
 10
25.8039747193
 20
55.1023061383
 40
0.7349627885
100
AcDbArc
 50
121.5410860713
 51
128.9408705967
  0
ARC
  5
3D2
100
AcDbEntity
  8
0
100
AcDbCircle
 62
7
  6
BYLAYER
 10
26.7994002521
 20
55.5605452677
 40
0.6605569285
100
AcDbArc
 50
111.6701631146
 51
114.300475984
  0
ARC
  5
3D3
100
AcDbEntity
  8
0
100
AcDbCircle
 62
7
  6
BYLAYER
 10
27.9937115035
 20
15.9489376055
 40
37.4021805806
100
AcDbArc
 50
79.6544795402
 51
80.5002789555
  0
ARC
  5
3D4
100
AcDbEntity
  8
0
100
AcDbCircle
 62
7
  6
BYLAYER
 10
29.0662554434
 20
18.1429592118
 40
35.6344393616
100
AcDbArc
 50
82.0986590432
 51
82.9916473314
  0
ARC
  5
3D5
100
AcDbEntity
  8
0
100
AcDbCircle
 62
7
  6
BYLAYER
 10
27.4126813985
 20
17.3979819319
 40
34.5454168109
100
AcDbArc
 50
77.3632565616
 51
78.2717155104
  0
ARC
  5
3D6
100
AcDbEntity
  8
0
100
AcDbCircle
 62
7
  6
BYLAYER
 10
30.048217969
 20
20.2472247284
 40
33.9684965634
100
AcDbArc
 50
84.6728417783
 51
85.6130999162
  0
ARC
  5
3D7
100
AcDbEntity
  8
0
100
AcDbCircle
 62
7
  6
BYLAYER
 10
28.4451421587
 20
19.4238200226
 40
32.8783634234
100
AcDbArc
 50
79.6790941926
 51
80.6415474928
  0
ARC
  5
3D8
100
AcDbEntity
  8
0
100
AcDbCircle
 62
7
  6
BYLAYER
 10
30.9442844908
 20
22.2508428977
 40
32.4111159419
100
AcDbArc
 50
87.3768318848
 51
88.3640996654
  0
ARC
  5
3D9
100
AcDbEntity
  8
0
100
AcDbCircle
 62
7
  6
BYLAYER
 10
29.3919796689
 20
21.3730776336
 40
31.3025625516
100
AcDbArc
 50
82.1243597796
 51
83.1411364289
  0
ARC
  5
3DA
100
AcDbEntity
  8
0
100
AcDbCircle
 62
7
  6
BYLAYER
 10
31.7609256964
 20
24.1435653011
 40
30.9684570194
100
AcDbArc
 50
90.2092253619
 51
91.2428334892
  0
ARC
  5
3DB
100
AcDbEntity
  8
0
100
AcDbCircle
 62
7
  6
BYLAYER
 10
30.256830206
 20
23.2388619707
 40
29.8211566449
100
AcDbArc
 50
84.6996417564
 51
85.770810365
  0
ARC
  5
3DC
100
AcDbEntity
  8
0
100
AcDbCircle
 62
7
  6
BYLAYER
 10
32.5068296267
 20
25.9080880999
 40
29.6539856196
100
AcDbArc
 50
93.1671648256
 51
94.2456743453
  0
ARC
  5
3DD
100
AcDbEntity
  8
0
100
AcDbCircle
 62
7
  6
BYLAYER
 10
33.194480471
 20
27.5243604519
 40
28.4845300823
100
AcDbArc
 50
96.2459552315
 51
97.3668324339
  0
ARC
  5
3DE
100
AcDbEntity
  8
0
100
AcDbCircle
 62
7
  6
BYLAYER
 10
31.044372811
 20
25.0122650593
 40
28.4392609189
100
AcDbArc
 50
87.4047344704
 51
88.5299705805
  0
ARC
  5
3DF
100
AcDbEntity
  8
0
100
AcDbCircle
 62
7
  6
BYLAYER
 10
33.836358972
 20
28.9980731017
 40
27.4519796629
100
AcDbArc
 50
99.4381772134
 51
100.5986159076
  0
ARC
  5
3E0
100
AcDbEntity
  8
0
100
AcDbCircle
 62
7
  6
BYLAYER
 10
31.7608813205
 20
26.6769454553
 40
27.1694980176
100
AcDbArc
 50
90.238386751
 51
91.4165515843
  0
ARC
  5
3E1
100
AcDbEntity
  8
0
100
AcDbCircle
 62
7
  6
BYLAYER
 10
34.4487868743
 20
30.3144900953
 40
26.5699177709
100
AcDbArc
 50
102.7343274772
 51
103.9303432533
  0
ARC
  5
3E2
100
AcDbEntity
  8
0
100
AcDbCircle
 62
7
  6
BYLAYER
 10
32.4149950507
 20
28.2278811911
 40
26.0134552832
100
AcDbArc
 50
93.1975530254
 51
94.4269876389
  0
ARC
  5
3E3
100
AcDbEntity
  8
0
100
AcDbCircle
 62
7
  6
BYLAYER
 10
35.0494209884
 20
31.4683709412
 40
25.8439293214
100
AcDbArc
 50
106.122152851
 51
107.34881551
  0
ARC
  5
3E4
100
AcDbEntity
  8
0
100
AcDbCircle
 62
7
  6
BYLAYER
 10
35.6572151698
 20
32.457483073
 40
25.2783448039
100
AcDbArc
 50
109.5868064338
 51
110.8382893674
  0
ARC
  5
3E5
100
AcDbEntity
  8
0
100
AcDbCircle
 62
7
  6
BYLAYER
 10
33.0160557816
 20
29.662345397
 40
24.9709092198
100
AcDbArc
 50
96.2771617846
 51
97.555713851
  0
ARC
  5
3E6
100
AcDbEntity
  8
0
100
AcDbCircle
 62
7
  6
BYLAYER
 10
36.2896647484
 20
33.2877414123
 40
24.8707991277
100
AcDbArc
 50
113.1109215593
 51
114.380895457
  0
ARC
  5
3E7
100
AcDbEntity
  8
0
100
AcDbCircle
 62
7
  6
BYLAYER
 10
38.5516871846
 20
34.8316672374
 40
24.663781026
100
AcDbArc
 50
123.8429802291
 51
125.1229083925
  0
ARC
  5
3E8
100
AcDbEntity
  8
0
100
AcDbCircle
 62
7
  6
BYLAYER
 10
36.9714183895
 20
33.9516585076
 40
24.6357165272
100
AcDbArc
 50
116.6756078855
 51
117.9565081869
  0
ARC
  5
3E9
100
AcDbEntity
  8
0
100
AcDbCircle
 62
7
  6
BYLAYER
 10
37.7193844285
 20
34.4629479311
 40
24.5668622682
100
AcDbArc
 50
120.2600721059
 51
121.5443194049
  0
ARC
  5
3EA
100
AcDbEntity
  8
0
100
AcDbCircle
 62
7
  6
BYLAYER
 10
33.5776435721
 20
30.9572307305
 40
24.0629085612
100
AcDbArc
 50
99.4704224971
 51
100.794238199
  0
ARC
  5
3EB
100
AcDbEntity
  8
0
100
AcDbCircle
 62
7
  6
BYLAYER
 10
34.1136296843
 20
32.1118947445
 40
23.2890853331
100
AcDbArc
 50
102.7675458207
 51
104.1319816645
  0
ARC
  5
3EC
100
AcDbEntity
  8
0
100
AcDbCircle
 62
7
  6
BYLAYER
 10
34.6397579081
 20
33.1222177626
 40
22.653915319
100
AcDbArc
 50
106.1562517423
 51
107.555586466
  0
ARC
  5
3ED
100
AcDbEntity
  8
0
100
AcDbCircle
 62
7
  6
BYLAYER
 10
35.1728325636
 20
33.9867034954
 40
22.1608087419
100
AcDbArc
 50
109.6216648117
 51
111.0491624774
  0
ARC
  5
3EE
100
AcDbEntity
  8
0
100
AcDbCircle
 62
7
  6
BYLAYER
 10
35.7324205085
 20
34.7016416387
 40
21.8175406353
100
AcDbArc
 50
113.1467090439
 51
114.59439764
  0
ARC
  5
3EF
100
AcDbEntity
  8
0
100
AcDbCircle
 62
7
  6
BYLAYER
 10
42.0190651662
 20
32.0679340445
 40
20.9453886644
100
AcDbArc
 50
198.8078906669
 51
199.0670943596
  0
ARC
  5
3F0
100
AcDbEntity
  8
0
100
AcDbCircle
 62
7
  6
BYLAYER
 10
37.7208386649
 20
34.4611784489
 40
0.7308828594
100
AcDbArc
 50
291.0340214881
 51
298.4752272508
  0
ARC
  5
3F1
100
AcDbEntity
  8
0
100
AcDbCircle
 62
7
  6
BYLAYER
 10
36.3310742885
 20
35.2825670686
 40
21.6129332941
100
AcDbArc
 50
116.7117367474
 51
118.1718078919
  0
ARC
  5
3F2
100
AcDbEntity
  8
0
100
AcDbCircle
 62
7
  6
BYLAYER
 10
28.2832430055
 20
44.2678177154
 40
15.3544505981
100
AcDbArc
 50
50.1495916937
 51
50.4442059826
  0
ARC
  5
3F3
100
AcDbEntity
  8
0
100
AcDbCircle
 62
7
  6
BYLAYER
 10
27.2721487493
 20
38.9375549925
 40
15.2906283553
100
AcDbArc
 50
3.0974546809
 51
3.2921740375
  0
ARC
  5
3F4
100
AcDbEntity
  8
0
100
AcDbCircle
 62
7
  6
BYLAYER
 10
28.4438450971
 20
44.3584301381
 40
15.2214482293
100
AcDbArc
 50
50.4468002181
 51
50.6653807109
  0
ARC
  5
3F5
100
AcDbEntity
  8
0
100
AcDbCircle
 62
7
  6
BYLAYER
 10
28.3682537217
 20
44.3707345575
 40
15.2209639012
100
AcDbArc
 50
50.4442180617
 51
50.728674092
  0
ARC
  5
3F6
100
AcDbEntity
  8
0
100
AcDbCircle
 62
7
  6
BYLAYER
 10
27.674032721
 20
39.4111650504
 40
12.6961737994
100
AcDbArc
 50
1.8299115801
 51
2.4084535762
  0
ARC
  5
3F7
100
AcDbEntity
  8
0
100
AcDbCircle
 62
7
  6
BYLAYER
 10
33.1065467095
 20
43.9616885298
 40
11.6171390952
100
AcDbArc
 50
6.9630541141
 51
7.2591598213
  0
ARC
  5
3F8
100
AcDbEntity
  8
0
100
AcDbCircle
 62
7
  6
BYLAYER
 10
33.3025876396
 20
42.3573213708
 40
11.6088570063
100
AcDbArc
 50
0.0003182556
 51
0.3442801296
  0
ARC
  5
3F9
100
AcDbEntity
  8
0
100
AcDbCircle
 62
7
  6
BYLAYER
 10
33.5395233766
 20
42.3570030473
 40
11.3719212756
100
AcDbArc
 50
358.7233185725
 51
0.0019287136
  0
ARC
  5
3FA
100
AcDbEntity
  8
0
100
AcDbCircle
 62
7
  6
BYLAYER
 10
29.2319077394
 20
39.4098017839
 40
11.1379346787
100
AcDbArc
 50
357.47064932
 51
358.101993862
  0
ARC
  5
3FB
100
AcDbEntity
  8
0
100
AcDbCircle
 62
7
  6
BYLAYER
 10
32.9774813087
 20
42.6285209298
 40
10.1756862155
100
AcDbArc
 50
299.8298767099
 51
299.9505610552
  0
ARC
  5
3FC
100
AcDbEntity
  8
0
100
AcDbCircle
 62
7
  6
BYLAYER
 10
30.6929431108
 20
39.2929414941
 40
9.6718232229
100
AcDbArc
 50
352.6947602259
 51
353.3884187435
  0
ARC
  5
3FD
100
AcDbEntity
  8
0
100
AcDbCircle
 62
7
  6
BYLAYER
 10
32.0066940279
 20
39.0721551465
 40
8.3391970794
100
AcDbArc
 50
347.4324991104
 51
348.1982323748
  0
ARC
  5
3FE
100
AcDbEntity
  8
0
100
AcDbCircle
 62
7
  6
BYLAYER
 10
37.3198598045
 20
41.8921712934
 40
7.553838529
100
AcDbArc
 50
343.0239379225
 51
346.6943025098
  0
ARC
  5
3FF
100
AcDbEntity
  8
0
100
AcDbCircle
 62
7
  6
BYLAYER
 10
33.1342804303
 20
38.7696310114
 40
7.1712497564
100
AcDbArc
 50
341.6161031399
 51
342.4628699571
  0
ARC
  5
400
100
AcDbEntity
  8
0
100
AcDbCircle
 62
7
  6
BYLAYER
 10
37.8093554251
 20
41.7994149672
 40
7.0667765981
100
AcDbArc
 50
341.1660139024
 51
342.5994396506
  0
ARC
  5
401
100
AcDbEntity
  8
0
100
AcDbCircle
 62
7
  6
BYLAYER
 10
37.8282060756
 20
41.7424964837
 40
7.023943622
100
AcDbArc
 50
341.5395457918
 51
342.9809498698
  0
ARC
  5
402
100
AcDbEntity
  8
0
100
AcDbCircle
 62
7
  6
BYLAYER
 10
38.0070823076
 20
41.68359498
 40
6.8356208051
100
AcDbArc
 50
341.1300853828
 51
341.5330867423
  0
ARC
  5
403
100
AcDbEntity
  8
0
100
AcDbCircle
 62
7
  6
BYLAYER
 10
32.9143729976
 20
39.4860334967
 40
6.303552409
100
AcDbArc
 50
341.9819259277
 51
342.0970472931
  0
ARC
  5
404
100
AcDbEntity
  8
0
100
AcDbCircle
 62
7
  6
BYLAYER
 10
34.0506033409
 20
38.4166149936
 40
6.188782393
100
AcDbArc
 50
335.1902682072
 51
336.1244079114
  0
ARC
  5
405
100
AcDbEntity
  8
0
100
AcDbCircle
 62
7
  6
BYLAYER
 10
33.720658737
 20
39.1766080987
 40
5.4394873658
100
AcDbArc
 50
335.5938326984
 51
335.7208435567
  0
ARC
  5
406
100
AcDbEntity
  8
0
100
AcDbCircle
 62
7
  6
BYLAYER
 10
34.7456937854
 20
38.051194177
 40
5.4030122034
100
AcDbArc
 50
328.1285652698
 51
329.1511469852
  0
ARC
  5
407
100
AcDbEntity
  8
0
100
AcDbCircle
 62
7
  6
BYLAYER
 10
37.8079861277
 20
37.4460753396
 40
5.3396484124
100
AcDbArc
 50
316.6626267046
 51
317.0931807442
  0
ARC
  5
408
100
AcDbEntity
  8
0
100
AcDbCircle
 62
7
  6
BYLAYER
 10
37.8236554741
 20
37.4312989148
 40
5.3181107454
100
AcDbArc
 50
316.3025219654
 51
316.6625567334
  0
ARC
  5
409
100
AcDbEntity
  8
0
100
AcDbCircle
 62
7
  6
BYLAYER
 10
35.2249785177
 20
37.7155975292
 40
4.8174948339
100
AcDbArc
 50
320.4546635175
 51
321.5583973585
  0
ARC
  5
40A
100
AcDbEntity
  8
0
100
AcDbCircle
 62
7
  6
BYLAYER
 10
34.3328429654
 20
38.8558848933
 40
4.7479484006
100
AcDbArc
 50
328.5703251457
 51
328.7093872586
  0
ARC
  5
40B
100
AcDbEntity
  8
0
100
AcDbCircle
 62
7
  6
BYLAYER
 10
35.5061064112
 20
37.4557784227
 40
4.434388029
100
AcDbArc
 50
312.2630163907
 51
313.4289692689
  0
ARC
  5
40C
100
AcDbEntity
  8
0
100
AcDbCircle
 62
7
  6
BYLAYER
 10
35.5624357313
 20
37.4882336654
 40
4.434329129
100
AcDbArc
 50
286.5723879888
 51
287.7383509508
  0
ARC
  5
40D
100
AcDbEntity
  8
0
100
AcDbCircle
 62
7
  6
BYLAYER
 10
36.3034309282
 20
37.7603487542
 40
4.2969384512
100
AcDbArc
 50
302.6996706323
 51
311.4258339142
  0
ARC
  5
40E
100
AcDbEntity
  8
0
100
AcDbCircle
 62
7
  6
BYLAYER
 10
35.6284752248
 20
37.3064083136
 40
4.2411340666
100
AcDbArc
 50
303.7247498942
 51
304.9258563841
  0
ARC
  5
40F
100
AcDbEntity
  8
0
100
AcDbCircle
 62
7
  6
BYLAYER
 10
35.6305996003
 20
37.3076128371
 40
4.2411149795
100
AcDbArc
 50
295.0755542462
 51
296.2766643394
  0
ARC
  5
410
100
AcDbEntity
  8
0
100
AcDbCircle
 62
7
  6
BYLAYER
 10
34.7555328318
 20
38.5608912081
 40
4.2321219638
100
AcDbArc
 50
320.9314586278
 51
321.0816024095
  0
ARC
  5
411
100
AcDbEntity
  8
0
100
AcDbCircle
 62
7
  6
BYLAYER
 10
36.3446714119
 20
37.7011245508
 40
4.2248217464
100
AcDbArc
 50
301.3394556809
 51
302.5986529148
  0
ARC
  5
412
100
AcDbEntity
  8
0
100
AcDbCircle
 62
7
  6
BYLAYER
 10
36.3466012923
 20
37.6979727685
 40
4.2211260613
100
AcDbArc
 50
300.0000695272
 51
301.3393328773
  0
ARC
  5
413
100
AcDbEntity
  8
0
100
AcDbCircle
 62
7
  6
BYLAYER
 10
35.0061764208
 20
38.3296861551
 40
3.8908445707
100
AcDbArc
 50
312.7665928165
 51
312.92539298
  0
ARC
  5
414
100
AcDbEntity
  8
0
100
AcDbCircle
 62
7
  6
BYLAYER
 10
35.1135554365
 20
38.1985939239
 40
3.721245371
100
AcDbArc
 50
304.2435087638
 51
304.4070976904
  0
ARC
  5
415
100
AcDbEntity
  8
0
100
AcDbCircle
 62
7
  6
BYLAYER
 10
36.9884616239
 20
35.6646387178
 40
2.1392957322
100
AcDbArc
 50
299.9879462926
 51
300.3547075896
  0
ARC
  5
416
100
AcDbEntity
  8
0
100
AcDbCircle
 62
7
  6
BYLAYER
 10
38.1736414491
 20
36.6287975138
 40
0.4793775766
100
AcDbArc
 50
308.6909324579
 51
309.7928045868
  0
ARC
  5
417
100
AcDbEntity
  8
0
100
AcDbCircle
 62
7
  6
BYLAYER
 10
38.5570209221
 20
37.0350639937
 40
0.3567663708
100
AcDbArc
 50
311.5923509509
 51
314.5316806981
  0
ARC
  5
418
100
AcDbEntity
  8
0
100
AcDbCircle
 62
7
  6
BYLAYER
 10
27.2137686909
 20
56.3221266627
 40
24.9179246179
100
AcDbArc
 50
292.174601506
 51
292.5974150976
  0
ARC
  5
419
100
AcDbEntity
  8
0
100
AcDbCircle
 62
7
  6
BYLAYER
 10
27.234505308
 20
48.9551217549
 40
7.19609864
100
AcDbArc
 50
77.5395022434
 51
78.3833369196
  0
ARC
  5
41A
100
AcDbEntity
  8
0
100
AcDbCircle
 62
7
  6
BYLAYER
 10
28.8437926092
 20
49.775393956
 40
6.8681022103
100
AcDbArc
 50
120.0200066763
 51
120.1988110222
  0
ARC
  5
41B
100
AcDbEntity
  8
0
100
AcDbCircle
 62
7
  6
BYLAYER
 10
34.3575050467
 20
55.3603249603
 40
6.4496812587
100
AcDbArc
 50
171.6951295478
 51
173.2991597879
  0
ARC
  5
41C
100
AcDbEntity
  8
0
100
AcDbCircle
 62
7
  6
BYLAYER
 10
27.7501903955
 20
48.4309430343
 40
6.3033810556
100
AcDbArc
 50
77.903857806
 51
78.0189814563
  0
ARC
  5
41D
100
AcDbEntity
  8
0
100
AcDbCircle
 62
7
  6
BYLAYER
 10
27.3901212386
 20
49.9291705349
 40
6.2092015213
100
AcDbArc
 50
83.8781628933
 51
84.8092217853
  0
ARC
  5
41E
100
AcDbEntity
  8
0
100
AcDbCircle
 62
7
  6
BYLAYER
 10
32.3719179619
 20
53.0580003976
 40
5.5099237765
100
AcDbArc
 50
88.1505086173
 51
93.9111172832
  0
ARC
  5
41F
100
AcDbEntity
  8
0
100
AcDbCircle
 62
7
  6
BYLAYER
 10
27.8853468776
 20
49.2839048817
 40
5.4393331172
100
AcDbArc
 50
84.2801857778
 51
84.4071990372
  0
ARC
  5
420
100
AcDbEntity
  8
0
100
AcDbCircle
 62
7
  6
BYLAYER
 10
27.4235955545
 20
50.7183398889
 40
5.4188432715
100
AcDbArc
 50
90.8515070678
 51
91.871093004
  0
ARC
  5
421
100
AcDbEntity
  8
0
100
AcDbCircle
 62
7
  6
BYLAYER
 10
32.3561355795
 20
53.3273444529
 40
5.2401087386
100
AcDbArc
 50
88.0396677792
 51
93.9204031653
  0
ARC
  5
422
100
AcDbEntity
  8
0
100
AcDbCircle
 62
7
  6
BYLAYER
 10
27.3739845854
 20
51.3059515844
 40
4.8287192042
100
AcDbArc
 50
98.4441611847
 51
99.5453219604
  0
ARC
  5
423
100
AcDbEntity
  8
0
100
AcDbCircle
 62
7
  6
BYLAYER
 10
27.9136703712
 20
49.9743871805
 40
4.747841124
100
AcDbArc
 50
91.2917678721
 51
91.4308323196
  0
ARC
  5
424
100
AcDbEntity
  8
0
100
AcDbCircle
 62
7
  6
BYLAYER
 10
27.3440967464
 20
51.7229248785
 40
4.434386659
100
AcDbArc
 50
132.2630165109
 51
133.4289693891
  0
ARC
  5
425
100
AcDbEntity
  8
0
100
AcDbCircle
 62
7
  6
BYLAYER
 10
27.2877683614
 20
51.6904686342
 40
4.4343291292
100
AcDbArc
 50
106.5723879889
 51
107.7383509507
  0
ARC
  5
426
100
AcDbEntity
  8
0
100
AcDbCircle
 62
7
  6
BYLAYER
 10
27.9392270374
 20
52.2544387021
 40
4.2689630146
100
AcDbArc
 50
108.6936168418
 51
117.3170621627
  0
ARC
  5
427
100
AcDbEntity
  8
0
100
AcDbCircle
 62
7
  6
BYLAYER
 10
27.2217288678
 20
51.8722939862
 40
4.2411340667
100
AcDbArc
 50
123.7247498942
 51
124.9258563841
  0
ARC
  5
428
100
AcDbEntity
  8
0
100
AcDbCircle
 62
7
  6
BYLAYER
 10
27.219605065
 20
51.8710882822
 40
4.2411162916
100
AcDbArc
 50
115.0755541223
 51
116.2766642156
  0
ARC
  5
429
100
AcDbEntity
  8
0
100
AcDbCircle
 62
7
  6
BYLAYER
 10
27.8695352218
 20
50.4879209076
 40
4.2320371808
100
AcDbArc
 50
98.9196687598
 51
99.0698145466
  0
ARC
  5
42A
100
AcDbEntity
  8
0
100
AcDbCircle
 62
7
  6
BYLAYER
 10
27.9195877439
 20
52.2939140022
 40
4.2248772696
100
AcDbArc
 50
117.3853978381
 51
118.5414619762
  0
ARC
  5
42B
100
AcDbEntity
  8
0
100
AcDbCircle
 62
7
  6
BYLAYER
 10
27.9178391196
 20
52.2971435786
 40
4.2212046953
100
AcDbArc
 50
118.541556411
 51
119.9999012079
  0
ARC
  5
42C
100
AcDbEntity
  8
0
100
AcDbCircle
 62
7
  6
BYLAYER
 10
27.794624681
 20
50.8205616704
 40
3.8907840034
100
AcDbArc
 50
107.0759687863
 51
107.2347703239
  0
ARC
  5
42D
100
AcDbEntity
  8
0
100
AcDbCircle
 62
7
  6
BYLAYER
 10
27.7348005888
 20
50.9790495879
 40
3.7212382596
100
AcDbArc
 50
115.5943145309
 51
115.7579039481
  0
ARC
  5
42E
100
AcDbEntity
  8
0
100
AcDbCircle
 62
7
  6
BYLAYER
 10
30.6028904009
 20
55.4306396324
 40
3.4291946844
100
AcDbArc
 50
165.6276813139
 51
168.1590737222
  0
ARC
  5
42F
100
AcDbEntity
  8
0
100
AcDbCircle
 62
7
  6
BYLAYER
 10
27.9052690312
 20
54.4140409757
 40
0.4793759495
100
AcDbArc
 50
110.2076506866
 51
111.3093447772
  0
ARC
  5
430
100
AcDbEntity
  8
0
100
AcDbCircle
 62
7
  6
BYLAYER
 10
27.3457355908
 20
55.8570489563
 40
0.4467202954
100
AcDbArc
 50
107.4615349255
 51
111.3585691504
  0
ARC
  5
431
100
AcDbEntity
  8
0
100
AcDbCircle
 62
7
  6
BYLAYER
 10
28.4487933391
 20
54.5429245976
 40
0.3567766536
100
AcDbArc
 50
105.4689772935
 51
108.4078908917
  0
ARC
  5
432
100
AcDbEntity
  8
0
100
AcDbCircle
 62
7
  6
BYLAYER
 10
42.1485091331
 20
41.5723260599
 40
6.2644964286
100
AcDbArc
 50
246.6759374474
 51
248.3274419071
  0
ARC
  5
433
100
AcDbEntity
  8
0
100
AcDbCircle
 62
7
  6
BYLAYER
 10
40.3711480546
 20
38.3519900352
 40
3.3197956206
100
AcDbArc
 50
251.7974766027
 51
254.4123974266
  0
ARC
  5
434
100
AcDbEntity
  8
0
100
AcDbCircle
 62
7
  6
BYLAYER
 10
51.9173998614
 20
55.1899477778
 40
22.4898433101
100
AcDbArc
 50
177.8105185374
 51
178.4255841699
  0
ARC
  5
435
100
AcDbEntity
  8
0
100
AcDbCircle
 62
7
  6
BYLAYER
 10
50.6187898457
 20
56.5997578384
 40
21.9953479968
100
AcDbArc
 50
241.566878464
 51
242.1957877103
  0
ARC
  5
436
100
AcDbEntity
  8
0
100
AcDbCircle
 62
7
  6
BYLAYER
 10
40.6333749777
 20
55.2717757577
 40
11.9722445472
100
AcDbArc
 50
175.4853417117
 51
176.4944527311
  0
ARC
  5
437
100
AcDbEntity
  8
0
100
AcDbCircle
 62
7
  6
BYLAYER
 10
45.1484114334
 20
46.9515080406
 40
11.670488722
100
AcDbArc
 50
243.4916520838
 51
244.5268854673
  0
ARC
  5
438
100
AcDbEntity
  8
0
100
AcDbCircle
 62
7
  6
BYLAYER
 10
43.6249324742
 20
46.399210966
 40
3.590974903
100
AcDbArc
 50
129.5890079537
 51
136.7215204349
  0
ARC
  5
439
100
AcDbEntity
  8
0
100
AcDbCircle
 62
7
  6
BYLAYER
 10
62.2092619142
 20
76.8035279601
 40
44.5133403381
100
AcDbArc
 50
240.4946965551
 51
240.844374688
  0
ARC
  5
43A
100
AcDbEntity
  8
0
100
AcDbCircle
 62
7
  6
BYLAYER
 10
148.3782577659
 20
55.1073454229
 40
117.3976222942
100
AcDbArc
 50
179.8263760413
 51
179.9733510874
  0
ARC
  5
43B
100
AcDbEntity
  8
0
100
AcDbCircle
 62
7
  6
BYLAYER
 10
75.5852846235
 20
55.1316600082
 40
45.383302745
100
AcDbArc
 50
179.1585150266
 51
179.5014825826
  0
ARC
  5
43C
100
AcDbEntity
  8
0
100
AcDbCircle
 62
7
  6
BYLAYER
 10
98.0353251854
 20
138.9175274983
 40
115.4400737564
100
AcDbArc
 50
240.0250432981
 51
240.174513483
  0
SPLINE
  5
43D
100
AcDbEntity
  8
0
100
AcDbSpline
 62
7
  6
BYLAYER
 70
0
 71
3
 72
12
 73
8
 74
0
 42
0.0000001
 43
0.0000001
 44
0.0000000001
 40
0.0
 40
0.0
 40
0.0
 40
0.0
 40
0.2333639095
 40
0.426790421
 40
0.6433896984
 40
0.82453445
 40
1.0
 40
1.0
 40
1.0
 40
1.0
 10
29.7326258608
 20
54.4164439407
 30
0.0
 10
29.7316278251
 20
54.4167656552
 30
0.0
 10
29.7296447363
 20
54.4166812027
 30
0.0
 10
29.7269598003
 20
54.4179041513
 30
0.0
 10
29.7248698018
 20
54.4196021147
 30
0.0
 10
29.7223113299
 20
54.4202103228
 30
0.0
 10
29.7206967107
 20
54.420278068
 30
0.0
 10
29.7199458527
 20
54.4205186001
 30
0.0
  0
SPLINE
  5
43E
100
AcDbEntity
  8
0
100
AcDbSpline
 62
7
  6
BYLAYER
 70
0
 71
3
 72
12
 73
8
 74
0
 42
0.0000001
 43
0.0000001
 44
0.0000000001
 40
0.0
 40
0.0
 40
0.0
 40
0.0
 40
0.2396664879
 40
0.4314954274
 40
0.6356583064
 40
0.820071273
 40
1.0
 40
1.0
 40
1.0
 40
1.0
 10
30.4070514039
 20
54.1637254488
 30
0.0
 10
30.40601917
 20
54.1641654791
 30
0.0
 10
30.4040218201
 20
54.1645859954
 30
0.0
 10
30.4013440254
 20
54.1659278469
 30
0.0
 10
30.3991176048
 20
54.1675082859
 30
0.0
 10
30.3966033443
 20
54.1684388887
 30
0.0
 10
30.3949501324
 20
54.1688730832
 30
0.0
 10
30.394174644
 20
54.1692021582
 30
0.0
  0
LINE
  5
43F
100
AcDbEntity
  8
0
100
AcDbLine
 62
7
  6
BYLAYER
 10
31.0892249269
 20
53.8381401873
 11
31.0762494153
 21
53.8449772657
  0
LINE
  5
440
100
AcDbEntity
  8
0
100
AcDbLine
 62
7
  6
BYLAYER
 10
31.7739546773
 20
53.4421660568
 11
31.7609791658
 21
53.4503114697
  0
SPLINE
  5
441
100
AcDbEntity
  8
0
100
AcDbSpline
 62
7
  6
BYLAYER
 70
0
 71
3
 72
11
 73
7
 74
0
 42
0.0000001
 43
0.0000001
 44
0.0000000001
 40
0.0
 40
0.0
 40
0.0
 40
0.0
 40
0.2592626359
 40
0.4420153124
 40
0.6170653997
 40
1.0
 40
1.0
 40
1.0
 40
1.0
 10
32.4560294154
 20
52.9788166861
 30
0.0
 10
32.4549145333
 20
52.9796309167
 30
0.0
 10
32.4532186713
 20
52.9812799822
 30
0.0
 10
32.4504836625
 20
52.9831229256
 30
0.0
 10
32.4468874002
 20
52.9848009093
 30
0.0
 10
32.4448009098
 20
52.9870078755
 30
0.0
 10
32.4431526886
 20
52.9882084153
 30
0.0
  0
SPLINE
  5
442
100
AcDbEntity
  8
0
100
AcDbSpline
 62
7
  6
BYLAYER
 70
0
 71
3
 72
12
 73
8
 74
0
 42
0.0000001
 43
0.0000001
 44
0.0000000001
 40
0.0
 40
0.0
 40
0.0
 40
0.0
 40
0.2640302311
 40
0.4438954582
 40
0.6131660221
 40
0.8021415999
 40
1.0
 40
1.0
 40
1.0
 40
1.0
 10
33.1302582072
 20
52.4516183951
 30
0.0
 10
33.1291364002
 20
52.4525543539
 30
0.0
 10
33.1276033971
 20
52.454505412
 30
0.0
 10
33.1248626218
 20
52.4565616109
 30
0.0
 10
33.1220711884
 20
52.4576977828
 30
0.0
 10
33.1198508192
 20
52.4598962288
 30
0.0
 10
33.1184197177
 20
52.461484594
 30
0.0
 10
33.1175782313
 20
52.4621849857
 30
0.0
  0
SPLINE
  5
443
100
AcDbEntity
  8
0
100
AcDbSpline
 62
7
  6
BYLAYER
 70
0
 71
3
 72
12
 73
8
 74
0
 42
0.0000001
 43
0.0000001
 44
0.0000000001
 40
0.0
 40
0.0
 40
0.0
 40
0.0
 40
0.263922147
 40
0.4437722723
 40
0.6130442599
 40
0.8020504911
 40
1.0
 40
1.0
 40
1.0
 40
1.0
 10
39.0893722261
 20
42.1187917976
 30
0.0
 10
39.0891243576
 20
42.1202310062
 30
0.0
 10
39.0882029165
 20
42.1225342523
 30
0.0
 10
39.0877943951
 20
42.1259352998
 30
0.0
 10
39.0882057449
 20
42.1289210374
 30
0.0
 10
39.08741006
 20
42.1319435537
 30
0.0
 10
39.0867483181
 20
42.1339771736
 30
0.0
 10
39.0865611324
 20
42.1350564024
 30
0.0
  0
SPLINE
  5
444
100
AcDbEntity
  8
0
100
AcDbSpline
 62
7
  6
BYLAYER
 70
0
 71
3
 72
11
 73
7
 74
0
 42
0.0000001
 43
0.0000001
 44
0.0000000001
 40
0.0
 40
0.0
 40
0.0
 40
0.0
 40
0.2591335202
 40
0.441859221
 40
0.6169139885
 40
1.0
 40
1.0
 40
1.0
 40
1.0
 10
39.2077163819
 20
41.2717054512
 30
0.0
 10
39.2075704807
 20
41.2730775954
 30
0.0
 10
39.2069922558
 20
41.2753705089
 30
0.0
 10
39.2067654007
 20
41.2786597575
 30
0.0
 10
39.2071097942
 20
41.2826140352
 30
0.0
 10
39.2062393864
 20
41.285524821
 30
0.0
 10
39.2060211221
 20
41.2875530337
 30
0.0
  0
LINE
  5
445
100
AcDbEntity
  8
0
100
AcDbLine
 62
7
  6
BYLAYER
 10
39.266830141
 20
40.4498684322
 11
39.2662636193
 21
40.4651783424
  0
LINE
  5
446
100
AcDbEntity
  8
0
100
AcDbLine
 62
7
  6
BYLAYER
 10
39.2662636186
 20
39.6595352967
 11
39.2668301424
 21
39.6741910963
  0
SPLINE
  5
447
100
AcDbEntity
  8
0
100
AcDbSpline
 62
7
  6
BYLAYER
 70
0
 71
3
 72
12
 73
8
 74
0
 42
0.0000001
 43
0.0000001
 44
0.0000000001
 40
0.0
 40
0.0
 40
0.0
 40
0.0
 40
0.2395053651
 40
0.4312628316
 40
0.6354416607
 40
0.8199423902
 40
1.0
 40
1.0
 40
1.0
 40
1.0
 10
39.2060211265
 20
38.9067211111
 30
0.0
 10
39.2061578951
 20
38.9078341044
 30
0.0
 10
39.2067948989
 20
38.9097721991
 30
0.0
 10
39.2069728258
 20
38.9127613236
 30
0.0
 10
39.2067171645
 20
38.9154797581
 30
0.0
 10
39.2071666744
 20
38.9181237375
 30
0.0
 10
39.207614936
 20
38.9197742814
 30
0.0
 10
39.2077163797
 20
38.9206111861
 30
0.0
  0
SPLINE
  5
448
100
AcDbEntity
  8
0
100
AcDbSpline
 62
7
  6
BYLAYER
 70
0
 71
3
 72
12
 73
8
 74
0
 42
0.0000001
 43
0.0000001
 44
0.0000000001
 40
0.0
 40
0.0
 40
0.0
 40
0.0
 40
0.2332170587
 40
0.4265570688
 40
0.6431770869
 40
0.8244179117
 40
1.0
 40
1.0
 40
1.0
 40
1.0
 10
39.0865611291
 20
38.1971551033
 30
0.0
 10
39.0867832447
 20
38.1981792514
 30
0.0
 10
39.0878503579
 20
38.199851796
 30
0.0
 10
39.0881347849
 20
38.2027878977
 30
0.0
 10
39.0877092067
 20
38.2054468392
 30
0.0
 10
39.0884599866
 20
38.2079680046
 30
0.0
 10
39.0892063997
 20
38.2094024571
 30
0.0
 10
39.0893722226
 20
38.2101738099
 30
0.0
  0
SPLINE
  5
449
100
AcDbEntity
  8
0
100
AcDbSpline
 62
7
  6
BYLAYER
 70
0
 71
3
 72
9
 73
5
 74
0
 42
0.0000001
 43
0.0000001
 44
0.0000000001
 40
0.0
 40
0.0
 40
0.0
 40
0.0
 40
0.4751318083
 40
1.0
 40
1.0
 40
1.0
 40
1.0
 10
39.5816120616
 20
40.2354639253
 30
0.0
 10
39.5816120616
 20
40.221638157
 30
0.0
 10
39.5754582114
 20
40.1925553199
 30
0.0
 10
39.5618645383
 20
40.1664562001
 30
0.0
 10
39.5531222449
 20
40.1539327028
 30
0.0
  0
SPLINE
  5
44A
100
AcDbEntity
  8
0
100
AcDbSpline
 62
7
  6
BYLAYER
 70
0
 71
3
 72
10
 73
6
 74
0
 42
0.0000001
 43
0.0000001
 44
0.0000000001
 40
0.0
 40
0.0
 40
0.0
 40
0.0
 40
0.4807345988
 40
0.7356317852
 40
1.0
 40
1.0
 40
1.0
 40
1.0
 10
44.5527379798
 20
39.6860945447
 30
0.0
 10
44.685997716
 20
40.1111558213
 30
0.0
 10
44.8300532567
 20
40.781530436
 30
0.0
 10
44.9235161924
 20
41.7037551832
 30
0.0
 10
44.9387744236
 20
42.1851763831
 30
0.0
 10
44.9387744236
 20
42.4301465882
 30
0.0
  0
SPLINE
  5
44B
100
AcDbEntity
  8
0
100
AcDbSpline
 62
7
  6
BYLAYER
 70
0
 71
3
 72
9
 73
5
 74
0
 42
0.0000001
 43
0.0000001
 44
0.0000000001
 40
0.0
 40
0.0
 40
0.0
 40
0.0
 40
0.4807428066
 40
1.0
 40
1.0
 40
1.0
 40
1.0
 10
39.551744552
 20
41.0426156457
 30
0.0
 10
39.5527706206
 20
41.0284808695
 30
0.0
 10
39.5487323282
 20
40.9986073373
 30
0.0
 10
39.5364115166
 20
40.9713747964
 30
0.0
 10
39.5281858118
 20
40.9584653945
 30
0.0
  0
SPLINE
  5
44C
100
AcDbEntity
  8
0
100
AcDbSpline
 62
7
  6
BYLAYER
 70
0
 71
3
 72
11
 73
7
 74
0
 42
0.0000001
 43
0.0000001
 44
0.0000000001
 40
0.0
 40
0.0
 40
0.0
 40
0.0
 40
0.2578283046
 40
0.5129750873
 40
0.7615404619
 40
1.0
 40
1.0
 40
1.0
 40
1.0
 10
42.7269276368
 20
50.3766806424
 30
0.0
 10
42.4276936053
 20
50.9333332439
 30
0.0
 10
41.7821693054
 20
52.0146990425
 30
0.0
 10
40.6833946037
 20
53.5268612731
 30
0.0
 10
39.4795003903
 20
54.8942678103
 30
0.0
 10
38.6029646135
 20
55.7086090969
 30
0.0
 10
38.1527958164
 20
56.0814316722
 30
0.0
  0
SPLINE
  5
44D
100
AcDbEntity
  8
0
100
AcDbSpline
 62
7
  6
BYLAYER
 70
0
 71
3
 72
9
 73
5
 74
0
 42
0.0000001
 43
0.0000001
 44
0.0000000001
 40
0.0
 40
0.0
 40
0.0
 40
0.0
 40
0.2377952124
 40
1.0
 40
1.0
 40
1.0
 40
1.0
 10
39.4623693332
 20
41.8781117032
 30
0.0
 10
39.4633513796
 20
41.8711136513
 30
0.0
 10
39.4644315061
 20
41.841298934
 30
0.0
 10
39.4551001161
 20
41.811434553
 30
0.0
 10
39.4437057062
 20
41.7918585783
 30
0.0
  0
SPLINE
  5
44E
100
AcDbEntity
  8
0
100
AcDbSpline
 62
7
  6
BYLAYER
 70
0
 71
3
 72
11
 73
7
 74
0
 42
0.0000001
 43
0.0000001
 44
0.0000000001
 40
0.0
 40
0.0
 40
0.0
 40
0.0
 40
0.2246154426
 40
0.4607024096
 40
0.7179962761
 40
1.0
 40
1.0
 40
1.0
 40
1.0
 10
39.4240570867
 20
41.9318576164
 30
0.0
 10
39.429024036
 20
41.9303148534
 30
0.0
 10
39.4387205988
 20
41.9252970408
 30
0.0
 10
39.4503215041
 20
41.9130242157
 30
0.0
 10
39.4585274399
 20
41.8968305698
 30
0.0
 10
39.4614600382
 20
41.8845788991
 30
0.0
 10
39.4623674923
 20
41.8781123912
 30
0.0
  0
SPLINE
  5
44F
100
AcDbEntity
  8
0
100
AcDbSpline
 62
7
  6
BYLAYER
 70
0
 71
3
 72
9
 73
5
 74
0
 42
0.0000001
 43
0.0000001
 44
0.0000000001
 40
0.0
 40
0.0
 40
0.0
 40
0.0
 40
0.2419618178
 40
1.0
 40
1.0
 40
1.0
 40
1.0
 10
39.3141666044
 20
42.7355934685
 30
0.0
 10
39.315619957
 20
42.728491296
 30
0.0
 10
39.3186406334
 20
42.698578775
 30
0.0
 10
39.3109922453
 20
42.6678199045
 30
0.0
 10
39.3003248727
 20
42.6477696288
 30
0.0
  0
SPLINE
  5
450
100
AcDbEntity
  8
0
100
AcDbSpline
 62
7
  6
BYLAYER
 70
0
 71
3
 72
11
 73
7
 74
0
 42
0.0000001
 43
0.0000001
 44
0.0000000001
 40
0.0
 40
0.0
 40
0.0
 40
0.0
 40
0.2262420862
 40
0.4646320831
 40
0.721977399
 40
1.0
 40
1.0
 40
1.0
 40
1.0
 10
39.2710402771
 20
42.7908648835
 30
0.0
 10
39.2763220813
 20
42.7892237645
 30
0.0
 10
39.2866635445
 20
42.7839895419
 30
0.0
 10
39.2993974033
 20
42.7714263859
 30
0.0
 10
39.3089350646
 20
42.7548724262
 30
0.0
 10
39.3128021828
 20
42.7422527175
 30
0.0
 10
39.3141647988
 20
42.7355939523
 30
0.0
  0
LINE
  5
451
100
AcDbEntity
  8
0
100
AcDbLine
 62
7
  6
BYLAYER
 10
38.908792813
 20
43.0012384361
 11
38.9126983317
 21
42.9846806368
  0
SPLINE
  5
452
100
AcDbEntity
  8
0
100
AcDbSpline
 62
7
  6
BYLAYER
 70
0
 71
3
 72
9
 73
5
 74
0
 42
0.0000001
 43
0.0000001
 44
0.0000000001
 40
0.0
 40
0.0
 40
0.0
 40
0.0
 40
0.4959544905
 40
1.0
 40
1.0
 40
1.0
 40
1.0
 10
39.108264278
 20
43.6085349874
 30
0.0
 10
39.1121275282
 20
43.5940483388
 30
0.0
 10
39.1140981693
 20
43.5631456439
 30
0.0
 10
39.1058013196
 20
43.5333862162
 30
0.0
 10
39.0991345259
 20
43.519684546
 30
0.0
  0
SPLINE
  5
453
100
AcDbEntity
  8
0
100
AcDbSpline
 62
7
  6
BYLAYER
 70
0
 71
3
 72
11
 73
7
 74
0
 42
0.0000001
 43
0.0000001
 44
0.0000000001
 40
0.0
 40
0.0
 40
0.0
 40
0.0
 40
0.2278587113
 40
0.4681977026
 40
0.7254867878
 40
1.0
 40
1.0
 40
1.0
 40
1.0
 10
39.0604368278
 20
43.6647869762
 30
0.0
 10
39.066020797
 20
43.6630813523
 30
0.0
 10
39.076990022
 20
43.6577130691
 30
0.0
 10
39.0908324997
 20
43.6449803335
 30
0.0
 10
39.1016632538
 20
43.6282087846
 30
0.0
 10
39.1064500264
 20
43.6153318666
 30
0.0
 10
39.1082625215
 20
43.6085352633
 30
0.0
  0
LINE
  5
454
100
AcDbEntity
  8
0
100
AcDbLine
 62
7
  6
BYLAYER
 10
38.674069088
 20
43.8795069665
 11
38.6790393319
 21
43.8627819008
  0
SPLINE
  5
455
100
AcDbEntity
  8
0
100
AcDbSpline
 62
7
  6
BYLAYER
 70
0
 71
3
 72
9
 73
5
 74
0
 42
0.0000001
 43
0.0000001
 44
0.0000000001
 40
0.0
 40
0.0
 40
0.0
 40
0.0
 40
0.5004324043
 40
1.0
 40
1.0
 40
1.0
 40
1.0
 10
38.846229395
 20
44.490292648
 30
0.0
 10
38.8509489676
 20
44.4758809238
 30
0.0
 10
38.8547619939
 20
44.4450636904
 30
0.0
 10
38.8478235266
 20
44.4147972445
 30
0.0
 10
38.841665846
 20
44.400967531
 30
0.0
  0
SPLINE
  5
456
100
AcDbEntity
  8
0
100
AcDbSpline
 62
7
  6
BYLAYER
 70
0
 71
3
 72
10
 73
6
 74
0
 42
0.0000001
 43
0.0000001
 44
0.0000000001
 40
0.0
 40
0.0
 40
0.0
 40
0.0
 40
0.230194862
 40
0.4729573246
 40
1.0
 40
1.0
 40
1.0
 40
1.0
 10
38.7938495581
 20
44.5469728195
 30
0.0
 10
38.7997214115
 20
44.5452371384
 30
0.0
 10
38.8112994554
 20
44.5398109054
 30
0.0
 10
38.8316840887
 20
44.5223667598
 30
0.0
 10
38.8418647515
 20
44.5036154503
 30
0.0
 10
38.8462277008
 20
44.4902927139
 30
0.0
  0
LINE
  5
457
100
AcDbEntity
  8
0
100
AcDbLine
 62
7
  6
BYLAYER
 10
38.3841763468
 20
44.7631778397
 11
38.3901734793
 21
44.7464128385
  0
SPLINE
  5
458
100
AcDbEntity
  8
0
100
AcDbSpline
 62
7
  6
BYLAYER
 70
0
 71
3
 72
9
 73
5
 74
0
 42
0.0000001
 43
0.0000001
 44
0.0000000001
 40
0.0
 40
0.0
 40
0.0
 40
0.0
 40
0.504630555
 40
1.0
 40
1.0
 40
1.0
 40
1.0
 10
38.530056199
 20
45.374155742
 30
0.0
 10
38.5355813252
 20
45.3599155956
 30
0.0
 10
38.5411388327
 20
45.329388496
 30
0.0
 10
38.5355396345
 20
45.2987957762
 30
0.0
 10
38.529878325
 20
45.2849114881
 30
0.0
  0
SPLINE
  5
459
100
AcDbEntity
  8
0
100
AcDbSpline
 62
7
  6
BYLAYER
 70
0
 71
3
 72
9
 73
5
 74
0
 42
0.0000001
 43
0.0000001
 44
0.0000000001
 40
0.0
 40
0.0
 40
0.0
 40
0.0
 40
0.4740801471
 40
1.0
 40
1.0
 40
1.0
 40
1.0
 10
38.4733073581
 20
45.4307084466
 30
0.0
 10
38.4858210598
 20
45.4271825227
 30
0.0
 10
38.510153021
 20
45.4117557338
 30
0.0
 10
38.5248375931
 20
45.3876015632
 30
0.0
 10
38.5300545801
 20
45.3741555974
 30
0.0
  0
LINE
  5
45A
100
AcDbEntity
  8
0
100
AcDbLine
 62
7
  6
BYLAYER
 10
38.0413208482
 20
45.6455257869
 11
38.0482992274
 21
45.6288484418
  0
SPLINE
  5
45B
100
AcDbEntity
  8
0
100
AcDbSpline
 62
7
  6
BYLAYER
 70
0
 71
3
 72
9
 73
5
 74
0
 42
0.0000001
 43
0.0000001
 44
0.0000000001
 40
0.0
 40
0.0
 40
0.0
 40
0.0
 40
0.5085755308
 40
1.0
 40
1.0
 40
1.0
 40
1.0
 10
38.1621509589
 20
46.2533975376
 30
0.0
 10
38.1684265358
 20
46.2394254338
 30
0.0
 10
38.1756225079
 20
46.2093876718
 30
0.0
 10
38.1713272008
 20
46.1786523056
 30
0.0
 10
38.1661448541
 20
46.16478907
 30
0.0
  0
SPLINE
  5
45C
100
AcDbEntity
  8
0
100
AcDbSpline
 62
7
  6
BYLAYER
 70
0
 71
3
 72
9
 73
5
 74
0
 42
0.0000001
 43
0.0000001
 44
0.0000000001
 40
0.0
 40
0.0
 40
0.0
 40
0.0
 40
0.4774007548
 40
1.0
 40
1.0
 40
1.0
 40
1.0
 10
38.1012497476
 20
46.3092680956
 30
0.0
 10
38.1142783448
 20
46.3058224757
 30
0.0
 10
38.1396969737
 20
46.2908295048
 30
0.0
 10
38.1561050612
 20
46.2668545146
 30
0.0
 10
38.1621494277
 20
46.2533971836
 30
0.0
  0
LINE
  5
45D
100
AcDbEntity
  8
0
100
AcDbLine
 62
7
  6
BYLAYER
 10
37.6481119295
 20
46.5198356073
 11
37.6560184253
 21
46.5033728857
  0
SPLINE
  5
45E
100
AcDbEntity
  8
0
100
AcDbSpline
 62
7
  6
BYLAYER
 70
0
 71
3
 72
9
 73
5
 74
0
 42
0.0000001
 43
0.0000001
 44
0.0000000001
 40
0.0
 40
0.0
 40
0.0
 40
0.0
 40
0.5123013447
 40
1.0
 40
1.0
 40
1.0
 40
1.0
 10
37.7453136559
 20
47.1213264738
 30
0.0
 10
37.7522799665
 20
47.1077180659
 30
0.0
 10
37.7610013106
 20
47.0783634723
 30
0.0
 10
37.7579590841
 20
47.0476690354
 30
0.0
 10
37.7532336649
 20
47.0339038772
 30
0.0
  0
SPLINE
  5
45F
100
AcDbEntity
  8
0
100
AcDbSpline
 62
7
  6
BYLAYER
 70
0
 71
3
 72
9
 73
5
 74
0
 42
0.0000001
 43
0.0000001
 44
0.0000000001
 40
0.0
 40
0.0
 40
0.0
 40
0.0
 40
0.4807370397
 40
1.0
 40
1.0
 40
1.0
 40
1.0
 10
37.6805083096
 20
47.1759653972
 30
0.0
 10
37.6940054117
 20
47.1726708046
 30
0.0
 10
37.7204236506
 20
47.158277981
 30
0.0
 10
37.7384739845
 20
47.1346841392
 30
0.0
 10
37.745312224
 20
47.1213259131
 30
0.0
  0
LINE
  5
460
100
AcDbEntity
  8
0
100
AcDbLine
 62
7
  6
BYLAYER
 10
37.2075421481
 20
47.3794532753
 11
37.2163166053
 21
47.3633304253
  0
SPLINE
  5
461
100
AcDbEntity
  8
0
100
AcDbSpline
 62
7
  6
BYLAYER
 70
0
 71
3
 72
9
 73
5
 74
0
 42
0.0000001
 43
0.0000001
 44
0.0000000001
 40
0.0
 40
0.0
 40
0.0
 40
0.0
 40
0.5158483107
 40
1.0
 40
1.0
 40
1.0
 40
1.0
 10
37.2827166735
 20
47.9713370874
 30
0.0
 10
37.2903092241
 20
47.958186477
 30
0.0
 10
37.3004365795
 20
47.9297034839
 30
0.0
 10
37.298582268
 20
47.8992308271
 30
0.0
 10
37.2942872607
 20
47.8856414211
 30
0.0
  0
SPLINE
  5
462
100
AcDbEntity
  8
0
100
AcDbSpline
 62
7
  6
BYLAYER
 70
0
 71
3
 72
9
 73
5
 74
0
 42
0.0000001
 43
0.0000001
 44
0.0000000001
 40
0.0
 40
0.0
 40
0.0
 40
0.0
 40
0.4841519684
 40
1.0
 40
1.0
 40
1.0
 40
1.0
 10
37.2142851405
 20
48.0242042615
 30
0.0
 10
37.2282014833
 20
48.0211291207
 30
0.0
 10
37.2555187075
 20
48.0074985643
 30
0.0
 10
37.2751227713
 20
47.9844869862
 30
0.0
 10
37.2827153517
 20
47.9713363243
 30
0.0
  0
LINE
  5
463
100
AcDbEntity
  8
0
100
AcDbLine
 62
7
  6
BYLAYER
 10
36.7229645059
 20
48.2178365815
 11
36.7325401705
 21
48.2021762671
  0
SPLINE
  5
464
100
AcDbEntity
  8
0
100
AcDbSpline
 62
7
  6
BYLAYER
 70
0
 71
3
 72
9
 73
5
 74
0
 42
0.0000001
 43
0.0000001
 44
0.0000000001
 40
0.0
 40
0.0
 40
0.0
 40
0.0
 40
0.5192629515
 40
1.0
 40
1.0
 40
1.0
 40
1.0
 10
36.7778806539
 20
48.7969602843
 30
0.0
 10
36.7860301089
 20
48.7843591987
 30
0.0
 10
36.7974385279
 20
48.7569307149
 30
0.0
 10
36.796693842
 20
48.726855509
 30
0.0
 10
36.7927985008
 20
48.7135194647
 30
0.0
  0
SPLINE
  5
465
100
AcDbEntity
  8
0
100
AcDbSpline
 62
7
  6
BYLAYER
 70
0
 71
3
 72
9
 73
5
 74
0
 42
0.0000001
 43
0.0000001
 44
0.0000000001
 40
0.0
 40
0.0
 40
0.0
 40
0.0
 40
0.4876992225
 40
1.0
 40
1.0
 40
1.0
 40
1.0
 10
36.7061284801
 20
48.8475290787
 30
0.0
 10
36.7204122248
 20
48.8447388204
 30
0.0
 10
36.748515441
 20
48.8320261639
 30
0.0
 10
36.7695773031
 20
48.8097965136
 30
0.0
 10
36.7778794524
 20
48.7969593245
 30
0.0
  0
LINE
  5
466
100
AcDbEntity
  8
0
100
AcDbLine
 62
7
  6
BYLAYER
 10
36.1980669315
 20
49.0286049226
 11
36.2083709041
 21
49.01352637
  0
SPLINE
  5
467
100
AcDbEntity
  8
0
100
AcDbSpline
 62
7
  6
BYLAYER
 70
0
 71
3
 72
9
 73
5
 74
0
 42
0.0000001
 43
0.0000001
 44
0.0000000001
 40
0.0
 40
0.0
 40
0.0
 40
0.0
 40
0.52259895
 40
1.0
 40
1.0
 40
1.0
 40
1.0
 10
36.2346477043
 20
49.5919125734
 30
0.0
 10
36.2432798993
 20
49.5799494766
 30
0.0
 10
36.2558394695
 20
49.5537527152
 30
0.0
 10
36.2561143181
 20
49.5242431627
 30
0.0
 10
36.2525840175
 20
49.5112373562
 30
0.0
  0
SPLINE
  5
468
100
AcDbEntity
  8
0
100
AcDbSpline
 62
7
  6
BYLAYER
 70
0
 71
3
 72
9
 73
5
 74
0
 42
0.0000001
 43
0.0000001
 44
0.0000000001
 40
0.0
 40
0.0
 40
0.0
 40
0.0
 40
0.4914253236
 40
1.0
 40
1.0
 40
1.0
 40
1.0
 10
36.1599057075
 20
49.6396738497
 30
0.0
 10
36.1745028433
 20
49.6372302741
 30
0.0
 10
36.2032680114
 20
49.6255823737
 30
0.0
 10
36.2256841631
 20
49.6043322381
 30
0.0
 10
36.2346466322
 20
49.5919114244
 30
0.0
  0
LINE
  5
469
100
AcDbEntity
  8
0
100
AcDbLine
 62
7
  6
BYLAYER
 10
35.6368442124
 20
49.805587862
 11
35.6477980451
 21
49.7912058654
  0
SPLINE
  5
46A
100
AcDbEntity
  8
0
100
AcDbSpline
 62
7
  6
BYLAYER
 70
0
 71
3
 72
9
 73
5
 74
0
 42
0.0000001
 43
0.0000001
 44
0.0000000001
 40
0.0
 40
0.0
 40
0.0
 40
0.0
 40
0.525919274
 40
1.0
 40
1.0
 40
1.0
 40
1.0
 10
35.6571521553
 20
50.3501438879
 30
0.0
 10
35.6661881719
 20
50.3389030304
 30
0.0
 10
35.6797646191
 20
50.314109355
 30
0.0
 10
35.6809584823
 20
50.2853240125
 30
0.0
 10
35.6777551691
 20
50.2727239808
 30
0.0
  0
SPLINE
  5
46B
100
AcDbEntity
  8
0
100
AcDbSpline
 62
7
  6
BYLAYER
 70
0
 71
3
 72
9
 73
5
 74
0
 42
0.0000001
 43
0.0000001
 44
0.0000000001
 40
0.0
 40
0.0
 40
0.0
 40
0.0
 40
0.4953705841
 40
1.0
 40
1.0
 40
1.0
 40
1.0
 10
35.5797739077
 20
50.3946098745
 30
0.0
 10
35.5946287471
 20
50.3925705765
 30
0.0
 10
35.6239222903
 20
50.3821232182
 30
0.0
 10
35.6475814125
 20
50.3620474557
 30
0.0
 10
35.6571512207
 20
50.3501425583
 30
0.0
  0
LINE
  5
46C
100
AcDbEntity
  8
0
100
AcDbLine
 62
7
  6
BYLAYER
 10
35.0435675922
 20
50.5428720903
 11
35.0550879764
 21
50.5292960312
  0
SPLINE
  5
46D
100
AcDbEntity
  8
0
100
AcDbSpline
 62
7
  6
BYLAYER
 70
0
 71
3
 72
10
 73
6
 74
0
 42
0.0000001
 43
0.0000001
 44
0.0000000001
 40
0.0
 40
0.0
 40
0.0
 40
0.0
 40
0.5270417311
 40
0.7698043494
 40
1.0
 40
1.0
 40
1.0
 40
1.0
 10
35.0497890967
 20
51.0658836297
 30
0.0
 10
35.0591453853
 20
51.0554440278
 30
0.0
 10
35.0702945991
 20
51.0372522252
 30
0.0
 10
35.0752093195
 20
51.0108767992
 30
0.0
 10
35.0741195393
 20
50.9981369281
 30
0.0
 10
35.0726867503
 20
50.9921839654
 30
0.0
  0
SPLINE
  5
46E
100
AcDbEntity
  8
0
100
AcDbSpline
 62
7
  6
BYLAYER
 70
0
 71
3
 72
9
 73
5
 74
0
 42
0.0000001
 43
0.0000001
 44
0.0000000001
 40
0.0
 40
0.0
 40
0.0
 40
0.0
 40
0.4995690146
 40
1.0
 40
1.0
 40
1.0
 40
1.0
 10
34.9701482341
 20
51.1065916342
 30
0.0
 10
34.9852039863
 20
51.1050095026
 30
0.0
 10
35.0148845675
 20
51.0958851325
 30
0.0
 10
35.0396671496
 20
51.07717516
 30
0.0
 10
35.0497883068
 20
51.0658821296
 30
0.0
  0
LINE
  5
46F
100
AcDbEntity
  8
0
100
AcDbLine
 62
7
  6
BYLAYER
 10
34.4227522643
 20
51.2348464295
 11
34.4347514634
 21
51.2221796998
  0
SPLINE
  5
470
100
AcDbEntity
  8
0
100
AcDbSpline
 62
7
  6
BYLAYER
 70
0
 71
3
 72
11
 73
7
 74
0
 42
0.0000001
 43
0.0000001
 44
0.0000000001
 40
0.0
 40
0.0
 40
0.0
 40
0.0
 40
0.2745133275
 40
0.5318011049
 40
0.7721403025
 40
1.0
 40
1.0
 40
1.0
 40
1.0
 10
34.4171809283
 20
51.733684587
 30
0.0
 10
34.4221606773
 20
51.7287167143
 30
0.0
 10
34.4309191614
 20
51.7181331988
 30
0.0
 10
34.4400285419
 20
51.7003681005
 30
0.0
 10
34.4441341442
 20
51.6820140357
 30
0.0
 10
34.4432985775
 20
51.6698303993
 30
0.0
 10
34.4419836971
 20
51.6641417852
 30
0.0
  0
SPLINE
  5
471
100
AcDbEntity
  8
0
100
AcDbSpline
 62
7
  6
BYLAYER
 70
0
 71
3
 72
9
 73
5
 74
0
 42
0.0000001
 43
0.0000001
 44
0.0000000001
 40
0.0
 40
0.0
 40
0.0
 40
0.0
 40
0.5040471999
 40
1.0
 40
1.0
 40
1.0
 40
1.0
 10
34.3356683062
 20
51.7702005176
 30
0.0
 10
34.3508677165
 20
51.7691233208
 30
0.0
 10
34.3807883645
 20
51.761428857
 30
0.0
 10
34.406566103
 20
51.7442717999
 30
0.0
 10
34.417180289
 20
51.7336829279
 30
0.0
  0
LINE
  5
472
100
AcDbEntity
  8
0
100
AcDbLine
 62
7
  6
BYLAYER
 10
33.7791230082
 20
51.8762445369
 11
33.791509763
 21
51.8645834728
  0
SPLINE
  5
473
100
AcDbEntity
  8
0
100
AcDbSpline
 62
7
  6
BYLAYER
 70
0
 71
3
 72
11
 73
7
 74
0
 42
0.0000001
 43
0.0000001
 44
0.0000000001
 40
0.0
 40
0.0
 40
0.0
 40
0.0
 40
0.2780226851
 40
0.5353664592
 40
0.77375671
 40
1.0
 40
1.0
 40
1.0
 40
1.0
 10
33.76414218
 20
52.3484643914
 30
0.0
 10
33.7692274841
 20
52.343955053
 30
0.0
 10
33.7782230105
 20
52.3342966213
 30
0.0
 10
33.7877904667
 20
52.3177602078
 30
0.0
 10
33.792303497
 20
52.3004510464
 30
0.0
 10
33.7916657045
 20
52.2888781097
 30
0.0
 10
33.7904460407
 20
52.2834834355
 30
0.0
  0
SPLINE
  5
474
100
AcDbEntity
  8
0
100
AcDbSpline
 62
7
  6
BYLAYER
 70
0
 71
3
 72
9
 73
5
 74
0
 42
0.0000001
 43
0.0000001
 44
0.0000000001
 40
0.0
 40
0.0
 40
0.0
 40
0.0
 40
0.2550154898
 40
1.0
 40
1.0
 40
1.0
 40
1.0
 10
33.6811628992
 20
52.3803860604
 30
0.0
 10
33.6887957198
 20
52.38012145
 30
0.0
 10
33.7185422321
 20
52.3765355721
 30
0.0
 10
33.747448151
 20
52.3632654069
 30
0.0
 10
33.7641416962
 20
52.3484625859
 30
0.0
  0
SPLINE
  5
475
100
AcDbEntity
  8
0
100
AcDbSpline
 62
7
  6
BYLAYER
 70
0
 71
3
 72
11
 73
7
 74
0
 42
0.0000001
 43
0.0000001
 44
0.0000000001
 40
0.0
 40
0.0
 40
0.0
 40
0.0
 40
0.2820038212
 40
0.5392958868
 40
0.7753831307
 40
1.0
 40
1.0
 40
1.0
 40
1.0
 10
33.0956428712
 20
52.9055441974
 30
0.0
 10
33.1007892431
 20
52.901525176
 30
0.0
 10
33.1099332622
 20
52.8928601142
 30
0.0
 10
33.1198545085
 20
52.8776572027
 30
0.0
 10
33.12468256
 20
52.8614743918
 30
0.0
 10
33.1241797941
 20
52.8505681714
 30
0.0
 10
33.1230323758
 20
52.8454953522
 30
0.0
  0
SPLINE
  5
476
100
AcDbEntity
  8
0
100
AcDbSpline
 62
7
  6
BYLAYER
 70
0
 71
3
 72
9
 73
5
 74
0
 42
0.0000001
 43
0.0000001
 44
0.0000000001
 40
0.0
 40
0.0
 40
0.0
 40
0.0
 40
0.2583727464
 40
1.0
 40
1.0
 40
1.0
 40
1.0
 10
33.0116131946
 20
52.9325043822
 30
0.0
 10
33.0192868532
 20
52.9325314579
 30
0.0
 10
33.0488870663
 20
52.930277617
 30
0.0
 10
33.0782825932
 20
52.9190993875
 30
0.0
 10
33.0956425466
 20
52.9055422592
 30
0.0
  0
SPLINE
  5
477
100
AcDbEntity
  8
0
100
AcDbSpline
 62
7
  6
BYLAYER
 70
0
 71
3
 72
11
 73
7
 74
0
 42
0.0000001
 43
0.0000001
 44
0.0000000001
 40
0.0
 40
0.0
 40
0.0
 40
0.0
 40
0.2844619719
 40
0.5427027527
 40
0.7778937115
 40
1.0
 40
1.0
 40
1.0
 40
1.0
 10
32.4167706851
 20
53.4006842913
 30
0.0
 10
32.4214323752
 20
53.3975219839
 30
0.0
 10
32.4298334478
 20
53.3906942446
 30
0.0
 10
32.439539399
 20
53.3785483187
 30
0.0
 10
32.4452449512
 20
53.3653646298
 30
0.0
 10
32.4460723796
 20
53.3561539327
 30
0.0
 10
32.4457286145
 20
53.351769114
 30
0.0
  0
SPLINE
  5
478
100
AcDbEntity
  8
0
100
AcDbSpline
 62
7
  6
BYLAYER
 70
0
 71
3
 72
9
 73
5
 74
0
 42
0.0000001
 43
0.0000001
 44
0.0000000001
 40
0.0
 40
0.0
 40
0.0
 40
0.0
 40
0.5192595884
 40
1.0
 40
1.0
 40
1.0
 40
1.0
 10
32.3321148699
 20
53.4223535292
 30
0.0
 10
32.3474075856
 20
53.423022543
 30
0.0
 10
32.3771517873
 20
53.4200763421
 30
0.0
 10
32.4050425289
 20
53.408638045
 30
0.0
 10
32.4167705222
 20
53.4006822351
 30
0.0
  0
SPLINE
  5
479
100
AcDbEntity
  8
0
100
AcDbSpline
 62
7
  6
BYLAYER
 70
0
 71
3
 72
10
 73
6
 74
0
 42
0.0000001
 43
0.0000001
 44
0.0000000001
 40
0.0
 40
0.0
 40
0.0
 40
0.0
 40
0.2392157321
 40
0.486027528
 40
1.0
 40
1.0
 40
1.0
 40
1.0
 10
44.9387744236
 20
42.4301465882
 30
0.0
 10
44.9387744236
 20
42.6687228986
 30
0.0
 10
44.9238086685
 20
43.1535705359
 30
0.0
 10
44.8366899653
 20
44.1474372057
 30
0.0
 10
44.7092893982
 20
44.8971859266
 30
0.0
 10
44.5999745908
 20
45.3979929016
 30
0.0
  0
SPLINE
  5
47A
100
AcDbEntity
  8
0
100
AcDbSpline
 62
7
  6
BYLAYER
 70
0
 71
3
 72
9
 73
5
 74
0
 42
0.0000001
 43
0.0000001
 44
0.0000000001
 40
0.0
 40
0.0
 40
0.0
 40
0.0
 40
0.544982423
 40
1.0
 40
1.0
 40
1.0
 40
1.0
 10
31.7326922491
 20
53.8301163579
 30
0.0
 10
31.7398373319
 20
53.8259912358
 30
0.0
 10
31.7521744379
 20
53.8167124935
 30
0.0
 10
31.7598609184
 20
53.8028281299
 30
0.0
 10
31.7612567176
 20
53.7960826035
 30
0.0
  0
SPLINE
  5
47B
100
AcDbEntity
  8
0
100
AcDbSpline
 62
7
  6
BYLAYER
 70
0
 71
3
 72
9
 73
5
 74
0
 42
0.0000001
 43
0.0000001
 44
0.0000000001
 40
0.0
 40
0.0
 40
0.0
 40
0.0
 40
0.5248707537
 40
1.0
 40
1.0
 40
1.0
 40
1.0
 10
31.6478393176
 20
53.8462054537
 30
0.0
 10
31.6630561174
 20
53.8475148034
 30
0.0
 10
31.6924551656
 20
53.8462376173
 30
0.0
 10
31.7207188451
 20
53.837026891
 30
0.0
 10
31.7326922491
 20
53.8301141995
 30
0.0
  0
SPLINE
  5
47C
100
AcDbEntity
  8
0
100
AcDbSpline
 62
7
  6
BYLAYER
 70
0
 71
3
 72
10
 73
6
 74
0
 42
0.0000001
 43
0.0000001
 44
0.0000000001
 40
0.0
 40
0.0
 40
0.0
 40
0.0
 40
0.5298767609
 40
0.776806808
 40
1.0
 40
1.0
 40
1.0
 40
1.0
 10
30.9639942879
 20
54.2008343864
 30
0.0
 10
30.9790861304
 20
54.2028040067
 30
0.0
 10
31.0017118329
 20
54.2031354909
 30
0.0
 10
31.0300064173
 20
54.1978433478
 30
0.0
 10
31.0428261474
 20
54.1933267377
 30
0.0
 10
31.048613976
 20
54.1905699157
 30
0.0
  0
SPLINE
  5
47D
100
AcDbEntity
  8
0
100
AcDbSpline
 62
7
  6
BYLAYER
 70
0
 71
3
 72
9
 73
5
 74
0
 42
0.0000001
 43
0.0000001
 44
0.0000000001
 40
0.0
 40
0.0
 40
0.0
 40
0.0
 40
0.51816938
 40
1.0
 40
1.0
 40
1.0
 40
1.0
 10
30.2857842543
 20
54.4835413872
 30
0.0
 10
30.2968091407
 20
54.4854954839
 30
0.0
 10
30.3184033178
 20
54.4876402903
 30
0.0
 10
30.3401132903
 20
54.4862452702
 30
0.0
 10
30.3503665392
 20
54.4844368545
 30
0.0
  0
SPLINE
  5
47E
100
AcDbEntity
  8
0
100
AcDbSpline
 62
7
  6
BYLAYER
 70
0
 71
3
 72
14
 73
10
 74
0
 42
0.0000001
 43
0.0000001
 44
0.0000000001
 40
0.0
 40
0.0
 40
0.0
 40
0.0
 40
0.101350338
 40
0.2058854365
 40
0.3164077821
 40
0.4348768019
 40
0.5624346765
 40
0.6994716067
 40
1.0
 40
1.0
 40
1.0
 40
1.0
 10
27.9111114614
 20
59.2719494103
 30
0.0
 10
27.9433667853
 20
59.2905849079
 30
0.0
 10
28.0134261349
 20
59.3210937041
 30
0.0
 10
28.1283655811
 20
59.3434925945
 30
0.0
 10
28.2516698659
 20
59.3427900668
 30
0.0
 10
28.3811747241
 20
59.319355698
 30
0.0
 10
28.5148867318
 20
59.2737939884
 30
0.0
 10
28.7016227535
 20
59.181883377
 30
0.0
 10
28.8328743421
 20
59.0864147928
 30
0.0
 10
28.9164694843
 20
59.0142114155
 30
0.0
  0
SPLINE
  5
47F
100
AcDbEntity
  8
0
100
AcDbSpline
 62
7
  6
BYLAYER
 70
0
 71
3
 72
9
 73
5
 74
0
 42
0.0000001
 43
0.0000001
 44
0.0000000001
 40
0.0
 40
0.0
 40
0.0
 40
0.0
 40
0.2554695123
 40
1.0
 40
1.0
 40
1.0
 40
1.0
 10
29.6183708047
 20
54.6921748851
 30
0.0
 10
29.622167795
 20
54.6930344763
 30
0.0
 10
29.6371066914
 20
54.6960421754
 30
0.0
 10
29.6523390645
 20
54.6976883661
 30
0.0
 10
29.6636823387
 20
54.6979290444
 30
0.0
  0
SPLINE
  5
480
100
AcDbEntity
  8
0
100
AcDbSpline
 62
7
  6
BYLAYER
 70
0
 71
3
 72
9
 73
5
 74
0
 42
0.0000001
 43
0.0000001
 44
0.0000000001
 40
0.0
 40
0.0
 40
0.0
 40
0.0
 40
0.2521921562
 40
1.0
 40
1.0
 40
1.0
 40
1.0
 10
28.9668333585
 20
54.8251470531
 30
0.0
 10
28.9692656729
 20
54.8258234848
 30
0.0
 10
28.9789448381
 20
54.828379196
 30
0.0
 10
28.9887554639
 20
54.8304446594
 30
0.0
 10
28.996140766
 20
54.8316689007
 30
0.0
  0
SPLINE
  5
481
100
AcDbEntity
  8
0
100
AcDbSpline
 62
7
  6
BYLAYER
 70
0
 71
3
 72
13
 73
9
 74
0
 42
0.0000001
 43
0.0000001
 44
0.0000000001
 40
0.0
 40
0.0
 40
0.0
 40
0.0
 40
0.1103346534
 40
0.2223813596
 40
0.3377002118
 40
0.4576417792
 40
0.7150840181
 40
1.0
 40
1.0
 40
1.0
 40
1.0
 10
34.9106552834
 20
59.8972286722
 30
0.0
 10
34.9328730909
 20
59.9100587063
 30
0.0
 10
34.9797349302
 20
59.9324868296
 30
0.0
 10
35.0551618617
 20
59.9553002653
 30
0.0
 10
35.1352955807
 20
59.9673284377
 30
0.0
 10
35.2501580657
 20
59.9688676622
 30
0.0
 10
35.4031840747
 20
59.9416084356
 30
0.0
 10
35.5211032054
 20
59.8948204669
 30
0.0
 10
35.5805980193
 20
59.8656715474
 30
0.0
  0
SPLINE
  5
482
100
AcDbEntity
  8
0
100
AcDbSpline
 62
7
  6
BYLAYER
 70
0
 71
3
 72
14
 73
10
 74
0
 42
0.0000001
 43
0.0000001
 44
0.0000000001
 40
0.0
 40
0.0
 40
0.0
 40
0.0
 40
0.1185928649
 40
0.2376743461
 40
0.3579816351
 40
0.4802158653
 40
0.6050212658
 40
0.7329704536
 40
1.0
 40
1.0
 40
1.0
 40
1.0
 10
24.9049547252
 20
57.8534047698
 30
0.0
 10
24.7635372303
 20
57.7781128745
 30
0.0
 10
24.4873063323
 20
57.6132447853
 30
0.0
 10
24.0976708444
 20
57.3255560865
 30
0.0
 10
23.7337928034
 20
56.9984670911
 30
0.0
 10
23.3969721228
 20
56.6330678975
 30
0.0
 10
23.0882137228
 20
56.2305736297
 30
0.0
 10
22.7100008817
 20
55.6381750754
 30
0.0
 10
22.479679647
 20
55.1537109233
 30
0.0
 10
22.3479729916
 20
54.8178730802
 30
0.0
  0
SPLINE
  5
483
100
AcDbEntity
  8
0
100
AcDbSpline
 62
7
  6
BYLAYER
 70
0
 71
3
 72
9
 73
5
 74
0
 42
0.0000001
 43
0.0000001
 44
0.0000000001
 40
0.0
 40
0.0
 40
0.0
 40
0.0
 40
0.2563453538
 40
1.0
 40
1.0
 40
1.0
 40
1.0
 10
26.5732491044
 20
56.0678159157
 30
0.0
 10
26.5769249034
 20
56.0778759987
 30
0.0
 10
26.5915841989
 20
56.1170020379
 30
0.0
 10
26.6075526504
 20
56.1556417624
 30
0.0
 10
26.6202434776
 20
56.1840031452
 30
0.0
  0
SPLINE
  5
484
100
AcDbEntity
  8
0
100
AcDbSpline
 62
7
  6
BYLAYER
 70
0
 71
3
 72
16
 73
12
 74
0
 42
0.0000001
 43
0.0000001
 44
0.0000000001
 40
0.0
 40
0.0
 40
0.0
 40
0.0
 40
0.053796622
 40
0.1079379477
 40
0.2180989266
 40
0.3322840132
 40
0.4518964431
 40
0.5779718801
 40
0.7111718262
 40
0.8518639669
 40
1.0
 40
1.0
 40
1.0
 40
1.0
 10
25.9862231495
 20
58.4291052847
 30
0.0
 10
26.105987448
 20
58.4928689733
 30
0.0
 10
26.3517261312
 20
58.6108917524
 30
0.0
 10
26.8659150567
 20
58.8076923098
 30
0.0
 10
27.5507488592
 20
58.9776423324
 30
0.0
 10
28.4177422716
 20
59.0559581865
 30
0.0
 10
29.3269533568
 20
59.0102579769
 30
0.0
 10
30.2698658435
 20
58.841623425
 30
0.0
 10
31.2382399444
 20
58.5521592042
 30
0.0
 10
32.2233213963
 20
58.144819892
 30
0.0
 10
32.8692997854
 20
57.8058281135
 30
0.0
 10
33.1928616822
 20
57.6190237914
 30
0.0
  0
SPLINE
  5
485
100
AcDbEntity
  8
0
100
AcDbSpline
 62
7
  6
BYLAYER
 70
0
 71
3
 72
9
 73
5
 74
0
 42
0.0000001
 43
0.0000001
 44
0.0000000001
 40
0.0
 40
0.0
 40
0.0
 40
0.0
 40
0.255096265
 40
1.0
 40
1.0
 40
1.0
 40
1.0
 10
25.9367584219
 20
55.9139798521
 30
0.0
 10
25.9416063408
 20
55.9214798127
 30
0.0
 10
25.9609701367
 20
55.9506455213
 30
0.0
 10
25.9818009602
 20
55.9788438775
 30
0.0
 10
25.998161973
 20
55.999150372
 30
0.0
  0
LINE
  5
486
100
AcDbEntity
  8
0
100
AcDbLine
 62
7
  6
BYLAYER
 10
25.3891233825
 20
55.7113933247
 11
25.3656641684
 21
55.6977474822
  0
LINE
  5
487
100
AcDbEntity
  8
0
100
AcDbLine
 62
7
  6
BYLAYER
 10
38.0155889174
 20
33.7875567532
 11
38.0391361392
 21
33.8010501519
  0
SPLINE
  5
488
100
AcDbEntity
  8
0
100
AcDbSpline
 62
7
  6
BYLAYER
 70
0
 71
3
 72
9
 73
5
 74
0
 42
0.0000001
 43
0.0000001
 44
0.0000000001
 40
0.0
 40
0.0
 40
0.0
 40
0.0
 40
0.2451516809
 40
1.0
 40
1.0
 40
1.0
 40
1.0
 10
38.5928528082
 20
34.1846270373
 30
0.0
 10
38.5843725378
 20
34.1833059242
 30
0.0
 10
38.5497071401
 20
34.1783948101
 30
0.0
 10
38.514780745
 20
34.1753669257
 30
0.0
 10
38.488387385
 20
34.1740414652
 30
0.0
  0
SPLINE
  5
489
100
AcDbEntity
  8
0
100
AcDbSpline
 62
7
  6
BYLAYER
 70
0
 71
3
 72
9
 73
5
 74
0
 42
0.0000001
 43
0.0000001
 44
0.0000000001
 40
0.0
 40
0.0
 40
0.0
 40
0.0
 40
0.2437640353
 40
1.0
 40
1.0
 40
1.0
 40
1.0
 10
39.0639723155
 20
34.6309522083
 30
0.0
 10
39.0538408457
 20
34.6319984175
 30
0.0
 10
39.0123194206
 20
34.6366845659
 30
0.0
 10
38.970974937
 20
34.6429041631
 30
0.0
 10
38.9398501044
 20
34.6483535591
 30
0.0
  0
SPLINE
  5
48A
100
AcDbEntity
  8
0
100
AcDbSpline
 62
7
  6
BYLAYER
 70
0
 71
3
 72
9
 73
5
 74
0
 42
0.0000001
 43
0.0000001
 44
0.0000000001
 40
0.0
 40
0.0
 40
0.0
 40
0.0
 40
0.4784482967
 40
1.0
 40
1.0
 40
1.0
 40
1.0
 10
39.5238579907
 20
41.0921535813
 30
0.0
 10
39.5288671887
 20
41.0897625328
 30
0.0
 10
39.5383314027
 20
41.0824257977
 30
0.0
 10
39.5442292515
 20
41.0721390571
 30
0.0
 10
39.5464834852
 20
41.0665240006
 30
0.0
  0
SPLINE
  5
48B
100
AcDbEntity
  8
0
100
AcDbSpline
 62
7
  6
BYLAYER
 70
0
 71
3
 72
9
 73
5
 74
0
 42
0.0000001
 43
0.0000001
 44
0.0000000001
 40
0.0
 40
0.0
 40
0.0
 40
0.0
 40
0.2373068903
 40
1.0
 40
1.0
 40
1.0
 40
1.0
 10
39.5464834852
 20
41.0665240006
 30
0.0
 10
39.5472065475
 20
41.0647229291
 30
0.0
 10
39.5499061148
 20
41.0569948124
 30
0.0
 10
39.5512910784
 20
41.0488377796
 30
0.0
 10
39.5517426898
 20
41.0426165327
 30
0.0
  0
SPLINE
  5
48C
100
AcDbEntity
  8
0
100
AcDbSpline
 62
7
  6
BYLAYER
 70
0
 71
3
 72
9
 73
5
 74
0
 42
0.0000001
 43
0.0000001
 44
0.0000000001
 40
0.0
 40
0.0
 40
0.0
 40
0.0
 40
0.2463434394
 40
1.0
 40
1.0
 40
1.0
 40
1.0
 10
39.0807424876
 20
37.3647298223
 30
0.0
 10
39.0791766841
 20
37.3628243307
 30
0.0
 10
39.0727077519
 20
37.3551824025
 30
0.0
 10
39.0658247081
 20
37.3478924263
 30
0.0
 10
39.0604392028
 20
37.3426076931
 30
0.0
  0
SPLINE
  5
48D
100
AcDbEntity
  8
0
100
AcDbSpline
 62
7
  6
BYLAYER
 70
0
 71
3
 72
9
 73
5
 74
0
 42
0.0000001
 43
0.0000001
 44
0.0000000001
 40
0.0
 40
0.0
 40
0.0
 40
0.0
 40
0.4549876162
 40
1.0
 40
1.0
 40
1.0
 40
1.0
 10
39.5663903248
 20
40.2772441772
 30
0.0
 10
39.5715426201
 20
40.2726645289
 30
0.0
 10
39.5797398349
 20
40.2590586783
 30
0.0
 10
39.5816101923
 20
40.243722378
 30
0.0
 10
39.5816101923
 20
40.2354650045
 30
0.0
  0
SPLINE
  5
48E
100
AcDbEntity
  8
0
100
AcDbSpline
 62
7
  6
BYLAYER
 70
0
 71
3
 72
9
 73
5
 74
0
 42
0.0000001
 43
0.0000001
 44
0.0000000001
 40
0.0
 40
0.0
 40
0.0
 40
0.0
 40
0.2415420996
 40
1.0
 40
1.0
 40
1.0
 40
1.0
 10
39.2986832019
 20
38.0097185829
 30
0.0
 10
39.2967754522
 20
38.0065701744
 30
0.0
 10
39.2885031442
 20
37.9937641604
 30
0.0
 10
39.2788901913
 20
37.9818392052
 30
0.0
 10
39.2710427185
 20
37.9733515754
 30
0.0
  0
SPLINE
  5
48F
100
AcDbEntity
  8
0
100
AcDbSpline
 62
7
  6
BYLAYER
 70
0
 71
3
 72
9
 73
5
 74
0
 42
0.0000001
 43
0.0000001
 44
0.0000000001
 40
0.0
 40
0.0
 40
0.0
 40
0.0
 40
0.4818288763
 40
1.0
 40
1.0
 40
1.0
 40
1.0
 10
39.4571270557
 20
38.7111614376
 30
0.0
 10
39.4535670077
 20
38.701376738
 30
0.0
 10
39.4439201571
 20
38.6818760026
 30
0.0
 10
39.4312648242
 20
38.664245926
 30
0.0
 10
39.4240595758
 20
38.6556744683
 30
0.0
  0
SPLINE
  5
490
100
AcDbEntity
  8
0
100
AcDbSpline
 62
7
  6
BYLAYER
 70
0
 71
3
 72
10
 73
6
 74
0
 42
0.0000001
 43
0.0000001
 44
0.0000000001
 40
0.0
 40
0.0
 40
0.0
 40
0.0
 40
0.2231952389
 40
0.4701259328
 40
1.0
 40
1.0
 40
1.0
 40
1.0
 10
39.551744552
 20
39.4627994541
 30
0.0
 10
39.5512381797
 20
39.4564085343
 30
0.0
 10
39.548740324
 20
39.4430477822
 30
0.0
 10
39.5391768308
 20
39.4158974215
 30
0.0
 10
39.5275768496
 20
39.396468636
 30
0.0
 10
39.5183252241
 20
39.3843834826
 30
0.0
  0
SPLINE
  5
491
100
AcDbEntity
  8
0
100
AcDbSpline
 62
7
  6
BYLAYER
 70
0
 71
3
 72
15
 73
11
 74
0
 42
0.0000001
 43
0.0000001
 44
0.0000000001
 40
0.0
 40
0.0
 40
0.0
 40
0.0
 40
0.09301646
 40
0.1963594901
 40
0.3110321204
 40
0.4364628393
 40
0.5708762423
 40
0.7116830351
 40
0.8558503887
 40
1.0
 40
1.0
 40
1.0
 40
1.0
 10
43.5440790601
 20
50.4410884185
 30
0.0
 10
43.6038796838
 20
50.4464304948
 30
0.0
 10
43.7321184986
 20
50.4387044987
 30
0.0
 10
43.9254877184
 20
50.3799892222
 30
0.0
 10
44.1228970074
 20
50.2767755525
 30
0.0
 10
44.3180677542
 20
50.132798717
 30
0.0
 10
44.5047487169
 20
49.9528910892
 30
0.0
 10
44.6767617665
 20
49.7431213354
 30
0.0
 10
44.8282252464
 20
49.5106131199
 30
0.0
 10
44.9127951985
 20
49.3443577958
 30
0.0
 10
44.9503289619
 20
49.2592209498
 30
0.0
  0
SPLINE
  5
492
100
AcDbEntity
  8
0
100
AcDbSpline
 62
7
  6
BYLAYER
 70
0
 71
3
 72
9
 73
5
 74
0
 42
0.0000001
 43
0.0000001
 44
0.0000000001
 40
0.0
 40
0.0
 40
0.0
 40
0.0
 40
0.5207000026
 40
1.0
 40
1.0
 40
1.0
 40
1.0
 10
45.7374888446
 20
47.2304397969
 30
0.0
 10
45.7707415876
 20
47.1313574725
 30
0.0
 10
45.8219675219
 20
46.9365131142
 30
0.0
 10
45.8421856592
 20
46.7356182522
 30
0.0
 10
45.8421856592
 20
46.6394145365
 30
0.0
  0
SPLINE
  5
493
100
AcDbEntity
  8
0
100
AcDbSpline
 62
7
  6
BYLAYER
 70
0
 71
3
 72
14
 73
10
 74
0
 42
0.0000001
 43
0.0000001
 44
0.0000000001
 40
0.0
 40
0.0
 40
0.0
 40
0.0
 40
0.2665343482
 40
0.3943869371
 40
0.5191866343
 40
0.6414966135
 40
0.7619432341
 40
0.8812057407
 40
1.0
 40
1.0
 40
1.0
 40
1.0
 10
35.8192493842
 20
31.6031580648
 30
0.0
 10
36.1691686355
 20
31.5538234074
 30
0.0
 10
36.6934773985
 20
31.5168244925
 30
0.0
 10
37.3814969507
 20
31.5529252399
 30
0.0
 10
37.8745956445
 20
31.621191134
 30
0.0
 10
38.3500914381
 20
31.7308450421
 30
0.0
 10
38.8065407577
 20
31.8815702494
 30
0.0
 10
39.2423698596
 20
32.0729665543
 30
0.0
 10
39.5183591877
 20
32.2272763443
 30
0.0
 10
39.6519773849
 20
32.310660041
 30
0.0
  0
SPLINE
  5
494
100
AcDbEntity
  8
0
100
AcDbSpline
 62
7
  6
BYLAYER
 70
0
 71
3
 72
14
 73
10
 74
0
 42
0.0000001
 43
0.0000001
 44
0.0000000001
 40
0.0
 40
0.0
 40
0.0
 40
0.0
 40
0.2892654733
 40
0.4225652398
 40
0.5485114123
 40
0.6678978323
 40
0.7818798305
 40
0.8919561332
 40
1.0
 40
1.0
 40
1.0
 40
1.0
 10
45.8421856592
 20
46.6394145365
 30
0.0
 10
45.8421856592
 20
46.5633876743
 30
0.0
 10
45.8333041067
 20
46.4517804784
 30
0.0
 10
45.7989973475
 20
46.3115053371
 30
0.0
 10
45.7640943064
 20
46.2180280174
 30
0.0
 10
45.7195859533
 20
46.1343982532
 30
0.0
 10
45.6658624064
 20
46.0614189704
 30
0.0
 10
45.6033922877
 20
45.9999255894
 30
0.0
 10
45.5561100222
 20
45.9669340949
 30
0.0
 10
45.5315180701
 20
45.9527348507
 30
0.0
  0
SPLINE
  5
495
100
AcDbEntity
  8
0
100
AcDbSpline
 62
7
  6
BYLAYER
 70
0
 71
3
 72
9
 73
5
 74
0
 42
0.0000001
 43
0.0000001
 44
0.0000000001
 40
0.0
 40
0.0
 40
0.0
 40
0.0
 40
0.503357307
 40
1.0
 40
1.0
 40
1.0
 40
1.0
 10
41.6686365429
 20
33.7572789801
 30
0.0
 10
41.5220786073
 20
33.6039018879
 30
0.0
 10
41.212292185
 20
33.3163833065
 30
0.0
 10
40.8687578317
 20
33.0700228908
 30
0.0
 10
40.6911861537
 20
32.959210442
 30
0.0
  0
SPLINE
  5
496
100
AcDbEntity
  8
0
100
AcDbSpline
 62
7
  6
BYLAYER
 70
0
 71
3
 72
12
 73
8
 74
0
 42
0.0000001
 43
0.0000001
 44
0.0000000001
 40
0.0
 40
0.0
 40
0.0
 40
0.0
 40
0.2611674465
 40
0.5223044609
 40
0.7717925131
 40
0.8891298073
 40
1.0
 40
1.0
 40
1.0
 40
1.0
 10
45.3118533732
 20
38.6735100388
 30
0.0
 10
45.3931699532
 20
38.5723517364
 30
0.0
 10
45.5399403327
 20
38.3568014141
 30
0.0
 10
45.7070935199
 20
38.0101743362
 30
0.0
 10
45.7982221965
 20
37.7099744135
 30
0.0
 10
45.8355676002
 20
37.4752381718
 30
0.0
 10
45.8421856671
 20
37.3617597752
 30
0.0
 10
45.8421856671
 20
37.3066617196
 30
0.0
  0
SPLINE
  5
497
100
AcDbEntity
  8
0
100
AcDbSpline
 62
7
  6
BYLAYER
 70
0
 71
3
 72
9
 73
5
 74
0
 42
0.0000001
 43
0.0000001
 44
0.0000000001
 40
0.0
 40
0.0
 40
0.0
 40
0.0
 40
0.2750880724
 40
1.0
 40
1.0
 40
1.0
 40
1.0
 10
45.8421856671
 20
37.3066617196
 30
0.0
 10
45.8421856671
 20
37.2622560178
 30
0.0
 10
45.8347107522
 20
37.1012980067
 30
0.0
 10
45.793720013
 20
36.9391490363
 30
0.0
 10
45.7374888446
 20
36.8365272072
 30
0.0
  0
SPLINE
  5
498
100
AcDbEntity
  8
0
100
AcDbSpline
 62
7
  6
BYLAYER
 70
0
 71
3
 72
9
 73
5
 74
0
 42
0.0000001
 43
0.0000001
 44
0.0000000001
 40
0.0
 40
0.0
 40
0.0
 40
0.0
 40
0.5083035566
 40
1.0
 40
1.0
 40
1.0
 40
1.0
 10
45.7374888446
 20
36.8365272072
 30
0.0
 10
45.6258534038
 20
36.6327926331
 30
0.0
 10
45.3849068163
 20
36.2431974783
 30
0.0
 10
45.1004761184
 20
35.8838631883
 30
0.0
 10
44.9503289619
 20
35.7166594323
 30
0.0
  0
SPLINE
  5
499
100
AcDbEntity
  8
0
100
AcDbSpline
 62
7
  6
BYLAYER
 70
0
 71
3
 72
9
 73
5
 74
0
 42
0.0000001
 43
0.0000001
 44
0.0000000001
 40
0.0
 40
0.0
 40
0.0
 40
0.0
 40
0.2429449279
 40
1.0
 40
1.0
 40
1.0
 40
1.0
 10
35.5805980193
 20
59.8656715474
 30
0.0
 10
35.7128511801
 20
59.8008753707
 30
0.0
 10
36.2524406305
 20
59.5244463891
 30
0.0
 10
36.7727266563
 20
59.2108135837
 30
0.0
 10
37.1549177847
 20
58.9567581695
 30
0.0
  0
SPLINE
  5
49A
100
AcDbEntity
  8
0
100
AcDbSpline
 62
7
  6
BYLAYER
 70
0
 71
3
 72
15
 73
11
 74
0
 42
0.0000001
 43
0.0000001
 44
0.0000000001
 40
0.0
 40
0.0
 40
0.0
 40
0.0
 40
0.1169929126
 40
0.2418179157
 40
0.3719468591
 40
0.5045245886
 40
0.6364798479
 40
0.7647861879
 40
0.8867224077
 40
1.0
 40
1.0
 40
1.0
 40
1.0
 10
37.1549177847
 20
58.9567581695
 30
0.0
 10
37.223425039
 20
58.9112190725
 30
0.0
 10
37.3578326341
 20
58.8060138725
 30
0.0
 10
37.5419670634
 20
58.6194746042
 30
0.0
 10
37.7102030878
 20
58.4043922758
 30
0.0
 10
37.8568115266
 20
58.1681572262
 30
0.0
 10
37.9767913757
 20
57.9187610235
 30
0.0
 10
38.0661090154
 20
57.6646630174
 30
0.0
 10
38.1216694928
 20
57.4145356515
 30
0.0
 10
38.1355322149
 20
57.249002132
 30
0.0
 10
38.1355322149
 20
57.169352412
 30
0.0
  0
SPLINE
  5
49B
100
AcDbEntity
  8
0
100
AcDbSpline
 62
7
  6
BYLAYER
 70
0
 71
3
 72
11
 73
7
 74
0
 42
0.0000001
 43
0.0000001
 44
0.0000000001
 40
0.0
 40
0.0
 40
0.0
 40
0.0
 40
0.2780846659
 40
0.5354513884
 40
0.7738171279
 40
1.0
 40
1.0
 40
1.0
 40
1.0
 10
40.3728404326
 20
42.4519374762
 30
0.0
 10
40.3714779171
 20
42.4585957508
 30
0.0
 10
40.3676134068
 20
42.4712141173
 30
0.0
 10
40.3580815235
 20
42.4877664856
 30
0.0
 10
40.3453557451
 20
42.5003281211
 30
0.0
 10
40.3350197086
 20
42.5055614027
 30
0.0
 10
40.3297408884
 20
42.5072017151
 30
0.0
  0
SPLINE
  5
49C
100
AcDbEntity
  8
0
100
AcDbSpline
 62
7
  6
BYLAYER
 70
0
 71
3
 72
10
 73
6
 74
0
 42
0.0000001
 43
0.0000001
 44
0.0000000001
 40
0.0
 40
0.0
 40
0.0
 40
0.0
 40
0.2301453321
 40
0.4728894613
 40
1.0
 40
1.0
 40
1.0
 40
1.0
 10
35.5358944447
 20
51.8717845635
 30
0.0
 10
35.5373259758
 20
51.8777351045
 30
0.0
 10
35.5384126874
 20
51.8904707772
 30
0.0
 10
35.5334923904
 20
51.9168393409
 30
0.0
 10
35.5223418921
 20
51.9350257375
 30
0.0
 10
35.5129863851
 20
51.9454644674
 30
0.0
  0
SPLINE
  5
49D
100
AcDbEntity
  8
0
100
AcDbSpline
 62
7
  6
BYLAYER
 70
0
 71
3
 72
9
 73
5
 74
0
 42
0.0000001
 43
0.0000001
 44
0.0000000001
 40
0.0
 40
0.0
 40
0.0
 40
0.0
 40
0.5004541924
 40
1.0
 40
1.0
 40
1.0
 40
1.0
 10
35.5129870783
 20
51.9454657837
 30
0.0
 10
35.502865647
 20
51.9567591201
 30
0.0
 10
35.478088456
 20
51.9754728253
 30
0.0
 10
35.4484121737
 20
51.9846090466
 30
0.0
 10
35.433357934
 20
51.9861960405
 30
0.0
  0
SPLINE
  5
49E
100
AcDbEntity
  8
0
100
AcDbSpline
 62
7
  6
BYLAYER
 70
0
 71
3
 72
11
 73
7
 74
0
 42
0.0000001
 43
0.0000001
 44
0.0000000001
 40
0.0
 40
0.0
 40
0.0
 40
0.0
 40
0.227804185
 40
0.4681219838
 40
0.7254317893
 40
1.0
 40
1.0
 40
1.0
 40
1.0
 10
34.8168524058
 20
52.6369957781
 30
0.0
 10
34.8181662568
 20
52.6426816744
 30
0.0
 10
34.8189993225
 20
52.654860629
 30
0.0
 10
34.8148904059
 20
52.6732076423
 30
0.0
 10
34.8057793686
 20
52.690967791
 30
0.0
 10
34.7970207166
 20
52.701549099
 30
0.0
 10
34.7920412154
 20
52.7065167245
 30
0.0
  0
SPLINE
  5
49F
100
AcDbEntity
  8
0
100
AcDbSpline
 62
7
  6
BYLAYER
 70
0
 71
3
 72
9
 73
5
 74
0
 42
0.0000001
 43
0.0000001
 44
0.0000000001
 40
0.0
 40
0.0
 40
0.0
 40
0.0
 40
0.5248571397
 40
1.0
 40
1.0
 40
1.0
 40
1.0
 10
40.6491650247
 20
39.5211464244
 30
0.0
 10
40.657902078
 20
39.5336739906
 30
0.0
 10
40.6714825624
 20
39.5597812809
 30
0.0
 10
40.6776302185
 20
39.5888651752
 30
0.0
 10
40.6776302185
 20
39.6026918626
 30
0.0
  0
SPLINE
  5
4A0
100
AcDbEntity
  8
0
100
AcDbSpline
 62
7
  6
BYLAYER
 70
0
 71
3
 72
9
 73
5
 74
0
 42
0.0000001
 43
0.0000001
 44
0.0000000001
 40
0.0
 40
0.0
 40
0.0
 40
0.0
 40
0.4959732565
 40
1.0
 40
1.0
 40
1.0
 40
1.0
 10
34.7920417764
 20
52.7065181804
 30
0.0
 10
34.7814271716
 20
52.7171074704
 30
0.0
 10
34.7556543119
 20
52.7342690711
 30
0.0
 10
34.725737024
 20
52.7419762191
 30
0.0
 10
34.7105386378
 20
52.7430587224
 30
0.0
  0
SPLINE
  5
4A1
100
AcDbEntity
  8
0
100
AcDbSpline
 62
7
  6
BYLAYER
 70
0
 71
3
 72
11
 73
7
 74
0
 42
0.0000001
 43
0.0000001
 44
0.0000000001
 40
0.0
 40
0.0
 40
0.0
 40
0.0
 40
0.2261812137
 40
0.4645459463
 40
0.7219140244
 40
1.0
 40
1.0
 40
1.0
 40
1.0
 10
34.0741227863
 20
53.3421868168
 30
0.0
 10
34.0753416544
 20
53.3475784931
 30
0.0
 10
34.0759775413
 20
53.3591462869
 30
0.0
 10
34.0714617227
 20
53.3764478211
 30
0.0
 10
34.061893023
 20
53.392978846
 30
0.0
 10
34.0528975592
 20
53.4026349142
 30
0.0
 10
34.0478125528
 20
53.4071439888
 30
0.0
  0
SPLINE
  5
4A2
100
AcDbEntity
  8
0
100
AcDbSpline
 62
7
  6
BYLAYER
 70
0
 71
3
 72
9
 73
5
 74
0
 42
0.0000001
 43
0.0000001
 44
0.0000000001
 40
0.0
 40
0.0
 40
0.0
 40
0.0
 40
0.5040265064
 40
1.0
 40
1.0
 40
1.0
 40
1.0
 10
40.1290778382
 20
43.3579223411
 30
0.0
 10
40.1357395257
 20
43.3716257806
 30
0.0
 10
40.144023255
 20
43.401388491
 30
0.0
 10
40.1420478333
 20
43.4322892774
 30
0.0
 10
40.1381844523
 20
43.4467764166
 30
0.0
  0
SPLINE
  5
4A3
100
AcDbEntity
  8
0
100
AcDbSpline
 62
7
  6
BYLAYER
 70
0
 71
3
 72
9
 73
5
 74
0
 42
0.0000001
 43
0.0000001
 44
0.0000000001
 40
0.0
 40
0.0
 40
0.0
 40
0.0
 40
0.2419667572
 40
1.0
 40
1.0
 40
1.0
 40
1.0
 10
34.0478129773
 20
53.4071455731
 30
0.0
 10
34.0423887712
 20
53.4119554294
 30
0.0
 10
34.0179961332
 20
53.4295303952
 30
0.0
 10
33.987538489
 20
53.4382986642
 30
0.0
 10
33.964840873
 20
53.4390940253
 30
0.0
  0
SPLINE
  5
4A4
100
AcDbEntity
  8
0
100
AcDbSpline
 62
7
  6
BYLAYER
 70
0
 71
3
 72
11
 73
7
 74
0
 42
0.0000001
 43
0.0000001
 44
0.0000000001
 40
0.0
 40
0.0
 40
0.0
 40
0.0
 40
0.2745670735
 40
0.531875691
 40
0.7721943437
 40
1.0
 40
1.0
 40
1.0
 40
1.0
 10
40.1381859936
 20
43.4467761745
 30
0.0
 10
40.1363736121
 20
43.4535723523
 30
0.0
 10
40.131589413
 20
43.4664482634
 30
0.0
 10
40.1207642486
 20
43.4832188474
 30
0.0
 10
40.1069296132
 20
43.4959508255
 30
0.0
 10
40.0959657093
 20
43.5013189116
 30
0.0
 10
40.0903845991
 20
43.503024071
 30
0.0
  0
SPLINE
  5
4A5
100
AcDbEntity
  8
0
100
AcDbSpline
 62
7
  6
BYLAYER
 70
0
 71
3
 72
11
 73
7
 74
0
 42
0.0000001
 43
0.0000001
 44
0.0000000001
 40
0.0
 40
0.0
 40
0.0
 40
0.0
 40
0.2245474101
 40
0.4606042118
 40
0.7179231544
 40
1.0
 40
1.0
 40
1.0
 40
1.0
 10
33.3133582072
 20
53.98199075
 30
0.0
 10
33.3145050642
 20
53.987060308
 30
0.0
 10
33.3150065491
 20
53.9979609729
 30
0.0
 10
33.3101762241
 20
54.0141356395
 30
0.0
 10
33.300254163
 20
54.0293327433
 30
0.0
 10
33.2911104519
 20
54.037995313
 30
0.0
 10
33.2859644268
 20
54.0420140636
 30
0.0
  0
SPLINE
  5
4A6
100
AcDbEntity
  8
0
100
AcDbSpline
 62
7
  6
BYLAYER
 70
0
 71
3
 72
9
 73
5
 74
0
 42
0.0000001
 43
0.0000001
 44
0.0000000001
 40
0.0
 40
0.0
 40
0.0
 40
0.0
 40
0.2377984876
 40
1.0
 40
1.0
 40
1.0
 40
1.0
 10
33.2859647116
 20
54.0420157643
 30
0.0
 10
33.280394984
 20
54.0463654024
 30
0.0
 10
33.2551164023
 20
54.0622114104
 30
0.0
 10
33.2245908901
 20
54.0690756844
 30
0.0
 10
33.20193985
 20
54.0690047004
 30
0.0
  0
SPLINE
  5
4A7
100
AcDbEntity
  8
0
100
AcDbSpline
 62
7
  6
BYLAYER
 70
0
 71
3
 72
11
 73
7
 74
0
 42
0.0000001
 43
0.0000001
 44
0.0000000001
 40
0.0
 40
0.0
 40
0.0
 40
0.0
 40
0.2888948682
 40
0.5481560336
 40
0.7814326258
 40
1.0
 40
1.0
 40
1.0
 40
1.0
 10
40.6776318587
 20
39.6026909156
 30
0.0
 10
40.6776318587
 20
39.6077569631
 30
0.0
 10
40.6768475401
 20
39.6174015451
 30
0.0
 10
40.6729244239
 20
39.6306575789
 30
0.0
 10
40.6663110857
 20
39.641433173
 30
0.0
 10
40.6600969745
 20
39.6466272174
 30
0.0
 10
40.6567784003
 20
39.6485448532
 30
0.0
  0
SPLINE
  5
4A8
100
AcDbEntity
  8
0
100
AcDbSpline
 62
7
  6
BYLAYER
 70
0
 71
3
 72
13
 73
9
 74
0
 42
0.0000001
 43
0.0000001
 44
0.0000000001
 40
0.0
 40
0.0
 40
0.0
 40
0.0
 40
0.0750831523
 40
0.1560717969
 40
0.2497682303
 40
0.3602303886
 40
0.6387643624
 40
1.0
 40
1.0
 40
1.0
 40
1.0
 10
42.7394411673
 20
50.353410761
 30
0.0
 10
42.7401973778
 20
50.351984952
 30
0.0
 10
42.7412205471
 20
50.3486980502
 30
0.0
 10
42.7409542496
 20
50.3432553433
 30
0.0
 10
42.7390784092
 20
50.3373695331
 30
0.0
 10
42.7341497684
 20
50.3281940424
 30
0.0
 10
42.7237183205
 20
50.3157267166
 30
0.0
 10
42.7134620645
 20
50.3065357063
 30
0.0
 10
42.7074549845
 20
50.3016155268
 30
0.0
  0
SPLINE
  5
4A9
100
AcDbEntity
  8
0
100
AcDbSpline
 62
7
  6
BYLAYER
 70
0
 71
3
 72
9
 73
5
 74
0
 42
0.0000001
 43
0.0000001
 44
0.0000000001
 40
0.0
 40
0.0
 40
0.0
 40
0.0
 40
0.4807552825
 40
1.0
 40
1.0
 40
1.0
 40
1.0
 10
32.5122951046
 20
54.6062970085
 30
0.0
 10
32.5005662885
 20
54.6142533768
 30
0.0
 10
32.4726788241
 20
54.6256986226
 30
0.0
 10
32.4429348598
 20
54.6286594265
 30
0.0
 10
32.427641706
 20
54.627996747
 30
0.0
  0
SPLINE
  5
4AA
100
AcDbEntity
  8
0
100
AcDbSpline
 62
7
  6
BYLAYER
 70
0
 71
3
 72
9
 73
5
 74
0
 42
0.0000001
 43
0.0000001
 44
0.0000000001
 40
0.0
 40
0.0
 40
0.0
 40
0.0
 40
0.49954544
 40
1.0
 40
1.0
 40
1.0
 40
1.0
 10
39.8350179522
 20
44.3623361697
 30
0.0
 10
39.8411706678
 20
44.376167009
 30
0.0
 10
39.8480963015
 20
44.4064355132
 30
0.0
 10
39.8442788674
 20
44.4372500959
 30
0.0
 10
39.8395591853
 20
44.4516621546
 30
0.0
  0
SPLINE
  5
4AB
100
AcDbEntity
  8
0
100
AcDbSpline
 62
7
  6
BYLAYER
 70
0
 71
3
 72
10
 73
6
 74
0
 42
0.0000001
 43
0.0000001
 44
0.0000000001
 40
0.0
 40
0.0
 40
0.0
 40
0.0
 40
0.5271085262
 40
0.7698533687
 40
1.0
 40
1.0
 40
1.0
 40
1.0
 10
39.8395606719
 20
44.4516620968
 30
0.0
 10
39.8351981447
 20
44.4649835443
 30
0.0
 10
39.825023805
 20
44.4837335554
 30
0.0
 10
39.8046479507
 20
44.5011789609
 30
0.0
 10
39.7930751007
 20
44.5066057287
 30
0.0
 10
39.787205965
 20
44.508341291
 30
0.0
  0
SPLINE
  5
4AC
100
AcDbEntity
  8
0
100
AcDbSpline
 62
7
  6
BYLAYER
 70
0
 71
3
 72
9
 73
5
 74
0
 42
0.0000001
 43
0.0000001
 44
0.0000000001
 40
0.0
 40
0.0
 40
0.0
 40
0.0
 40
0.4751429829
 40
1.0
 40
1.0
 40
1.0
 40
1.0
 10
31.7326922491
 20
55.0956947848
 30
0.0
 10
31.7207179195
 20
55.1026080108
 30
0.0
 10
31.6924569298
 20
55.1118264939
 30
0.0
 10
31.6630570222
 20
55.1131186753
 30
0.0
 10
31.6478393176
 20
55.1118158981
 30
0.0
  0
SPLINE
  5
4AD
100
AcDbEntity
  8
0
100
AcDbSpline
 62
7
  6
BYLAYER
 70
0
 71
3
 72
9
 73
5
 74
0
 42
0.0000001
 43
0.0000001
 44
0.0000000001
 40
0.0
 40
0.0
 40
0.0
 40
0.0
 40
0.4693498466
 40
1.0
 40
1.0
 40
1.0
 40
1.0
 10
30.9530893936
 20
55.5064844806
 30
0.0
 10
30.9409356155
 20
55.5122734917
 30
0.0
 10
30.9124898986
 20
55.5191296947
 30
0.0
 10
30.8835606461
 20
55.5187428584
 30
0.0
 10
30.8684674517
 20
55.5167799979
 30
0.0
  0
SPLINE
  5
4AE
100
AcDbEntity
  8
0
100
AcDbSpline
 62
7
  6
BYLAYER
 70
0
 71
3
 72
9
 73
5
 74
0
 42
0.0000001
 43
0.0000001
 44
0.0000000001
 40
0.0
 40
0.0
 40
0.0
 40
0.0
 40
0.4953436164
 40
1.0
 40
1.0
 40
1.0
 40
1.0
 10
39.4790792159
 20
45.3697049783
 30
0.0
 10
39.4847357464
 20
45.3835897336
 30
0.0
 10
39.4903224851
 20
45.4141833154
 30
0.0
 10
39.4847609577
 20
45.4447070119
 30
0.0
 10
39.4792357659
 20
45.4589473274
 30
0.0
  0
SPLINE
  5
4AF
100
AcDbEntity
  8
0
100
AcDbSpline
 62
7
  6
BYLAYER
 70
0
 71
3
 72
9
 73
5
 74
0
 42
0.0000001
 43
0.0000001
 44
0.0000000001
 40
0.0
 40
0.0
 40
0.0
 40
0.0
 40
0.5259783658
 40
1.0
 40
1.0
 40
1.0
 40
1.0
 10
39.4792371864
 20
45.4589474543
 30
0.0
 10
39.4740206103
 20
45.472392361
 30
0.0
 10
39.4593447448
 20
45.4965439992
 30
0.0
 10
39.4350216342
 20
45.5119756965
 30
0.0
 10
39.4225123586
 20
45.5155023039
 30
0.0
  0
SPLINE
  5
4B0
100
AcDbEntity
  8
0
100
AcDbSpline
 62
7
  6
BYLAYER
 70
0
 71
3
 72
10
 73
6
 74
0
 42
0.0000001
 43
0.0000001
 44
0.0000000001
 40
0.0
 40
0.0
 40
0.0
 40
0.0
 40
0.2184123131
 40
0.4641803792
 40
1.0
 40
1.0
 40
1.0
 40
1.0
 10
30.1794197866
 20
55.8355397381
 30
0.0
 10
30.1736333724
 20
55.8377023048
 30
0.0
 10
30.1608473161
 20
55.841013129
 30
0.0
 10
30.1326809909
 20
55.8440969354
 30
0.0
 10
30.1103807591
 20
55.842444855
 30
0.0
 10
30.0954575989
 20
55.839807025
 30
0.0
  0
SPLINE
  5
4B1
100
AcDbEntity
  8
0
100
AcDbSpline
 62
7
  6
BYLAYER
 70
0
 71
3
 72
9
 73
5
 74
0
 42
0.0000001
 43
0.0000001
 44
0.0000000001
 40
0.0
 40
0.0
 40
0.0
 40
0.0
 40
0.5192447755
 40
1.0
 40
1.0
 40
1.0
 40
1.0
 10
40.620057818
 20
40.4383917997
 30
0.0
 10
40.628278256
 20
40.4513047478
 30
0.0
 10
40.6405857175
 20
40.4785442751
 30
0.0
 10
40.6446181594
 20
40.5084181057
 30
0.0
 10
40.643592029
 20
40.5225537344
 30
0.0
  0
SPLINE
  5
4B2
100
AcDbEntity
  8
0
100
AcDbSpline
 62
7
  6
BYLAYER
 70
0
 71
3
 72
10
 73
6
 74
0
 42
0.0000001
 43
0.0000001
 44
0.0000000001
 40
0.0
 40
0.0
 40
0.0
 40
0.0
 40
0.2136372424
 40
0.458279816
 40
1.0
 40
1.0
 40
1.0
 40
1.0
 10
29.4175715208
 20
56.0803562483
 30
0.0
 10
29.4118262433
 20
56.0818956105
 30
0.0
 10
29.3991642603
 20
56.0839496918
 30
0.0
 10
29.3712936599
 20
56.0847478467
 30
0.0
 10
29.349404367
 20
56.0817615742
 30
0.0
 10
29.3346928309
 20
56.0784385488
 30
0.0
  0
SPLINE
  5
4B3
100
AcDbEntity
  8
0
100
AcDbSpline
 62
7
  6
BYLAYER
 70
0
 71
3
 72
9
 73
5
 74
0
 42
0.0000001
 43
0.0000001
 44
0.0000000001
 40
0.0
 40
0.0
 40
0.0
 40
0.0
 40
0.4913944239
 40
1.0
 40
1.0
 40
1.0
 40
1.0
 10
39.0639705378
 20
46.3723620822
 30
0.0
 10
39.0691483362
 20
46.3862251171
 30
0.0
 10
39.0734316333
 20
46.4169601881
 30
0.0
 10
39.0662320493
 20
46.4469937835
 30
0.0
 10
39.0599564728
 20
46.4609658866
 30
0.0
  0
LINE
  5
4B4
100
AcDbEntity
  8
0
100
AcDbLine
 62
7
  6
BYLAYER
 10
38.0695585463
 20
33.8186117207
 11
38.0735480525
 21
33.8210156311
  0
SPLINE
  5
4B5
100
AcDbEntity
  8
0
100
AcDbSpline
 62
7
  6
BYLAYER
 70
0
 71
3
 72
11
 73
7
 74
0
 42
0.0000001
 43
0.0000001
 44
0.0000000001
 40
0.0
 40
0.0
 40
0.0
 40
0.0
 40
0.2845375267
 40
0.5428054005
 40
0.777972158
 40
1.0
 40
1.0
 40
1.0
 40
1.0
 10
40.643593663
 20
40.5225529561
 30
0.0
 10
40.6431858439
 20
40.5281709349
 30
0.0
 10
40.6414750458
 20
40.538859011
 30
0.0
 10
40.6358138794
 20
40.5533356023
 30
0.0
 10
40.6272558336
 20
40.5648658801
 30
0.0
 10
40.61969757
 20
40.5701861367
 30
0.0
 10
40.6157309801
 20
40.5720795176
 30
0.0
  0
SPLINE
  5
4B6
100
AcDbEntity
  8
0
100
AcDbSpline
 62
7
  6
BYLAYER
 70
0
 71
3
 72
9
 73
5
 74
0
 42
0.0000001
 43
0.0000001
 44
0.0000000001
 40
0.0
 40
0.0
 40
0.0
 40
0.0
 40
0.5226506043
 40
1.0
 40
1.0
 40
1.0
 40
1.0
 10
39.0599578164
 20
46.4609661972
 30
0.0
 10
39.0539138223
 20
46.4744226991
 30
0.0
 10
39.0375140212
 20
46.4983961304
 30
0.0
 10
39.0121038274
 20
46.5133950254
 30
0.0
 10
38.9990793184
 20
46.5168420064
 30
0.0
  0
SPLINE
  5
4B7
100
AcDbEntity
  8
0
100
AcDbSpline
 62
7
  6
BYLAYER
 70
0
 71
3
 72
9
 73
5
 74
0
 42
0.0000001
 43
0.0000001
 44
0.0000000001
 40
0.0
 40
0.0
 40
0.0
 40
0.0
 40
0.2275596145
 40
1.0
 40
1.0
 40
1.0
 40
1.0
 10
28.6733427218
 20
56.2390708096
 30
0.0
 10
28.6715738457
 20
56.2393486281
 30
0.0
 10
28.6637621342
 20
56.2403235255
 30
0.0
 10
28.6558626609
 20
56.2404642307
 30
0.0
 10
28.6497876739
 20
56.2402737636
 30
0.0
  0
SPLINE
  5
4B8
100
AcDbEntity
  8
0
100
AcDbSpline
 62
7
  6
BYLAYER
 70
0
 71
3
 72
9
 73
5
 74
0
 42
0.0000001
 43
0.0000001
 44
0.0000000001
 40
0.0
 40
0.0
 40
0.0
 40
0.0
 40
0.479730365
 40
1.0
 40
1.0
 40
1.0
 40
1.0
 10
28.6497876739
 20
56.2402737636
 30
0.0
 10
28.6404077585
 20
56.239979678
 30
0.0
 10
28.6208973009
 20
56.2378561031
 30
0.0
 10
28.6017698198
 20
56.233580475
 30
0.0
 10
28.5919630269
 20
56.2308584392
 30
0.0
  0
SPLINE
  5
4B9
100
AcDbEntity
  8
0
100
AcDbSpline
 62
7
  6
BYLAYER
 70
0
 71
3
 72
15
 73
11
 74
0
 42
0.0000001
 43
0.0000001
 44
0.0000000001
 40
0.0
 40
0.0
 40
0.0
 40
0.0
 40
0.1078510045
 40
0.2189845196
 40
0.3345052469
 40
0.4552846996
 40
0.5819330236
 40
0.7148530057
 40
0.8542512148
 40
1.0
 40
1.0
 40
1.0
 40
1.0
 10
26.5750288583
 20
56.2995637278
 30
0.0
 10
26.7728859569
 20
56.3664621624
 30
0.0
 10
27.1848697228
 20
56.4736311861
 30
0.0
 10
27.8297947092
 20
56.5508642232
 30
0.0
 10
28.5042689841
 20
56.5464863018
 30
0.0
 10
29.2033159225
 20
56.4607031537
 30
0.0
 10
29.9221604687
 20
56.2945512188
 30
0.0
 10
30.6559506592
 20
56.0492737965
 30
0.0
 10
31.3995035305
 20
55.7267223689
 30
0.0
 10
31.8877667667
 20
55.4674746606
 30
0.0
 10
32.1322059171
 20
55.3263508439
 30
0.0
  0
SPLINE
  5
4BA
100
AcDbEntity
  8
0
100
AcDbSpline
 62
7
  6
BYLAYER
 70
0
 71
3
 72
9
 73
5
 74
0
 42
0.0000001
 43
0.0000001
 44
0.0000000001
 40
0.0
 40
0.0
 40
0.0
 40
0.0
 40
0.2249490328
 40
1.0
 40
1.0
 40
1.0
 40
1.0
 10
27.9523974199
 20
56.3104755084
 30
0.0
 10
27.9506830072
 20
56.3105421818
 30
0.0
 10
27.943053353
 20
56.3106220155
 30
0.0
 10
27.9354292934
 20
56.3099891007
 30
0.0
 10
27.9295628298
 20
56.3092616733
 30
0.0
  0
SPLINE
  5
4BB
100
AcDbEntity
  8
0
100
AcDbSpline
 62
7
  6
BYLAYER
 70
0
 71
3
 72
9
 73
5
 74
0
 42
0.0000001
 43
0.0000001
 44
0.0000000001
 40
0.0
 40
0.0
 40
0.0
 40
0.0
 40
0.4773598168
 40
1.0
 40
1.0
 40
1.0
 40
1.0
 10
27.9295628298
 20
56.3092616733
 30
0.0
 10
27.9203625943
 20
56.3081208661
 30
0.0
 10
27.9012425248
 20
56.3044744268
 30
0.0
 10
27.8825538173
 20
56.2991049939
 30
0.0
 10
27.8729208092
 20
56.2959066888
 30
0.0
  0
SPLINE
  5
4BC
100
AcDbEntity
  8
0
100
AcDbSpline
 62
7
  6
BYLAYER
 70
0
 71
3
 72
9
 73
5
 74
0
 42
0.0000001
 43
0.0000001
 44
0.0000000001
 40
0.0
 40
0.0
 40
0.0
 40
0.0
 40
0.4876638197
 40
1.0
 40
1.0
 40
1.0
 40
1.0
 10
38.5928511458
 20
47.3626766552
 30
0.0
 10
38.5975722905
 20
47.3764409423
 30
0.0
 10
38.6006030214
 20
47.4071339745
 30
0.0
 10
38.591878498
 20
47.4364836284
 30
0.0
 10
38.5849122746
 20
47.4500918659
 30
0.0
  0
SPLINE
  5
4BD
100
AcDbEntity
  8
0
100
AcDbSpline
 62
7
  6
BYLAYER
 70
0
 71
3
 72
18
 73
14
 74
0
 42
0.0000001
 43
0.0000001
 44
0.0000000001
 40
0.0
 40
0.0
 40
0.0
 40
0.0
 40
0.0528401746
 40
0.1060689568
 40
0.1599559089
 40
0.2147553101
 40
0.270697623
 40
0.3279891513
 40
0.4472276468
 40
0.5736276527
 40
0.7078066777
 40
0.8499763315
 40
1.0
 40
1.0
 40
1.0
 40
1.0
 10
39.6519773849
 20
32.310660041
 30
0.0
 10
39.777149251
 20
32.3887728516
 30
0.0
 10
40.0214762037
 20
32.5570070962
 30
0.0
 10
40.3657702352
 20
32.8423918524
 30
0.0
 10
40.68777952
 20
33.1605622793
 30
0.0
 10
40.986528762
 20
33.5106327935
 30
0.0
 10
41.2613174773
 20
33.8915773089
 30
0.0
 10
41.599142209
 20
34.4465281704
 30
0.0
 10
41.9562066583
 20
35.2167652744
 30
0.0
 10
42.2719612084
 20
36.2319844118
 30
0.0
 10
42.4783990092
 20
37.3398371323
 30
0.0
 10
42.5737531122
 20
38.5284134306
 30
0.0
 10
42.5630735132
 20
39.3454776027
 30
0.0
 10
42.5404385936
 20
39.763775743
 30
0.0
  0
SPLINE
  5
4BE
100
AcDbEntity
  8
0
100
AcDbSpline
 62
7
  6
BYLAYER
 70
0
 71
3
 72
9
 73
5
 74
0
 42
0.0000001
 43
0.0000001
 44
0.0000000001
 40
0.0
 40
0.0
 40
0.0
 40
0.0
 40
0.5193080089
 40
1.0
 40
1.0
 40
1.0
 40
1.0
 10
38.5849135311
 20
47.4500923579
 30
0.0
 10
38.5780756007
 20
47.4634499804
 30
0.0
 10
38.5600331082
 20
47.4870432089
 30
0.0
 10
38.5336228072
 20
47.5014429851
 30
0.0
 10
38.5201294255
 20
47.5047395986
 30
0.0
  0
SPLINE
  5
4BF
100
AcDbEntity
  8
0
100
AcDbSpline
 62
7
  6
BYLAYER
 70
0
 71
3
 72
9
 73
5
 74
0
 42
0.0000001
 43
0.0000001
 44
0.0000000001
 40
0.0
 40
0.0
 40
0.0
 40
0.0
 40
0.447145115
 40
1.0
 40
1.0
 40
1.0
 40
1.0
 10
27.2602224443
 20
56.2940269119
 30
0.0
 10
27.2528305631
 20
56.2933665845
 30
0.0
 10
27.2364512755
 20
56.2903554361
 30
0.0
 10
27.2204454392
 20
56.2859300318
 30
0.0
 10
27.2116902593
 20
56.2831837605
 30
0.0
  0
SPLINE
  5
4C0
100
AcDbEntity
  8
0
100
AcDbSpline
 62
7
  6
BYLAYER
 70
0
 71
3
 72
9
 73
5
 74
0
 42
0.0000001
 43
0.0000001
 44
0.0000000001
 40
0.0
 40
0.0
 40
0.0
 40
0.0
 40
0.4841114486
 40
1.0
 40
1.0
 40
1.0
 40
1.0
 10
38.0693065428
 20
48.3331118056
 30
0.0
 10
38.0735975906
 20
48.346699673
 30
0.0
 10
38.0754409749
 20
48.3771698711
 30
0.0
 10
38.0653109012
 20
48.4056471448
 30
0.0
 10
38.0577185446
 20
48.4187974195
 30
0.0
  0
SPLINE
  5
4C1
100
AcDbEntity
  8
0
100
AcDbSpline
 62
7
  6
BYLAYER
 70
0
 71
3
 72
9
 73
5
 74
0
 42
0.0000001
 43
0.0000001
 44
0.0000000001
 40
0.0
 40
0.0
 40
0.0
 40
0.0
 40
0.220623672
 40
1.0
 40
1.0
 40
1.0
 40
1.0
 10
26.6020856645
 20
56.1898502038
 30
0.0
 10
26.600522626
 20
56.1894888367
 30
0.0
 10
26.5934663354
 20
56.1877284714
 30
0.0
 10
26.5865101681
 20
56.1855862783
 30
0.0
 10
26.5811302174
 20
56.1838047632
 30
0.0
  0
SPLINE
  5
4C2
100
AcDbEntity
  8
0
100
AcDbSpline
 62
7
  6
BYLAYER
 70
0
 71
3
 72
9
 73
5
 74
0
 42
0.0000001
 43
0.0000001
 44
0.0000000001
 40
0.0
 40
0.0
 40
0.0
 40
0.0
 40
0.2344312567
 40
1.0
 40
1.0
 40
1.0
 40
1.0
 10
26.5811302174
 20
56.1838047632
 30
0.0
 10
26.5791039135
 20
56.1831337736
 30
0.0
 10
26.570485648
 20
56.1801955567
 30
0.0
 10
26.56196063
 20
56.1769872305
 30
0.0
 10
26.5554811117
 20
56.1744173298
 30
0.0
  0
SPLINE
  5
4C3
100
AcDbEntity
  8
0
100
AcDbSpline
 62
7
  6
BYLAYER
 70
0
 71
3
 72
9
 73
5
 74
0
 42
0.0000001
 43
0.0000001
 44
0.0000000001
 40
0.0
 40
0.0
 40
0.0
 40
0.0
 40
0.5158875035
 40
1.0
 40
1.0
 40
1.0
 40
1.0
 10
38.0577197043
 20
48.4187980891
 30
0.0
 10
38.0501273477
 20
48.4319483637
 30
0.0
 10
38.0305306596
 20
48.4549602468
 30
0.0
 10
38.0032207968
 20
48.4685987854
 30
0.0
 10
37.989307778
 20
48.4716765834
 30
0.0
  0
SPLINE
  5
4C4
100
AcDbEntity
  8
0
100
AcDbSpline
 62
7
  6
BYLAYER
 70
0
 71
3
 72
9
 73
5
 74
0
 42
0.0000001
 43
0.0000001
 44
0.0000000001
 40
0.0
 40
0.0
 40
0.0
 40
0.0
 40
0.2583541024
 40
1.0
 40
1.0
 40
1.0
 40
1.0
 10
40.5230971334
 20
41.3884557411
 30
0.0
 10
40.5269546275
 20
41.395089063
 30
0.0
 10
40.5397904541
 20
41.4218579203
 30
0.0
 10
40.5447976981
 20
41.4529039473
 30
0.0
 10
40.5417365116
 20
41.4747179286
 30
0.0
  0
SPLINE
  5
4C5
100
AcDbEntity
  8
0
100
AcDbSpline
 62
7
  6
BYLAYER
 70
0
 71
3
 72
9
 73
5
 74
0
 42
0.0000001
 43
0.0000001
 44
0.0000000001
 40
0.0
 40
0.0
 40
0.0
 40
0.0
 40
0.2193415213
 40
1.0
 40
1.0
 40
1.0
 40
1.0
 10
25.9829958987
 20
55.9987382317
 30
0.0
 10
25.9815302103
 20
55.9981643055
 30
0.0
 10
25.9748727865
 20
55.9954844248
 30
0.0
 10
25.9682946679
 20
55.9926113265
 30
0.0
 10
25.9631848355
 20
55.9903147462
 30
0.0
  0
SPLINE
  5
4C6
100
AcDbEntity
  8
0
100
AcDbSpline
 62
7
  6
BYLAYER
 70
0
 71
3
 72
9
 73
5
 74
0
 42
0.0000001
 43
0.0000001
 44
0.0000000001
 40
0.0
 40
0.0
 40
0.0
 40
0.0
 40
0.2339123827
 40
1.0
 40
1.0
 40
1.0
 40
1.0
 10
25.9631848355
 20
55.9903147462
 30
0.0
 10
25.9612516888
 20
55.9894459063
 30
0.0
 10
25.9530040813
 20
55.985694185
 30
0.0
 10
25.9448174214
 20
55.98180915
 30
0.0
 10
25.9385740701
 20
55.9787755867
 30
0.0
  0
LINE
  5
4C7
100
AcDbEntity
  8
0
100
AcDbLine
 62
7
  6
BYLAYER
 10
25.4236223109
 20
55.7312080991
 11
25.4194492054
 21
55.7289000584
  0
SPLINE
  5
4C8
100
AcDbEntity
  8
0
100
AcDbSpline
 62
7
  6
BYLAYER
 70
0
 71
3
 72
9
 73
5
 74
0
 42
0.0000001
 43
0.0000001
 44
0.0000000001
 40
0.0
 40
0.0
 40
0.0
 40
0.0
 40
0.2668961378
 40
1.0
 40
1.0
 40
1.0
 40
1.0
 10
38.5201277266
 20
34.1265392013
 30
0.0
 10
38.5244260626
 20
34.1293073599
 30
0.0
 10
38.5404773726
 20
34.1397609425
 30
0.0
 10
38.5563216165
 20
34.150540439
 30
0.0
 10
38.5677117106
 20
34.1587547025
 30
0.0
  0
SPLINE
  5
4C9
100
AcDbEntity
  8
0
100
AcDbSpline
 62
7
  6
BYLAYER
 70
0
 71
3
 72
9
 73
5
 74
0
 42
0.0000001
 43
0.0000001
 44
0.0000000001
 40
0.0
 40
0.0
 40
0.0
 40
0.0
 40
0.2789511594
 40
1.0
 40
1.0
 40
1.0
 40
1.0
 10
38.5677117106
 20
34.1587547025
 30
0.0
 10
38.5693353372
 20
34.1599256232
 30
0.0
 10
38.5751368195
 20
34.1641490221
 30
0.0
 10
38.5808693712
 20
34.168470317
 30
0.0
 10
38.5849122746
 20
34.1716997293
 30
0.0
  0
SPLINE
  5
4CA
100
AcDbEntity
  8
0
100
AcDbSpline
 62
7
  6
BYLAYER
 70
0
 71
3
 72
9
 73
5
 74
0
 42
0.0000001
 43
0.0000001
 44
0.0000000001
 40
0.0
 40
0.0
 40
0.0
 40
0.0
 40
0.307779422
 40
1.0
 40
1.0
 40
1.0
 40
1.0
 10
26.001359833
 20
56.0033647953
 30
0.0
 10
26.0011131569
 20
56.0038540938
 30
0.0
 10
25.9988395844
 20
56.0039005401
 30
0.0
 10
25.9973378251
 20
56.0035180566
 30
0.0
 10
25.9961427149
 20
56.0032171478
 30
0.0
  0
SPLINE
  5
4CB
100
AcDbEntity
  8
0
100
AcDbSpline
 62
7
  6
BYLAYER
 70
0
 71
3
 72
9
 73
5
 74
0
 42
0.0000001
 43
0.0000001
 44
0.0000000001
 40
0.0
 40
0.0
 40
0.0
 40
0.0
 40
0.1933968168
 40
1.0
 40
1.0
 40
1.0
 40
1.0
 10
25.9961427149
 20
56.0032171478
 30
0.0
 10
25.9952741649
 20
56.0029984614
 30
0.0
 10
25.9908200655
 20
56.0017228592
 30
0.0
 10
25.9864753231
 20
56.0000982131
 30
0.0
 10
25.9829969529
 20
55.9987361722
 30
0.0
  0
SPLINE
  5
4CC
100
AcDbEntity
  8
0
100
AcDbSpline
 62
7
  6
BYLAYER
 70
0
 71
3
 72
9
 73
5
 74
0
 42
0.0000001
 43
0.0000001
 44
0.0000000001
 40
0.0
 40
0.0
 40
0.0
 40
0.0
 40
0.6176158105
 40
1.0
 40
1.0
 40
1.0
 40
1.0
 10
38.5849135311
 20
34.1716977864
 30
0.0
 10
38.5876157281
 20
34.173856262
 30
0.0
 10
38.5918923115
 20
34.1774479445
 30
0.0
 10
38.5960028909
 20
34.1813164943
 30
0.0
 10
38.5972831036
 20
34.1830328622
 30
0.0
  0
SPLINE
  5
4CD
100
AcDbEntity
  8
0
100
AcDbSpline
 62
7
  6
BYLAYER
 70
0
 71
3
 72
9
 73
5
 74
0
 42
0.0000001
 43
0.0000001
 44
0.0000000001
 40
0.0
 40
0.0
 40
0.0
 40
0.0
 40
0.6477180649
 40
1.0
 40
1.0
 40
1.0
 40
1.0
 10
38.5972831036
 20
34.1830328622
 30
0.0
 10
38.5976027251
 20
34.1834613754
 30
0.0
 10
38.5980816015
 20
34.1840947789
 30
0.0
 10
38.5982628515
 20
34.1850431067
 30
0.0
 10
38.5981034529
 20
34.1852862698
 30
0.0
  0
SPLINE
  5
4CE
100
AcDbEntity
  8
0
100
AcDbSpline
 62
7
  6
BYLAYER
 70
0
 71
3
 72
9
 73
5
 74
0
 42
0.0000001
 43
0.0000001
 44
0.0000000001
 40
0.0
 40
0.0
 40
0.0
 40
0.0
 40
0.3765207242
 40
1.0
 40
1.0
 40
1.0
 40
1.0
 10
26.6226503268
 20
56.1898772178
 30
0.0
 10
26.6223014365
 20
56.1906612527
 30
0.0
 10
26.6200500466
 20
56.1919313366
 30
0.0
 10
26.6177937431
 20
56.1919564563
 30
0.0
 10
26.6163727381
 20
56.1919498016
 30
0.0
  0
SPLINE
  5
4CF
100
AcDbEntity
  8
0
100
AcDbSpline
 62
7
  6
BYLAYER
 70
0
 71
3
 72
9
 73
5
 74
0
 42
0.0000001
 43
0.0000001
 44
0.0000000001
 40
0.0
 40
0.0
 40
0.0
 40
0.0
 40
0.4318538904
 40
1.0
 40
1.0
 40
1.0
 40
1.0
 10
26.6163727381
 20
56.1919498016
 30
0.0
 10
26.6142913454
 20
56.1919400541
 30
0.0
 10
26.6094805255
 20
56.1914168567
 30
0.0
 10
26.6047545372
 20
56.1904649224
 30
0.0
 10
26.6020866052
 20
56.1898481092
 30
0.0
  0
SPLINE
  5
4D0
100
AcDbEntity
  8
0
100
AcDbSpline
 62
7
  6
BYLAYER
 70
0
 71
3
 72
9
 73
5
 74
0
 42
0.0000001
 43
0.0000001
 44
0.0000000001
 40
0.0
 40
0.0
 40
0.0
 40
0.0
 40
0.4806907303
 40
1.0
 40
1.0
 40
1.0
 40
1.0
 10
37.4973212193
 20
49.276281936
 30
0.0
 10
37.5012129542
 20
49.2896157823
 30
0.0
 10
37.5019473253
 20
49.3196875382
 30
0.0
 10
37.4905366815
 20
49.34710952
 30
0.0
 10
37.4823875452
 20
49.359710113
 30
0.0
  0
SPLINE
  5
4D1
100
AcDbEntity
  8
0
100
AcDbSpline
 62
7
  6
BYLAYER
 70
0
 71
3
 72
11
 73
7
 74
0
 42
0.0000001
 43
0.0000001
 44
0.0000000001
 40
0.0
 40
0.0
 40
0.0
 40
0.0
 40
0.2820753381
 40
0.5393927402
 40
0.7754507237
 40
1.0
 40
1.0
 40
1.0
 40
1.0
 10
40.5417381269
 20
41.4747173249
 30
0.0
 10
40.5408307498
 20
41.4811832839
 30
0.0
 10
40.5379007594
 20
41.4934332766
 30
0.0
 10
40.5297007639
 20
41.5096247036
 30
0.0
 10
40.5181081292
 20
41.5218952841
 30
0.0
 10
40.5084170422
 20
41.5269114109
 30
0.0
 10
40.5034531871
 20
41.5284530327
 30
0.0
  0
SPLINE
  5
4D2
100
AcDbEntity
  8
0
100
AcDbSpline
 62
7
  6
BYLAYER
 70
0
 71
3
 72
9
 73
5
 74
0
 42
0.0000001
 43
0.0000001
 44
0.0000000001
 40
0.0
 40
0.0
 40
0.0
 40
0.0
 40
0.2009776002
 40
1.0
 40
1.0
 40
1.0
 40
1.0
 10
27.2827883461
 20
56.2892498301
 30
0.0
 10
27.2825773197
 20
56.2897979403
 30
0.0
 10
27.280945423
 20
56.2923199069
 30
0.0
 10
27.2778052079
 20
56.2932584441
 30
0.0
 10
27.2755155368
 20
56.2937164868
 30
0.0
  0
SPLINE
  5
4D3
100
AcDbEntity
  8
0
100
AcDbSpline
 62
7
  6
BYLAYER
 70
0
 71
3
 72
9
 73
5
 74
0
 42
0.0000001
 43
0.0000001
 44
0.0000000001
 40
0.0
 40
0.0
 40
0.0
 40
0.0
 40
0.4402528992
 40
1.0
 40
1.0
 40
1.0
 40
1.0
 10
27.2755155368
 20
56.2937164868
 30
0.0
 10
27.2733094785
 20
56.2941578029
 30
0.0
 10
27.2681809779
 20
56.2945343356
 30
0.0
 10
27.2630723221
 20
56.2942793087
 30
0.0
 10
27.2602232644
 20
56.2940247983
 30
0.0
  0
SPLINE
  5
4D4
100
AcDbEntity
  8
0
100
AcDbSpline
 62
7
  6
BYLAYER
 70
0
 71
3
 72
10
 73
6
 74
0
 42
0.0000001
 43
0.0000001
 44
0.0000000001
 40
0.0
 40
0.0
 40
0.0
 40
0.0
 40
0.5603574936
 40
0.8017052385
 40
1.0
 40
1.0
 40
1.0
 40
1.0
 10
38.9990775016
 20
34.5614054964
 30
0.0
 10
39.0111179187
 20
34.5700786578
 30
0.0
 10
39.0280110643
 20
34.5829812498
 30
0.0
 10
39.0479972374
 20
34.6003608662
 30
0.0
 10
39.0563741287
 20
34.6084649457
 30
0.0
 10
39.0599564728
 20
34.6123043265
 30
0.0
  0
SPLINE
  5
4D5
100
AcDbEntity
  8
0
100
AcDbSpline
 62
7
  6
BYLAYER
 70
0
 71
3
 72
9
 73
5
 74
0
 42
0.0000001
 43
0.0000001
 44
0.0000000001
 40
0.0
 40
0.0
 40
0.0
 40
0.0
 40
0.4427513566
 40
1.0
 40
1.0
 40
1.0
 40
1.0
 10
27.9767619
 20
56.300642904
 30
0.0
 10
27.9762539935
 20
56.3022051574
 30
0.0
 10
27.9738892176
 20
56.3053414603
 30
0.0
 10
27.9704887802
 20
56.3070120104
 30
0.0
 10
27.9685546363
 20
56.3077426975
 30
0.0
  0
SPLINE
  5
4D6
100
AcDbEntity
  8
0
100
AcDbSpline
 62
7
  6
BYLAYER
 70
0
 71
3
 72
9
 73
5
 74
0
 42
0.0000001
 43
0.0000001
 44
0.0000000001
 40
0.0
 40
0.0
 40
0.0
 40
0.0
 40
0.2120744396
 40
1.0
 40
1.0
 40
1.0
 40
1.0
 10
27.9685546363
 20
56.3077426975
 30
0.0
 10
27.9674683432
 20
56.3081530808
 30
0.0
 10
27.962220145
 20
56.3097539514
 30
0.0
 10
27.9567091889
 20
56.3103057345
 30
0.0
 10
27.9523981131
 20
56.3104733918
 30
0.0
  0
SPLINE
  5
4D7
100
AcDbEntity
  8
0
100
AcDbSpline
 62
7
  6
BYLAYER
 70
0
 71
3
 72
12
 73
8
 74
0
 42
0.0000001
 43
0.0000001
 44
0.0000000001
 40
0.0
 40
0.0
 40
0.0
 40
0.0
 40
0.3879591006
 40
0.682044771
 40
0.7927122728
 40
0.8802416712
 40
1.0
 40
1.0
 40
1.0
 40
1.0
 10
39.0599578164
 20
34.6123024644
 30
0.0
 10
39.0618379187
 20
34.6143174659
 30
0.0
 10
39.0650388787
 20
34.6179607702
 30
0.0
 10
39.0683818114
 20
34.6225060441
 30
0.0
 10
39.0700062143
 20
34.6256320246
 30
0.0
 10
39.0707680062
 20
34.6277202919
 30
0.0
 10
39.0707650409
 20
34.6294085754
 30
0.0
 10
39.0702648642
 20
34.6300967174
 30
0.0
  0
SPLINE
  5
4D8
100
AcDbEntity
  8
0
100
AcDbSpline
 62
7
  6
BYLAYER
 70
0
 71
3
 72
9
 73
5
 74
0
 42
0.0000001
 43
0.0000001
 44
0.0000000001
 40
0.0
 40
0.0
 40
0.0
 40
0.0
 40
0.4568683334
 40
1.0
 40
1.0
 40
1.0
 40
1.0
 10
28.699289116
 20
56.2238779229
 30
0.0
 10
28.6987500205
 20
56.2259138938
 30
0.0
 10
28.6962940976
 20
56.2300600307
 30
0.0
 10
28.6924202742
 20
56.2327349263
 30
0.0
 10
28.6902155906
 20
56.2339216857
 30
0.0
  0
SPLINE
  5
4D9
100
AcDbEntity
  8
0
100
AcDbSpline
 62
7
  6
BYLAYER
 70
0
 71
3
 72
9
 73
5
 74
0
 42
0.0000001
 43
0.0000001
 44
0.0000000001
 40
0.0
 40
0.0
 40
0.0
 40
0.0
 40
0.2183316306
 40
1.0
 40
1.0
 40
1.0
 40
1.0
 10
28.6902155906
 20
56.2339216857
 30
0.0
 10
28.6890820429
 20
56.2345318633
 30
0.0
 10
28.6837134588
 20
56.2369985159
 30
0.0
 10
28.6778963912
 20
56.2383535979
 30
0.0
 10
28.6733432828
 20
56.2390687061
 30
0.0
  0
SPLINE
  5
4DA
100
AcDbEntity
  8
0
100
AcDbSpline
 62
7
  6
BYLAYER
 70
0
 71
3
 72
9
 73
5
 74
0
 42
0.0000001
 43
0.0000001
 44
0.0000000001
 40
0.0
 40
0.0
 40
0.0
 40
0.0
 40
0.5123353271
 40
1.0
 40
1.0
 40
1.0
 40
1.0
 10
37.4823885995
 20
49.3597109552
 30
0.0
 10
37.4740865696
 20
49.3725479599
 30
0.0
 10
37.4530316014
 20
49.3947788071
 30
0.0
 10
37.424935092
 20
49.4075004638
 30
0.0
 10
37.4106542488
 20
49.4102939865
 30
0.0
  0
SPLINE
  5
4DB
100
AcDbEntity
  8
0
100
AcDbSpline
 62
7
  6
BYLAYER
 70
0
 71
3
 72
9
 73
5
 74
0
 42
0.0000001
 43
0.0000001
 44
0.0000000001
 40
0.0
 40
0.0
 40
0.0
 40
0.0
 40
0.4655385952
 40
1.0
 40
1.0
 40
1.0
 40
1.0
 10
29.4448559889
 20
56.0594380058
 30
0.0
 10
29.4443327223
 20
56.0620127801
 30
0.0
 10
29.4418160014
 20
56.0673016363
 30
0.0
 10
29.4374908348
 20
56.0711050559
 30
0.0
 10
29.435006124
 20
56.0728152741
 30
0.0
  0
SPLINE
  5
4DC
100
AcDbEntity
  8
0
100
AcDbSpline
 62
7
  6
BYLAYER
 70
0
 71
3
 72
9
 73
5
 74
0
 42
0.0000001
 43
0.0000001
 44
0.0000000001
 40
0.0
 40
0.0
 40
0.0
 40
0.0
 40
0.2236860284
 40
1.0
 40
1.0
 40
1.0
 40
1.0
 10
29.435006124
 20
56.0728152741
 30
0.0
 10
29.4338362072
 20
56.073620524
 30
0.0
 10
29.4283912392
 20
56.0769087157
 30
0.0
 10
29.4223330869
 20
56.0790784963
 30
0.0
 10
29.4175719454
 20
56.0803541738
 30
0.0
  0
SPLINE
  5
4DD
100
AcDbEntity
  8
0
100
AcDbSpline
 62
7
  6
BYLAYER
 70
0
 71
3
 72
10
 73
6
 74
0
 42
0.0000001
 43
0.0000001
 44
0.0000000001
 40
0.0
 40
0.0
 40
0.0
 40
0.0
 40
0.5569599148
 40
0.7988750239
 40
1.0
 40
1.0
 40
1.0
 40
1.0
 10
39.4225104379
 20
35.073817772
 30
0.0
 10
39.4341221803
 20
35.0831278283
 30
0.0
 10
39.4502366193
 20
35.0972172768
 30
0.0
 10
39.4686565213
 20
35.1165912255
 30
0.0
 10
39.4761451251
 20
35.1257948546
 30
0.0
 10
39.4792357659
 20
35.1301918127
 30
0.0
  0
SPLINE
  5
4DE
100
AcDbEntity
  8
0
100
AcDbSpline
 62
7
  6
BYLAYER
 70
0
 71
3
 72
9
 73
5
 74
0
 42
0.0000001
 43
0.0000001
 44
0.0000000001
 40
0.0
 40
0.0
 40
0.0
 40
0.0
 40
0.4710650872
 40
1.0
 40
1.0
 40
1.0
 40
1.0
 10
30.2077546806
 20
55.8084636453
 30
0.0
 10
30.2073101253
 20
55.8116510352
 30
0.0
 10
30.2047994112
 20
55.8182511567
 30
0.0
 10
30.2000346433
 20
55.8233370112
 30
0.0
 10
30.197257931
 20
55.8256495795
 30
0.0
  0
SPLINE
  5
4DF
100
AcDbEntity
  8
0
100
AcDbSpline
 62
7
  6
BYLAYER
 70
0
 71
3
 72
9
 73
5
 74
0
 42
0.0000001
 43
0.0000001
 44
0.0000000001
 40
0.0
 40
0.0
 40
0.0
 40
0.0
 40
0.2281325177
 40
1.0
 40
1.0
 40
1.0
 40
1.0
 10
30.197257931
 20
55.8256495795
 30
0.0
 10
30.1960629042
 20
55.8266448505
 30
0.0
 10
30.1905815113
 20
55.8307157306
 30
0.0
 10
30.1843489912
 20
55.8336956147
 30
0.0
 10
30.1794200714
 20
55.8355377085
 30
0.0
  0
SPLINE
  5
4E0
100
AcDbEntity
  8
0
100
AcDbSpline
 62
7
  6
BYLAYER
 70
0
 71
3
 72
10
 73
6
 74
0
 42
0.0000001
 43
0.0000001
 44
0.0000000001
 40
0.0
 40
0.0
 40
0.0
 40
0.0
 40
0.3664431559
 40
0.6526617167
 40
1.0
 40
1.0
 40
1.0
 40
1.0
 10
39.4792371864
 20
35.1301900456
 30
0.0
 10
39.4809145795
 20
35.1325764204
 30
0.0
 10
39.4837489047
 20
35.1370419621
 30
0.0
 10
39.4871442193
 20
35.143897077
 30
0.0
 10
39.4881222966
 20
35.1499691938
 30
0.0
 10
39.4863844522
 20
35.1521196043
 30
0.0
  0
SPLINE
  5
4E1
100
AcDbEntity
  8
0
100
AcDbSpline
 62
7
  6
BYLAYER
 70
0
 71
3
 72
9
 73
5
 74
0
 42
0.0000001
 43
0.0000001
 44
0.0000000001
 40
0.0
 40
0.0
 40
0.0
 40
0.0
 40
0.474658685
 40
1.0
 40
1.0
 40
1.0
 40
1.0
 10
30.9821217854
 20
55.4727443212
 30
0.0
 10
30.9818409327
 20
55.4766261184
 30
0.0
 10
30.9794441991
 20
55.4847382368
 30
0.0
 10
30.9742523479
 20
55.4912969171
 30
0.0
 10
30.9711698149
 20
55.4943056823
 30
0.0
  0
SPLINE
  5
4E2
100
AcDbEntity
  8
0
100
AcDbSpline
 62
7
  6
BYLAYER
 70
0
 71
3
 72
9
 73
5
 74
0
 42
0.0000001
 43
0.0000001
 44
0.0000000001
 40
0.0
 40
0.0
 40
0.0
 40
0.0
 40
0.2317858279
 40
1.0
 40
1.0
 40
1.0
 40
1.0
 10
30.9711698149
 20
55.4943056823
 30
0.0
 10
30.969961431
 20
55.4954851485
 30
0.0
 10
30.9644836566
 20
55.5003025249
 30
0.0
 10
30.9581421869
 20
55.5040758647
 30
0.0
 10
30.9530895365
 20
55.5064825113
 30
0.0
  0
SPLINE
  5
4E3
100
AcDbEntity
  8
0
100
AcDbSpline
 62
7
  6
BYLAYER
 70
0
 71
3
 72
9
 73
5
 74
0
 42
0.0000001
 43
0.0000001
 44
0.0000000001
 40
0.0
 40
0.0
 40
0.0
 40
0.0
 40
0.4769748744
 40
1.0
 40
1.0
 40
1.0
 40
1.0
 10
31.761975985
 20
55.0547069741
 30
0.0
 10
31.7619741939
 20
55.0593700009
 30
0.0
 10
31.7598509392
 20
55.0692255591
 30
0.0
 10
31.7542544233
 20
55.0774885697
 30
0.0
 10
31.7508518392
 20
55.0813053095
 30
0.0
  0
SPLINE
  5
4E4
100
AcDbEntity
  8
0
100
AcDbSpline
 62
7
  6
BYLAYER
 70
0
 71
3
 72
9
 73
5
 74
0
 42
0.0000001
 43
0.0000001
 44
0.0000000001
 40
0.0
 40
0.0
 40
0.0
 40
0.0
 40
0.2347907541
 40
1.0
 40
1.0
 40
1.0
 40
1.0
 10
31.7508518392
 20
55.0813053095
 30
0.0
 10
31.7496422654
 20
55.0826621102
 30
0.0
 10
31.7442097806
 20
55.0881898114
 30
0.0
 10
31.7378226441
 20
55.092730923
 30
0.0
 10
31.7326922491
 20
55.0956928909
 30
0.0
  0
SPLINE
  5
4E5
100
AcDbEntity
  8
0
100
AcDbSpline
 62
7
  6
BYLAYER
 70
0
 71
3
 72
10
 73
6
 74
0
 42
0.0000001
 43
0.0000001
 44
0.0000000001
 40
0.0
 40
0.0
 40
0.0
 40
0.0
 40
0.5525421177
 40
0.7952188353
 40
1.0
 40
1.0
 40
1.0
 40
1.0
 10
39.787203955
 20
35.6598762612
 30
0.0
 10
39.7983712699
 20
35.6698026883
 30
0.0
 10
39.8136680325
 20
35.6850548981
 30
0.0
 10
39.8304322897
 20
35.7062966612
 30
0.0
 10
39.8369789822
 20
35.7165211174
 30
0.0
 10
39.8395591853
 20
35.7214207515
 30
0.0
  0
SPLINE
  5
4E6
100
AcDbEntity
  8
0
100
AcDbSpline
 62
7
  6
BYLAYER
 70
0
 71
3
 72
9
 73
5
 74
0
 42
0.0000001
 43
0.0000001
 44
0.0000000001
 40
0.0
 40
0.0
 40
0.0
 40
0.0
 40
0.4783692337
 40
1.0
 40
1.0
 40
1.0
 40
1.0
 10
32.5412547096
 20
54.5574029859
 30
0.0
 10
32.5416882269
 20
54.5629326875
 30
0.0
 10
32.5400647678
 20
54.5747908848
 30
0.0
 10
32.5341054346
 20
54.585034605
 30
0.0
 10
32.5303701526
 20
54.5897916433
 30
0.0
  0
SPLINE
  5
4E7
100
AcDbEntity
  8
0
100
AcDbSpline
 62
7
  6
BYLAYER
 70
0
 71
3
 72
9
 73
5
 74
0
 42
0.0000001
 43
0.0000001
 44
0.0000000001
 40
0.0
 40
0.0
 40
0.0
 40
0.0
 40
0.2372836311
 40
1.0
 40
1.0
 40
1.0
 40
1.0
 10
32.5303701526
 20
54.5897916433
 30
0.0
 10
32.5291718304
 20
54.591317757
 30
0.0
 10
32.5238281287
 20
54.5975177349
 30
0.0
 10
32.517456457
 20
54.6027938486
 30
0.0
 10
32.5122949617
 20
54.6062952044
 30
0.0
  0
SPLINE
  5
4E8
100
AcDbEntity
  8
0
100
AcDbSpline
 62
7
  6
BYLAYER
 70
0
 71
3
 72
11
 73
7
 74
0
 42
0.0000001
 43
0.0000001
 44
0.0000000001
 40
0.0
 40
0.0
 40
0.0
 40
0.0
 40
0.3412899982
 40
0.6163953012
 40
0.8288726969
 40
1.0
 40
1.0
 40
1.0
 40
1.0
 10
39.8395606719
 20
35.7214190928
 30
0.0
 10
39.8410222084
 20
35.7241944534
 30
0.0
 10
39.8434203599
 20
35.729348279
 30
0.0
 10
39.8455386224
 20
35.7367046201
 30
0.0
 10
39.8457818066
 20
35.7428600149
 30
0.0
 10
39.844281251
 20
35.746265213
 30
0.0
 10
39.8432290588
 20
35.7474341843
 30
0.0
  0
SPLINE
  5
4E9
100
AcDbEntity
  8
0
100
AcDbSpline
 62
7
  6
BYLAYER
 70
0
 71
3
 72
10
 73
6
 74
0
 42
0.0000001
 43
0.0000001
 44
0.0000000001
 40
0.0
 40
0.0
 40
0.0
 40
0.0
 40
0.5473735033
 40
0.7909722196
 40
1.0
 40
1.0
 40
1.0
 40
1.0
 10
40.090382515
 20
36.3151207052
 30
0.0
 10
40.1010901985
 20
36.3256384878
 30
0.0
 10
40.1155263475
 20
36.3420195264
 30
0.0
 10
40.1305600994
 20
36.364986704
 30
0.0
 10
40.1361235852
 20
36.3761432004
 30
0.0
 10
40.1381844523
 20
36.3814915336
 30
0.0
  0
SPLINE
  5
4EA
100
AcDbEntity
  8
0
100
AcDbSpline
 62
7
  6
BYLAYER
 70
0
 71
3
 72
12
 73
8
 74
0
 42
0.0000001
 43
0.0000001
 44
0.0000000001
 40
0.0
 40
0.0
 40
0.0
 40
0.0
 40
0.3241194282
 40
0.5311868808
 40
0.7083067249
 40
0.8610848179
 40
1.0
 40
1.0
 40
1.0
 40
1.0
 10
40.1381859936
 20
36.381489996
 30
0.0
 10
40.1394128598
 20
36.3846739418
 30
0.0
 10
40.1411275099
 20
36.3900245101
 30
0.0
 10
40.1422847488
 20
36.3974175385
 30
0.0
 10
40.1421507854
 20
36.4031101088
 30
0.0
 10
40.1408201569
 20
36.4079300642
 30
0.0
 10
40.1390403556
 20
36.4105243649
 30
0.0
 10
40.1380032126
 20
36.411555385
 30
0.0
  0
SPLINE
  5
4EB
100
AcDbEntity
  8
0
100
AcDbSpline
 62
7
  6
BYLAYER
 70
0
 71
3
 72
10
 73
6
 74
0
 42
0.0000001
 43
0.0000001
 44
0.0000000001
 40
0.0
 40
0.0
 40
0.0
 40
0.0
 40
0.5417203839
 40
0.7863628056
 40
1.0
 40
1.0
 40
1.0
 40
1.0
 10
40.3297387462
 20
37.034564298
 30
0.0
 10
40.3399723
 20
37.0456434035
 30
0.0
 10
40.3535029014
 20
37.0631071403
 30
0.0
 10
40.3667471105
 20
37.0876427741
 30
0.0
 10
40.3712994207
 20
37.0996353599
 30
0.0
 10
40.3728388483
 20
37.1053806219
 30
0.0
  0
SPLINE
  5
4EC
100
AcDbEntity
  8
0
100
AcDbSpline
 62
7
  6
BYLAYER
 70
0
 71
3
 72
9
 73
5
 74
0
 42
0.0000001
 43
0.0000001
 44
0.0000000001
 40
0.0
 40
0.0
 40
0.0
 40
0.0
 40
0.4773479016
 40
1.0
 40
1.0
 40
1.0
 40
1.0
 10
36.8812483292
 20
50.185008952
 30
0.0
 10
36.8847754112
 20
50.1980119142
 30
0.0
 10
36.8844908949
 20
50.2275170948
 30
0.0
 10
36.8719296282
 20
50.2537065729
 30
0.0
 10
36.863297893
 20
50.2656690329
 30
0.0
  0
SPLINE
  5
4ED
100
AcDbEntity
  8
0
100
AcDbSpline
 62
7
  6
BYLAYER
 70
0
 71
3
 72
11
 73
7
 74
0
 42
0.0000001
 43
0.0000001
 44
0.0000000001
 40
0.0
 40
0.0
 40
0.0
 40
0.0
 40
0.3117599979
 40
0.5771956012
 40
0.8010539472
 40
1.0
 40
1.0
 40
1.0
 40
1.0
 10
40.3728404326
 20
37.105379217
 30
0.0
 10
40.3738088433
 20
37.1089933999
 30
0.0
 10
40.3751701175
 20
37.1158194319
 30
0.0
 10
40.3752980163
 20
37.1255055134
 30
0.0
 10
40.3732289296
 20
37.1336393363
 30
0.0
 10
40.370157008
 20
37.1378845423
 30
0.0
 10
40.3683683693
 20
37.1394662875
 30
0.0
  0
SPLINE
  5
4EE
100
AcDbEntity
  8
0
100
AcDbSpline
 62
7
  6
BYLAYER
 70
0
 71
3
 72
9
 73
5
 74
0
 42
0.0000001
 43
0.0000001
 44
0.0000000001
 40
0.0
 40
0.0
 40
0.0
 40
0.0
 40
0.5086049007
 40
1.0
 40
1.0
 40
1.0
 40
1.0
 10
36.8632988337
 20
50.2656700411
 30
0.0
 10
36.8543363638
 20
50.2780908563
 30
0.0
 10
36.8319266125
 20
50.2993430554
 30
0.0
 10
36.8031674208
 20
50.3110009496
 30
0.0
 10
36.788572741
 20
50.3134483626
 30
0.0
  0
SPLINE
  5
4EF
100
AcDbEntity
  8
0
100
AcDbSpline
 62
7
  6
BYLAYER
 70
0
 71
3
 72
10
 73
6
 74
0
 42
0.0000001
 43
0.0000001
 44
0.0000000001
 40
0.0
 40
0.0
 40
0.0
 40
0.0
 40
0.5358198093
 40
0.7815877296
 40
1.0
 40
1.0
 40
1.0
 40
1.0
 10
40.503451003
 20
37.8127316395
 30
0.0
 10
40.5131969724
 20
37.8243366095
 30
0.0
 10
40.5257775957
 20
37.8428233025
 30
0.0
 10
40.5371902494
 20
37.8687578739
 30
0.0
 10
40.5407162203
 20
37.8814863032
 30
0.0
 10
40.5417365116
 20
37.8875787832
 30
0.0
  0
SPLINE
  5
4F0
100
AcDbEntity
  8
0
100
AcDbSpline
 62
7
  6
BYLAYER
 70
0
 71
3
 72
11
 73
7
 74
0
 42
0.0000001
 43
0.0000001
 44
0.0000000001
 40
0.0
 40
0.0
 40
0.0
 40
0.0
 40
0.3020108108
 40
0.5646604531
 40
0.7924748791
 40
1.0
 40
1.0
 40
1.0
 40
1.0
 10
40.5417381269
 20
37.8875775218
 30
0.0
 10
40.5424195136
 20
37.8916462959
 30
0.0
 10
40.5431555178
 20
37.8993663257
 30
0.0
 10
40.5420940835
 20
37.9102276674
 30
0.0
 10
40.5386851741
 20
37.9192851727
 30
0.0
 10
40.5346940406
 20
37.9239105249
 30
0.0
 10
40.5324583712
 20
37.9256534264
 30
0.0
  0
SPLINE
  5
4F1
100
AcDbEntity
  8
0
100
AcDbSpline
 62
7
  6
BYLAYER
 70
0
 71
3
 72
9
 73
5
 74
0
 42
0.0000001
 43
0.0000001
 44
0.0000000001
 40
0.0
 40
0.0
 40
0.0
 40
0.0
 40
0.5306503229
 40
1.0
 40
1.0
 40
1.0
 40
1.0
 10
40.6101972302
 20
38.6437004063
 30
0.0
 10
40.6194436765
 20
38.6557901089
 30
0.0
 10
40.6342428894
 20
38.6806503303
 30
0.0
 10
40.642528721
 20
38.7087130185
 30
0.0
 10
40.643592029
 20
38.7221330173
 30
0.0
  0
SPLINE
  5
4F2
100
AcDbEntity
  8
0
100
AcDbSpline
 62
7
  6
BYLAYER
 70
0
 71
3
 72
11
 73
7
 74
0
 42
0.0000001
 43
0.0000001
 44
0.0000000001
 40
0.0
 40
0.0
 40
0.0
 40
0.0
 40
0.2945798162
 40
0.5552520178
 40
0.7861362801
 40
1.0
 40
1.0
 40
1.0
 40
1.0
 10
40.643593663
 20
38.7221319089
 30
0.0
 10
40.6439542747
 20
38.7266831864
 30
0.0
 10
40.6439796365
 20
38.7353406881
 30
0.0
 10
40.6415774086
 20
38.7473909589
 30
0.0
 10
40.6366663282
 20
38.7573333681
 30
0.0
 10
40.6316347508
 20
38.762284042
 30
0.0
 10
40.6288913155
 20
38.7641441218
 30
0.0
  0
SPLINE
  5
4F3
100
AcDbEntity
  8
0
100
AcDbSpline
 62
7
  6
BYLAYER
 70
0
 71
3
 72
10
 73
6
 74
0
 42
0.0000001
 43
0.0000001
 44
0.0000000001
 40
0.0
 40
0.0
 40
0.0
 40
0.0
 40
0.2696552255
 40
0.5262915463
 40
1.0
 40
1.0
 40
1.0
 40
1.0
 10
32.1322059171
 20
57.0410060488
 30
0.0
 10
31.8194585532
 20
57.2215667387
 30
0.0
 10
31.1947724445
 20
57.550487908
 30
0.0
 10
29.9593201601
 20
58.0689601636
 30
0.0
 10
29.0033862533
 20
58.3190318338
 30
0.0
 10
28.3743921692
 20
58.4016709754
 30
0.0
  0
SPLINE
  5
4F4
100
AcDbEntity
  8
0
100
AcDbSpline
 62
7
  6
BYLAYER
 70
0
 71
3
 72
13
 73
9
 74
0
 42
0.0000001
 43
0.0000001
 44
0.0000000001
 40
0.0
 40
0.0
 40
0.0
 40
0.0
 40
0.2655280457
 40
0.5183388578
 40
0.6410565964
 40
0.7618850168
 40
0.8813468558
 40
1.0
 40
1.0
 40
1.0
 40
1.0
 10
28.3743921692
 20
58.4016709754
 30
0.0
 10
28.0612651703
 20
58.4428105458
 30
0.0
 10
27.4440202533
 20
58.4847080808
 30
0.0
 10
26.6806711535
 20
58.4262605766
 30
0.0
 10
26.1010308105
 20
58.3113106412
 30
0.0
 10
25.6852492851
 20
58.1930574394
 30
0.0
 10
25.2853771941
 20
58.0421279515
 30
0.0
 10
25.0295250736
 20
57.9197270989
 30
0.0
 10
24.9049547252
 20
57.8534047698
 30
0.0
  0
SPLINE
  5
4F5
100
AcDbEntity
  8
0
100
AcDbSpline
 62
7
  6
BYLAYER
 70
0
 71
3
 72
32
 73
28
 74
0
 42
0.0000001
 43
0.0000001
 44
0.0000000001
 40
0.0
 40
0.0
 40
0.0
 40
0.0
 40
0.0301388001
 40
0.0612855785
 40
0.0933610853
 40
0.1262942784
 40
0.1600097611
 40
0.1944157482
 40
0.2648774212
 40
0.3368370962
 40
0.4093730913
 40
0.481540819
 40
0.552410473
 40
0.6211049563
 40
0.6868398078
 40
0.7183995556
 40
0.7489914369
 40
0.7785643486
 40
0.8070834614
 40
0.8345311485
 40
0.860910369
 40
0.8862462934
 40
0.9105892745
 40
0.934016544
 40
0.9566337035
 40
0.9785747304
 40
1.0
 40
1.0
 40
1.0
 40
1.0
 10
32.1322059171
 20
55.3263508439
 30
0.0
 10
32.3444213295
 20
55.2038309902
 30
0.0
 10
32.7683493129
 20
54.9413254496
 30
0.0
 10
33.3904445956
 20
54.5057454399
 30
0.0
 10
34.0063693453
 20
54.023673662
 30
0.0
 10
34.6130628439
 20
53.4976290401
 30
0.0
 10
35.2075994321
 20
52.930085516
 30
0.0
 10
35.986428599
 20
52.1153927545
 30
0.0
 10
36.909838482
 20
51.0109206965
 30
0.0
 10
37.9167731498
 20
49.5801316203
 30
0.0
 10
38.8120412689
 20
48.0607749856
 30
0.0
 10
39.5782955412
 20
46.4822903315
 30
0.0
 10
40.2007748827
 20
44.8750729229
 30
0.0
 10
40.6674282748
 20
43.270219463
 30
0.0
 10
40.9224367428
 20
41.9424902629
 30
0.0
 10
41.0378860669
 20
40.9086991563
 30
0.0
 10
41.0798136751
 20
40.1636992401
 30
0.0
 10
41.0780327323
 20
39.4422157595
 30
0.0
 10
41.0325427482
 20
38.7477277066
 30
0.0
 10
40.9435184625
 20
38.0835983441
 30
0.0
 10
40.8113491849
 20
37.4530420817
 30
0.0
 10
40.6366102261
 20
36.8591162042
 30
0.0
 10
40.4200539958
 20
36.304721677
 30
0.0
 10
40.162650988
 20
35.7925919179
 30
0.0
 10
39.8655007879
 20
35.325297105
 30
0.0
 10
39.5300640727
 20
34.9052881211
 30
0.0
 10
39.2794862835
 20
34.6558979592
 30
0.0
 10
39.1489191958
 20
34.5405839558
 30
0.0
  0
SPLINE
  5
4F6
100
AcDbEntity
  8
0
100
AcDbSpline
 62
7
  6
BYLAYER
 70
0
 71
3
 72
9
 73
5
 74
0
 42
0.0000001
 43
0.0000001
 44
0.0000000001
 40
0.0
 40
0.0
 40
0.0
 40
0.0
 40
0.4740198836
 40
1.0
 40
1.0
 40
1.0
 40
1.0
 10
36.225776559
 20
51.0523768924
 30
0.0
 10
36.2289770717
 20
51.0649734505
 30
0.0
 10
36.2277742135
 20
51.0937535753
 30
0.0
 10
36.2141966355
 20
51.1185391917
 30
0.0
 10
36.2051612338
 20
51.1297792846
 30
0.0
  0
SPLINE
  5
4F7
100
AcDbEntity
  8
0
100
AcDbSpline
 62
7
  6
BYLAYER
 70
0
 71
3
 72
9
 73
5
 74
0
 42
0.0000001
 43
0.0000001
 44
0.0000000001
 40
0.0
 40
0.0
 40
0.0
 40
0.0
 40
0.2549955322
 40
1.0
 40
1.0
 40
1.0
 40
1.0
 10
40.3590209004
 20
42.3641076884
 30
0.0
 10
40.3626054061
 20
42.370851162
 30
0.0
 10
40.3743608348
 20
42.3984115689
 30
0.0
 10
40.3773120506
 20
42.4300784741
 30
0.0
 10
40.3728388483
 20
42.4519379007
 30
0.0
  0
SPLINE
  5
4F8
100
AcDbEntity
  8
0
100
AcDbSpline
 62
7
  6
BYLAYER
 70
0
 71
3
 72
9
 73
5
 74
0
 42
0.0000001
 43
0.0000001
 44
0.0000000001
 40
0.0
 40
0.0
 40
0.0
 40
0.0
 40
0.5145861417
 40
1.0
 40
1.0
 40
1.0
 40
1.0
 10
44.9086216858
 20
42.1036315172
 30
0.0
 10
44.9010692634
 20
41.7663051116
 30
0.0
 10
44.8567107264
 20
41.1109689049
 30
0.0
 10
44.7442537668
 20
40.4634018897
 30
0.0
 10
44.6709230303
 20
40.1536817269
 30
0.0
  0
SPLINE
  5
4F9
100
AcDbEntity
  8
0
100
AcDbSpline
 62
7
  6
BYLAYER
 70
0
 71
3
 72
11
 73
7
 74
0
 42
0.0000001
 43
0.0000001
 44
0.0000000001
 40
0.0
 40
0.0
 40
0.0
 40
0.0
 40
0.2382840461
 40
0.4868377622
 40
0.7420577113
 40
1.0
 40
1.0
 40
1.0
 40
1.0
 10
38.1221504748
 20
56.0557375056
 30
0.0
 10
38.5701100687
 20
55.6818463307
 30
0.0
 10
39.442808288
 20
54.8659073992
 30
0.0
 10
40.6424071333
 20
53.4976027658
 30
0.0
 10
41.7386092839
 20
51.9854192223
 30
0.0
 10
42.3834098607
 20
50.9045995408
 30
0.0
 10
42.6825608621
 20
50.3483045965
 30
0.0
  0
SPLINE
  5
4FA
100
AcDbEntity
  8
0
100
AcDbSpline
 62
7
  6
BYLAYER
 70
0
 71
3
 72
9
 73
5
 74
0
 42
0.0000001
 43
0.0000001
 44
0.0000000001
 40
0.0
 40
0.0
 40
0.0
 40
0.0
 40
0.5145679325
 40
1.0
 40
1.0
 40
1.0
 40
1.0
 10
44.559822901
 20
45.3835771434
 30
0.0
 10
44.6705432001
 20
44.8843178337
 30
0.0
 10
44.8411860627
 20
43.90347139
 30
0.0
 10
44.9083389073
 20
42.9095010667
 30
0.0
 10
44.9112350722
 20
42.4270765042
 30
0.0
  0
SPLINE
  5
4FB
100
AcDbEntity
  8
0
100
AcDbSpline
 62
7
  6
BYLAYER
 70
0
 71
3
 72
9
 73
5
 74
0
 42
0.0000001
 43
0.0000001
 44
0.0000000001
 40
0.0
 40
0.0
 40
0.0
 40
0.0
 40
0.5046558699
 40
1.0
 40
1.0
 40
1.0
 40
1.0
 10
36.2051620539
 20
51.1297804513
 30
0.0
 10
36.1955921123
 20
51.1416855148
 30
0.0
 10
36.1719388887
 20
51.1617641849
 30
0.0
 10
36.1426505183
 20
51.1722224922
 30
0.0
 10
36.1277976703
 20
51.1742661617
 30
0.0
  0
SPLINE
  5
4FC
100
AcDbEntity
  8
0
100
AcDbSpline
 62
7
  6
BYLAYER
 70
0
 71
3
 72
10
 73
6
 74
0
 42
0.0000001
 43
0.0000001
 44
0.0000000001
 40
0.0
 40
0.0
 40
0.0
 40
0.0
 40
0.516573132
 40
0.7594943682
 40
1.0
 40
1.0
 40
1.0
 40
1.0
 10
38.0028805502
 20
56.1541337107
 30
0.0
 10
38.0189390743
 20
56.1563127212
 30
0.0
 10
38.0435524396
 20
56.1554658579
 30
0.0
 10
38.0731613906
 20
56.1445512776
 30
0.0
 10
38.0860520904
 20
56.1362798741
 30
0.0
 10
38.0919157926
 20
56.1315317746
 30
0.0
  0
SPLINE
  5
4FD
100
AcDbEntity
  8
0
100
AcDbSpline
 62
7
  6
BYLAYER
 70
0
 71
3
 72
9
 73
5
 74
0
 42
0.0000001
 43
0.0000001
 44
0.0000000001
 40
0.0
 40
0.0
 40
0.0
 40
0.0
 40
0.250142613
 40
1.0
 40
1.0
 40
1.0
 40
1.0
 10
41.3363622288
 20
49.1664701201
 30
0.0
 10
41.4507204914
 20
49.2610768165
 30
0.0
 10
41.9078546347
 20
49.6393339147
 30
0.0
 10
42.3648632261
 20
50.017742771
 30
0.0
 10
42.7074549845
 20
50.3016155268
 30
0.0
  0
SPLINE
  5
4FE
100
AcDbEntity
  8
0
100
AcDbSpline
 62
7
  6
BYLAYER
 70
0
 71
3
 72
9
 73
5
 74
0
 42
0.0000001
 43
0.0000001
 44
0.0000000001
 40
0.0
 40
0.0
 40
0.0
 40
0.0
 40
0.2499389396
 40
1.0
 40
1.0
 40
1.0
 40
1.0
 10
38.0028805502
 20
56.1541337107
 30
0.0
 10
37.8299832194
 20
56.1326624786
 30
0.0
 10
37.1382469511
 20
56.0465793951
 30
0.0
 10
36.4465758115
 20
55.9599731306
 30
0.0
 10
35.9278153828
 20
55.8947341132
 30
0.0
  0
SPLINE
  5
4FF
100
AcDbEntity
  8
0
100
AcDbSpline
 62
7
  6
BYLAYER
 70
0
 71
3
 72
8
 73
4
 74
0
 42
0.0000001
 43
0.0000001
 44
0.0000000001
 40
0.0
 40
0.0
 40
0.0
 40
0.0
 40
1.0
 40
1.0
 40
1.0
 40
1.0
 10
43.367479393
 20
37.7967004259
 30
0.0
 10
43.7370499626
 20
38.3551448351
 30
0.0
 10
44.1063405923
 20
38.9137747058
 30
0.0
 10
44.4752292784
 20
39.4726697777
 30
0.0
  0
SPLINE
  5
500
100
AcDbEntity
  8
0
100
AcDbSpline
 62
7
  6
BYLAYER
 70
0
 71
3
 72
9
 73
5
 74
0
 42
0.0000001
 43
0.0000001
 44
0.0000000001
 40
0.0
 40
0.0
 40
0.0
 40
0.0
 40
0.4926970268
 40
1.0
 40
1.0
 40
1.0
 40
1.0
 10
14.6041010566
 20
13.1106773963
 30
0.0
 10
14.6190058785
 20
13.1020719299
 30
0.0
 10
14.6516659849
 20
13.0883549922
 30
0.0
 10
14.6869409652
 20
13.0845813432
 30
0.0
 10
14.7046557018
 20
13.0850485476
 30
0.0
  0
SPLINE
  5
501
100
AcDbEntity
  8
0
100
AcDbSpline
 62
7
  6
BYLAYER
 70
0
 71
3
 72
9
 73
5
 74
0
 42
0.0000001
 43
0.0000001
 44
0.0000000001
 40
0.0
 40
0.0
 40
0.0
 40
0.0
 40
0.2482381504
 40
1.0
 40
1.0
 40
1.0
 40
1.0
 10
8.8401800006
 20
30.1646874258
 30
0.0
 10
8.8330157817
 20
30.1608886164
 30
0.0
 10
8.8036833148
 20
30.1464885246
 30
0.0
 10
8.7725493939
 20
30.1357965078
 30
0.0
 10
8.7487067023
 20
30.1299149394
 30
0.0
  0
SPLINE
  5
502
100
AcDbEntity
  8
0
100
AcDbSpline
 62
7
  6
BYLAYER
 70
0
 71
3
 72
11
 73
7
 74
0
 42
0.0000001
 43
0.0000001
 44
0.0000000001
 40
0.0
 40
0.0
 40
0.0
 40
0.0
 40
0.2162637061
 40
0.450653588
 40
0.711102968
 40
1.0
 40
1.0
 40
1.0
 40
1.0
 10
8.9224538558
 20
30.0969045894
 30
0.0
 10
8.9566278654
 20
30.1231069889
 30
0.0
 10
9.0192655515
 20
30.1895641493
 30
0.0
 10
9.0847343171
 20
30.3167159271
 30
0.0
 10
9.1235780993
 20
30.4689417936
 30
0.0
 10
9.1311620318
 20
30.5786234461
 30
0.0
 10
9.1310788902
 20
30.6361494297
 30
0.0
  0
SPLINE
  5
503
100
AcDbEntity
  8
0
100
AcDbSpline
 62
7
  6
BYLAYER
 70
0
 71
3
 72
15
 73
11
 74
0
 42
0.0000001
 43
0.0000001
 44
0.0000000001
 40
0.0
 40
0.0
 40
0.0
 40
0.0
 40
0.1080131785
 40
0.2180620411
 40
0.3320000111
 40
0.4513603853
 40
0.5772771844
 40
0.7104918775
 40
0.8514203096
 40
1.0
 40
1.0
 40
1.0
 40
1.0
 10
19.7039689907
 20
54.2766270344
 30
0.0
 10
19.9375945235
 20
54.411523757
 30
0.0
 10
20.4336483009
 20
54.643782551
 30
0.0
 10
21.2362526135
 20
54.8657652236
 30
0.0
 10
22.0918715068
 20
54.96118312
 30
0.0
 10
22.9913601815
 20
54.9298794466
 30
0.0
 10
23.9260560862
 20
54.7731135437
 30
0.0
 10
24.8872965921
 20
54.4928958243
 30
0.0
 10
25.8659440694
 20
54.0923212192
 30
0.0
 10
26.5075491773
 20
53.7564669066
 30
0.0
 10
26.8289269931
 20
53.5709235357
 30
0.0
  0
SPLINE
  5
504
100
AcDbEntity
  8
0
100
AcDbSpline
 62
7
  6
BYLAYER
 70
0
 71
3
 72
14
 73
10
 74
0
 42
0.0000001
 43
0.0000001
 44
0.0000000001
 40
0.0
 40
0.0
 40
0.0
 40
0.0
 40
0.1243707603
 40
0.2483957476
 40
0.3420483395
 40
0.4366708017
 40
0.6265755466
 40
0.8136762137
 40
1.0
 40
1.0
 40
1.0
 40
1.0
 10
44.9349888645
 20
45.541487496
 30
0.0
 10
44.9427588308
 20
45.5482430609
 30
0.0
 10
44.9580148636
 20
45.5620348225
 30
0.0
 10
44.97887026
 20
45.5811883808
 30
0.0
 10
44.9983044732
 20
45.5982457242
 30
0.0
 10
45.0224814752
 20
45.618139912
 30
0.0
 10
45.0531235904
 20
45.6423536772
 30
0.0
 10
45.0879448988
 20
45.673400914
 30
0.0
 10
45.1106506231
 20
45.6943828822
 30
0.0
 10
45.1222800007
 20
45.7045163102
 30
0.0
  0
SPLINE
  5
505
100
AcDbEntity
  8
0
100
AcDbSpline
 62
7
  6
BYLAYER
 70
0
 71
3
 72
11
 73
7
 74
0
 42
0.0000001
 43
0.0000001
 44
0.0000000001
 40
0.0
 40
0.0
 40
0.0
 40
0.0
 40
0.271572479
 40
0.5284507858
 40
0.7708088804
 40
1.0
 40
1.0
 40
1.0
 40
1.0
 10
37.3843210209
 20
39.210362316
 30
0.0
 10
37.3843210209
 20
38.8922406676
 30
0.0
 10
37.3555862344
 20
38.2726699254
 30
0.0
 10
37.2177741143
 20
37.3783864938
 30
0.0
 10
36.9865467312
 20
36.5547419397
 30
0.0
 10
36.7649553245
 20
36.0461989099
 30
0.0
 10
36.6385722639
 20
35.8093305643
 30
0.0
  0
SPLINE
  5
506
100
AcDbEntity
  8
0
100
AcDbSpline
 62
7
  6
BYLAYER
 70
0
 71
3
 72
9
 73
5
 74
0
 42
0.0000001
 43
0.0000001
 44
0.0000000001
 40
0.0
 40
0.0
 40
0.0
 40
0.0
 40
0.2569263573
 40
1.0
 40
1.0
 40
1.0
 40
1.0
 10
36.0293249081
 20
36.5015819345
 30
0.0
 10
36.0383725161
 20
36.3549589303
 30
0.0
 10
36.0651670781
 20
35.7838147501
 30
0.0
 10
36.0574910551
 20
35.2108568276
 30
0.0
 10
36.0293249081
 20
34.7869268585
 30
0.0
  0
SPLINE
  5
507
100
AcDbEntity
  8
0
100
AcDbSpline
 62
7
  6
BYLAYER
 70
0
 71
3
 72
8
 73
4
 74
0
 42
0.0000001
 43
0.0000001
 44
0.0000000001
 40
0.0
 40
0.0
 40
0.0
 40
0.0
 40
1.0
 40
1.0
 40
1.0
 40
1.0
 10
10.0640882358
 20
15.7642208123
 30
0.0
 10
10.1374309429
 20
15.6995394904
 30
0.0
 10
10.2182532272
 20
15.6427778967
 30
0.0
 10
10.3029455731
 20
15.5938899366
 30
0.0
  0
SPLINE
  5
508
100
AcDbEntity
  8
0
100
AcDbSpline
 62
7
  6
BYLAYER
 70
0
 71
3
 72
14
 73
10
 74
0
 42
0.0000001
 43
0.0000001
 44
0.0000000001
 40
0.0
 40
0.0
 40
0.0
 40
0.0
 40
0.2989357205
 40
0.4390396457
 40
0.570436035
 40
0.6920361029
 40
0.8034836739
 40
0.905549076
 40
1.0
 40
1.0
 40
1.0
 40
1.0
 10
7.7602572888
 20
30.6997660697
 30
0.0
 10
7.8297218231
 20
30.6022746103
 30
0.0
 10
7.9447334497
 20
30.4673672176
 30
0.0
 10
8.1185202194
 20
30.3185696164
 30
0.0
 10
8.2494936726
 20
30.230492541
 30
0.0
 10
8.3807615017
 20
30.1655932576
 30
0.0
 10
8.5095614952
 20
30.125560734
 30
0.0
 10
8.6329224101
 20
30.1116814714
 30
0.0
 10
8.7120250407
 20
30.1206956036
 30
0.0
 10
8.7487067023
 20
30.1299149394
 30
0.0
  0
SPLINE
  5
509
100
AcDbEntity
  8
0
100
AcDbSpline
 62
7
  6
BYLAYER
 70
0
 71
3
 72
9
 73
5
 74
0
 42
0.0000001
 43
0.0000001
 44
0.0000000001
 40
0.0
 40
0.0
 40
0.0
 40
0.0
 40
0.5037528362
 40
1.0
 40
1.0
 40
1.0
 40
1.0
 10
45.990782448
 20
41.6302344028
 30
0.0
 10
45.8735936978
 20
41.5040272271
 30
0.0
 10
45.6227432238
 20
41.2696997946
 30
0.0
 10
45.3393908957
 20
41.0757298997
 30
0.0
 10
45.1924616457
 20
40.9909009419
 30
0.0
  0
SPLINE
  5
50A
100
AcDbEntity
  8
0
100
AcDbSpline
 62
7
  6
BYLAYER
 70
0
 71
3
 72
11
 73
7
 74
0
 42
0.0000001
 43
0.0000001
 44
0.0000000001
 40
0.0
 40
0.0
 40
0.0
 40
0.0
 40
0.276898435
 40
0.5319339799
 40
0.7703001361
 40
1.0
 40
1.0
 40
1.0
 40
1.0
 10
45.5455253985
 20
44.2747514032
 30
0.0
 10
45.5782138693
 20
44.2856008692
 30
0.0
 10
45.6427949159
 20
44.3016682489
 30
0.0
 10
45.739143323
 20
44.3068630297
 30
0.0
 10
45.8285945851
 20
44.291480413
 30
0.0
 10
45.8823984397
 20
44.2673284542
 30
0.0
 10
45.9067216753
 20
44.252338753
 30
0.0
  0
SPLINE
  5
50B
100
AcDbEntity
  8
0
100
AcDbSpline
 62
7
  6
BYLAYER
 70
0
 71
3
 72
11
 73
7
 74
0
 42
0.0000001
 43
0.0000001
 44
0.0000000001
 40
0.0
 40
0.0
 40
0.0
 40
0.0
 40
0.2638893395
 40
0.5244374813
 40
0.7723548567
 40
1.0
 40
1.0
 40
1.0
 40
1.0
 10
7.7602572888
 20
30.6997660697
 30
0.0
 10
7.7045804122
 20
30.7763771357
 30
0.0
 10
7.6042981273
 20
30.9364515737
 30
0.0
 10
7.4899962285
 20
31.1899533832
 30
0.0
 10
7.417377524
 20
31.444958444
 30
0.0
 10
7.3986114688
 20
31.6158208845
 30
0.0
 10
7.3986114688
 20
31.697519119
 30
0.0
  0
SPLINE
  5
50C
100
AcDbEntity
  8
0
100
AcDbSpline
 62
7
  6
BYLAYER
 70
0
 71
3
 72
11
 73
7
 74
0
 42
0.0000001
 43
0.0000001
 44
0.0000000001
 40
0.0
 40
0.0
 40
0.0
 40
0.0
 40
0.2389495415
 40
0.4855776498
 40
0.7394448704
 40
1.0
 40
1.0
 40
1.0
 40
1.0
 10
7.398474839
 20
31.6974402362
 30
0.0
 10
7.398474839
 20
32.6413728378
 30
0.0
 10
7.4557076738
 20
34.5599489491
 30
0.0
 10
7.7036220929
 20
37.4717982859
 30
0.0
 10
8.1140720108
 20
40.4513165422
 30
0.0
 10
8.4900486177
 20
42.4493024813
 30
0.0
 10
8.7037422674
 20
43.4561573004
 30
0.0
  0
SPLINE
  5
50D
100
AcDbEntity
  8
0
100
AcDbSpline
 62
7
  6
BYLAYER
 70
0
 71
3
 72
12
 73
8
 74
0
 42
0.0000001
 43
0.0000001
 44
0.0000000001
 40
0.0
 40
0.0
 40
0.0
 40
0.0
 40
0.2508974899
 40
0.5124090972
 40
0.7672630147
 40
0.8875387801
 40
1.0
 40
1.0
 40
1.0
 40
1.0
 10
8.7037422674
 20
43.4561573004
 30
0.0
 10
8.7142577291
 20
43.5058442162
 30
0.0
 10
8.7471564463
 20
43.6050830108
 30
0.0
 10
8.8223411807
 20
43.7418111123
 30
0.0
 10
8.904282102
 20
43.8424397947
 30
0.0
 10
8.9777236369
 20
43.9086028317
 30
0.0
 10
9.0162899297
 20
43.9359461521
 30
0.0
 10
9.0357943199
 20
43.9476855084
 30
0.0
  0
SPLINE
  5
50E
100
AcDbEntity
  8
0
100
AcDbSpline
 62
7
  6
BYLAYER
 70
0
 71
3
 72
9
 73
5
 74
0
 42
0.0000001
 43
0.0000001
 44
0.0000000001
 40
0.0
 40
0.0
 40
0.0
 40
0.0
 40
0.2538903827
 40
1.0
 40
1.0
 40
1.0
 40
1.0
 10
7.0587038595
 20
44.4416600119
 30
0.0
 10
7.0561072245
 20
44.4401608147
 30
0.0
 10
7.0459024682
 20
44.4342169371
 30
0.0
 10
7.0357915314
 20
44.4281109604
 30
0.0
 10
7.0283194277
 20
44.423441245
 30
0.0
  0
SPLINE
  5
50F
100
AcDbEntity
  8
0
100
AcDbSpline
 62
7
  6
BYLAYER
 70
0
 71
3
 72
9
 73
5
 74
0
 42
0.0000001
 43
0.0000001
 44
0.0000000001
 40
0.0
 40
0.0
 40
0.0
 40
0.0
 40
0.5226637797
 40
1.0
 40
1.0
 40
1.0
 40
1.0
 10
45.969175383
 20
48.390060107
 30
0.0
 10
45.9759933402
 20
48.4510363085
 30
0.0
 10
45.9864834702
 20
48.5680040372
 30
0.0
 10
45.9907824676
 20
48.6854036478
 30
0.0
 10
45.9907824676
 20
48.7414387731
 30
0.0
  0
SPLINE
  5
510
100
AcDbEntity
  8
0
100
AcDbSpline
 62
7
  6
BYLAYER
 70
0
 71
3
 72
11
 73
7
 74
0
 42
0.0000001
 43
0.0000001
 44
0.0000000001
 40
0.0
 40
0.0
 40
0.0
 40
0.0
 40
0.239691084
 40
0.485425254
 40
0.7384295263
 40
1.0
 40
1.0
 40
1.0
 40
1.0
 10
17.8729018038
 20
50.4327255527
 30
0.0
 10
17.891361541
 20
50.4283381936
 30
0.0
 10
17.9284906286
 20
50.4183663744
 30
0.0
 10
17.9842343679
 20
50.4007054606
 30
0.0
 10
18.0405477537
 20
50.3793572098
 30
0.0
 10
18.0776694419
 20
50.3625218924
 30
0.0
 10
18.096311003
 20
50.353509263
 30
0.0
  0
SPLINE
  5
511
100
AcDbEntity
  8
0
100
AcDbSpline
 62
7
  6
BYLAYER
 70
0
 71
3
 72
10
 73
6
 74
0
 42
0.0000001
 43
0.0000001
 44
0.0000000001
 40
0.0
 40
0.0
 40
0.0
 40
0.0
 40
0.5135583717
 40
0.76086199
 40
1.0
 40
1.0
 40
1.0
 40
1.0
 10
16.9130764791
 20
49.9859486253
 30
0.0
 10
16.960608403
 20
50.0592723526
 30
0.0
 10
17.0420912539
 20
50.1617247082
 30
0.0
 10
17.1708879559
 20
50.2733999238
 30
0.0
 10
17.2398087082
 20
50.3197332545
 30
0.0
 10
17.275046761
 20
50.3400780686
 30
0.0
  0
SPLINE
  5
512
100
AcDbEntity
  8
0
100
AcDbSpline
 62
7
  6
BYLAYER
 70
0
 71
3
 72
11
 73
7
 74
0
 42
0.0000001
 43
0.0000001
 44
0.0000000001
 40
0.0
 40
0.0
 40
0.0
 40
0.0
 40
0.2451881506
 40
0.4953631684
 40
0.7478775743
 40
1.0
 40
1.0
 40
1.0
 40
1.0
 10
43.0916324238
 20
55.4245836478
 30
0.0
 10
43.3665522914
 20
55.1231618127
 30
0.0
 10
43.8976630387
 20
54.4915944146
 30
0.0
 10
44.6254293221
 20
53.4808734218
 30
0.0
 10
45.2832742571
 20
52.4097675254
 30
0.0
 10
45.6701810081
 20
51.6635712422
 30
0.0
 10
45.8493604334
 20
51.2842586848
 30
0.0
  0
SPLINE
  5
513
100
AcDbEntity
  8
0
100
AcDbSpline
 62
7
  6
BYLAYER
 70
0
 71
3
 72
11
 73
7
 74
0
 42
0.0000001
 43
0.0000001
 44
0.0000000001
 40
0.0
 40
0.0
 40
0.0
 40
0.0
 40
0.2236994295
 40
0.4595657835
 40
0.7167177867
 40
1.0
 40
1.0
 40
1.0
 40
1.0
 10
16.5257827871
 20
49.9074928937
 30
0.0
 10
16.5767728736
 20
49.9369328756
 30
0.0
 10
16.6913169841
 20
49.9817409976
 30
0.0
 10
16.881268142
 20
49.9989096077
 30
0.0
 10
17.0848446811
 20
49.9678387561
 30
0.0
 10
17.2193446643
 20
49.9189384951
 30
0.0
 10
17.2872330324
 20
49.8881077322
 30
0.0
  0
SPLINE
  5
514
100
AcDbEntity
  8
0
100
AcDbSpline
 62
7
  6
BYLAYER
 70
0
 71
3
 72
9
 73
5
 74
0
 42
0.0000001
 43
0.0000001
 44
0.0000000001
 40
0.0
 40
0.0
 40
0.0
 40
0.0
 40
0.2436007167
 40
1.0
 40
1.0
 40
1.0
 40
1.0
 10
17.2872330324
 20
49.8881077322
 30
0.0
 10
17.391875632
 20
49.8488866815
 30
0.0
 10
17.8187670939
 20
49.6807891516
 30
0.0
 10
18.2347419964
 20
49.4853260759
 30
0.0
 10
18.5423855882
 20
49.3248202453
 30
0.0
  0
SPLINE
  5
515
100
AcDbEntity
  8
0
100
AcDbSpline
 62
7
  6
BYLAYER
 70
0
 71
3
 72
9
 73
5
 74
0
 42
0.0000001
 43
0.0000001
 44
0.0000000001
 40
0.0
 40
0.0
 40
0.0
 40
0.0
 40
0.2441203006
 40
1.0
 40
1.0
 40
1.0
 40
1.0
 10
19.4361608391
 20
48.8126614299
 30
0.0
 10
19.5569497882
 20
48.7372511644
 30
0.0
 10
20.0470978367
 20
48.4209383639
 30
0.0
 10
20.5187030334
 20
48.0761234252
 30
0.0
 10
20.8643961703
 20
47.8024531587
 30
0.0
  0
SPLINE
  5
516
100
AcDbEntity
  8
0
100
AcDbSpline
 62
7
  6
BYLAYER
 70
0
 71
3
 72
15
 73
11
 74
0
 42
0.0000001
 43
0.0000001
 44
0.0000000001
 40
0.0
 40
0.0
 40
0.0
 40
0.0
 40
0.1224692847
 40
0.2514869559
 40
0.384133936
 40
0.5174806407
 40
0.6484182821
 40
0.7740171837
 40
0.8918660179
 40
1.0
 40
1.0
 40
1.0
 40
1.0
 10
20.8643961703
 20
47.8024531587
 30
0.0
 10
20.9449424648
 20
47.7386179201
 30
0.0
 10
21.1012309088
 20
47.5957727373
 30
0.0
 10
21.3120264716
 20
47.3510261509
 30
0.0
 10
21.4996493572
 20
47.0769429155
 30
0.0
 10
21.6577398855
 20
46.7830263589
 30
0.0
 10
21.7808613733
 20
46.4791717477
 30
0.0
 10
21.864949018
 20
46.1756404908
 30
0.0
 10
21.9069881399
 20
45.8827708884
 30
0.0
 10
21.9059982021
 20
45.6921069493
 30
0.0
 10
21.8970020457
 20
45.6018092654
 30
0.0
  0
LINE
  5
517
100
AcDbEntity
  8
0
100
AcDbLine
 62
7
  6
BYLAYER
 10
21.8970020457
 20
45.6018092654
 11
21.878865331
 21
45.4242066259
  0
SPLINE
  5
518
100
AcDbEntity
  8
0
100
AcDbSpline
 62
7
  6
BYLAYER
 70
0
 71
3
 72
11
 73
7
 74
0
 42
0.0000001
 43
0.0000001
 44
0.0000000001
 40
0.0
 40
0.0
 40
0.0
 40
0.0
 40
0.2245333626
 40
0.4648642108
 40
0.7236175712
 40
1.0
 40
1.0
 40
1.0
 40
1.0
 10
7.0283073705
 20
44.4234482061
 30
0.0
 10
6.9388720892
 20
44.3675584761
 30
0.0
 10
6.7716384574
 20
44.2214066476
 30
0.0
 10
6.5840455349
 20
43.9339690123
 30
0.0
 10
6.458859467
 20
43.5889971134
 30
0.0
 10
6.4217725726
 20
43.3386529267
 30
0.0
 10
6.4137925747
 20
43.2090826573
 30
0.0
  0
SPLINE
  5
519
100
AcDbEntity
  8
0
100
AcDbSpline
 62
7
  6
BYLAYER
 70
0
 71
3
 72
12
 73
8
 74
0
 42
0.0000001
 43
0.0000001
 44
0.0000000001
 40
0.0
 40
0.0
 40
0.0
 40
0.0
 40
0.2606382608
 40
0.3885654367
 40
0.5147283608
 40
0.761435313
 40
1.0
 40
1.0
 40
1.0
 40
1.0
 10
6.4137925747
 20
43.2090826573
 30
0.0
 10
6.3218961035
 20
42.2833875656
 30
0.0
 10
6.2047694919
 20
40.9012498352
 30
0.0
 10
6.0901568646
 20
39.0676601271
 30
0.0
 10
6.0052609258
 20
37.2822192852
 30
0.0
 10
5.9524580627
 20
35.1001944695
 30
0.0
 10
5.9686445458
 20
33.3678883255
 30
0.0
 10
5.9916678424
 20
32.5167372325
 30
0.0
  0
LINE
  5
51A
100
AcDbEntity
  8
0
100
AcDbLine
 62
7
  6
BYLAYER
 10
9.1310790111
 20
30.636119715
 11
9.1310297857
 21
30.7042667731
  0
SPLINE
  5
51B
100
AcDbEntity
  8
0
100
AcDbSpline
 62
7
  6
BYLAYER
 70
0
 71
3
 72
11
 73
7
 74
0
 42
0.0000001
 43
0.0000001
 44
0.0000000001
 40
0.0
 40
0.0
 40
0.0
 40
0.0
 40
0.2389521772
 40
0.4855853136
 40
0.739450793
 40
1.0
 40
1.0
 40
1.0
 40
1.0
 10
9.1310297857
 20
30.7042667731
 30
0.0
 10
9.1310297857
 20
31.6476508508
 30
0.0
 10
9.188452847
 20
33.5651188932
 30
0.0
 10
9.4364930243
 20
36.4752399939
 30
0.0
 10
9.8468163584
 20
39.452965979
 30
0.0
 10
10.2225988329
 20
41.4497316932
 30
0.0
 10
10.436161094
 20
42.4559674518
 30
0.0
  0
SPLINE
  5
51C
100
AcDbEntity
  8
0
100
AcDbSpline
 62
7
  6
BYLAYER
 70
0
 71
3
 72
11
 73
7
 74
0
 42
0.0000001
 43
0.0000001
 44
0.0000000001
 40
0.0
 40
0.0
 40
0.0
 40
0.0
 40
0.2510012587
 40
0.5126207753
 40
0.7675784137
 40
1.0
 40
1.0
 40
1.0
 40
1.0
 10
10.436161094
 20
42.4559674518
 30
0.0
 10
10.446676561
 20
42.5056543928
 30
0.0
 10
10.4795603099
 20
42.6048848983
 30
0.0
 10
10.5548138595
 20
42.7416510772
 30
0.0
 10
10.6509349334
 20
42.8598558945
 30
0.0
 10
10.7280594512
 20
42.9230146467
 30
0.0
 10
10.7682131465
 20
42.9474956598
 30
0.0
  0
SPLINE
  5
51D
100
AcDbEntity
  8
0
100
AcDbSpline
 62
7
  6
BYLAYER
 70
0
 71
3
 72
15
 73
11
 74
0
 42
0.0000001
 43
0.0000001
 44
0.0000000001
 40
0.0
 40
0.0
 40
0.0
 40
0.0
 40
0.1457128479
 40
0.2858678333
 40
0.4201512805
 40
0.5483777652
 40
0.6704351244
 40
0.7863037401
 40
0.8960943142
 40
1.0
 40
1.0
 40
1.0
 40
1.0
 10
5.9915696188
 20
32.5167939407
 30
0.0
 10
6.0122957906
 20
31.7505655409
 30
0.0
 10
6.077392491
 20
30.2478468562
 30
0.0
 10
6.2521000503
 20
28.0440998047
 30
0.0
 10
6.502133616
 20
25.9401254886
 30
0.0
 10
6.8273403325
 20
23.9427538817
 30
0.0
 10
7.2276308899
 20
22.0578674299
 30
0.0
 10
7.7030674539
 20
20.2905679516
 30
0.0
 10
8.253646482
 20
18.6455266159
 30
0.0
 10
8.6822446254
 20
17.605045256
 30
0.0
 10
8.910099864
 20
17.1082170263
 30
0.0
  0
SPLINE
  5
51E
100
AcDbEntity
  8
0
100
AcDbSpline
 62
7
  6
BYLAYER
 70
0
 71
3
 72
13
 73
9
 74
0
 42
0.0000001
 43
0.0000001
 44
0.0000000001
 40
0.0
 40
0.0
 40
0.0
 40
0.0
 40
0.0908944856
 40
0.1939530919
 40
0.3081804345
 40
0.4324878951
 40
0.705702163
 40
1.0
 40
1.0
 40
1.0
 40
1.0
 10
8.910099864
 20
17.1082170263
 30
0.0
 10
8.9327247281
 20
17.0591780299
 30
0.0
 10
8.9869520436
 20
16.9572625985
 30
0.0
 10
9.0856528213
 20
16.8028744918
 30
0.0
 10
9.2058037354
 20
16.639143593
 30
0.0
 10
9.398608575
 20
16.4038773646
 30
0.0
 10
9.6811881194
 20
16.1046419807
 30
0.0
 10
9.9306810823
 20
15.877315251
 30
0.0
 10
10.0640604899
 20
15.764236831
 30
0.0
  0
SPLINE
  5
51F
100
AcDbEntity
  8
0
100
AcDbSpline
 62
7
  6
BYLAYER
 70
0
 71
3
 72
9
 73
5
 74
0
 42
0.0000001
 43
0.0000001
 44
0.0000000001
 40
0.0
 40
0.0
 40
0.0
 40
0.0
 40
0.2851559558
 40
1.0
 40
1.0
 40
1.0
 40
1.0
 10
14.7046658241
 20
13.0850427036
 30
0.0
 10
14.7148381846
 20
13.0850318416
 30
0.0
 10
14.7503805635
 20
13.0865564431
 30
0.0
 10
14.7864078446
 20
13.0955079908
 30
0.0
 10
14.808491666
 20
13.1082589424
 30
0.0
  0
SPLINE
  5
520
100
AcDbEntity
  8
0
100
AcDbSpline
 62
7
  6
BYLAYER
 70
0
 71
3
 72
9
 73
5
 74
0
 42
0.0000001
 43
0.0000001
 44
0.0000000001
 40
0.0
 40
0.0
 40
0.0
 40
0.0
 40
0.247231753
 40
1.0
 40
1.0
 40
1.0
 40
1.0
 10
21.3477803206
 20
26.2647084878
 30
0.0
 10
21.375082941
 20
25.5807573593
 30
0.0
 10
21.5040377747
 20
22.8150829762
 30
0.0
 10
21.7061712337
 20
20.0528818781
 30
0.0
 10
21.8970002856
 20
17.9774919414
 30
0.0
  0
SPLINE
  5
521
100
AcDbEntity
  8
0
100
AcDbSpline
 62
7
  6
BYLAYER
 70
0
 71
3
 72
14
 73
10
 74
0
 42
0.0000001
 43
0.0000001
 44
0.0000000001
 40
0.0
 40
0.0
 40
0.0
 40
0.0
 40
0.2949187316
 40
0.4299141816
 40
0.5564750736
 40
0.6752868025
 40
0.7875899488
 40
0.8951343189
 40
1.0
 40
1.0
 40
1.0
 40
1.0
 10
21.8970002856
 20
17.9774919414
 30
0.0
 10
21.9067108441
 20
17.8688232206
 30
0.0
 10
21.9080104016
 20
17.7084147898
 30
0.0
 10
21.8754574083
 20
17.5047547991
 30
0.0
 10
21.8362068466
 20
17.3691895225
 30
0.0
 10
21.7817423169
 20
17.2480675395
 30
0.0
 10
21.7125910844
 20
17.142872684
 30
0.0
 10
21.6294464255
 20
17.0552791952
 30
0.0
 10
21.5651074163
 20
17.0091702497
 30
0.0
 10
21.5315112162
 20
16.98977292
 30
0.0
  0
SPLINE
  5
522
100
AcDbEntity
  8
0
100
AcDbSpline
 62
7
  6
BYLAYER
 70
0
 71
3
 72
16
 73
12
 74
0
 42
0.0000001
 43
0.0000001
 44
0.0000000001
 40
0.0
 40
0.0
 40
0.0
 40
0.0
 40
0.0546056323
 40
0.1111427786
 40
0.2293336798
 40
0.3533455661
 40
0.4815934244
 40
0.6122876393
 40
0.7435268875
 40
0.873385614
 40
1.0
 40
1.0
 40
1.0
 40
1.0
 10
27.7128069345
 20
53.5300894757
 30
0.0
 10
27.9549329515
 20
53.3903011171
 30
0.0
 10
28.4385384255
 20
53.0895442616
 30
0.0
 10
29.3973042315
 20
52.4107459273
 30
0.0
 10
30.5684783461
 20
51.4219629457
 30
0.0
 10
31.8906141325
 20
50.0581824699
 30
0.0
 10
33.121887187
 20
48.5288569572
 30
0.0
 10
34.2354811831
 20
46.8673395793
 30
0.0
 10
35.2072634969
 20
45.1096207759
 30
0.0
 10
36.0160219673
 20
43.2941621275
 30
0.0
 10
36.4422688773
 20
42.0497788905
 30
0.0
 10
36.6223894714
 20
41.4270375259
 30
0.0
  0
SPLINE
  5
523
100
AcDbEntity
  8
0
100
AcDbSpline
 62
7
  6
BYLAYER
 70
0
 71
3
 72
13
 73
9
 74
0
 42
0.0000001
 43
0.0000001
 44
0.0000000001
 40
0.0
 40
0.0
 40
0.0
 40
0.0
 40
0.2725601766
 40
0.5266261364
 40
0.6482136145
 40
0.7670612116
 40
0.8840152995
 40
1.0
 40
1.0
 40
1.0
 40
1.0
 10
21.7041820144
 20
26.4699786679
 30
0.0
 10
22.0586137342
 20
26.3769710079
 30
0.0
 10
22.7579551372
 20
26.2463786966
 30
0.0
 10
23.634899404
 20
26.2376953227
 30
0.0
 10
24.2941032639
 20
26.3316726129
 30
0.0
 10
24.7609968266
 20
26.4490552177
 30
0.0
 10
25.2052605348
 20
26.613894094
 30
0.0
 10
25.4855486411
 20
26.7553170122
 30
0.0
 10
25.6205898462
 20
26.833280068
 30
0.0
  0
SPLINE
  5
524
100
AcDbEntity
  8
0
100
AcDbSpline
 62
7
  6
BYLAYER
 70
0
 71
3
 72
19
 73
15
 74
0
 42
0.0000001
 43
0.0000001
 44
0.0000000001
 40
0.0
 40
0.0
 40
0.0
 40
0.0
 40
0.0554410599
 40
0.1132751537
 40
0.1732533058
 40
0.2351330151
 40
0.3633187476
 40
0.4951617386
 40
0.6276705605
 40
0.7578070218
 40
0.8211009558
 40
0.8827519434
 40
0.9424829285
 40
1.0
 40
1.0
 40
1.0
 40
1.0
 10
26.8289269931
 20
53.5709235357
 30
0.0
 10
27.1486543274
 20
53.3863330492
 30
0.0
 10
27.7865896392
 20
52.9821446113
 30
0.0
 10
28.7139385324
 20
52.2943079195
 30
0.0
 10
29.6250016249
 20
51.5171681405
 30
0.0
 10
30.8212337325
 20
50.3576358663
 30
0.0
 10
32.2224030458
 20
48.7284634828
 30
0.0
 10
33.701534486
 20
46.5673010569
 30
0.0
 10
34.9484934782
 20
44.2496487457
 30
0.0
 10
35.7667861909
 20
42.2340127378
 30
0.0
 10
36.2669277071
 20
40.6098201292
 30
0.0
 10
36.5573354585
 20
39.4139680118
 30
0.0
 10
36.7638591714
 20
38.239881235
 30
0.0
 10
36.8462271051
 20
37.4626715372
 30
0.0
 10
36.8720877268
 20
37.0805339844
 30
0.0
  0
SPLINE
  5
525
100
AcDbEntity
  8
0
100
AcDbSpline
 62
7
  6
BYLAYER
 70
0
 71
3
 72
16
 73
12
 74
0
 42
0.0000001
 43
0.0000001
 44
0.0000000001
 40
0.0
 40
0.0
 40
0.0
 40
0.0
 40
0.1458505423
 40
0.2846986991
 40
0.4166360543
 40
0.4801887189
 40
0.542228622
 40
0.6621446296
 40
0.7774826007
 40
0.8895815909
 40
1.0
 40
1.0
 40
1.0
 40
1.0
 10
36.8720877248
 20
35.1944134166
 30
0.0
 10
36.8487028159
 20
34.875860963
 30
0.0
 10
36.7778462697
 20
34.2554849578
 30
0.0
 10
36.59213105
 20
33.3608428044
 30
0.0
 10
36.3712907434
 20
32.6611320953
 30
0.0
 10
36.1564788046
 20
32.1393419607
 30
0.0
 10
35.9228298601
 20
31.6548260333
 30
0.0
 10
35.5868177115
 20
31.0949280797
 30
0.0
 10
35.109787287
 20
30.499221725
 30
0.0
 10
34.5672726348
 20
29.9923171706
 30
0.0
 10
34.1632970418
 20
29.7158168531
 30
0.0
 10
33.9538849956
 20
29.5949011366
 30
0.0
  0
SPLINE
  5
526
100
AcDbEntity
  8
0
100
AcDbSpline
 62
7
  6
BYLAYER
 70
0
 71
3
 72
15
 73
11
 74
0
 42
0.0000001
 43
0.0000001
 44
0.0000000001
 40
0.0
 40
0.0
 40
0.0
 40
0.0
 40
0.1231266456
 40
0.2458850737
 40
0.3690397167
 40
0.4932744811
 40
0.6186896628
 40
0.7452725807
 40
0.8726464454
 40
1.0
 40
1.0
 40
1.0
 40
1.0
 10
10.275443275
 20
42.7485205553
 30
0.0
 10
10.2158756953
 20
42.7705841159
 30
0.0
 10
10.0970280686
 20
42.8149504995
 30
0.0
 10
9.9204109473
 20
42.886162204
 30
0.0
 10
9.7468712085
 20
42.9661165738
 30
0.0
 10
9.5774930694
 20
43.0574970108
 30
0.0
 10
9.4122532061
 20
43.1595561442
 30
0.0
 10
9.2520809888
 20
43.2722086047
 30
0.0
 10
9.0964381003
 20
43.392583167
 30
0.0
 10
8.9945614388
 20
43.4756065415
 30
0.0
 10
8.943794544
 20
43.5173153299
 30
0.0
  0
SPLINE
  5
527
100
AcDbEntity
  8
0
100
AcDbSpline
 62
7
  6
BYLAYER
 70
0
 71
3
 72
12
 73
8
 74
0
 42
0.0000001
 43
0.0000001
 44
0.0000000001
 40
0.0
 40
0.0
 40
0.0
 40
0.0
 40
0.2668477129
 40
0.5303026778
 40
0.6572993904
 40
0.7788533667
 40
1.0
 40
1.0
 40
1.0
 40
1.0
 10
8.943794544
 20
43.5173153299
 30
0.0
 10
8.9295692498
 20
43.5558897403
 30
0.0
 10
8.9142151275
 20
43.6379265992
 30
0.0
 10
8.9278432177
 20
43.7398090098
 30
0.0
 10
8.9543043946
 20
43.8143587115
 30
0.0
 10
8.9849712636
 20
43.8796832604
 30
0.0
 10
9.0133055806
 20
43.9258623608
 30
0.0
 10
9.0381900647
 20
43.9491368085
 30
0.0
  0
SPLINE
  5
528
100
AcDbEntity
  8
0
100
AcDbSpline
 62
7
  6
BYLAYER
 70
0
 71
3
 72
13
 73
9
 74
0
 42
0.0000001
 43
0.0000001
 44
0.0000000001
 40
0.0
 40
0.0
 40
0.0
 40
0.0
 40
0.1234834647
 40
0.2462081329
 40
0.4353970301
 40
0.6285248843
 40
0.815251491
 40
1.0
 40
1.0
 40
1.0
 40
1.0
 10
45.1222800356
 20
43.1599408043
 30
0.0
 10
45.1145709402
 20
43.1571389336
 30
0.0
 10
45.0993019539
 20
43.1512756669
 30
0.0
 10
45.0724041887
 20
43.1406436318
 30
0.0
 10
45.0407144974
 20
43.1295967071
 30
0.0
 10
45.0045772144
 20
43.1184801337
 30
0.0
 10
44.9694527227
 20
43.1052920437
 30
0.0
 10
44.9465273672
 20
43.0961595023
 30
0.0
 10
44.9349888739
 20
43.0919802179
 30
0.0
  0
SPLINE
  5
529
100
AcDbEntity
  8
0
100
AcDbSpline
 62
7
  6
BYLAYER
 70
0
 71
3
 72
55
 73
51
 74
0
 42
0.0000001
 43
0.0000001
 44
0.0000000001
 40
0.0
 40
0.0
 40
0.0
 40
0.0
 40
0.0127402948
 40
0.0195396091
 40
0.0266654774
 40
0.0340796572
 40
0.0417076909
 40
0.0574021689
 40
0.0654395464
 40
0.0735187881
 40
0.0815235703
 40
0.0893718196
 40
0.0970350876
 40
0.1044988
 40
0.1189754964
 40
0.1261074338
 40
0.1333061066
 40
0.1369719878
 40
0.1407018551
 40
0.1483144733
 40
0.156025371
 40
0.1637011219
 40
0.171287571
 40
0.1788078214
 40
0.1937455828
 40
0.2087102996
 40
0.2162661075
 40
0.2238817728
 40
0.2391896349
 40
0.2468276975
 40
0.2544379316
 40
0.2696321702
 40
0.2848864063
 40
0.3002287158
 40
0.3156009594
 40
0.3309646575
 40
0.346342531
 40
0.3617647827
 40
0.3927317456
 40
0.4237694861
 40
0.4549124781
 40
0.486184876
 40
0.5175560568
 40
0.5490223542
 40
0.6122579365
 40
0.6759017686
 40
0.7399473623
 40
0.8043864612
 40
0.8692124804
 40
1.0
 40
1.0
 40
1.0
 40
1.0
 10
8.7439053539
 20
30.9277681116
 30
0.0
 10
8.7594284852
 20
30.9758959508
 30
0.0
 10
8.7781669405
 20
31.0515365276
 30
0.0
 10
8.7911689332
 20
31.1566800383
 30
0.0
 10
8.7944132449
 20
31.2414066443
 30
0.0
 10
8.7922629905
 20
31.3294091948
 30
0.0
 10
8.7837295408
 20
31.4511372128
 30
0.0
 10
8.7687514954
 20
31.5748097463
 30
0.0
 10
8.7479855897
 20
31.6993606072
 30
0.0
 10
8.7313911327
 20
31.7936539528
 30
0.0
 10
8.7170667491
 20
31.8875835413
 30
0.0
 10
8.707365476
 20
31.9804572144
 30
0.0
 10
8.7021865976
 20
32.0715416612
 30
0.0
 10
8.7016451649
 20
32.1890972574
 30
0.0
 10
8.7092860233
 20
32.3043589168
 30
0.0
 10
8.7207043936
 20
32.4181162657
 30
0.0
 10
8.7265075493
 20
32.4893320503
 30
0.0
 10
8.7289599515
 20
32.5472186039
 30
0.0
 10
8.7294932066
 20
32.606797328
 30
0.0
 10
8.7274466706
 20
32.6824130554
 30
0.0
 10
8.7233701612
 20
32.773608502
 30
0.0
 10
8.7206357183
 20
32.8647626654
 30
0.0
 10
8.7204279811
 20
32.9552007463
 30
0.0
 10
8.7224372361
 20
33.0744433382
 30
0.0
 10
8.7282623924
 20
33.2228773438
 30
0.0
 10
8.7347316225
 20
33.371420137
 30
0.0
 10
8.737663598
 20
33.491007176
 30
0.0
 10
8.7390286778
 20
33.611980739
 30
0.0
 10
8.7394710442
 20
33.7332879805
 30
0.0
 10
8.7415390078
 20
33.8545580563
 30
0.0
 10
8.7450537326
 20
33.9753430456
 30
0.0
 10
8.7511259243
 20
34.1262864543
 30
0.0
 10
8.757820831
 20
34.3079187599
 30
0.0
 10
8.7632298606
 20
34.4903002309
 30
0.0
 10
8.7693478013
 20
34.6730954447
 30
0.0
 10
8.7773037759
 20
34.8559617511
 30
0.0
 10
8.7862126209
 20
35.0389804819
 30
0.0
 10
8.7981560725
 20
35.2838574997
 30
0.0
 10
8.8131333508
 20
35.5908225144
 30
0.0
 10
8.8356460714
 20
35.9598693562
 30
0.0
 10
8.860418274
 20
36.32997931
 30
0.0
 10
8.8866558282
 20
36.7013174641
 30
0.0
 10
8.9157984171
 20
37.0737277162
 30
0.0
 10
8.9583316539
 20
37.5723344897
 30
0.0
 10
9.0177819155
 20
38.1980470372
 30
0.0
 10
9.0986544287
 20
38.9515652309
 30
0.0
 10
9.1891486511
 20
39.7087997833
 30
0.0
 10
9.2892228288
 20
40.469562138
 30
0.0
 10
9.4357215372
 20
41.4913405667
 30
0.0
 10
9.5587471103
 20
42.2580543763
 30
0.0
 10
9.6466089315
 20
42.7696925131
 30
0.0
  0
SPLINE
  5
52A
100
AcDbEntity
  8
0
100
AcDbSpline
 62
7
  6
BYLAYER
 70
0
 71
3
 72
36
 73
32
 74
0
 42
0.0000001
 43
0.0000001
 44
0.0000000001
 40
0.0
 40
0.0
 40
0.0
 40
0.0
 40
0.1310016927
 40
0.260439744
 40
0.3245431955
 40
0.3882195116
 40
0.4514578084
 40
0.514245877
 40
0.5765837767
 40
0.6075921721
 40
0.638500123
 40
0.6693015222
 40
0.699949634
 40
0.7304262454
 40
0.7608502987
 40
0.7912756394
 40
0.8064281243
 40
0.8215119697
 40
0.8365793272
 40
0.8517092623
 40
0.866961411
 40
0.8821590597
 40
0.8969999674
 40
0.9042110993
 40
0.9113011206
 40
0.9253036248
 40
0.9393503407
 40
0.9537146439
 40
0.968531146
 40
0.98392683
 40
1.0
 40
1.0
 40
1.0
 40
1.0
 10
9.4054291484
 20
42.9089345677
 30
0.0
 10
9.288776465
 20
42.4427413455
 30
0.0
 10
9.0674625563
 20
41.5132248038
 30
0.0
 10
8.8198411084
 20
40.3485845672
 30
0.0
 10
8.6400347189
 20
39.4222789976
 30
0.0
 10
8.5146621328
 20
38.7328381436
 30
0.0
 10
8.3983101721
 20
38.0467124694
 30
0.0
 10
8.290812695
 20
37.3641147944
 30
0.0
 10
8.2085442829
 20
36.7972734634
 30
0.0
 10
8.1476958875
 20
36.3455359094
 30
0.0
 10
8.1047546965
 20
36.0081282948
 30
0.0
 10
8.0645405833
 20
35.6717173379
 30
0.0
 10
8.0257889145
 20
35.3367298803
 30
0.0
 10
7.9872853887
 20
35.0031064765
 30
0.0
 10
7.9527400602
 20
34.6698553055
 30
0.0
 10
7.9290400488
 20
34.3920518453
 30
0.0
 10
7.9103772488
 20
34.1703055404
 30
0.0
 10
7.8958716489
 20
34.0047472348
 30
0.0
 10
7.8821719844
 20
33.8392037565
 30
0.0
 10
7.8706250835
 20
33.6728630414
 30
0.0
 10
7.8634083332
 20
33.5058027671
 30
0.0
 10
7.8567004255
 20
33.3398039262
 30
0.0
 10
7.8468468306
 20
33.2034339424
 30
0.0
 10
7.833321364
 20
33.09736377
 30
0.0
 10
7.816908848
 20
32.994827147
 30
0.0
 10
7.7929152778
 20
32.868174226
 30
0.0
 10
7.7662053704
 20
32.7148581242
 30
0.0
 10
7.7480012257
 20
32.557222463
 30
0.0
 10
7.7396154109
 20
32.3937934618
 30
0.0
 10
7.7430844399
 20
32.2238696121
 30
0.0
 10
7.7558462209
 20
32.1089092999
 30
0.0
 10
7.7653848165
 20
32.0507231805
 30
0.0
  0
SPLINE
  5
52B
100
AcDbEntity
  8
0
100
AcDbSpline
 62
7
  6
BYLAYER
 70
0
 71
3
 72
15
 73
11
 74
0
 42
0.0000001
 43
0.0000001
 44
0.0000000001
 40
0.0
 40
0.0
 40
0.0
 40
0.0
 40
0.0765157784
 40
0.1566614437
 40
0.2456573809
 40
0.348950152
 40
0.4717173803
 40
0.6186482432
 40
0.7937429152
 40
1.0
 40
1.0
 40
1.0
 40
1.0
 10
45.990782448
 20
41.6302344028
 30
0.0
 10
45.9430308346
 20
41.6352553086
 30
0.0
 10
45.8460038708
 20
41.6571030065
 30
0.0
 10
45.7075582976
 20
41.7283883014
 30
0.0
 10
45.5776835202
 20
41.8418175949
 30
0.0
 10
45.4581388209
 20
42.0007119353
 30
0.0
 10
45.3501863815
 20
42.2093500022
 30
0.0
 10
45.2555088221
 20
42.4725892303
 30
0.0
 10
45.1762851962
 20
42.7949619116
 30
0.0
 10
45.1386454955
 20
43.0315484844
 30
0.0
 10
45.1222789453
 20
43.1599390882
 30
0.0
  0
SPLINE
  5
52C
100
AcDbEntity
  8
0
100
AcDbSpline
 62
7
  6
BYLAYER
 70
0
 71
3
 72
11
 73
7
 74
0
 42
0.0000001
 43
0.0000001
 44
0.0000000001
 40
0.0
 40
0.0
 40
0.0
 40
0.0
 40
0.2500693067
 40
0.4999998294
 40
0.7493773757
 40
1.0
 40
1.0
 40
1.0
 40
1.0
 10
7.7513882553
 20
31.5007851623
 30
0.0
 10
7.7510291508
 20
31.4340372614
 30
0.0
 10
7.7508239526
 20
31.3005738258
 30
0.0
 10
7.7524494029
 20
31.1005563446
 30
0.0
 10
7.7538950655
 20
30.9003824578
 30
0.0
 10
7.7578638355
 20
30.7669697456
 30
0.0
 10
7.7602441285
 20
30.7001155472
 30
0.0
  0
SPLINE
  5
52D
100
AcDbEntity
  8
0
100
AcDbSpline
 62
7
  6
BYLAYER
 70
0
 71
3
 72
10
 73
6
 74
0
 42
0.0000001
 43
0.0000001
 44
0.0000000001
 40
0.0
 40
0.0
 40
0.0
 40
0.0
 40
0.2487223992
 40
0.6252147777
 40
1.0
 40
1.0
 40
1.0
 40
1.0
 10
8.7487091444
 20
30.1302537337
 30
0.0
 10
8.74874564
 20
30.1485300482
 30
0.0
 10
8.7488162921
 20
30.194473417
 30
0.0
 10
8.7472382268
 20
30.2679412378
 30
0.0
 10
8.7471253461
 20
30.3231495418
 30
0.0
 10
8.7473053237
 20
30.3506885169
 30
0.0
  0
SPLINE
  5
52E
100
AcDbEntity
  8
0
100
AcDbSpline
 62
7
  6
BYLAYER
 70
0
 71
3
 72
15
 73
11
 74
0
 42
0.0000001
 43
0.0000001
 44
0.0000000001
 40
0.0
 40
0.0
 40
0.0
 40
0.0
 40
0.1080124633
 40
0.218061674
 40
0.3319996109
 40
0.4513593807
 40
0.5772780063
 40
0.7104926635
 40
0.8514169289
 40
1.0
 40
1.0
 40
1.0
 40
1.0
 10
25.6205898462
 20
26.833280068
 30
0.0
 10
25.8251258493
 20
26.9513644099
 30
0.0
 10
26.2183686067
 20
27.2257723789
 30
0.0
 10
26.7379833491
 20
27.7371303663
 30
0.0
 10
27.1848531377
 20
28.3440706536
 30
0.0
 10
27.5548618869
 20
29.0397410048
 30
0.0
 10
27.8451319484
 20
29.8170343822
 30
0.0
 10
28.053435673
 20
30.6684767684
 30
0.0
 10
28.1781148777
 20
31.5858036508
 30
0.0
 10
28.2043171795
 20
32.21926425
 30
0.0
 10
28.2043171795
 20
32.5441497939
 30
0.0
  0
SPLINE
  5
52F
100
AcDbEntity
  8
0
100
AcDbSpline
 62
7
  6
BYLAYER
 70
0
 71
3
 72
11
 73
7
 74
0
 42
0.0000001
 43
0.0000001
 44
0.0000000001
 40
0.0
 40
0.0
 40
0.0
 40
0.0
 40
0.2308853064
 40
0.4734160948
 40
0.7295084912
 40
1.0
 40
1.0
 40
1.0
 40
1.0
 10
36.8025809025
 20
35.2529664437
 30
0.0
 10
36.935108293
 20
35.4302496704
 30
0.0
 10
37.1793612675
 20
35.8149573939
 30
0.0
 10
37.4711635023
 20
36.4525602353
 30
0.0
 10
37.6941042104
 20
37.1570827339
 30
0.0
 10
37.7931242918
 20
37.6531648301
 30
0.0
 10
37.8316557271
 20
37.9095987945
 30
0.0
  0
SPLINE
  5
530
100
AcDbEntity
  8
0
100
AcDbSpline
 62
7
  6
BYLAYER
 70
0
 71
3
 72
30
 73
26
 74
0
 42
0.0000001
 43
0.0000001
 44
0.0000000001
 40
0.0
 40
0.0
 40
0.0
 40
0.0
 40
0.033390434
 40
0.0673770838
 40
0.1023277419
 40
0.1202311684
 40
0.1389751819
 40
0.1577503404
 40
0.1745229107
 40
0.1886230764
 40
0.2021026836
 40
0.2156825195
 40
0.2294156467
 40
0.257333275
 40
0.2857006373
 40
0.3144726406
 40
0.3435771621
 40
0.3729565576
 40
0.4323695745
 40
0.4925167243
 40
0.553345799
 40
0.6148763173
 40
0.7399464826
 40
0.8678628992
 40
1.0
 40
1.0
 40
1.0
 40
1.0
 10
9.4054291484
 20
42.9089345677
 30
0.0
 10
9.4019334553
 20
42.9119908496
 30
0.0
 10
9.3950457836
 20
42.9183483348
 30
0.0
 10
9.3850129419
 20
42.9284494419
 30
0.0
 10
9.3772439048
 20
42.9377271262
 30
0.0
 10
9.3715495
 20
42.9459018123
 30
0.0
 10
9.3678168357
 20
42.9526805215
 30
0.0
 10
9.3659887602
 20
42.9601788355
 30
0.0
 10
9.367938744
 20
42.9673315699
 30
0.0
 10
9.3732501715
 20
42.971104685
 30
0.0
 10
9.3788963904
 20
42.9722902112
 30
0.0
 10
9.3845608564
 20
42.9727038098
 30
0.0
 10
9.3922497404
 20
42.9724639213
 30
0.0
 10
9.401908689
 20
42.9710892925
 30
0.0
 10
9.4134852187
 20
42.9686375214
 30
0.0
 10
9.4250430451
 20
42.9654091891
 30
0.0
 10
9.4365785725
 20
42.9616374271
 30
0.0
 10
9.4519768628
 20
42.9560005554
 30
0.0
 10
9.4711288477
 20
42.9480931168
 30
0.0
 10
9.4939198772
 20
42.9376004948
 30
0.0
 10
9.5165836354
 20
42.9261637318
 30
0.0
 10
9.5467124032
 20
42.9095332036
 30
0.0
 10
9.583931752
 20
42.8864928727
 30
0.0
 10
9.6276314306
 20
42.8554991944
 30
0.0
 10
9.655348373
 20
42.8320853434
 30
0.0
 10
9.6683358741
 20
42.8190862483
 30
0.0
  0
SPLINE
  5
531
100
AcDbEntity
  8
0
100
AcDbSpline
 62
7
  6
BYLAYER
 70
0
 71
3
 72
9
 73
5
 74
0
 42
0.0000001
 43
0.0000001
 44
0.0000000001
 40
0.0
 40
0.0
 40
0.0
 40
0.0
 40
0.5077192132
 40
1.0
 40
1.0
 40
1.0
 40
1.0
 10
45.4244655611
 20
48.0967295081
 30
0.0
 10
45.5170475692
 20
48.6639901725
 30
0.0
 10
45.7234922209
 20
49.7773971142
 30
0.0
 10
45.9668914417
 20
50.8831512996
 30
0.0
 10
46.094308428
 20
51.4256786312
 30
0.0
  0
SPLINE
  5
532
100
AcDbEntity
  8
0
100
AcDbSpline
 62
7
  6
BYLAYER
 70
0
 71
3
 72
11
 73
7
 74
0
 42
0.0000001
 43
0.0000001
 44
0.0000000001
 40
0.0
 40
0.0
 40
0.0
 40
0.0
 40
0.2868187868
 40
0.5448654943
 40
0.7792013563
 40
1.0
 40
1.0
 40
1.0
 40
1.0
 10
9.0928655381
 20
30.6388554774
 30
0.0
 10
9.0890750913
 20
30.5867981181
 30
0.0
 10
9.0743641217
 20
30.488135995
 30
0.0
 10
9.0258341705
 20
30.3536944943
 30
0.0
 10
8.9525923176
 20
30.2447113123
 30
0.0
 10
8.887123461
 20
30.1914861579
 30
0.0
 10
8.8523202016
 20
30.1714054683
 30
0.0
  0
SPLINE
  5
533
100
AcDbEntity
  8
0
100
AcDbSpline
 62
7
  6
BYLAYER
 70
0
 71
3
 72
10
 73
6
 74
0
 42
0.0000001
 43
0.0000001
 44
0.0000000001
 40
0.0
 40
0.0
 40
0.0
 40
0.0
 40
0.4855339134
 40
0.7480722734
 40
1.0
 40
1.0
 40
1.0
 40
1.0
 10
10.735796077
 20
42.9698349217
 30
0.0
 10
10.6517275104
 20
42.9184256834
 30
0.0
 10
10.5428071186
 20
42.8042685327
 30
0.0
 10
10.4446537882
 20
42.6263913865
 30
0.0
 10
10.4113919909
 20
42.5264015295
 30
0.0
 10
10.4008056057
 20
42.4763794907
 30
0.0
  0
SPLINE
  5
534
100
AcDbEntity
  8
0
100
AcDbSpline
 62
7
  6
BYLAYER
 70
0
 71
3
 72
11
 73
7
 74
0
 42
0.0000001
 43
0.0000001
 44
0.0000000001
 40
0.0
 40
0.0
 40
0.0
 40
0.0
 40
0.2605463982
 40
0.5144094715
 40
0.7610402037
 40
1.0
 40
1.0
 40
1.0
 40
1.0
 10
10.3978876143
 20
42.462623715
 30
0.0
 10
10.184666983
 20
41.4569518624
 30
0.0
 10
9.8095245008
 20
39.4613163559
 30
0.0
 10
9.3999945966
 20
36.4853160112
 30
0.0
 10
9.1526395149
 20
33.576866201
 30
0.0
 10
9.0955381791
 20
31.6605158076
 30
0.0
 10
9.0955381793
 20
30.7176624254
 30
0.0
  0
SPLINE
  5
535
100
AcDbEntity
  8
0
100
AcDbSpline
 62
7
  6
BYLAYER
 70
0
 71
3
 72
72
 73
68
 74
0
 42
0.0000001
 43
0.0000001
 44
0.0000000001
 40
0.0
 40
0.0
 40
0.0
 40
0.0
 40
0.0640847761
 40
0.1282852323
 40
0.1926306279
 40
0.2571659145
 40
0.3219661487
 40
0.354505957
 40
0.3871766102
 40
0.4035758847
 40
0.4200298914
 40
0.4365525257
 40
0.4448457741
 40
0.453164924
 40
0.4615147838
 40
0.4699018744
 40
0.4783353938
 40
0.4868291262
 40
0.491105065
 40
0.4954054734
 40
0.4997359983
 40
0.5041048461
 40
0.508524469
 40
0.5107594393
 40
0.5130158179
 40
0.5152981934
 40
0.5176134526
 40
0.5199614447
 40
0.5222939619
 40
0.5233790853
 40
0.5243072663
 40
0.5250839771
 40
0.525795804
 40
0.5264987957
 40
0.5272140886
 40
0.5286905276
 40
0.530225824
 40
0.5318055379
 40
0.5350599481
 40
0.5384038251
 40
0.5418098706
 40
0.5452619775
 40
0.5487499232
 40
0.5522667262
 40
0.5558073727
 40
0.5629460929
 40
0.5701453879
 40
0.5773919583
 40
0.5846767405
 40
0.5919932245
 40
0.5993365528
 40
0.6067029892
 40
0.6214939407
 40
0.6363486592
 40
0.6512551247
 40
0.6662046879
 40
0.6811908664
 40
0.6962086542
 40
0.7263239642
 40
0.756527089
 40
0.7868017702
 40
0.8171362429
 40
0.8475216465
 40
0.8779512411
 40
0.9084191824
 40
0.9389226445
 40
1.0
 40
1.0
 40
1.0
 40
1.0
 10
9.0442307637
 20
43.9528537849
 30
0.0
 10
9.4158920863
 20
44.1598091038
 30
0.0
 10
10.1603972806
 20
44.5731760589
 30
0.0
 10
11.2804269586
 20
45.1900926935
 30
0.0
 10
12.4056057737
 20
45.8038415454
 30
0.0
 10
13.5375776539
 20
46.413415851
 30
0.0
 10
14.4873876972
 20
46.9159319607
 30
0.0
 10
15.2535906558
 20
47.3130940505
 30
0.0
 10
15.7363801829
 20
47.5588426761
 30
0.0
 10
16.1255049708
 20
47.7531762017
 30
0.0
 10
16.4196447259
 20
47.8977771248
 30
0.0
 10
16.6664332922
 20
48.0167175413
 30
0.0
 10
16.8652987072
 20
48.1106945266
 30
0.0
 10
17.0155349088
 20
48.1805950644
 30
0.0
 10
17.1668295162
 20
48.2496886185
 30
0.0
 10
17.3194065828
 20
48.3177890569
 30
0.0
 10
17.4735828719
 20
48.3846284182
 30
0.0
 10
17.6034897407
 20
48.438814189
 30
0.0
 10
17.7086867828
 20
48.4809282748
 30
0.0
 10
17.7885956323
 20
48.5118378256
 30
0.0
 10
17.869524538
 20
48.5417993453
 30
0.0
 10
17.9517519536
 20
48.5704933807
 30
0.0
 10
18.0214432548
 20
48.5928433586
 30
0.0
 10
18.0782613494
 20
48.6093094502
 30
0.0
 10
18.1217524651
 20
48.6207448595
 30
0.0
 10
18.1660955769
 20
48.6309746969
 30
0.0
 10
18.2115253869
 20
48.6390238379
 30
0.0
 10
18.257674506
 20
48.64428322
 30
0.0
 10
18.296322729
 20
48.6430992719
 30
0.0
 10
18.3243148826
 20
48.6354290327
 30
0.0
 10
18.3404930869
 20
48.6254905752
 30
0.0
 10
18.34962348
 20
48.61175617
 30
0.0
 10
18.3529431687
 20
48.5973345486
 30
0.0
 10
18.3520451805
 20
48.5831038203
 30
0.0
 10
18.3478009244
 20
48.5643213474
 30
0.0
 10
18.3384240312
 20
48.5412740505
 30
0.0
 10
18.3235308702
 20
48.514649333
 30
0.0
 10
18.3001949612
 20
48.4793571423
 30
0.0
 10
18.266797676
 20
48.4364802426
 30
0.0
 10
18.2230880993
 20
48.3864630992
 30
0.0
 10
18.1766038301
 20
48.3371967895
 30
0.0
 10
18.12813503
 20
48.2885328443
 30
0.0
 10
18.0781458531
 20
48.2403686507
 30
0.0
 10
18.0269525796
 20
48.1926225479
 30
0.0
 10
17.9571925986
 20
48.1292654582
 30
0.0
 10
17.8680326327
 20
48.0509255632
 30
0.0
 10
17.758900924
 20
47.9580794942
 30
0.0
 10
17.6478844825
 20
47.8659712003
 30
0.0
 10
17.5353585963
 20
47.7744768146
 30
0.0
 10
17.4215883704
 20
47.6835032613
 30
0.0
 10
17.3067704849
 20
47.5929780859
 30
0.0
 10
17.1522785042
 20
47.4726422287
 30
0.0
 10
16.9572994665
 20
47.3231515412
 30
0.0
 10
16.7211815639
 20
47.1450755864
 30
0.0
 10
16.4830801254
 20
46.9678922191
 30
0.0
 10
16.2433343149
 20
46.7914648893
 30
0.0
 10
16.002196482
 20
46.615688018
 30
0.0
 10
15.6787937015
 20
46.3818691431
 30
0.0
 10
15.2720473897
 20
46.0909303104
 30
0.0
 10
14.7810762325
 20
45.7436780622
 30
0.0
 10
14.2874130629
 20
45.3977232606
 30
0.0
 10
13.791507052
 20
45.0528683549
 30
0.0
 10
13.293698596
 20
44.7089534709
 30
0.0
 10
12.7942336227
 20
44.3658819966
 30
0.0
 10
12.2933540269
 20
44.0234886492
 30
0.0
 10
11.6234803571
 20
43.5678178804
 30
0.0
 10
11.1200548373
 20
43.2270447608
 30
0.0
 10
10.7841525359
 20
43.0000070775
 30
0.0
  0
SPLINE
  5
536
100
AcDbEntity
  8
0
100
AcDbSpline
 62
7
  6
BYLAYER
 70
0
 71
3
 72
13
 73
9
 74
0
 42
0.0000001
 43
0.0000001
 44
0.0000000001
 40
0.0
 40
0.0
 40
0.0
 40
0.0
 40
0.1276448011
 40
0.2640973245
 40
0.3993501848
 40
0.5305879578
 40
0.7777286476
 40
1.0
 40
1.0
 40
1.0
 40
1.0
 10
7.7101112746
 20
44.7130516566
 30
0.0
 10
7.6837406349
 20
44.6986257203
 30
0.0
 10
7.6268983244
 20
44.673025388
 30
0.0
 10
7.5388789091
 20
44.6399397408
 30
0.0
 10
7.4493312879
 20
44.6085347664
 30
0.0
 10
7.3353957821
 20
44.567941325
 30
0.0
 10
7.2035577401
 20
44.5165386822
 30
0.0
 10
7.1040329851
 20
44.4678313061
 30
0.0
 10
7.0587038595
 20
44.4416600119
 30
0.0
  0
SPLINE
  5
537
100
AcDbEntity
  8
0
100
AcDbSpline
 62
7
  6
BYLAYER
 70
0
 71
3
 72
9
 73
5
 74
0
 42
0.0000001
 43
0.0000001
 44
0.0000000001
 40
0.0
 40
0.0
 40
0.0
 40
0.0
 40
0.2600332569
 40
1.0
 40
1.0
 40
1.0
 40
1.0
 10
37.4017033968
 20
38.1578262725
 30
0.0
 10
37.3829662075
 20
38.0406441963
 30
0.0
 10
37.3002923221
 20
37.5918447201
 30
0.0
 10
37.1736018166
 20
37.1505281078
 30
0.0
 10
37.0511289152
 20
36.8358229532
 30
0.0
  0
SPLINE
  5
538
100
AcDbEntity
  8
0
100
AcDbSpline
 62
7
  6
BYLAYER
 70
0
 71
3
 72
16
 73
12
 74
0
 42
0.0000001
 43
0.0000001
 44
0.0000000001
 40
0.0
 40
0.0
 40
0.0
 40
0.0
 40
0.0655894058
 40
0.1298846619
 40
0.1934780094
 40
0.256610617
 40
0.3819558814
 40
0.5064710675
 40
0.6304124962
 40
0.753925122
 40
1.0
 40
1.0
 40
1.0
 40
1.0
 10
12.3300331612
 20
47.0260841361
 30
0.0
 10
12.2232793466
 20
46.9889563186
 30
0.0
 10
12.0151547481
 20
46.9061525734
 30
0.0
 10
11.7096735018
 20
46.7725927092
 30
0.0
 10
11.4108508022
 20
46.634472381
 30
0.0
 10
11.0190229693
 20
46.4469642688
 30
0.0
 10
10.5359277032
 20
46.2070535205
 30
0.0
 10
9.9624466068
 20
45.9137008359
 30
0.0
 10
9.3942718667
 20
45.6169620764
 30
0.0
 10
8.6429468665
 20
45.2184536955
 30
0.0
 10
8.0825513636
 20
44.9158099298
 30
0.0
 10
7.7101283693
 20
44.7130417872
 30
0.0
  0
SPLINE
  5
539
100
AcDbEntity
  8
0
100
AcDbSpline
 62
7
  6
BYLAYER
 70
0
 71
3
 72
17
 73
13
 74
0
 42
0.0000001
 43
0.0000001
 44
0.0000000001
 40
0.0
 40
0.0
 40
0.0
 40
0.0
 40
0.1391860104
 40
0.2757549107
 40
0.4087236985
 40
0.5373137639
 40
0.6607351599
 40
0.7782106003
 40
0.8346876911
 40
0.8898663325
 40
0.944483596
 40
1.0
 40
1.0
 40
1.0
 40
1.0
 10
12.0749021284
 20
41.5098612782
 30
0.0
 10
12.063254861
 20
41.5417964994
 30
0.0
 10
12.0418818699
 20
41.6056976062
 30
0.0
 10
12.0147954733
 20
41.7018124801
 30
0.0
 10
11.9932397049
 20
41.7966728936
 30
0.0
 10
11.9779665628
 20
41.8895313609
 30
0.0
 10
11.9705379774
 20
41.9795571123
 30
0.0
 10
11.9734224177
 20
42.0525269383
 30
0.0
 10
11.9848593333
 20
42.1074592359
 30
0.0
 10
11.9991913718
 20
42.1456887341
 30
0.0
 10
12.0211107228
 20
42.1800327769
 30
0.0
 10
12.0413563495
 20
42.1983607753
 30
0.0
 10
12.0525629677
 20
42.2059927199
 30
0.0
  0
SPLINE
  5
53A
100
AcDbEntity
  8
0
100
AcDbSpline
 62
7
  6
BYLAYER
 70
0
 71
3
 72
14
 73
10
 74
0
 42
0.0000001
 43
0.0000001
 44
0.0000000001
 40
0.0
 40
0.0
 40
0.0
 40
0.0
 40
0.1217480408
 40
0.1833413085
 40
0.2452297772
 40
0.3697119675
 40
0.4949068376
 40
0.7467691646
 40
1.0
 40
1.0
 40
1.0
 40
1.0
 10
15.3280265488
 20
44.6060477474
 30
0.0
 10
15.2021718776
 20
44.4995935411
 30
0.0
 10
15.0088064092
 20
44.3438206195
 30
0.0
 10
14.7463719007
 20
44.1404344473
 30
0.0
 10
14.4792292167
 20
43.937083867
 30
0.0
 10
14.1406830143
 20
43.6853994908
 30
0.0
 10
13.591610208
 20
43.2858485832
 30
0.0
 10
12.8958885338
 20
42.7916295459
 30
0.0
 10
12.3346265957
 20
42.4009082037
 30
0.0
 10
12.0525634664
 20
42.2059924319
 30
0.0
  0
SPLINE
  5
53B
100
AcDbEntity
  8
0
100
AcDbSpline
 62
7
  6
BYLAYER
 70
0
 71
3
 72
18
 73
14
 74
0
 42
0.0000001
 43
0.0000001
 44
0.0000000001
 40
0.0
 40
0.0
 40
0.0
 40
0.0
 40
0.0524531185
 40
0.1075150232
 40
0.1650541169
 40
0.2248705899
 40
0.2867130036
 40
0.3502821135
 40
0.4811918038
 40
0.6147138428
 40
0.7477105656
 40
0.8770850819
 40
1.0
 40
1.0
 40
1.0
 40
1.0
 10
28.6549191423
 20
52.9148970049
 30
0.0
 10
28.9008018326
 20
52.8089147766
 30
0.0
 10
29.3946248058
 20
52.5674931282
 30
0.0
 10
30.118564692
 20
52.1348479218
 30
0.0
 10
30.8379301311
 20
51.6263762988
 30
0.0
 10
31.5464371834
 20
51.0467091193
 30
0.0
 10
32.2378547606
 20
50.4008158528
 30
0.0
 10
33.1375479905
 20
49.4498852597
 30
0.0
 10
34.1784764694
 20
48.1334304772
 30
0.0
 10
35.2573249589
 20
46.4108948487
 30
0.0
 10
36.1411858063
 20
44.5889672853
 30
0.0
 10
36.7992205278
 20
42.7313515366
 30
0.0
 10
37.0814725076
 20
41.4704706192
 30
0.0
 10
37.1750051243
 20
40.8500529724
 30
0.0
  0
SPLINE
  5
53C
100
AcDbEntity
  8
0
100
AcDbSpline
 62
7
  6
BYLAYER
 70
0
 71
3
 72
9
 73
5
 74
0
 42
0.0000001
 43
0.0000001
 44
0.0000000001
 40
0.0
 40
0.0
 40
0.0
 40
0.0
 40
0.5107143127
 40
1.0
 40
1.0
 40
1.0
 40
1.0
 10
37.1750051243
 20
40.8500529724
 30
0.0
 10
37.2193726567
 20
40.5557556348
 30
0.0
 10
37.2867805611
 20
39.9763658231
 30
0.0
 10
37.3110984522
 20
39.3934373389
 30
0.0
 10
37.3110984522
 20
39.1083021274
 30
0.0
  0
SPLINE
  5
53D
100
AcDbEntity
  8
0
100
AcDbSpline
 62
7
  6
BYLAYER
 70
0
 71
3
 72
30
 73
26
 74
0
 42
0.0000001
 43
0.0000001
 44
0.0000000001
 40
0.0
 40
0.0
 40
0.0
 40
0.0
 40
0.0213279179
 40
0.0428841239
 40
0.064885232
 40
0.0875254607
 40
0.1109704458
 40
0.135352419
 40
0.1607706149
 40
0.1872907786
 40
0.2149493603
 40
0.2437542636
 40
0.273690257
 40
0.3047193583
 40
0.3697939515
 40
0.4383773798
 40
0.5096494452
 40
0.5826589038
 40
0.6563754033
 40
0.7297374426
 40
0.8016991996
 40
0.8712771978
 40
0.9376022454
 40
0.9693388539
 40
1.0
 40
1.0
 40
1.0
 40
1.0
 10
26.9634079878
 20
25.5589599277
 30
0.0
 10
27.1384774568
 20
25.6600462593
 30
0.0
 10
27.4778648335
 20
25.8861038077
 30
0.0
 10
27.9436599328
 20
26.2900333738
 30
0.0
 10
28.3648626622
 20
26.7571562051
 30
0.0
 10
28.7391186537
 20
27.284593818
 30
0.0
 10
29.064522975
 20
27.869307071
 30
0.0
 10
29.3395053989
 20
28.5079760821
 30
0.0
 10
29.5626994655
 20
29.1971029452
 30
0.0
 10
29.7330941635
 20
29.932942029
 30
0.0
 10
29.8498205025
 20
30.7115527669
 30
0.0
 10
29.9123923137
 20
31.5287586793
 30
0.0
 10
29.9204664955
 20
32.3802127723
 30
0.0
 10
29.85760441
 20
33.5738705073
 30
0.0
 10
29.638296775
 20
35.122871502
 30
0.0
 10
29.1702152556
 20
37.0110954737
 30
0.0
 10
28.5030145077
 20
38.9181936208
 30
0.0
 10
27.6509656988
 20
40.8034451983
 30
0.0
 10
26.6322122361
 20
42.6267491645
 30
0.0
 10
25.4685044662
 20
44.3491810357
 30
0.0
 10
24.1846050134
 20
45.9340637689
 30
0.0
 10
22.8079495043
 20
47.3475061454
 30
0.0
 10
21.5897049776
 20
48.3727674108
 30
0.0
 10
20.5928568977
 20
49.0772557294
 30
0.0
 10
20.090133538
 20
49.3896817922
 30
0.0
 10
19.8384449884
 20
49.5349909567
 30
0.0
  0
SPLINE
  5
53E
100
AcDbEntity
  8
0
100
AcDbSpline
 62
7
  6
BYLAYER
 70
0
 71
3
 72
9
 73
5
 74
0
 42
0.0000001
 43
0.0000001
 44
0.0000000001
 40
0.0
 40
0.0
 40
0.0
 40
0.0
 40
0.258838593
 40
1.0
 40
1.0
 40
1.0
 40
1.0
 10
19.835670188
 20
49.5226292337
 30
0.0
 10
19.6916135247
 20
49.6057985055
 30
0.0
 10
19.1291912452
 20
49.9167136148
 30
0.0
 10
18.5425379219
 20
50.1847533003
 30
0.0
 10
18.0965328941
 20
50.3519203061
 30
0.0
  0
SPLINE
  5
53F
100
AcDbEntity
  8
0
100
AcDbSpline
 62
7
  6
BYLAYER
 70
0
 71
3
 72
11
 73
7
 74
0
 42
0.0000001
 43
0.0000001
 44
0.0000000001
 40
0.0
 40
0.0
 40
0.0
 40
0.0
 40
0.2552472031
 40
0.5038990187
 40
0.7505420494
 40
1.0
 40
1.0
 40
1.0
 40
1.0
 10
17.8728135237
 20
50.4327562559
 30
0.0
 10
17.8216466454
 20
50.443894958
 30
0.0
 10
17.7184445962
 20
50.4570604841
 30
0.0
 10
17.5638454299
 20
50.4481994179
 30
0.0
 10
17.4148426532
 20
50.4105112843
 30
0.0
 10
17.3220097134
 20
50.3671955604
 30
0.0
 10
17.2776819173
 20
50.3416184343
 30
0.0
  0
LINE
  5
540
100
AcDbEntity
  8
0
100
AcDbLine
 62
7
  6
BYLAYER
 10
21.8774411943
 20
26.2335846176
 11
21.8681700161
 21
26.457875576
  0
SPLINE
  5
541
100
AcDbEntity
  8
0
100
AcDbSpline
 62
7
  6
BYLAYER
 70
0
 71
3
 72
11
 73
7
 74
0
 42
0.0000001
 43
0.0000001
 44
0.0000000001
 40
0.0
 40
0.0
 40
0.0
 40
0.0
 40
0.251148931
 40
0.5015437993
 40
0.7509436473
 40
1.0
 40
1.0
 40
1.0
 40
1.0
 10
22.1920582668
 20
25.3152232026
 30
0.0
 10
22.1658425308
 20
25.3921565469
 30
0.0
 10
22.114203309
 20
25.5460341102
 30
0.0
 10
22.0360787396
 20
25.7761573247
 30
0.0
 10
21.9570353018
 20
26.005248793
 30
0.0
 10
21.9045356179
 20
26.1577800788
 30
0.0
 10
21.8788422594
 20
26.2341753108
 30
0.0
  0
SPLINE
  5
542
100
AcDbEntity
  8
0
100
AcDbSpline
 62
7
  6
BYLAYER
 70
0
 71
3
 72
11
 73
7
 74
0
 42
0.0000001
 43
0.0000001
 44
0.0000000001
 40
0.0
 40
0.0
 40
0.0
 40
0.0
 40
0.25121695
 40
0.5019020502
 40
0.7514121196
 40
1.0
 40
1.0
 40
1.0
 40
1.0
 10
21.8788422594
 20
26.2341753108
 30
0.0
 10
21.9033995983
 20
26.1568141031
 30
0.0
 10
21.9522784756
 20
26.002196641
 30
0.0
 10
22.0279558648
 20
25.7715114036
 30
0.0
 10
22.1071620376
 20
25.5429087081
 30
0.0
 10
22.1621669472
 20
25.3916677777
 30
0.0
 10
22.1897095123
 20
25.3162220324
 30
0.0
  0
SPLINE
  5
543
100
AcDbEntity
  8
0
100
AcDbSpline
 62
7
  6
BYLAYER
 70
0
 71
3
 72
25
 73
21
 74
0
 42
0.0000001
 43
0.0000001
 44
0.0000000001
 40
0.0
 40
0.0
 40
0.0
 40
0.0
 40
0.0704729797
 40
0.142948023
 40
0.2166607145
 40
0.290854298
 40
0.3647299825
 40
0.4375089208
 40
0.5084451511
 40
0.5768566659
 40
0.6421549595
 40
0.7038773094
 40
0.76172619
 40
0.8156153778
 40
0.8657206757
 40
0.9125296572
 40
0.934971433
 40
0.9569276552
 40
0.9785489958
 40
1.0
 40
1.0
 40
1.0
 40
1.0
 10
22.3977372248
 20
45.7231118895
 30
0.0
 10
22.7563269743
 20
45.3746228851
 30
0.0
 10
23.4538235721
 20
44.6364363507
 30
0.0
 10
24.4200001163
 20
43.4389125214
 30
0.0
 10
25.308907534
 20
42.1507065243
 30
0.0
 10
26.1064231139
 20
40.7925389169
 30
0.0
 10
26.799894631
 20
39.3857660242
 30
0.0
 10
27.3783253381
 20
37.952743719
 30
0.0
 10
27.8325654792
 20
36.5161409505
 30
0.0
 10
28.1554199898
 20
35.0986356228
 30
0.0
 10
28.3417486873
 20
33.7224998024
 30
0.0
 10
28.3884557787
 20
32.4092058718
 30
0.0
 10
28.2944741987
 20
31.179119065
 30
0.0
 10
28.060507567
 20
30.0511142534
 30
0.0
 10
27.6891650204
 20
29.0429663961
 30
0.0
 10
27.2619110608
 20
28.305584156
 30
0.0
 10
26.8574741044
 20
27.799143333
 30
0.0
 10
26.5286668723
 20
27.4642600731
 30
0.0
 10
26.1715001341
 20
27.1708165647
 30
0.0
 10
25.9150307845
 20
27.0032854723
 30
0.0
 10
25.7832229969
 20
26.9271780434
 30
0.0
  0
SPLINE
  5
544
100
AcDbEntity
  8
0
100
AcDbSpline
 62
7
  6
BYLAYER
 70
0
 71
3
 72
34
 73
30
 74
0
 42
0.0000001
 43
0.0000001
 44
0.0000000001
 40
0.0
 40
0.0
 40
0.0
 40
0.0
 40
0.027097349
 40
0.0530137068
 40
0.0778459155
 40
0.1017664684
 40
0.1249945584
 40
0.1477815883
 40
0.170403378
 40
0.1931482525
 40
0.2162972499
 40
0.2401057322
 40
0.2647939099
 40
0.2905366908
 40
0.3174653528
 40
0.3456639811
 40
0.3751780392
 40
0.4060131733
 40
0.4381452669
 40
0.4715192149
 40
0.5060582514
 40
0.5416624176
 40
0.57821656
 40
0.6155890547
 40
0.6921882981
 40
0.7702430255
 40
0.84843657
 40
0.9254435014
 40
1.0
 40
1.0
 40
1.0
 40
1.0
 10
21.8802340045
 20
26.2347577223
 30
0.0
 10
22.1091117864
 20
26.1728199679
 30
0.0
 10
22.5627129446
 20
26.0717581008
 30
0.0
 10
23.240311104
 20
25.9910037837
 30
0.0
 10
23.8951226846
 20
25.9857239442
 30
0.0
 10
24.5226660437
 20
26.0560517935
 30
0.0
 10
25.118802103
 20
26.2019569722
 30
0.0
 10
25.6794790212
 20
26.4224654091
 30
0.0
 10
26.2005685668
 20
26.7164462335
 30
0.0
 10
26.6784703613
 20
27.0815870185
 30
0.0
 10
27.1097570201
 20
27.515387795
 30
0.0
 10
27.4918169236
 20
28.0145093075
 30
0.0
 10
27.8221300301
 20
28.5755858093
 30
0.0
 10
28.0990088963
 20
29.1947024872
 30
0.0
 10
28.3207013848
 20
29.8679013895
 30
0.0
 10
28.4862032041
 20
30.5908120495
 30
0.0
 10
28.5944012179
 20
31.3589011796
 30
0.0
 10
28.6449145081
 20
32.1673094536
 30
0.0
 10
28.6372965206
 20
33.01094983
 30
0.0
 10
28.5718239511
 20
33.8845127148
 30
0.0
 10
28.4487597961
 20
34.7824585464
 30
0.0
 10
28.2690697036
 20
35.6991279942
 30
0.0
 10
28.0337435736
 20
36.6286965898
 30
0.0
 10
27.6448168603
 20
37.8876194427
 30
0.0
 10
27.0289288194
 20
39.4540575308
 30
0.0
 10
26.1081912111
 20
41.2747614178
 30
0.0
 10
25.0225246908
 20
43.0066224848
 30
0.0
 10
23.7994759239
 20
44.6057986188
 30
0.0
 10
22.8932428971
 20
45.5778473602
 30
0.0
 10
22.4232051803
 20
46.0302642695
 30
0.0
  0
SPLINE
  5
545
100
AcDbEntity
  8
0
100
AcDbSpline
 62
7
  6
BYLAYER
 70
0
 71
3
 72
18
 73
14
 74
0
 42
0.0000001
 43
0.0000001
 44
0.0000000001
 40
0.0
 40
0.0
 40
0.0
 40
0.0
 40
0.1201732289
 40
0.1818685282
 40
0.2443669564
 40
0.3713249782
 40
0.5000028343
 40
0.6288323142
 40
0.6928065251
 40
0.7561764461
 40
0.8187607939
 40
0.8804215657
 40
1.0
 40
1.0
 40
1.0
 40
1.0
 10
22.4218320133
 20
46.0298317749
 30
0.0
 10
22.4431630523
 20
46.122410061
 30
0.0
 10
22.4659576931
 20
46.2649449055
 30
0.0
 10
22.4770909884
 20
46.4579199653
 30
0.0
 10
22.4747547756
 20
46.656600907
 30
0.0
 10
22.4470093142
 20
46.9072984676
 30
0.0
 10
22.3767609732
 20
47.20376745
 30
0.0
 10
22.2873491917
 20
47.4424593248
 30
0.0
 10
22.1988350581
 20
47.6247319224
 30
0.0
 10
22.1247329802
 20
47.7554459594
 30
0.0
 10
22.0429650803
 20
47.8793532452
 30
0.0
 10
21.9251709717
 20
48.0320877774
 30
0.0
 10
21.8253608131
 20
48.1357841789
 30
0.0
 10
21.7551233451
 20
48.1990560208
 30
0.0
  0
SPLINE
  5
546
100
AcDbEntity
  8
0
100
AcDbSpline
 62
7
  6
BYLAYER
 70
0
 71
3
 72
17
 73
13
 74
0
 42
0.0000001
 43
0.0000001
 44
0.0000000001
 40
0.0
 40
0.0
 40
0.0
 40
0.0
 40
0.119388961
 40
0.1810242497
 40
0.2436671107
 40
0.307107779
 40
0.3711494046
 40
0.5001712082
 40
0.6290884486
 40
0.7562970768
 40
0.8803658931
 40
1.0
 40
1.0
 40
1.0
 40
1.0
 10
21.7551233451
 20
48.1990560208
 30
0.0
 10
21.8250245187
 20
48.1359641748
 30
0.0
 10
21.9226421865
 20
48.0307340661
 30
0.0
 10
22.0382509684
 20
47.8771421733
 30
0.0
 10
22.1195115437
 20
47.7532369484
 30
0.0
 10
22.193474061
 20
47.6226686553
 30
0.0
 10
22.2814204929
 20
47.4403384112
 30
0.0
 10
22.3695929369
 20
47.2014325426
 30
0.0
 10
22.4398108773
 20
46.9051328153
 30
0.0
 10
22.4723712333
 20
46.6062558544
 30
0.0
 10
22.4687696286
 20
46.3130865037
 30
0.0
 10
22.4420952721
 20
46.1219871096
 30
0.0
 10
22.4218320133
 20
46.0298317749
 30
0.0
  0
LINE
  5
547
100
AcDbEntity
  8
0
100
AcDbLine
 62
7
  6
BYLAYER
 10
22.395033964
 20
45.7222149462
 11
22.4131706787
 21
45.8998175857
  0
SPLINE
  5
548
100
AcDbEntity
  8
0
100
AcDbSpline
 62
7
  6
BYLAYER
 70
0
 71
3
 72
9
 73
5
 74
0
 42
0.0000001
 43
0.0000001
 44
0.0000000001
 40
0.0
 40
0.0
 40
0.0
 40
0.0
 40
0.2454945786
 40
1.0
 40
1.0
 40
1.0
 40
1.0
 10
22.4131706787
 20
45.8998175857
 30
0.0
 10
22.4142237687
 20
45.9103885546
 30
0.0
 10
22.4180344336
 20
45.9534953283
 30
0.0
 10
22.4199622562
 20
45.9967643683
 30
0.0
 10
22.4204515792
 20
46.0294104371
 30
0.0
  0
SPLINE
  5
549
100
AcDbEntity
  8
0
100
AcDbSpline
 62
7
  6
BYLAYER
 70
0
 71
3
 72
11
 73
7
 74
0
 42
0.0000001
 43
0.0000001
 44
0.0000000001
 40
0.0
 40
0.0
 40
0.0
 40
0.0
 40
0.2324215863
 40
0.4873792247
 40
0.7489987413
 40
1.0
 40
1.0
 40
1.0
 40
1.0
 10
9.0004388336
 20
43.9680975461
 30
0.0
 10
8.9602851384
 20
43.943616533
 30
0.0
 10
8.8831606206
 20
43.8804577808
 30
0.0
 10
8.7870395466
 20
43.7622529634
 30
0.0
 10
8.711785997
 20
43.6254867846
 30
0.0
 10
8.6789022482
 20
43.5262562791
 30
0.0
 10
8.6683867812
 20
43.4765693381
 30
0.0
  0
SPLINE
  5
54A
100
AcDbEntity
  8
0
100
AcDbSpline
 62
7
  6
BYLAYER
 70
0
 71
3
 72
11
 73
7
 74
0
 42
0.0000001
 43
0.0000001
 44
0.0000000001
 40
0.0
 40
0.0
 40
0.0
 40
0.0
 40
0.2605404771
 40
0.5144018107
 40
0.7610375765
 40
1.0
 40
1.0
 40
1.0
 40
1.0
 10
8.6654688844
 20
43.4628140091
 30
0.0
 10
8.4523794719
 20
42.4577611571
 30
0.0
 10
8.0774308867
 20
40.463345749
 30
0.0
 10
7.6680274594
 20
37.4891374874
 30
0.0
 10
7.4205465339
 20
34.5824158199
 30
0.0
 10
7.3632554728
 20
32.6671734845
 30
0.0
 10
7.3632554728
 20
31.7248686594
 30
0.0
  0
LINE
  5
54B
100
AcDbEntity
  8
0
100
AcDbLine
 62
7
  6
BYLAYER
 10
7.3632554728
 20
31.7248686594
 11
7.3632773508
 21
31.67943096
  0
SPLINE
  5
54C
100
AcDbEntity
  8
0
100
AcDbSpline
 62
7
  6
BYLAYER
 70
0
 71
3
 72
9
 73
5
 74
0
 42
0.0000001
 43
0.0000001
 44
0.0000000001
 40
0.0
 40
0.0
 40
0.0
 40
0.0
 40
0.2453239736
 40
1.0
 40
1.0
 40
1.0
 40
1.0
 10
9.9974832599
 20
20.7931837753
 30
0.0
 10
9.9184610464
 20
20.8342407628
 30
0.0
 10
9.5982730373
 20
21.0052895555
 30
0.0
 10
9.2858020877
 20
21.1907035778
 30
0.0
 10
9.0545548082
 20
21.337571455
 30
0.0
  0
SPLINE
  5
54D
100
AcDbEntity
  8
0
100
AcDbSpline
 62
7
  6
BYLAYER
 70
0
 71
3
 72
30
 73
26
 74
0
 42
0.0000001
 43
0.0000001
 44
0.0000000001
 40
0.0
 40
0.0
 40
0.0
 40
0.0
 40
0.0159650037
 40
0.0322471436
 40
0.0488824779
 40
0.06588916
 40
0.1003029537
 40
0.1172182996
 40
0.133774453
 40
0.1663486908
 40
0.182639546
 40
0.1990152208
 40
0.2318373076
 40
0.2644505321
 40
0.2967938234
 40
0.3289817312
 40
0.3610652902
 40
0.3930202914
 40
0.4564723094
 40
0.5193248397
 40
0.5815751535
 40
0.6432047271
 40
0.7646003921
 40
0.8835236706
 40
1.0
 40
1.0
 40
1.0
 40
1.0
 10
7.7633825942
 20
30.5889101796
 30
0.0
 10
7.7599603813
 20
30.5392027759
 30
0.0
 10
7.754833384
 20
30.4386658852
 30
0.0
 10
7.7530610315
 20
30.2860799431
 30
0.0
 10
7.7578707821
 20
30.1302884234
 30
0.0
 10
7.7744177207
 20
29.9184821637
 30
0.0
 10
7.7994694521
 20
29.7066651724
 30
0.0
 10
7.8181335592
 20
29.4955966519
 30
0.0
 10
7.8296584011
 20
29.2897723302
 30
0.0
 10
7.8361321945
 20
29.0856937177
 30
0.0
 10
7.8466013876
 20
28.8823439575
 30
0.0
 10
7.8605318405
 20
28.6784288483
 30
0.0
 10
7.8819564204
 20
28.4239997172
 30
0.0
 10
7.9076778023
 20
28.119931255
 30
0.0
 10
7.9330820003
 20
27.8178189532
 30
0.0
 10
7.9605375515
 20
27.5175432001
 30
0.0
 10
7.990694725
 20
27.2187446398
 30
0.0
 10
8.0336505098
 20
26.8231834872
 30
0.0
 10
8.0917332996
 20
26.3326828926
 30
0.0
 10
8.1692062626
 20
25.7493255056
 30
0.0
 10
8.2542094852
 20
25.1727651982
 30
0.0
 10
8.3765267559
 20
24.4171021112
 30
0.0
 10
8.5473337632
 20
23.4902055542
 30
0.0
 10
8.7824748296
 20
22.4016268661
 30
0.0
 10
8.9604587499
 20
21.6886918719
 30
0.0
 10
9.0545546127
 20
21.3375713637
 30
0.0
  0
SPLINE
  5
54E
100
AcDbEntity
  8
0
100
AcDbSpline
 62
7
  6
BYLAYER
 70
0
 71
3
 72
29
 73
25
 74
0
 42
0.0000001
 43
0.0000001
 44
0.0000000001
 40
0.0
 40
0.0
 40
0.0
 40
0.0
 40
0.1185486427
 40
0.2388598573
 40
0.3609901488
 40
0.4227428254
 40
0.4849494417
 40
0.5476237026
 40
0.6107717608
 40
0.6425210834
 40
0.6743955226
 40
0.7064049023
 40
0.7385336754
 40
0.7707394896
 40
0.8030616473
 40
0.8357296693
 40
0.8687303341
 40
0.885115947
 40
0.901284556
 40
0.9332768616
 40
0.9494670379
 40
0.965996934
 40
0.9828580172
 40
1.0
 40
1.0
 40
1.0
 40
1.0
 10
9.997483584
 20
20.793183388
 30
0.0
 10
9.8956130679
 20
21.147946234
 30
0.0
 10
9.7040034411
 20
21.8667453177
 30
0.0
 10
9.4556088554
 20
22.9631338326
 30
0.0
 10
9.2798373207
 20
23.8940098116
 30
0.0
 10
9.1577013016
 20
24.6504411455
 30
0.0
 10
9.07526988
 20
25.2256770905
 30
0.0
 10
9.0021853028
 20
25.8065490532
 30
0.0
 10
8.9491072829
 20
26.2942917512
 30
0.0
 10
8.9114056223
 20
26.6871928102
 30
0.0
 10
8.8853502409
 20
26.9838059231
 30
0.0
 10
8.8613747996
 20
27.2817790959
 30
0.0
 10
8.8396415862
 20
27.5809600612
 30
0.0
 10
8.8209443078
 20
27.8813246694
 30
0.0
 10
8.8053225203
 20
28.1835410775
 30
0.0
 10
8.7884870898
 20
28.4881690522
 30
0.0
 10
8.7717928975
 20
28.7431105294
 30
0.0
 10
8.7635445498
 20
28.9470674387
 30
0.0
 10
8.7614374324
 20
29.1480598523
 30
0.0
 10
8.7677669861
 20
29.3483473293
 30
0.0
 10
8.7701287775
 20
29.5498285595
 30
0.0
 10
8.767256588
 20
29.7041961628
 30
0.0
 10
8.7603858068
 20
29.861391613
 30
0.0
 10
8.7535441836
 20
29.9670459714
 30
0.0
 10
8.7496428361
 20
30.0202744755
 30
0.0
  0
SPLINE
  5
54F
100
AcDbEntity
  8
0
100
AcDbSpline
 62
7
  6
BYLAYER
 70
0
 71
3
 72
11
 73
7
 74
0
 42
0.0000001
 43
0.0000001
 44
0.0000000001
 40
0.0
 40
0.0
 40
0.0
 40
0.0
 40
0.2275990241
 40
0.4748994613
 40
0.7350395666
 40
1.0
 40
1.0
 40
1.0
 40
1.0
 10
7.3633046983
 20
31.6567216013
 30
0.0
 10
7.3634231087
 20
31.5762009643
 30
0.0
 10
7.3811640769
 20
31.4080315442
 30
0.0
 10
7.4498788736
 20
31.1563164553
 30
0.0
 10
7.5583417999
 20
30.9046173454
 30
0.0
 10
7.65370866
 20
30.7444893887
 30
0.0
 10
7.7067535945
 20
30.6672032093
 30
0.0
  0
SPLINE
  5
550
100
AcDbEntity
  8
0
100
AcDbSpline
 62
7
  6
BYLAYER
 70
0
 71
3
 72
14
 73
10
 74
0
 42
0.0000001
 43
0.0000001
 44
0.0000000001
 40
0.0
 40
0.0
 40
0.0
 40
0.0
 40
0.2962189852
 40
0.4353559889
 40
0.5663729135
 40
0.688301799
 40
0.8007392631
 40
0.9042016946
 40
1.0
 40
1.0
 40
1.0
 40
1.0
 10
7.7633785245
 20
30.5885684901
 30
0.0
 10
7.8325647125
 20
30.4951306032
 30
0.0
 10
7.9459801049
 20
30.3656356747
 30
0.0
 10
8.1156652078
 20
30.2215559925
 30
0.0
 10
8.2433671305
 20
30.1350462713
 30
0.0
 10
8.3714436008
 20
30.0696121059
 30
0.0
 10
8.4975003492
 20
30.0267233176
 30
0.0
 10
8.6189790832
 20
30.0074831462
 30
0.0
 10
8.6978460613
 20
30.0110552244
 30
0.0
 10
8.7349363221
 20
30.017227182
 30
0.0
  0
SPLINE
  5
551
100
AcDbEntity
  8
0
100
AcDbSpline
 62
7
  6
BYLAYER
 70
0
 71
3
 72
9
 73
5
 74
0
 42
0.0000001
 43
0.0000001
 44
0.0000000001
 40
0.0
 40
0.0
 40
0.0
 40
0.0
 40
0.2523602835
 40
1.0
 40
1.0
 40
1.0
 40
1.0
 10
8.7866002732
 20
30.0287727884
 30
0.0
 10
8.7947008436
 20
30.0310939725
 30
0.0
 10
8.826521186
 20
30.0412352925
 30
0.0
 10
8.8571182536
 20
30.0552401986
 30
0.0
 10
8.8787430686
 20
30.0677138569
 30
0.0
  0
SPLINE
  5
552
100
AcDbEntity
  8
0
100
AcDbSpline
 62
7
  6
BYLAYER
 70
0
 71
3
 72
11
 73
7
 74
0
 42
0.0000001
 43
0.0000001
 44
0.0000000001
 40
0.0
 40
0.0
 40
0.0
 40
0.0
 40
0.243500774
 40
0.4899964845
 40
0.7414812238
 40
1.0
 40
1.0
 40
1.0
 40
1.0
 10
34.4895170142
 20
46.2327857863
 30
0.0
 10
34.5107395054
 20
46.3469173048
 30
0.0
 10
34.5449451257
 20
46.5783309033
 30
0.0
 10
34.5599852368
 20
46.9324144107
 30
0.0
 10
34.5207858573
 20
47.2927511919
 30
0.0
 10
34.4409886605
 20
47.5257922918
 30
0.0
 10
34.3852047267
 20
47.635692867
 30
0.0
  0
SPLINE
  5
553
100
AcDbEntity
  8
0
100
AcDbSpline
 62
7
  6
BYLAYER
 70
0
 71
3
 72
10
 73
6
 74
0
 42
0.0000001
 43
0.0000001
 44
0.0000000001
 40
0.0
 40
0.0
 40
0.0
 40
0.0
 40
0.2537535368
 40
0.6297804658
 40
1.0
 40
1.0
 40
1.0
 40
1.0
 10
34.1975912167
 20
47.9132653117
 30
0.0
 10
34.1260288135
 20
47.9952950472
 30
0.0
 10
33.9239522818
 20
48.1781836366
 30
0.0
 10
33.5459820837
 20
48.3883749769
 30
0.0
 10
33.2435723547
 20
48.4959702078
 30
0.0
 10
33.0913948958
 20
48.5414242626
 30
0.0
  0
SPLINE
  5
554
100
AcDbEntity
  8
0
100
AcDbSpline
 62
7
  6
BYLAYER
 70
0
 71
3
 72
12
 73
8
 74
0
 42
0.0000001
 43
0.0000001
 44
0.0000000001
 40
0.0
 40
0.0
 40
0.0
 40
0.0
 40
0.2417904303
 40
0.4890513146
 40
0.6147542936
 40
0.7418259352
 40
1.0
 40
1.0
 40
1.0
 40
1.0
 10
10.5042781596
 20
29.9114393909
 30
0.0
 10
10.5276309323
 20
30.7351650542
 30
0.0
 10
10.634923382
 20
32.4000117565
 30
0.0
 10
10.9088552886
 20
34.4787036287
 30
0.0
 10
11.2115770734
 20
36.1560543479
 30
0.0
 10
11.574699176
 20
37.8593830133
 30
0.0
 10
11.9073110246
 20
39.1305561747
 30
0.0
 10
12.1536609051
 20
39.9752608046
 30
0.0
  0
SPLINE
  5
555
100
AcDbEntity
  8
0
100
AcDbSpline
 62
7
  6
BYLAYER
 70
0
 71
3
 72
11
 73
7
 74
0
 42
0.0000001
 43
0.0000001
 44
0.0000000001
 40
0.0
 40
0.0
 40
0.0
 40
0.0
 40
0.2353787685
 40
0.4840149632
 40
0.7408587264
 40
1.0
 40
1.0
 40
1.0
 40
1.0
 10
12.1536609051
 20
39.9752608046
 30
0.0
 10
12.1875752909
 20
40.0928240946
 30
0.0
 10
12.2343671414
 20
40.3415774238
 30
0.0
 10
12.2433881548
 20
40.7280316223
 30
0.0
 10
12.1935697426
 20
41.1237616987
 30
0.0
 10
12.1210671401
 20
41.3832393144
 30
0.0
 10
12.0749759228
 20
41.509818674
 30
0.0
  0
SPLINE
  5
556
100
AcDbEntity
  8
0
100
AcDbSpline
 62
7
  6
BYLAYER
 70
0
 71
3
 72
37
 73
33
 74
0
 42
0.0000001
 43
0.0000001
 44
0.0000000001
 40
0.0
 40
0.0
 40
0.0
 40
0.0
 40
0.0097917195
 40
0.0193741439
 40
0.0280332728
 40
0.0347809364
 40
0.0395489675
 40
0.0435208851
 40
0.047569254
 40
0.0519389789
 40
0.0616219056
 40
0.07230821
 40
0.0837200388
 40
0.095680294
 40
0.1080737848
 40
0.1208219768
 40
0.1471724117
 40
0.174435229
 40
0.2024313038
 40
0.2601906984
 40
0.3198803441
 40
0.3811929706
 40
0.4439528462
 40
0.5080618328
 40
0.5734767241
 40
0.640202733
 40
0.7082995653
 40
0.7779029618
 40
0.8492807464
 40
0.9229799721
 40
0.9610337315
 40
1.0
 40
1.0
 40
1.0
 40
1.0
 10
9.997483584
 20
20.793183388
 30
0.0
 10
10.0000267996
 20
20.7903804475
 30
0.0
 10
10.0049246115
 20
20.7847115155
 30
0.0
 10
10.0114192806
 20
20.7760127041
 30
0.0
 10
10.0161869686
 20
20.7675827502
 30
0.0
 10
10.0185951279
 20
20.7600313968
 30
0.0
 10
10.0177681931
 20
20.7537982015
 30
0.0
 10
10.0143522931
 20
20.7499278771
 30
0.0
 10
10.0099662533
 20
20.74784393
 30
0.0
 10
10.0031105114
 20
20.7463000527
 30
0.0
 10
9.9934763561
 20
20.7461645829
 30
0.0
 10
9.9812593808
 20
20.747496592
 30
0.0
 10
9.9683084519
 20
20.7499231735
 30
0.0
 10
9.9548652314
 20
20.7531601312
 30
0.0
 10
9.9410558553
 20
20.7570388866
 30
0.0
 10
9.922056898
 20
20.7629761428
 30
0.0
 10
9.8978503858
 20
20.7714838039
 30
0.0
 10
9.8684443069
 20
20.7829098165
 30
0.0
 10
9.8281385353
 20
20.7997654487
 30
0.0
 10
9.7769601741
 20
20.8230632402
 30
0.0
 10
9.7149664299
 20
20.8535939345
 30
0.0
 10
9.6520508119
 20
20.8865741403
 30
0.0
 10
9.5883860552
 20
20.9217631985
 30
0.0
 10
9.5240816899
 20
20.959040058
 30
0.0
 10
9.4592123403
 20
20.9983694764
 30
0.0
 10
9.3938302081
 20
21.039798226
 30
0.0
 10
9.3279745733
 20
21.0834729351
 30
0.0
 10
9.2616652482
 20
21.1296867722
 30
0.0
 10
9.1949498202
 20
21.179038939
 30
0.0
 10
9.1396190769
 20
21.2232648659
 30
0.0
 10
9.0961145991
 20
21.2620035913
 30
0.0
 10
9.0750184478
 20
21.2831150387
 30
0.0
 10
9.0652739249
 20
21.2945995168
 30
0.0
  0
SPLINE
  5
557
100
AcDbEntity
  8
0
100
AcDbSpline
 62
7
  6
BYLAYER
 70
0
 71
3
 72
15
 73
11
 74
0
 42
0.0000001
 43
0.0000001
 44
0.0000000001
 40
0.0
 40
0.0
 40
0.0
 40
0.0
 40
0.1214486069
 40
0.2471682263
 40
0.3755787184
 40
0.5050363353
 40
0.6338306024
 40
0.7602780637
 40
0.8828147347
 40
1.0
 40
1.0
 40
1.0
 40
1.0
 10
32.1106844491
 20
50.8880820226
 30
0.0
 10
32.4530782187
 20
50.578038369
 30
0.0
 10
33.1192309448
 20
49.9124889092
 30
0.0
 10
34.0377652714
 20
48.8163819735
 30
0.0
 10
34.8790455217
 20
47.6224136574
 30
0.0
 10
35.6266013102
 20
46.3541272818
 30
0.0
 10
36.2657883946
 20
45.0361865129
 30
0.0
 10
36.7842433871
 20
43.6942857724
 30
0.0
 10
37.1716797709
 20
42.3547685247
 30
0.0
 10
37.3420853941
 20
41.4572741316
 30
0.0
 10
37.4017033968
 20
41.0155847325
 30
0.0
  0
SPLINE
  5
558
100
AcDbEntity
  8
0
100
AcDbSpline
 62
7
  6
BYLAYER
 70
0
 71
3
 72
15
 73
11
 74
0
 42
0.0000001
 43
0.0000001
 44
0.0000000001
 40
0.0
 40
0.0
 40
0.0
 40
0.0
 40
0.1160336779
 40
0.2369685148
 40
0.3617025875
 40
0.4891140053
 40
0.617941809
 40
0.7468796488
 40
0.8746767945
 40
1.0
 40
1.0
 40
1.0
 40
1.0
 10
37.8316557271
 20
40.7673572545
 30
0.0
 10
37.7796805872
 20
41.1732759716
 30
0.0
 10
37.6344397401
 20
41.9976130966
 30
0.0
 10
37.3085959343
 20
43.2322962964
 30
0.0
 10
36.8743635136
 20
44.4757352749
 30
0.0
 10
36.3384613561
 20
45.7091532303
 30
0.0
 10
35.7087598875
 20
46.9141379944
 30
0.0
 10
34.9947555704
 20
48.0727832905
 30
0.0
 10
34.2071482371
 20
49.1674522847
 30
0.0
 10
33.6334409745
 20
49.8527201198
 30
0.0
 10
33.3366753596
 20
50.1802718533
 30
0.0
  0
SPLINE
  5
559
100
AcDbEntity
  8
0
100
AcDbSpline
 62
7
  6
BYLAYER
 70
0
 71
3
 72
17
 73
13
 74
0
 42
0.0000001
 43
0.0000001
 44
0.0000000001
 40
0.0
 40
0.0
 40
0.0
 40
0.0
 40
0.0364654775
 40
0.072209421
 40
0.1477063309
 40
0.1904395693
 40
0.2375583718
 40
0.3467184073
 40
0.477434592
 40
0.6302669468
 40
0.8048798809
 40
1.0
 40
1.0
 40
1.0
 40
1.0
 10
14.808491666
 20
13.1082589424
 30
0.0
 10
14.8164819113
 20
13.1128724207
 30
0.0
 10
14.8314148335
 20
13.1237038088
 30
0.0
 10
14.8561080659
 20
13.1521617108
 30
0.0
 10
14.8706067483
 20
13.1896169483
 30
0.0
 10
14.8758475624
 20
13.2311725463
 30
0.0
 10
14.8755098718
 20
13.2816727935
 30
0.0
 10
14.8629379782
 20
13.3536160611
 30
0.0
 10
14.832547766
 20
13.4484018541
 30
0.0
 10
14.7863927396
 20
13.5549055
 30
0.0
 10
14.7249746688
 20
13.6720896237
 30
0.0
 10
14.676806559
 20
13.7523444636
 30
0.0
 10
14.6504458259
 20
13.7940869901
 30
0.0
  0
SPLINE
  5
55A
100
AcDbEntity
  8
0
100
AcDbSpline
 62
7
  6
BYLAYER
 70
0
 71
3
 72
15
 73
11
 74
0
 42
0.0000001
 43
0.0000001
 44
0.0000000001
 40
0.0
 40
0.0
 40
0.0
 40
0.0
 40
0.1184751119
 40
0.2383753417
 40
0.3599135276
 40
0.4833391794
 40
0.6088717021
 40
0.7367118726
 40
0.8670516354
 40
1.0
 40
1.0
 40
1.0
 40
1.0
 10
14.6504458259
 20
13.7940869901
 30
0.0
 10
14.2934534716
 20
14.3573815508
 30
0.0
 10
13.6204868614
 20
15.5201641635
 30
0.0
 10
12.7466739112
 20
17.3501712218
 30
0.0
 10
12.0082881306
 20
19.2688853391
 30
0.0
 10
11.4100764267
 20
21.2688376917
 30
0.0
 10
10.9556428945
 20
23.3425426772
 30
0.0
 10
10.6480533386
 20
25.4823282042
 30
0.0
 10
10.489292022
 20
27.6799363492
 30
0.0
 10
10.4832814474
 20
29.1632573051
 30
0.0
 10
10.5044890934
 20
29.9113176109
 30
0.0
  0
SPLINE
  5
55B
100
AcDbEntity
  8
0
100
AcDbSpline
 62
7
  6
BYLAYER
 70
0
 71
3
 72
21
 73
17
 74
0
 42
0.0000001
 43
0.0000001
 44
0.0000000001
 40
0.0
 40
0.0
 40
0.0
 40
0.0
 40
0.0631471179
 40
0.1239301851
 40
0.1826304643
 40
0.2397233666
 40
0.2957901663
 40
0.3514496497
 40
0.4073343019
 40
0.464069363
 40
0.5222322456
 40
0.5823314496
 40
0.7097277569
 40
0.8486854855
 40
0.9228649969
 40
1.0
 40
1.0
 40
1.0
 40
1.0
 10
21.2610979089
 20
29.2370890461
 30
0.0
 10
21.4091009329
 20
29.215742704
 30
0.0
 10
21.7017520457
 20
29.1873047085
 30
0.0
 10
22.1350513066
 20
29.1903572134
 30
0.0
 10
22.5510680444
 20
29.2414655109
 30
0.0
 10
22.9468994528
 20
29.34053066
 30
0.0
 10
23.3202010644
 20
29.4866842917
 30
0.0
 10
23.6687073273
 20
29.6790134687
 30
0.0
 10
23.9902428451
 20
29.9163335626
 30
0.0
 10
24.2826525656
 20
30.1972749955
 30
0.0
 10
24.5443774054
 20
30.5198808137
 30
0.0
 10
24.8561934394
 20
31.0123316666
 30
0.0
 10
25.1587444331
 20
31.7299449714
 30
0.0
 10
25.3320259723
 20
32.5214174268
 30
0.0
 10
25.4021832483
 20
33.2056204328
 30
0.0
 10
25.4139282962
 20
33.5640834907
 30
0.0
 10
25.4142115409
 20
33.7467415325
 30
0.0
  0
SPLINE
  5
55C
100
AcDbEntity
  8
0
100
AcDbSpline
 62
7
  6
BYLAYER
 70
0
 71
3
 72
15
 73
11
 74
0
 42
0.0000001
 43
0.0000001
 44
0.0000000001
 40
0.0
 40
0.0
 40
0.0
 40
0.0
 40
0.1109796755
 40
0.2288638899
 40
0.3524698888
 40
0.4803339381
 40
0.6107996342
 40
0.7420926268
 40
0.8724201075
 40
1.0
 40
1.0
 40
1.0
 40
1.0
 10
25.4142115409
 20
33.7467415325
 30
0.0
 10
25.4137283569
 20
34.1123678715
 30
0.0
 10
25.3659742683
 20
34.8668428246
 30
0.0
 10
25.1665943742
 20
36.0127669255
 30
0.0
 10
24.8421706388
 20
37.187423038
 30
0.0
 10
24.3995068863
 20
38.3669808964
 30
0.0
 10
23.8473027206
 20
39.5274171298
 30
0.0
 10
23.1970784529
 20
40.6452903001
 30
0.0
 10
22.461929413
 20
41.6976177818
 30
0.0
 10
21.9165657896
 20
42.350843416
 30
0.0
 10
21.6331472018
 20
42.6612303089
 30
0.0
  0
SPLINE
  5
55D
100
AcDbEntity
  8
0
100
AcDbSpline
 62
7
  6
BYLAYER
 70
0
 71
3
 72
9
 73
5
 74
0
 42
0.0000001
 43
0.0000001
 44
0.0000000001
 40
0.0
 40
0.0
 40
0.0
 40
0.0
 40
0.4929093492
 40
1.0
 40
1.0
 40
1.0
 40
1.0
 10
21.6331472018
 20
42.6612303089
 30
0.0
 10
21.4602919824
 20
40.4608650971
 30
0.0
 10
21.2276519535
 20
35.9869276714
 30
0.0
 10
21.2152669644
 20
31.5072716613
 30
0.0
 10
21.2610979089
 20
29.2370890461
 30
0.0
  0
SPLINE
  5
55E
100
AcDbEntity
  8
0
100
AcDbSpline
 62
7
  6
BYLAYER
 70
0
 71
3
 72
16
 73
12
 74
0
 42
0.0000001
 43
0.0000001
 44
0.0000000001
 40
0.0
 40
0.0
 40
0.0
 40
0.0
 40
0.0546752656
 40
0.1113638288
 40
0.2300340881
 40
0.3546480985
 40
0.4834491825
 40
0.614462244
 40
0.745602752
 40
0.8747799925
 40
1.0
 40
1.0
 40
1.0
 40
1.0
 10
28.2043171795
 20
32.5441497939
 30
0.0
 10
28.2043171795
 20
32.8125304599
 30
0.0
 10
28.1855862847
 20
33.3593192932
 30
0.0
 10
28.0769106551
 20
34.4837963309
 30
0.0
 10
27.8059024545
 20
35.9344689201
 30
0.0
 10
27.286558951
 20
37.6884519399
 30
0.0
 10
26.5802120779
 20
39.441234288
 30
0.0
 10
25.7036425031
 20
41.1512473925
 30
0.0
 10
24.6775015102
 20
42.7781781002
 30
0.0
 10
23.5262511091
 20
44.2833384713
 30
0.0
 10
22.6757643652
 20
45.2009703554
 30
0.0
 10
22.2349694686
 20
45.6293454329
 30
0.0
  0
SPLINE
  5
55F
100
AcDbEntity
  8
0
100
AcDbSpline
 62
7
  6
BYLAYER
 70
0
 71
3
 72
9
 73
5
 74
0
 42
0.0000001
 43
0.0000001
 44
0.0000000001
 40
0.0
 40
0.0
 40
0.0
 40
0.0
 40
0.2633578
 40
1.0
 40
1.0
 40
1.0
 40
1.0
 10
22.2351389999
 20
45.6295680764
 30
0.0
 10
22.1530335985
 20
45.3763097032
 30
0.0
 10
21.866920133
 20
44.4067918765
 30
0.0
 10
21.6869713969
 20
43.403973898
 30
0.0
 10
21.6331472859
 20
42.6612313789
 30
0.0
  0
SPLINE
  5
560
100
AcDbEntity
  8
0
100
AcDbSpline
 62
7
  6
BYLAYER
 70
0
 71
3
 72
9
 73
5
 74
0
 42
0.0000001
 43
0.0000001
 44
0.0000000001
 40
0.0
 40
0.0
 40
0.0
 40
0.0
 40
0.5173539573
 40
1.0
 40
1.0
 40
1.0
 40
1.0
 10
21.2610979122
 20
29.2370888859
 30
0.0
 10
21.2679556054
 20
28.7524477766
 30
0.0
 10
21.3401808254
 20
27.81501848
 30
0.0
 10
21.5579323664
 20
26.8982975263
 30
0.0
 10
21.7039829591
 20
26.4703609495
 30
0.0
  0
SPLINE
  5
561
100
AcDbEntity
  8
0
100
AcDbSpline
 62
7
  6
BYLAYER
 70
0
 71
3
 72
9
 73
5
 74
0
 42
0.0000001
 43
0.0000001
 44
0.0000000001
 40
0.0
 40
0.0
 40
0.0
 40
0.0
 40
0.2435614519
 40
1.0
 40
1.0
 40
1.0
 40
1.0
 10
8.9437976474
 20
43.517328219
 30
0.0
 10
9.0555973708
 20
43.4616896216
 30
0.0
 10
9.5109147357
 20
43.2258478166
 30
0.0
 10
9.9513051266
 20
42.9614903775
 30
0.0
 10
10.2754398519
 20
42.7485149877
 30
0.0
  0
SPLINE
  5
562
100
AcDbEntity
  8
0
100
AcDbSpline
 62
7
  6
BYLAYER
 70
0
 71
3
 72
9
 73
5
 74
0
 42
0.0000001
 43
0.0000001
 44
0.0000000001
 40
0.0
 40
0.0
 40
0.0
 40
0.0
 40
0.2581220884
 40
1.0
 40
1.0
 40
1.0
 40
1.0
 10
10.7377904677
 20
42.9710789778
 30
0.0
 10
10.5981157151
 20
43.0656885565
 30
0.0
 10
10.0508185118
 20
43.422929308
 30
0.0
 10
9.4781797431
 20
43.7420100128
 30
0.0
 10
9.0405777676
 20
43.9508229831
 30
0.0
  0
SPLINE
  5
563
100
AcDbEntity
  8
0
100
AcDbSpline
 62
7
  6
BYLAYER
 70
0
 71
3
 72
15
 73
11
 74
0
 42
0.0000001
 43
0.0000001
 44
0.0000000001
 40
0.0
 40
0.0
 40
0.0
 40
0.0
 40
0.1199990405
 40
0.2487394941
 40
0.3803661859
 40
0.511143872
 40
0.6400076628
 40
0.7657666087
 40
0.8864276331
 40
1.0
 40
1.0
 40
1.0
 40
1.0
 10
10.7322948729
 20
42.9675640626
 30
0.0
 10
10.71398819
 20
42.9587756321
 30
0.0
 10
10.6753383411
 20
42.9420552242
 30
0.0
 10
10.6160086388
 20
42.9171132659
 30
0.0
 10
10.5561731734
 20
42.8886693126
 30
0.0
 10
10.4987440085
 20
42.8556437204
 30
0.0
 10
10.4428048735
 20
42.8221285904
 30
0.0
 10
10.3871545185
 20
42.7914544286
 30
0.0
 10
10.3317582394
 20
42.7659590138
 30
0.0
 10
10.2940812855
 20
42.7532118839
 30
0.0
 10
10.275443275
 20
42.7485205553
 30
0.0
  0
SPLINE
  5
564
100
AcDbEntity
  8
0
100
AcDbSpline
 62
7
  6
BYLAYER
 70
0
 71
3
 72
20
 73
16
 74
0
 42
0.0000001
 43
0.0000001
 44
0.0000000001
 40
0.0
 40
0.0
 40
0.0
 40
0.0
 40
0.1348902948
 40
0.2036238023
 40
0.2734340551
 40
0.3451979122
 40
0.4189870658
 40
0.4940937442
 40
0.5281559502
 40
0.5577213277
 40
0.6131513438
 40
0.6665864864
 40
0.7750563332
 40
0.8865411247
 40
1.0
 40
1.0
 40
1.0
 40
1.0
 10
9.6683358741
 20
42.8190862483
 30
0.0
 10
9.6718730339
 20
42.8155459308
 30
0.0
 10
9.6771078257
 20
42.8100922662
 30
0.0
 10
9.6837377865
 20
42.8024092719
 30
0.0
 10
9.6884035669
 20
42.7961409179
 30
0.0
 10
9.6927224135
 20
42.7894324341
 30
0.0
 10
9.6967360722
 20
42.7822141359
 30
0.0
 10
9.6976233317
 20
42.7752548884
 30
0.0
 10
9.696522467
 20
42.7701443482
 30
0.0
 10
9.6939186476
 20
42.7664207016
 30
0.0
 10
9.6890263075
 20
42.764170616
 30
0.0
 10
9.6810290378
 20
42.7630953713
 30
0.0
 10
9.6708202302
 20
42.7638211275
 30
0.0
 10
9.6586927821
 20
42.7662551736
 30
0.0
 10
9.6506292485
 20
42.7684450394
 30
0.0
 10
9.6466089315
 20
42.7696925131
 30
0.0
  0
SPLINE
  5
565
100
AcDbEntity
  8
0
100
AcDbSpline
 62
7
  6
BYLAYER
 70
0
 71
3
 72
13
 73
9
 74
0
 42
0.0000001
 43
0.0000001
 44
0.0000000001
 40
0.0
 40
0.0
 40
0.0
 40
0.0
 40
0.3560893098
 40
0.5214629867
 40
0.6632279326
 40
0.7710085799
 40
0.8512333477
 40
1.0
 40
1.0
 40
1.0
 40
1.0
 10
9.0652739249
 20
21.2945995168
 30
0.0
 10
9.0612133548
 20
21.2993851311
 30
0.0
 10
9.0554905888
 20
21.3066115379
 30
0.0
 10
9.049426227
 20
21.316638176
 30
0.0
 10
9.0465791929
 20
21.3234014792
 30
0.0
 10
9.0456801153
 20
21.3292858132
 30
0.0
 10
9.0477938021
 20
21.3351732257
 30
0.0
 10
9.0519972019
 20
21.336992734
 30
0.0
 10
9.0545546127
 20
21.3375713637
 30
0.0
  0
ELLIPSE
  5
566
100
AcDbEntity
  8
0
100
AcDbEllipse
 62
7
  6
BYLAYER
 10
45.6919287891
 20
43.221811724
 30
0.0
 11
0.1944956456
 21
1.0390056746
 31
0.0
 40
0.2183847418
 41
-0.8621513259
 42
-0.47951887
  0
ELLIPSE
  5
567
100
AcDbEntity
  8
0
100
AcDbEllipse
 62
7
  6
BYLAYER
 10
20.0478007532
 20
38.0207075836
 30
0.0
 11
36.7900041845
 21
10.635213216
 31
0.0
 40
0.2927149987
 41
1.5285256797
 42
1.5469741324
  0
ELLIPSE
  5
568
100
AcDbEntity
  8
0
100
AcDbEllipse
 62
7
  6
BYLAYER
 10
45.6919286622
 20
48.0974966118
 30
0.0
 11
0.1944957281
 21
1.0390061155
 31
0.0
 40
0.2183847418
 41
-2.2235078842
 42
-1.6309841436
  0
ELLIPSE
  5
569
100
AcDbEntity
  8
0
100
AcDbEllipse
 62
7
  6
BYLAYER
 10
20.1420812439
 20
38.0751401254
 30
0.0
 11
15.7940005025
 21
23.9923299659
 31
0.0
 40
0.2365031685
 41
1.2702323491
 42
1.3137811072
  0
ELLIPSE
  5
56A
100
AcDbEntity
  8
0
100
AcDbEllipse
 62
7
  6
BYLAYER
 10
17.4951564868
 20
36.546941338
 30
0.0
 11
115.4487637194
 21
77.8550572413
 31
0.0
 40
0.0751468995
 41
-1.4604002586
 42
-1.4530096689
  0
ELLIPSE
  5
56B
100
AcDbEntity
  8
0
100
AcDbEllipse
 62
7
  6
BYLAYER
 10
45.6919287891
 20
43.221811724
 30
0.0
 11
0.1944956456
 21
1.0390056746
 31
0.0
 40
0.2183847418
 41
-0.0933183365
 42
0.4992055761
  0
ELLIPSE
  5
56C
100
AcDbEntity
  8
0
100
AcDbEllipse
 62
7
  6
BYLAYER
 10
20.0478007532
 20
38.0207075836
 30
0.0
 11
15.7939982065
 21
23.9923289057
 31
0.0
 40
0.2365031727
 41
7.5512211136
 42
7.5696695663
  0
ELLIPSE
  5
56D
100
AcDbEntity
  8
0
100
AcDbEllipse
 62
7
  6
BYLAYER
 10
-310.6746083917
 20
-152.920824596
 30
0.0
 11
329.8120333396
 21
201.8751090129
 31
0.0
 40
0.0264200216
 41
-0.0462325323
 42
-0.0115148474
  0
ELLIPSE
  5
56E
100
AcDbEntity
  8
0
100
AcDbEllipse
 62
7
  6
BYLAYER
 10
-310.6746083917
 20
-152.920824596
 30
0.0
 11
329.8120333396
 21
201.8751090129
 31
0.0
 40
0.0264200216
 41
0.0402386509
 42
0.0749563359
  0
ELLIPSE
  5
56F
100
AcDbEntity
  8
0
100
AcDbEllipse
 62
7
  6
BYLAYER
 10
-310.6746083917
 20
-152.920824596
 30
0.0
 11
329.8120333396
 21
201.8751090129
 31
0.0
 40
0.0264200216
 41
0.102253148
 42
0.1879893804
  0
ELLIPSE
  5
570
100
AcDbEntity
  8
0
100
AcDbEllipse
 62
7
  6
BYLAYER
 10
-310.6746083917
 20
-152.920824596
 30
0.0
 11
329.8120333396
 21
201.8751090129
 31
0.0
 40
0.0264200216
 41
6.276213709
 42
6.318880709
  0
ELLIPSE
  5
571
100
AcDbEntity
  8
0
100
AcDbEllipse
 62
7
  6
BYLAYER
 10
20.1420812439
 20
38.0751401254
 30
0.0
 11
36.7900063908
 21
10.6352144789
 31
0.0
 40
0.2927149785
 41
7.8139074925
 42
7.8574562506
  0
ELLIPSE
  5
572
100
AcDbEntity
  8
0
100
AcDbEllipse
 62
7
  6
BYLAYER
 10
-310.6746083917
 20
-152.920824596
 30
0.0
 11
329.8120333396
 21
201.8751090129
 31
0.0
 40
0.0264200216
 41
-0.1691552798
 42
-0.0735293445
  0
ELLIPSE
  5
573
100
AcDbEntity
  8
0
100
AcDbEllipse
 62
7
  6
BYLAYER
 10
17.4951564868
 20
36.546941338
 30
0.0
 11
115.5247976481
 21
54.4742053903
 31
0.0
 40
0.0749448309
 41
-1.4450913937
 42
-1.4377008028
  0
ENDSEC
  0
SECTION
  2
OBJECTS
  0
DICTIONARY
  5
C
100
AcDbDictionary
280
0
281
1
  3
ACAD_GROUP
350
D
  3
ACAD_MLINESTYLE
350
17
  3
ACAD_LAYOUT
350
1A
  3
ACAD_PLOTSETTINGS
350
19
  3
ACAD_PLOTSTYLENAME
350
E
  0
DICTIONARY
  5
D
102
{ACAD_REACTORS
330
C
102
}
100
AcDbDictionary
280
0
281
1
  0
ACDBDICTIONARYWDFLT
  5
E
102
{ACAD_REACTORS
330
C
102
}
100
AcDbDictionary
281
1
  3
Normal
350
F
100
AcDbDictionaryWithDefault
340
F
  0
DICTIONARY
  5
17
102
{ACAD_REACTORS
330
C
102
}
100
AcDbDictionary
280
0
281
1
  3
Standard
350
18
  0
DICTIONARY
  5
19
102
{ACAD_REACTORS
330
C
102
}
100
AcDbDictionary
281
1
  0
DICTIONARY
  5
1A
102
{ACAD_REACTORS
330
C
102
}
100
AcDbDictionary
281
1
  3
Model
350
574
  3
Layout1
350
575
  0
ACDBPLACEHOLDER
  5
F
102
{ACAD_REACTORS
330
E
102
}
  0
MLINESTYLE
  5
18
102
{ACAD_REACTORS
330
17
102
}
100
AcDbMlineStyle
  2
STANDARD
 70
0
  3

 62
256
 51
90.0
 52
90.0
 71
2
 49
0.5
 62
256
  6
BYLAYER
 49
-0.5
 62
256
  6
BYLAYER
  0
LAYOUT
  5
574
102
{ACAD_REACTORS
330
1A
102
}
100
AcDbPlotSettings
  1

  2
none_device
  4

  6

 40
0.0
 41
0.0
 42
0.0
 43
0.0
 44
210.0
 45
297.0
 46
0.0
 47
0.0
 48
0.0
 49
0.0
140
0.0
141
0.0
142
1.0
143
1.0
 70
1024
 72
1
 73
0
 74
0
  7

 75
0
147
1.0
148
0.0
149
0.0
100
AcDbLayout
  1
Model
 70
0
 71
0
 10
0.0
 20
0.0
 11
210.0
 21
297.0
 12
0.0
 22
0.0
 32
0.0
 14
0.0
 24
0.0
 34
0.0
 15
0.0
 25
0.0
 35
0.0
146
0.0
 13
0.0
 23
0.0
 33
0.0
 16
1.0
 26
0.0
 36
0.0
 17
0.0
 27
1.0
 37
0.0
 76
0
330
210
345
0
346
0
  0
LAYOUT
  5
575
102
{ACAD_REACTORS
330
1A
102
}
100
AcDbPlotSettings
  1

  2
none_device
  4

  6

 40
0.0
 41
0.0
 42
0.0
 43
0.0
 44
210.0
 45
297.0
 46
0.0
 47
0.0
 48
0.0
 49
0.0
140
0.0
141
0.0
142
1.0
143
1.0
 70
0
 72
1
 73
0
 74
0
  7

 75
0
147
1.0
148
0.0
149
0.0
100
AcDbLayout
  1
Layout1
 70
0
 71
1
 10
0.0
 20
0.0
 11
210.0
 21
297.0
 12
0.0
 22
0.0
 32
0.0
 14
0.0
 24
0.0
 34
0.0
 15
0.0
 25
0.0
 35
0.0
146
0.0
 13
0.0
 23
0.0
 33
0.0
 16
1.0
 26
0.0
 36
0.0
 17
0.0
 27
1.0
 37
0.0
 76
0
330
211
345
0
346
0
  0
ENDSEC
  0
EOF
