999
DXF file: C:\Users\sesa63760\Dev\_Creo\CAD\MCADPD0004728_3D-CAD\drw0001_1.dxf
999
Pro/ENGINEER 2019471 by Parametric Technology Corporation
  0
SECTION
  2
HEADER
  9
$ACADVER
  1
AC1024
  9
$DWGCODEPAGE
  3
ANSI_1252
  9
$EXTMAX
 10
113.7131998718
 20
160.8229541044
 30
0.0
  9
$EXTMIN
 10
-0.0
 20
0.0
 30
0.0
  9
$LIMMIN
 10
-0.0
 20
0.0
  9
$LIMMAX
 10
113.7131998718
 20
160.8229541044
  9
$VIEWCTR
 10
56.8565999359
 20
80.4114770522
  9
$VIEWSIZE
 40
160.8229541044
  9
$CLAYER
  8
0
  9
$LTSCALE
 40
10.4832740453
  9
$CELTYPE
  6
BYLAYER
  9
$DIMSCALE
 40
1.0
  9
$DIMASZ
 40
1.3537285699
  9
$DIMEXO
 40
1.0
  9
$DIMDLI
 40
7.2429893404
  9
$DIMEXE
 40
1.0
  9
$DIMCEN
 40
1.7154448438
  9
$DIMLFAC
 40
1.0
  9
$DIMBLK
  1
_FILLED
  9
$DIMALT
 70
0
  9
$DIMALTF
 40
0.0393700787
  9
$DIMTXT
 40
1.8952199979
  9
$DIMTOL
 70
1
  9
$DIMLIM
 70
0
  9
$DIMTFAC
 40
1.0
  9
$DIMTP
 40
0.01
  9
$DIMTM
 40
0.01
  9
$DIMGAP
 40
0.625
  9
$DIMDSEP
 70
46
  9
$AUNITS
 70
0
  9
$PDMODE
 70
3
  9
$PDSIZE
 40
0.3125
  9
$HANDSEED
  5
31B
  9
$TILEMODE
 70
1
  9
$MEASUREMENT
 70
1
  9
$INSUNITS
 70
4
  0
ENDSEC
  0
SECTION
  2
CLASSES
  0
CLASS
  1
ACDBDICTIONARYWDFLT
  2
AcDbDictionaryWithDefault
  3
AutoCAD 2000
 90
0
 91
1
280
0
281
0
  0
CLASS
  1
ACDBPLACEHOLDER
  2
AcDbPlaceHolder
  3
AutoCAD 2000
 90
0
 91
1
280
0
281
0
  0
CLASS
  1
LAYOUT
  2
AcDbLayout
  3
AutoCAD 2000
 90
0
 91
0
280
0
281
0
  0
ENDSEC
  0
SECTION
  2
TABLES
  0
TABLE
  2
VPORT
  5
8
100
AcDbSymbolTable
 70
2
  0
VPORT
  5
1F4
100
AcDbSymbolTableRecord
100
AcDbViewportTableRecord
  2
*ACTIVE
 70
0
 10
0.0
 20
0.0
 11
1.0
 21
1.0
 12
56.8565999359
 22
80.4114770522
 13
0.0
 23
0.0
 14
1.0
 24
1.0
 15
0.0
 25
0.0
 16
0.0
 26
0.0
 36
1.0
 17
0.0
 27
0.0
 37
0.0
 40
160.8229541044
 41
0.7070707071
 42
50.0
 43
0.0
 44
0.0
 50
0.0
 51
0.0
 71
0
 72
100
 73
1
 74
1
 75
0
 76
0
 77
0
 78
0
  0
ENDTAB
  0
TABLE
  2
LTYPE
  5
5
100
AcDbSymbolTable
 70
6
  0
LTYPE
  5
14
100
AcDbSymbolTableRecord
100
AcDbLinetypeTableRecord
  2
BYBLOCK
 70
0
  3

 72
65
 73
0
 40
0.0
  0
LTYPE
  5
15
100
AcDbSymbolTableRecord
100
AcDbLinetypeTableRecord
  2
BYLAYER
 70
0
  3

 72
65
 73
0
 40
0.0
  0
LTYPE
  5
16
100
AcDbSymbolTableRecord
100
AcDbLinetypeTableRecord
  2
CONTINUOUS
 70
64
  3
Solid line
 72
65
 73
0
 40
0.0
  0
LTYPE
  5
1F5
100
AcDbSymbolTableRecord
100
AcDbLinetypeTableRecord
  2
CENTER
 70
64
  3
____ _ ____ _ ____ _ ____ _ ____ _ ____ _ ____
 72
65
 73
4
 40
0.6
 49
0.375
 74
0
 49
-0.075
 74
0
 49
0.075
 74
0
 49
-0.075
 74
0
  0
LTYPE
  5
1F6
100
AcDbSymbolTableRecord
100
AcDbLinetypeTableRecord
  2
HIDDEN
 70
64
  3
- - - - - - - - - - - - - - - - - - - -
 72
65
 73
2
 40
0.2
 49
0.1
 74
0
 49
-0.1
 74
0
  0
LTYPE
  5
1F7
100
AcDbSymbolTableRecord
100
AcDbLinetypeTableRecord
  2
PHANTOM
 70
64
  3
_____ _ _ _____ _ _ _____ _ _ _____
 72
65
 73
6
 40
0.8
 49
0.45
 74
0
 49
-0.05
 74
0
 49
0.1
 74
0
 49
-0.05
 74
0
 49
0.1
 74
0
 49
-0.05
 74
0
  0
LTYPE
  5
1F8
100
AcDbSymbolTableRecord
100
AcDbLinetypeTableRecord
  2
DOT
 70
64
  3
. . . . . . . . . . . . . . . . . . . .
 72
65
 73
2
 40
0.2
 49
0.1
 74
0
 49
-0.1
 74
0
  0
LTYPE
  5
1F9
100
AcDbSymbolTableRecord
100
AcDbLinetypeTableRecord
  2
DASHED
 70
64
  3
- - - - - - - - - - - - - - - - - - - -
 72
65
 73
2
 40
0.2
 49
0.1
 74
0
 49
-0.1
 74
0
  0
ENDTAB
  0
TABLE
  2
LAYER
  5
2
100
AcDbSymbolTable
 70
36
  0
LAYER
  5
10
100
AcDbSymbolTableRecord
100
AcDbLayerTableRecord
  2
0
 70
0
 62
7
  6
CONTINUOUS
370
-3
390
F
  0
LAYER
  5
1FA
100
AcDbSymbolTableRecord
100
AcDbLayerTableRecord
  2
DEFAULT_1
 70
0
 62
7
  6
CENTER
370
-3
390
F
  0
LAYER
  5
1FB
100
AcDbSymbolTableRecord
100
AcDbLayerTableRecord
  2
DEFAULT_2
 70
0
 62
7
  6
HIDDEN
370
-3
390
F
  0
LAYER
  5
1FC
100
AcDbSymbolTableRecord
100
AcDbLayerTableRecord
  2
DEFAULT_3
 70
0
 62
7
  6
PHANTOM
370
-3
390
F
  0
LAYER
  5
1FD
100
AcDbSymbolTableRecord
100
AcDbLayerTableRecord
  2
00_COMPONENTS
 70
0
 62
7
  6
CONTINUOUS
370
-3
390
F
  0
LAYER
  5
1FE
100
AcDbSymbolTableRecord
100
AcDbLayerTableRecord
  2
01_1_DEFAULT_DATUMS
 70
0
 62
7
  6
CONTINUOUS
370
-3
390
F
  0
LAYER
  5
1FF
100
AcDbSymbolTableRecord
100
AcDbLayerTableRecord
  2
01_PLANES
 70
0
 62
7
  6
CONTINUOUS
370
-3
390
F
  0
LAYER
  5
200
100
AcDbSymbolTableRecord
100
AcDbLayerTableRecord
  2
02_COORD_SYS
 70
0
 62
7
  6
CONTINUOUS
370
-3
390
F
  0
LAYER
  5
201
100
AcDbSymbolTableRecord
100
AcDbLayerTableRecord
  2
03_AXES
 70
0
 62
7
  6
CONTINUOUS
370
-3
390
F
  0
LAYER
  5
202
100
AcDbSymbolTableRecord
100
AcDbLayerTableRecord
  2
04_POINTS
 70
0
 62
7
  6
CONTINUOUS
370
-3
390
F
  0
LAYER
  5
203
100
AcDbSymbolTableRecord
100
AcDbLayerTableRecord
  2
05_CURVES
 70
0
 62
7
  6
CONTINUOUS
370
-3
390
F
  0
LAYER
  5
204
100
AcDbSymbolTableRecord
100
AcDbLayerTableRecord
  2
06_SURFS
 70
0
 62
7
  6
CONTINUOUS
370
-3
390
F
  0
LAYER
  5
205
100
AcDbSymbolTableRecord
100
AcDbLayerTableRecord
  2
07_COSMETICS
 70
0
 62
7
  6
CONTINUOUS
370
-3
390
F
  0
LAYER
  5
206
100
AcDbSymbolTableRecord
100
AcDbLayerTableRecord
  2
10_NOTES
 70
0
 62
7
  6
CONTINUOUS
370
-3
390
F
  0
LAYER
  5
207
100
AcDbSymbolTableRecord
100
AcDbLayerTableRecord
  2
11_NOTES_PUB
 70
0
 62
7
  6
CONTINUOUS
370
-3
390
F
  0
LAYER
  5
208
100
AcDbSymbolTableRecord
100
AcDbLayerTableRecord
  2
13_REF_GTOL
 70
0
 62
7
  6
CONTINUOUS
370
-3
390
F
  0
LAYER
  5
209
100
AcDbSymbolTableRecord
100
AcDbLayerTableRecord
  2
16_MISC
 70
0
 62
7
  6
CONTINUOUS
370
-3
390
F
  0
LAYER
  5
20A
100
AcDbSymbolTableRecord
100
AcDbLayerTableRecord
  2
17_NO_PRINT
 70
0
 62
7
  6
CONTINUOUS
370
-3
390
F
  0
LAYER
  5
20B
100
AcDbSymbolTableRecord
100
AcDbLayerTableRecord
  2
18_DATUM_CAMS_JOINTS
 70
0
 62
7
  6
CONTINUOUS
370
-3
390
F
  0
LAYER
  5
20C
100
AcDbSymbolTableRecord
100
AcDbLayerTableRecord
  2
19_DATUM_FUNCTIONAL
 70
0
 62
7
  6
CONTINUOUS
370
-3
390
F
  0
LAYER
  5
20D
100
AcDbSymbolTableRecord
100
AcDbLayerTableRecord
  2
20_DATUM_KINEMATIC_SCHEME
 70
0
 62
7
  6
CONTINUOUS
370
-3
390
F
  0
ENDTAB
  0
TABLE
  2
STYLE
  5
3
100
AcDbSymbolTable
 70
1
  0
STYLE
  5
11
100
AcDbSymbolTableRecord
100
AcDbTextStyleTableRecord
  2
STANDARD
 70
0
 40
0.0
 41
1.0
 50
0.0
 71
0
 42
0.2
  3
ARIAL.TTF
  4

  0
STYLE
  5
20E
100
AcDbSymbolTableRecord
100
AcDbTextStyleTableRecord
  2
TEXTSTYLE_1
 70
0
 40
0.0
 41
0.8
 50
0.0
 71
0
 42
0.2
  3
gdt
  4

  0
ENDTAB
  0
TABLE
  2
VIEW
  5
6
100
AcDbSymbolTable
 70
0
  0
ENDTAB
  0
TABLE
  2
UCS
  5
7
100
AcDbSymbolTable
 70
0
  0
ENDTAB
  0
TABLE
  2
APPID
  5
9
100
AcDbSymbolTable
 70
1
  0
APPID
  5
20F
100
AcDbSymbolTableRecord
100
AcDbRegAppTableRecord
  2
ACAD
 70
0
  0
ENDTAB
  0
TABLE
  2
BLOCK_RECORD
  5
1
100
AcDbSymbolTable
 70
0
  0
BLOCK_RECORD
  5
210
100
AcDbSymbolTableRecord
100
AcDbBlockTableRecord
  2
*Model_Space
  0
BLOCK_RECORD
  5
211
100
AcDbSymbolTableRecord
100
AcDbBlockTableRecord
  2
*Paper_Space
  0
BLOCK_RECORD
  5
212
100
AcDbSymbolTableRecord
100
AcDbBlockTableRecord
  2
_FILLED
  0
ENDTAB
  0
TABLE
  2
DIMSTYLE
  5
A
100
AcDbSymbolTable
 70
1
100
AcDbDimStyleTable
 71
0
  0
DIMSTYLE
105
213
100
AcDbSymbolTableRecord
100
AcDbDimStyleTableRecord
  2
STANDARD
 70
0
  3

  4

 40
1.0
 41
1.3537285699
 42
1.0
 43
0.38
 44
1.0
 45
0.0
 46
0.0
 47
0.01
 48
0.01
140
1.8952199979
141
0.09
142
0.0
143
25.4
144
1.0
145
0.0
146
1.0
147
0.625
 71
1
 72
0
 73
0
 74
0
 75
0
 76
0
 77
1
 78
8
 79
2
170
0
171
1
172
0
173
0
174
0
175
0
176
0
177
0
178
0
270
2
179
2
271
2
272
2
273
2
274
2
275
0
280
0
281
0
282
0
283
1
284
8
285
0
286
0
287
3
288
0
340
11
278
46
341
212
342
212
343
212
344
212
  0
ENDTAB
  0
ENDSEC
  0
SECTION
  2
BLOCKS
  0
BLOCK
  5
20
100
AcDbEntity
  8
0
100
AcDbBlockBegin
  2
*Model_Space
 70
0
 10
0.0
 20
0.0
 30
0.0
  3
*Model_Space
  1

  0
ENDBLK
  5
21
100
AcDbEntity
  8
0
100
AcDbBlockEnd
  0
BLOCK
  5
1C
100
AcDbEntity
  8
0
100
AcDbBlockBegin
  2
*Paper_Space
 70
0
 10
0.0
 20
0.0
 30
0.0
  3
*Paper_Space
  1

  0
ENDBLK
  5
1D
100
AcDbEntity
  8
0
100
AcDbBlockEnd
  0
BLOCK
  5
214
100
AcDbEntity
  8
0
100
AcDbBlockBegin
  2
_FILLED
 70
64
 10
0.0
 20
0.0
  3
_FILLED
  1

  0
SOLID
  5
215
100
AcDbEntity
  8
0
  6
BYBLOCK
 62
0
100
AcDbTrace
 10
0.0
 20
0.0
 11
-1.0
 21
0.25
 12
-1.0
 22
-0.25
 13
-1.0
 23
-0.25
  0
ENDBLK
  5
216
100
AcDbEntity
  8
0
  6
BYBLOCK
 62
0
100
AcDbBlockEnd
  0
ENDSEC
  0
SECTION
  2
ENTITIES
  0
LINE
  5
217
100
AcDbEntity
  8
0
100
AcDbLine
 62
7
  6
BYLAYER
 10
13.1920394866
 20
64.9514190054
 11
13.1920394866
 21
73.1164431767
  0
LINE
  5
218
100
AcDbEntity
  8
0
100
AcDbLine
 62
7
  6
BYLAYER
 10
15.1365853428
 20
67.7277467767
 11
15.1365853428
 21
68.6674522444
  0
LINE
  5
219
100
AcDbEntity
  8
0
100
AcDbLine
 62
7
  6
BYLAYER
 10
17.9650242434
 20
66.0947837586
 11
17.9650242434
 21
67.0344892263
  0
LINE
  5
21A
100
AcDbEntity
  8
0
100
AcDbLine
 62
7
  6
BYLAYER
 10
20.2630778587
 20
76.3823822983
 11
20.2630778587
 21
77.1988847155
  0
LINE
  5
21B
100
AcDbEntity
  8
0
100
AcDbLine
 62
7
  6
BYLAYER
 10
20.793463144
 20
64.4618207405
 11
20.793463144
 21
65.4015262082
  0
LINE
  5
21C
100
AcDbEntity
  8
0
100
AcDbLine
 62
7
  6
BYLAYER
 10
22.7379295131
 20
78.6277324552
 11
22.7379295131
 21
82.9551670473
  0
LINE
  5
21D
100
AcDbEntity
  8
0
100
AcDbLine
 62
7
  6
BYLAYER
 10
23.6219020445
 20
62.8288577225
 11
23.6219020445
 21
63.7685631901
  0
LINE
  5
21E
100
AcDbEntity
  8
0
100
AcDbLine
 62
7
  6
BYLAYER
 10
24.5057950889
 20
66.5845911044
 11
24.5057950889
 21
58.4195669331
  0
LINE
  5
21F
100
AcDbEntity
  8
0
100
AcDbLine
 62
7
  6
BYLAYER
 10
25.2128989261
 20
60.8690671298
 11
25.2128989261
 21
58.827811087
  0
LINE
  5
220
100
AcDbEntity
  8
0
100
AcDbLine
 62
7
  6
BYLAYER
 10
25.2128989261
 20
66.1763328412
 11
25.2128989261
 21
66.9928352583
  0
LINE
  5
221
100
AcDbEntity
  8
0
100
AcDbLine
 62
7
  6
BYLAYER
 10
38.6479895919
 20
50.2547518427
 11
30.1626728901
 21
55.153640897
  0
LINE
  5
222
100
AcDbEntity
  8
0
100
AcDbLine
 62
7
  6
BYLAYER
 10
24.5057950889
 20
58.4195669331
 11
13.1920394866
 21
64.9514190054
  0
LINE
  5
223
100
AcDbEntity
  8
0
100
AcDbLine
 62
7
  6
BYLAYER
 10
28.041314275
 20
61.2772901196
 11
28.041314275
 21
60.4607877025
  0
LINE
  5
224
100
AcDbEntity
  8
0
100
AcDbLine
 62
7
  6
BYLAYER
 10
42.1835087779
 20
52.2959726121
 11
41.0520962833
 21
52.9491791429
  0
LINE
  5
225
100
AcDbEntity
  8
0
100
AcDbLine
 62
7
  6
BYLAYER
 10
28.041314275
 20
60.4607877025
 11
26.9099017804
 21
61.1139942333
  0
LINE
  5
226
100
AcDbEntity
  8
0
100
AcDbLine
 62
7
  6
BYLAYER
 10
13.1920394866
 20
73.1164431767
 11
24.5057950889
 21
66.5845911044
  0
LINE
  5
227
100
AcDbEntity
  8
0
100
AcDbLine
 62
7
  6
BYLAYER
 10
30.1626728901
 20
63.3186650683
 11
38.6479895919
 21
58.419776014
  0
LINE
  5
228
100
AcDbEntity
  8
0
100
AcDbLine
 62
7
  6
BYLAYER
 10
30.1626728901
 20
55.153640897
 11
30.1626728901
 21
63.3186650683
  0
LINE
  5
229
100
AcDbEntity
  8
0
100
AcDbLine
 62
7
  6
BYLAYER
 10
31.5768334611
 20
69.850530226
 11
31.5768334611
 21
70.6670326431
  0
LINE
  5
22A
100
AcDbEntity
  8
0
100
AcDbLine
 62
7
  6
BYLAYER
 10
32.1072187463
 20
57.9299686682
 11
32.1072187463
 21
58.8696741359
  0
LINE
  5
22B
100
AcDbEntity
  8
0
100
AcDbLine
 62
7
  6
BYLAYER
 10
13.8991433238
 20
73.5246873306
 11
25.2128989261
 21
66.9928352583
  0
LINE
  5
22C
100
AcDbEntity
  8
0
100
AcDbLine
 62
7
  6
BYLAYER
 10
30.8697767273
 20
63.7269092221
 11
39.3550934291
 21
58.8280201679
  0
LINE
  5
22D
100
AcDbEntity
  8
0
100
AcDbLine
 62
7
  6
BYLAYER
 10
33.7680267239
 20
64.5837022325
 11
33.7680267239
 21
71.9321111118
  0
LINE
  5
22E
100
AcDbEntity
  8
0
100
AcDbLine
 62
7
  6
BYLAYER
 10
34.9356576469
 20
56.2970056501
 11
34.9356576469
 21
57.2367111178
  0
LINE
  5
22F
100
AcDbEntity
  8
0
100
AcDbLine
 62
7
  6
BYLAYER
 10
42.1835087779
 20
53.1124750292
 11
39.3550934291
 21
52.7042520394
  0
LINE
  5
230
100
AcDbEntity
  8
0
100
AcDbLine
 62
7
  6
BYLAYER
 10
45.719027964
 20
61.6857151356
 11
37.2337112622
 21
66.5846041898
  0
LINE
  5
231
100
AcDbEntity
  8
0
100
AcDbLine
 62
7
  6
BYLAYER
 10
31.5768334611
 20
69.850530226
 11
20.2630778587
 21
76.3823822983
  0
LINE
  5
232
100
AcDbEntity
  8
0
100
AcDbLine
 62
7
  6
BYLAYER
 10
20.2630778587
 20
77.1988847155
 11
31.5768334611
 21
70.6670326431
  0
LINE
  5
233
100
AcDbEntity
  8
0
100
AcDbLine
 62
7
  6
BYLAYER
 10
37.2337112622
 20
67.401106607
 11
45.719027964
 21
62.5022175527
  0
LINE
  5
234
100
AcDbEntity
  8
0
100
AcDbLine
 62
7
  6
BYLAYER
 10
37.2337112622
 20
66.5846041898
 11
37.2337112622
 21
67.401106607
  0
LINE
  5
235
100
AcDbEntity
  8
0
100
AcDbLine
 62
7
  6
BYLAYER
 10
37.7640965475
 20
54.664042632
 11
37.7640965475
 21
55.6037480997
  0
LINE
  5
236
100
AcDbEntity
  8
0
100
AcDbLine
 62
7
  6
BYLAYER
 10
38.6477746823
 20
92.7938887062
 11
38.6477746823
 21
90.9159331468
  0
LINE
  5
237
100
AcDbEntity
  8
0
100
AcDbLine
 62
7
  6
BYLAYER
 10
38.6479895919
 20
58.419776014
 11
38.6479895919
 21
50.2547518427
  0
LINE
  5
238
100
AcDbEntity
  8
0
100
AcDbLine
 62
7
  6
BYLAYER
 10
39.3550934291
 20
52.7042520394
 11
39.3550934291
 21
50.6629959966
  0
LINE
  5
239
100
AcDbEntity
  8
0
100
AcDbLine
 62
7
  6
BYLAYER
 10
39.3550934291
 20
58.0115177508
 11
39.3550934291
 21
58.8280201679
  0
LINE
  5
23A
100
AcDbEntity
  8
0
100
AcDbLine
 62
7
  6
BYLAYER
 10
72.5887588686
 20
112.3896080921
 11
38.6477746823
 21
92.7938887062
  0
LINE
  5
23B
100
AcDbEntity
  8
0
100
AcDbLine
 62
7
  6
BYLAYER
 10
37.5871100946
 20
91.5282942786
 11
22.7379295131
 21
82.9551670473
  0
LINE
  5
23C
100
AcDbEntity
  8
0
100
AcDbLine
 62
7
  6
BYLAYER
 10
23.7985970448
 20
79.2401054848
 11
24.0464802423
 21
79.0969932916
  0
LINE
  5
23D
100
AcDbEntity
  8
0
100
AcDbLine
 62
7
  6
BYLAYER
 10
42.1835087779
 20
53.1124750292
 11
42.1835087779
 21
52.2959726121
  0
LINE
  5
23E
100
AcDbEntity
  8
0
100
AcDbLine
 62
7
  6
BYLAYER
 10
13.1920394866
 20
73.1164431767
 11
13.8991433238
 21
73.5246873306
  0
LINE
  5
23F
100
AcDbEntity
  8
0
100
AcDbLine
 62
7
  6
BYLAYER
 10
20.2630778587
 20
77.1988847155
 11
23.7985970448
 21
79.2401054848
  0
LINE
  5
240
100
AcDbEntity
  8
0
100
AcDbLine
 62
7
  6
BYLAYER
 10
14.6062652682
 20
73.1164395215
 11
20.2630778587
 21
76.3823822983
  0
LINE
  5
241
100
AcDbEntity
  8
0
100
AcDbLine
 62
7
  6
BYLAYER
 10
28.041314275
 20
61.2772901196
 11
25.2128989261
 21
60.8690671298
  0
LINE
  5
242
100
AcDbEntity
  8
0
100
AcDbLine
 62
7
  6
BYLAYER
 10
44.5168095415
 20
84.2828824645
 11
44.5168095415
 21
84.2615970016
  0
LINE
  5
243
100
AcDbEntity
  8
0
100
AcDbLine
 62
7
  6
BYLAYER
 10
45.3653412117
 20
85.2652973208
 11
45.3653412117
 21
83.7717080962
  0
LINE
  5
244
100
AcDbEntity
  8
0
100
AcDbLine
 62
7
  6
BYLAYER
 10
45.4360515954
 20
85.4574797827
 11
45.4360515954
 21
83.7308822699
  0
LINE
  5
245
100
AcDbEntity
  8
0
100
AcDbLine
 62
7
  6
BYLAYER
 10
45.719027964
 20
61.6857151356
 11
45.719027964
 21
62.5022175527
  0
LINE
  5
246
100
AcDbEntity
  8
0
100
AcDbLine
 62
7
  6
BYLAYER
 10
46.779560662
 20
82.9765120501
 11
46.779560662
 21
82.9552265872
  0
LINE
  5
247
100
AcDbEntity
  8
0
100
AcDbLine
 62
7
  6
BYLAYER
 10
44.4779769624
 20
85.952359961
 11
42.112656495
 21
82.7919166367
  0
LINE
  5
248
100
AcDbEntity
  8
0
100
AcDbLine
 62
7
  6
BYLAYER
 10
42.9611881652
 20
82.3020277313
 11
45.3265086326
 21
85.4624710556
  0
LINE
  5
249
100
AcDbEntity
  8
0
100
AcDbLine
 62
7
  6
BYLAYER
 10
45.2557982489
 20
85.2702885936
 11
43.1975477165
 21
82.520139409
  0
LINE
  5
24A
100
AcDbEntity
  8
0
100
AcDbLine
 62
7
  6
BYLAYER
 10
46.7407280829
 20
84.6459895465
 11
44.3754076155
 21
81.4855462223
  0
LINE
  5
24B
100
AcDbEntity
  8
0
100
AcDbLine
 62
7
  6
BYLAYER
 10
47.6280923322
 20
83.9589269063
 11
47.6280923322
 21
82.4653376817
  0
LINE
  5
24C
100
AcDbEntity
  8
0
100
AcDbLine
 62
7
  6
BYLAYER
 10
47.6988027159
 20
84.1511093683
 11
47.6988027159
 21
82.4245118554
  0
LINE
  5
24D
100
AcDbEntity
  8
0
100
AcDbLine
 62
7
  6
BYLAYER
 10
48.6738231247
 20
56.0431349798
 11
48.6738231247
 21
64.2081591511
  0
LINE
  5
24E
100
AcDbEntity
  8
0
100
AcDbLine
 62
7
  6
BYLAYER
 10
49.0423117825
 20
81.6701416356
 11
49.0423117825
 21
81.6488561727
  0
LINE
  5
24F
100
AcDbEntity
  8
0
100
AcDbLine
 62
7
  6
BYLAYER
 10
49.8908434527
 20
82.6525564918
 11
49.8908434527
 21
81.1589672673
  0
LINE
  5
250
100
AcDbEntity
  8
0
100
AcDbLine
 62
7
  6
BYLAYER
 10
49.9615538364
 20
82.8447389538
 11
49.9615538364
 21
81.1181414409
  0
LINE
  5
251
100
AcDbEntity
  8
0
100
AcDbLine
 62
7
  6
BYLAYER
 10
45.2239392857
 20
80.9956573169
 11
47.5892597531
 21
84.1561006411
  0
LINE
  5
252
100
AcDbEntity
  8
0
100
AcDbLine
 62
7
  6
BYLAYER
 10
47.5185493694
 20
83.9639181792
 11
45.4602988369
 21
81.2137689946
  0
LINE
  5
253
100
AcDbEntity
  8
0
100
AcDbLine
 62
7
  6
BYLAYER
 10
49.0034792034
 20
83.3396191321
 11
46.638158736
 21
80.1791758078
  0
LINE
  5
254
100
AcDbEntity
  8
0
100
AcDbLine
 62
7
  6
BYLAYER
 10
47.4866904061
 20
79.6892869024
 11
49.8520108736
 21
82.8497302266
  0
LINE
  5
255
100
AcDbEntity
  8
0
100
AcDbLine
 62
7
  6
BYLAYER
 10
49.7813004898
 20
82.6575477647
 11
47.7230499574
 21
79.9073985801
  0
LINE
  5
256
100
AcDbEntity
  8
0
100
AcDbLine
 62
7
  6
BYLAYER
 10
15.1365853428
 20
67.7277467767
 11
15.4901372614
 21
67.9318688536
  0
LINE
  5
257
100
AcDbEntity
  8
0
100
AcDbLine
 62
7
  6
BYLAYER
 10
44.5168095415
 20
84.2615970016
 11
44.4887584977
 21
84.2454018206
  0
LINE
  5
258
100
AcDbEntity
  8
0
100
AcDbLine
 62
7
  6
BYLAYER
 10
45.3653412117
 20
83.7717080962
 11
43.1975477165
 21
82.520139409
  0
LINE
  5
259
100
AcDbEntity
  8
0
100
AcDbLine
 62
7
  6
BYLAYER
 10
45.4360515954
 20
83.7308822699
 11
42.9611881652
 21
82.3020277313
  0
LINE
  5
25A
100
AcDbEntity
  8
0
100
AcDbLine
 62
7
  6
BYLAYER
 10
46.779560662
 20
82.9552265872
 11
46.7515096182
 21
82.9390314061
  0
LINE
  5
25B
100
AcDbEntity
  8
0
100
AcDbLine
 62
7
  6
BYLAYER
 10
17.9650242434
 20
66.0947837586
 11
18.318576162
 21
66.2989058355
  0
LINE
  5
25C
100
AcDbEntity
  8
0
100
AcDbLine
 62
7
  6
BYLAYER
 10
45.3653412117
 20
85.2652973208
 11
45.3445769486
 21
85.3109835987
  0
LINE
  5
25D
100
AcDbEntity
  8
0
100
AcDbLine
 62
7
  6
BYLAYER
 10
45.4152873323
 20
85.5031660606
 11
45.4360515954
 21
85.4574797827
  0
LINE
  5
25E
100
AcDbEntity
  8
0
100
AcDbLine
 62
7
  6
BYLAYER
 10
47.6280923322
 20
83.9589269063
 11
47.6073280691
 21
84.0046131842
  0
LINE
  5
25F
100
AcDbEntity
  8
0
100
AcDbLine
 62
7
  6
BYLAYER
 10
47.6780384528
 20
84.1967956462
 11
47.6988027159
 21
84.1511093683
  0
LINE
  5
260
100
AcDbEntity
  8
0
100
AcDbLine
 62
7
  6
BYLAYER
 10
51.305062903
 20
80.3637712211
 11
51.305062903
 21
80.3424857582
  0
LINE
  5
261
100
AcDbEntity
  8
0
100
AcDbLine
 62
7
  6
BYLAYER
 10
52.1535945731
 20
81.3461860774
 11
52.1535945731
 21
79.8525968528
  0
LINE
  5
262
100
AcDbEntity
  8
0
100
AcDbLine
 62
7
  6
BYLAYER
 10
52.2243049568
 20
81.5383685393
 11
52.2243049568
 21
79.8117710265
  0
LINE
  5
263
100
AcDbEntity
  8
0
100
AcDbLine
 62
7
  6
BYLAYER
 10
53.5678140234
 20
79.0574008067
 11
53.5678140234
 21
79.0361153438
  0
LINE
  5
264
100
AcDbEntity
  8
0
100
AcDbLine
 62
7
  6
BYLAYER
 10
54.4163456936
 20
80.0398156629
 11
54.4163456936
 21
78.5462264383
  0
LINE
  5
265
100
AcDbEntity
  8
0
100
AcDbLine
 62
7
  6
BYLAYER
 10
54.4870560773
 20
80.2319981249
 11
54.4870560773
 21
78.505400612
  0
LINE
  5
266
100
AcDbEntity
  8
0
100
AcDbLine
 62
7
  6
BYLAYER
 10
54.5578671447
 20
64.5843330939
 11
54.5578671447
 21
48.8258364433
  0
LINE
  5
267
100
AcDbEntity
  8
0
100
AcDbLine
 62
7
  6
BYLAYER
 10
51.2662303238
 20
82.0332487176
 11
48.9009098564
 21
78.8728053934
  0
LINE
  5
268
100
AcDbEntity
  8
0
100
AcDbLine
 62
7
  6
BYLAYER
 10
49.7494415266
 20
78.3829164879
 11
52.114761994
 21
81.5433598122
  0
LINE
  5
269
100
AcDbEntity
  8
0
100
AcDbLine
 62
7
  6
BYLAYER
 10
52.0440516103
 20
81.3511773502
 11
49.9858010779
 21
78.6010281656
  0
LINE
  5
26A
100
AcDbEntity
  8
0
100
AcDbLine
 62
7
  6
BYLAYER
 10
53.5289814443
 20
80.7268783031
 11
51.1636609769
 21
77.5664349789
  0
LINE
  5
26B
100
AcDbEntity
  8
0
100
AcDbLine
 62
7
  6
BYLAYER
 10
47.6280923322
 20
82.4653376817
 11
45.460298837
 21
81.2137689946
  0
LINE
  5
26C
100
AcDbEntity
  8
0
100
AcDbLine
 62
7
  6
BYLAYER
 10
47.6988027159
 20
82.4245118554
 11
45.2239392857
 21
80.9956573169
  0
LINE
  5
26D
100
AcDbEntity
  8
0
100
AcDbLine
 62
7
  6
BYLAYER
 10
49.0423117825
 20
81.6488561727
 11
49.0142607386
 21
81.6326609917
  0
LINE
  5
26E
100
AcDbEntity
  8
0
100
AcDbLine
 62
7
  6
BYLAYER
 10
20.793463144
 20
64.4618207405
 11
21.1470150626
 21
64.6659428175
  0
LINE
  5
26F
100
AcDbEntity
  8
0
100
AcDbLine
 62
7
  6
BYLAYER
 10
24.5057950889
 20
66.5845911044
 11
25.2128989261
 21
66.9928352583
  0
LINE
  5
270
100
AcDbEntity
  8
0
100
AcDbLine
 62
7
  6
BYLAYER
 10
31.5768334611
 20
70.6670326431
 11
33.7680267239
 21
71.9321111118
  0
LINE
  5
271
100
AcDbEntity
  8
0
100
AcDbLine
 62
7
  6
BYLAYER
 10
49.8908434527
 20
81.1589672673
 11
47.7230499574
 21
79.9073985801
  0
LINE
  5
272
100
AcDbEntity
  8
0
100
AcDbLine
 62
7
  6
BYLAYER
 10
49.9615538364
 20
81.1181414409
 11
47.4866904061
 21
79.6892869024
  0
LINE
  5
273
100
AcDbEntity
  8
0
100
AcDbLine
 62
7
  6
BYLAYER
 10
25.2128989261
 20
66.1763328412
 11
31.5768334611
 21
69.850530226
  0
LINE
  5
274
100
AcDbEntity
  8
0
100
AcDbLine
 62
7
  6
BYLAYER
 10
54.2749437675
 20
75.770175659
 11
53.4264120974
 21
76.2600645644
  0
LINE
  5
275
100
AcDbEntity
  8
0
100
AcDbLine
 62
7
  6
BYLAYER
 10
52.0121926471
 20
77.0765460735
 11
51.1636609769
 21
77.5664349789
  0
LINE
  5
276
100
AcDbEntity
  8
0
100
AcDbLine
 62
7
  6
BYLAYER
 10
49.7494415266
 20
78.3829164879
 11
48.9009098564
 21
78.8728053934
  0
LINE
  5
277
100
AcDbEntity
  8
0
100
AcDbLine
 62
7
  6
BYLAYER
 10
47.4866904061
 20
79.6892869024
 11
46.638158736
 21
80.1791758078
  0
LINE
  5
278
100
AcDbEntity
  8
0
100
AcDbLine
 62
7
  6
BYLAYER
 10
45.2239392857
 20
80.9956573169
 11
44.3754076155
 21
81.4855462223
  0
LINE
  5
279
100
AcDbEntity
  8
0
100
AcDbLine
 62
7
  6
BYLAYER
 10
42.9611881652
 20
82.3020277313
 11
42.112656495
 21
82.7919166367
  0
LINE
  5
27A
100
AcDbEntity
  8
0
100
AcDbLine
 62
7
  6
BYLAYER
 10
44.5168095415
 20
84.2615970016
 11
45.3653412117
 21
83.7717080962
  0
LINE
  5
27B
100
AcDbEntity
  8
0
100
AcDbLine
 62
7
  6
BYLAYER
 10
46.779560662
 20
82.9552265872
 11
47.6280923322
 21
82.4653376817
  0
LINE
  5
27C
100
AcDbEntity
  8
0
100
AcDbLine
 62
7
  6
BYLAYER
 10
49.0423117825
 20
81.6488561727
 11
49.8908434527
 21
81.1589672673
  0
LINE
  5
27D
100
AcDbEntity
  8
0
100
AcDbLine
 62
7
  6
BYLAYER
 10
51.305062903
 20
80.3424857582
 11
52.1535945731
 21
79.8525968528
  0
LINE
  5
27E
100
AcDbEntity
  8
0
100
AcDbLine
 62
7
  6
BYLAYER
 10
53.5678140234
 20
79.0361153438
 11
54.4163456936
 21
78.5462264383
  0
LINE
  5
27F
100
AcDbEntity
  8
0
100
AcDbLine
 62
7
  6
BYLAYER
 10
55.8305651439
 20
77.7297449293
 11
56.6790968141
 21
77.2398560239
  0
LINE
  5
280
100
AcDbEntity
  8
0
100
AcDbLine
 62
7
  6
BYLAYER
 10
49.8908434527
 20
82.6525564918
 11
49.8700791896
 21
82.6982427698
  0
LINE
  5
281
100
AcDbEntity
  8
0
100
AcDbLine
 62
7
  6
BYLAYER
 10
49.9407895733
 20
82.8904252317
 11
49.9615538364
 21
82.8447389538
  0
LINE
  5
282
100
AcDbEntity
  8
0
100
AcDbLine
 62
7
  6
BYLAYER
 10
52.1535945731
 20
81.3461860774
 11
52.13283031
 21
81.3918723553
  0
LINE
  5
283
100
AcDbEntity
  8
0
100
AcDbLine
 62
7
  6
BYLAYER
 10
52.2035406937
 20
81.5840548172
 11
52.2243049568
 21
81.5383685393
  0
LINE
  5
284
100
AcDbEntity
  8
0
100
AcDbLine
 62
7
  6
BYLAYER
 10
54.4163456936
 20
80.0398156629
 11
54.3955814305
 21
80.0855019408
  0
LINE
  5
285
100
AcDbEntity
  8
0
100
AcDbLine
 62
7
  6
BYLAYER
 10
55.8305651439
 20
77.7510303922
 11
55.8305651439
 21
77.7297449293
  0
LINE
  5
286
100
AcDbEntity
  8
0
100
AcDbLine
 62
7
  6
BYLAYER
 10
56.6790968141
 20
78.7334452485
 11
56.6790968141
 21
77.2398560239
  0
LINE
  5
287
100
AcDbEntity
  8
0
100
AcDbLine
 62
7
  6
BYLAYER
 10
56.7498071978
 20
78.9256277104
 11
56.7498071978
 21
77.1990301975
  0
LINE
  5
288
100
AcDbEntity
  8
0
100
AcDbLine
 62
7
  6
BYLAYER
 10
52.0121926471
 20
77.0765460735
 11
54.3775131145
 21
80.2369893977
  0
LINE
  5
289
100
AcDbEntity
  8
0
100
AcDbLine
 62
7
  6
BYLAYER
 10
54.3068027308
 20
80.0448069358
 11
52.2485521984
 21
77.2946577512
  0
LINE
  5
28A
100
AcDbEntity
  8
0
100
AcDbLine
 62
7
  6
BYLAYER
 10
55.7917325648
 20
79.4205078887
 11
53.4264120974
 21
76.2600645644
  0
LINE
  5
28B
100
AcDbEntity
  8
0
100
AcDbLine
 62
7
  6
BYLAYER
 10
54.2749437675
 20
75.770175659
 11
56.640264235
 21
78.9306189832
  0
LINE
  5
28C
100
AcDbEntity
  8
0
100
AcDbLine
 62
7
  6
BYLAYER
 10
56.5695538512
 20
78.7384365213
 11
54.5113033188
 21
75.9882873367
  0
LINE
  5
28D
100
AcDbEntity
  8
0
100
AcDbLine
 62
7
  6
BYLAYER
 10
51.305062903
 20
80.3424857582
 11
51.2770118591
 21
80.3262905772
  0
LINE
  5
28E
100
AcDbEntity
  8
0
100
AcDbLine
 62
7
  6
BYLAYER
 10
52.1535945731
 20
79.8525968528
 11
49.9858010779
 21
78.6010281656
  0
LINE
  5
28F
100
AcDbEntity
  8
0
100
AcDbLine
 62
7
  6
BYLAYER
 10
52.2243049568
 20
79.8117710265
 11
49.7494415266
 21
78.3829164879
  0
LINE
  5
290
100
AcDbEntity
  8
0
100
AcDbLine
 62
7
  6
BYLAYER
 10
23.6219020445
 20
62.8288577225
 11
23.9754539632
 21
63.0329797994
  0
LINE
  5
291
100
AcDbEntity
  8
0
100
AcDbLine
 62
7
  6
BYLAYER
 10
53.5678140234
 20
79.0361153438
 11
53.5397629796
 21
79.0199201627
  0
LINE
  5
292
100
AcDbEntity
  8
0
100
AcDbLine
 62
7
  6
BYLAYER
 10
54.4163456936
 20
78.5462264383
 11
52.2485521984
 21
77.2946577512
  0
LINE
  5
293
100
AcDbEntity
  8
0
100
AcDbLine
 62
7
  6
BYLAYER
 10
54.4870560773
 20
78.505400612
 11
52.0121926471
 21
77.0765460735
  0
LINE
  5
294
100
AcDbEntity
  8
0
100
AcDbLine
 62
7
  6
BYLAYER
 10
56.6790968141
 20
78.7334452485
 11
56.6179084766
 21
78.7687715524
  0
LINE
  5
295
100
AcDbEntity
  8
0
100
AcDbLine
 62
7
  6
BYLAYER
 10
54.4163456936
 20
80.0398156629
 11
54.3551573562
 21
80.0751419668
  0
LINE
  5
296
100
AcDbEntity
  8
0
100
AcDbLine
 62
7
  6
BYLAYER
 10
52.1535945731
 20
81.3461860774
 11
52.0924062357
 21
81.3815123813
  0
LINE
  5
297
100
AcDbEntity
  8
0
100
AcDbLine
 62
7
  6
BYLAYER
 10
49.8908434527
 20
82.6525564918
 11
49.8296551152
 21
82.6878827958
  0
LINE
  5
298
100
AcDbEntity
  8
0
100
AcDbLine
 62
7
  6
BYLAYER
 10
47.6280923322
 20
83.9589269063
 11
47.5669039947
 21
83.9942532102
  0
LINE
  5
299
100
AcDbEntity
  8
0
100
AcDbLine
 62
7
  6
BYLAYER
 10
45.3653412117
 20
85.2652973208
 11
45.3041528743
 21
85.3006236247
  0
LINE
  5
29A
100
AcDbEntity
  8
0
100
AcDbLine
 62
7
  6
BYLAYER
 10
56.640264235
 20
78.9306189833
 11
55.7917325648
 21
79.4205078887
  0
LINE
  5
29B
100
AcDbEntity
  8
0
100
AcDbLine
 62
7
  6
BYLAYER
 10
54.3775131145
 20
80.2369893977
 11
53.5289814443
 21
80.7268783031
  0
LINE
  5
29C
100
AcDbEntity
  8
0
100
AcDbLine
 62
7
  6
BYLAYER
 10
52.114761994
 20
81.5433598122
 11
51.2662303239
 21
82.0332487176
  0
LINE
  5
29D
100
AcDbEntity
  8
0
100
AcDbLine
 62
7
  6
BYLAYER
 10
49.8520108736
 20
82.8497302266
 11
49.0034792034
 21
83.3396191321
  0
LINE
  5
29E
100
AcDbEntity
  8
0
100
AcDbLine
 62
7
  6
BYLAYER
 10
47.5892597531
 20
84.1561006411
 11
46.7407280829
 21
84.6459895465
  0
LINE
  5
29F
100
AcDbEntity
  8
0
100
AcDbLine
 62
7
  6
BYLAYER
 10
45.3265086326
 20
85.4624710556
 11
44.4779769624
 21
85.952359961
  0
LINE
  5
2A0
100
AcDbEntity
  8
0
100
AcDbLine
 62
7
  6
BYLAYER
 10
44.5668086932
 20
85.9931473029
 11
45.4153403634
 21
85.5032583975
  0
LINE
  5
2A1
100
AcDbEntity
  8
0
100
AcDbLine
 62
7
  6
BYLAYER
 10
46.8295598137
 20
84.6867768885
 11
47.6780914838
 21
84.196887983
  0
LINE
  5
2A2
100
AcDbEntity
  8
0
100
AcDbLine
 62
7
  6
BYLAYER
 10
49.0923109341
 20
83.380406474
 11
49.9408426043
 21
82.8905175686
  0
LINE
  5
2A3
100
AcDbEntity
  8
0
100
AcDbLine
 62
7
  6
BYLAYER
 10
51.3550620546
 20
82.0740360595
 11
52.2035937248
 21
81.5841471541
  0
LINE
  5
2A4
100
AcDbEntity
  8
0
100
AcDbLine
 62
7
  6
BYLAYER
 10
53.6178131751
 20
80.7676656451
 11
54.4663448452
 21
80.2777767396
  0
LINE
  5
2A5
100
AcDbEntity
  8
0
100
AcDbLine
 62
7
  6
BYLAYER
 10
55.8805642955
 20
79.4612952306
 11
56.7290959657
 21
78.9714063252
  0
LINE
  5
2A6
100
AcDbEntity
  8
0
100
AcDbLine
 62
7
  6
BYLAYER
 10
69.4070477262
 20
73.1574603252
 11
37.5871100946
 21
91.5282942786
  0
LINE
  5
2A7
100
AcDbEntity
  8
0
100
AcDbLine
 62
7
  6
BYLAYER
 10
54.4662918142
 20
80.2776844028
 11
54.4870560773
 21
80.2319981249
  0
LINE
  5
2A8
100
AcDbEntity
  8
0
100
AcDbLine
 62
7
  6
BYLAYER
 10
56.6790968141
 20
78.7334452485
 11
56.658332551
 21
78.7791315264
  0
LINE
  5
2A9
100
AcDbEntity
  8
0
100
AcDbLine
 62
7
  6
BYLAYER
 10
56.7290429347
 20
78.9713139883
 11
56.7498071978
 21
78.9256277104
  0
LINE
  5
2AA
100
AcDbEntity
  8
0
100
AcDbLine
 62
7
  6
BYLAYER
 10
30.1626728901
 20
63.3186650683
 11
30.8697767273
 21
63.7269092221
  0
LINE
  5
2AB
100
AcDbEntity
  8
0
100
AcDbLine
 62
7
  6
BYLAYER
 10
37.2337112622
 20
67.401106607
 11
39.3972888636
 21
68.6502412612
  0
LINE
  5
2AC
100
AcDbEntity
  8
0
100
AcDbLine
 62
7
  6
BYLAYER
 10
55.8305651439
 20
77.7297449293
 11
55.8025141
 21
77.7135497483
  0
LINE
  5
2AD
100
AcDbEntity
  8
0
100
AcDbLine
 62
7
  6
BYLAYER
 10
31.5768986717
 20
63.318661413
 11
37.2337112622
 21
66.5846041898
  0
LINE
  5
2AE
100
AcDbEntity
  8
0
100
AcDbLine
 62
7
  6
BYLAYER
 10
56.6790968141
 20
77.2398560239
 11
54.5113033188
 21
75.9882873367
  0
LINE
  5
2AF
100
AcDbEntity
  8
0
100
AcDbLine
 62
7
  6
BYLAYER
 10
56.7498071978
 20
77.1990301975
 11
54.2749437675
 21
75.770175659
  0
LINE
  5
2B0
100
AcDbEntity
  8
0
100
AcDbLine
 62
7
  6
BYLAYER
 10
24.5057950889
 20
58.4195669331
 11
25.2128989261
 21
58.827811087
  0
LINE
  5
2B1
100
AcDbEntity
  8
0
100
AcDbLine
 62
7
  6
BYLAYER
 10
28.041314275
 20
60.4607877025
 11
30.1626728901
 21
61.6855473591
  0
LINE
  5
2B2
100
AcDbEntity
  8
0
100
AcDbLine
 62
7
  6
BYLAYER
 10
68.3463831385
 20
75.6477770164
 11
38.6477746823
 21
92.7938887062
  0
LINE
  5
2B3
100
AcDbEntity
  8
0
100
AcDbLine
 62
7
  6
BYLAYER
 10
32.1072187463
 20
57.9299686682
 11
32.4607706649
 21
58.1340907451
  0
LINE
  5
2B4
100
AcDbEntity
  8
0
100
AcDbLine
 62
7
  6
BYLAYER
 10
68.3463831385
 20
75.6477770164
 11
68.3463831385
 21
73.769821457
  0
LINE
  5
2B5
100
AcDbEntity
  8
0
100
AcDbLine
 62
7
  6
BYLAYER
 10
69.1595525513
 20
73.8718761462
 11
69.1595525513
 21
75.1782800136
  0
LINE
  5
2B6
100
AcDbEntity
  8
0
100
AcDbLine
 62
7
  6
BYLAYER
 10
102.2873673247
 20
95.2434964022
 11
68.3463831385
 21
75.6477770164
  0
LINE
  5
2B7
100
AcDbEntity
  8
0
100
AcDbLine
 62
7
  6
BYLAYER
 10
34.9356576469
 20
56.2970056501
 11
35.2892095655
 21
56.5011277271
  0
LINE
  5
2B8
100
AcDbEntity
  8
0
100
AcDbLine
 62
7
  6
BYLAYER
 10
38.6479895919
 20
58.419776014
 11
39.3550934291
 21
58.8280201679
  0
LINE
  5
2B9
100
AcDbEntity
  8
0
100
AcDbLine
 62
7
  6
BYLAYER
 10
45.719027964
 20
62.5022175527
 11
48.6738231247
 21
64.2081591511
  0
LINE
  5
2BA
100
AcDbEntity
  8
0
100
AcDbLine
 62
7
  6
BYLAYER
 10
39.3550934291
 20
58.0115177508
 11
45.719027964
 21
61.6857151356
  0
LINE
  5
2BB
100
AcDbEntity
  8
0
100
AcDbLine
 62
7
  6
BYLAYER
 10
69.1595525513
 20
75.1782800136
 11
102.2873673247
 21
94.3045186225
  0
LINE
  5
2BC
100
AcDbEntity
  8
0
100
AcDbLine
 62
7
  6
BYLAYER
 10
101.226702737
 20
93.6104758869
 11
69.1595525513
 21
75.0966086079
  0
LINE
  5
2BD
100
AcDbEntity
  8
0
100
AcDbLine
 62
7
  6
BYLAYER
 10
69.4070477262
 20
73.1574603252
 11
69.4070477262
 21
57.3989636746
  0
LINE
  5
2BE
100
AcDbEntity
  8
0
100
AcDbLine
 62
7
  6
BYLAYER
 10
69.1595525513
 20
73.8718761462
 11
102.2873673247
 21
92.9981147551
  0
LINE
  5
2BF
100
AcDbEntity
  8
0
100
AcDbLine
 62
7
  6
BYLAYER
 10
69.4070477262
 20
73.1574603252
 11
54.5578671447
 21
64.5843330939
  0
LINE
  5
2C0
100
AcDbEntity
  8
0
100
AcDbLine
 62
7
  6
BYLAYER
 10
37.7640965475
 20
54.664042632
 11
38.1176484661
 21
54.868164709
  0
LINE
  5
2C1
100
AcDbEntity
  8
0
100
AcDbLine
 62
7
  6
BYLAYER
 10
38.6479895919
 20
50.2547518427
 11
39.3550934291
 21
50.6629959966
  0
LINE
  5
2C2
100
AcDbEntity
  8
0
100
AcDbLine
 62
7
  6
BYLAYER
 10
42.1835087779
 20
52.2959726121
 11
48.6738231247
 21
56.0431349798
  0
LINE
  5
2C3
100
AcDbEntity
  8
0
100
AcDbLine
 62
7
  6
BYLAYER
 10
69.4070477262
 20
58.6236961363
 11
102.2873673247
 21
77.6070441922
  0
LINE
  5
2C4
100
AcDbEntity
  8
0
100
AcDbLine
 62
7
  6
BYLAYER
 10
69.4070477262
 20
57.3989636746
 11
54.5578671447
 21
48.8258364433
  0
LINE
  5
2C5
100
AcDbEntity
  8
0
100
AcDbLine
 62
7
  6
BYLAYER
 10
101.226702737
 20
93.6104758869
 11
102.2873673247
 21
92.9981147551
  0
LINE
  5
2C6
100
AcDbEntity
  8
0
100
AcDbLine
 62
7
  6
BYLAYER
 10
72.5887588686
 20
112.3896080921
 11
102.2873673247
 21
95.2434964022
  0
LINE
  5
2C7
100
AcDbEntity
  8
0
100
AcDbLine
 62
7
  6
BYLAYER
 10
101.226702737
 20
93.6921472926
 11
101.226702737
 21
93.6104758869
  0
LINE
  5
2C8
100
AcDbEntity
  8
0
100
AcDbLine
 62
7
  6
BYLAYER
 10
102.2873673247
 20
95.2434964022
 11
102.2873673247
 21
94.3045186225
  0
LINE
  5
2C9
100
AcDbEntity
  8
0
100
AcDbLine
 62
7
  6
BYLAYER
 10
102.2873673247
 20
92.9981147551
 11
102.2873673247
 21
77.6070441922
  0
ARC
  5
2CA
100
AcDbEntity
  8
0
100
AcDbCircle
 62
7
  6
BYLAYER
 10
77.5668511868
 20
128.7326085318
 40
82.4545084543
100
AcDbArc
 50
234.6193694693
 51
234.8007402448
  0
SPLINE
  5
2CB
100
AcDbEntity
  8
0
100
AcDbSpline
 62
7
  6
BYLAYER
 70
0
 71
3
 72
10
 73
6
 74
0
 42
0.0000001
 43
0.0000001
 44
0.0000000001
 40
0.0
 40
0.0
 40
0.0
 40
0.0
 40
0.2296384003
 40
0.4685145487
 40
1.0
 40
1.0
 40
1.0
 40
1.0
 10
23.7165456104
 20
62.2360745026
 30
0.0
 10
23.7469991838
 20
62.2536552133
 30
0.0
 10
23.8047949034
 20
62.297682835
 30
0.0
 10
23.9010479419
 20
62.418296794
 30
0.0
 10
23.941423557
 20
62.5331755208
 30
0.0
 10
23.9572624532
 20
62.6130043523
 30
0.0
  0
SPLINE
  5
2CC
100
AcDbEntity
  8
0
100
AcDbSpline
 62
7
  6
BYLAYER
 70
0
 71
3
 72
9
 73
5
 74
0
 42
0.0000001
 43
0.0000001
 44
0.0000000001
 40
0.0
 40
0.0
 40
0.0
 40
0.0
 40
0.2402785126
 40
1.0
 40
1.0
 40
1.0
 40
1.0
 10
23.9572624532
 20
62.6130043523
 30
0.0
 10
23.9603219735
 20
62.6284244882
 30
0.0
 10
23.971281942
 20
62.6929481154
 30
0.0
 10
23.9754627951
 20
62.7585532089
 30
0.0
 10
23.9754627951
 20
62.8082595847
 30
0.0
  0
SPLINE
  5
2CD
100
AcDbEntity
  8
0
100
AcDbSpline
 62
7
  6
BYLAYER
 70
0
 71
3
 72
9
 73
5
 74
0
 42
0.0000001
 43
0.0000001
 44
0.0000000001
 40
0.0
 40
0.0
 40
0.0
 40
0.0
 40
0.2450216569
 40
1.0
 40
1.0
 40
1.0
 40
1.0
 10
43.9186208742
 20
53.2881757886
 30
0.0
 10
44.7686647474
 20
52.8810920845
 30
0.0
 10
48.2591280088
 20
51.2641654856
 30
0.0
 10
51.8300563618
 20
49.8221797729
 30
0.0
 10
54.5578671447
 20
48.8258364433
 30
0.0
  0
SPLINE
  5
2CE
100
AcDbEntity
  8
0
100
AcDbSpline
 62
7
  6
BYLAYER
 70
0
 71
3
 72
10
 73
6
 74
0
 42
0.0000001
 43
0.0000001
 44
0.0000000001
 40
0.0
 40
0.0
 40
0.0
 40
0.0
 40
0.2296384003
 40
0.4685145487
 40
1.0
 40
1.0
 40
1.0
 40
1.0
 10
20.8881067099
 20
63.8690375207
 30
0.0
 10
20.9185602833
 20
63.8866182314
 30
0.0
 10
20.9763560029
 20
63.9306458531
 30
0.0
 10
21.0726090413
 20
64.0512598121
 30
0.0
 10
21.1129846565
 20
64.1661385389
 30
0.0
 10
21.1288235526
 20
64.2459673704
 30
0.0
  0
SPLINE
  5
2CF
100
AcDbEntity
  8
0
100
AcDbSpline
 62
7
  6
BYLAYER
 70
0
 71
3
 72
9
 73
5
 74
0
 42
0.0000001
 43
0.0000001
 44
0.0000000001
 40
0.0
 40
0.0
 40
0.0
 40
0.0
 40
0.2402785126
 40
1.0
 40
1.0
 40
1.0
 40
1.0
 10
21.1288235526
 20
64.2459673704
 30
0.0
 10
21.1318830729
 20
64.2613875062
 30
0.0
 10
21.1428430414
 20
64.3259111334
 30
0.0
 10
21.1470238945
 20
64.391516227
 30
0.0
 10
21.1470238945
 20
64.4412226027
 30
0.0
  0
SPLINE
  5
2D0
100
AcDbEntity
  8
0
100
AcDbSpline
 62
7
  6
BYLAYER
 70
0
 71
3
 72
10
 73
6
 74
0
 42
0.0000001
 43
0.0000001
 44
0.0000000001
 40
0.0
 40
0.0
 40
0.0
 40
0.0
 40
0.2296384003
 40
0.4685145487
 40
1.0
 40
1.0
 40
1.0
 40
1.0
 10
15.2312289087
 20
67.1349635569
 30
0.0
 10
15.2616824821
 20
67.1525442675
 30
0.0
 10
15.3194782017
 20
67.1965718893
 30
0.0
 10
15.4157312401
 20
67.3171858483
 30
0.0
 10
15.4561068553
 20
67.4320645751
 30
0.0
 10
15.4719457514
 20
67.5118934065
 30
0.0
  0
SPLINE
  5
2D1
100
AcDbEntity
  8
0
100
AcDbSpline
 62
7
  6
BYLAYER
 70
0
 71
3
 72
9
 73
5
 74
0
 42
0.0000001
 43
0.0000001
 44
0.0000000001
 40
0.0
 40
0.0
 40
0.0
 40
0.0
 40
0.2402785126
 40
1.0
 40
1.0
 40
1.0
 40
1.0
 10
15.4719457514
 20
67.5118934065
 30
0.0
 10
15.4750052717
 20
67.5273135424
 30
0.0
 10
15.4859652403
 20
67.5918371696
 30
0.0
 10
15.4901460933
 20
67.6574422632
 30
0.0
 10
15.4901460933
 20
67.7071486389
 30
0.0
  0
SPLINE
  5
2D2
100
AcDbEntity
  8
0
100
AcDbSpline
 62
7
  6
BYLAYER
 70
0
 71
3
 72
10
 73
6
 74
0
 42
0.0000001
 43
0.0000001
 44
0.0000000001
 40
0.0
 40
0.0
 40
0.0
 40
0.0
 40
0.2296384003
 40
0.4685145487
 40
1.0
 40
1.0
 40
1.0
 40
1.0
 10
18.0596678093
 20
65.5020005388
 30
0.0
 10
18.0901213827
 20
65.5195812494
 30
0.0
 10
18.1479171023
 20
65.5636088712
 30
0.0
 10
18.2441701407
 20
65.6842228302
 30
0.0
 10
18.2845457559
 20
65.799101557
 30
0.0
 10
18.300384652
 20
65.8789303885
 30
0.0
  0
SPLINE
  5
2D3
100
AcDbEntity
  8
0
100
AcDbSpline
 62
7
  6
BYLAYER
 70
0
 71
3
 72
9
 73
5
 74
0
 42
0.0000001
 43
0.0000001
 44
0.0000000001
 40
0.0
 40
0.0
 40
0.0
 40
0.0
 40
0.2402785126
 40
1.0
 40
1.0
 40
1.0
 40
1.0
 10
18.300384652
 20
65.8789303885
 30
0.0
 10
18.3034441723
 20
65.8943505243
 30
0.0
 10
18.3144041408
 20
65.9588741515
 30
0.0
 10
18.3185849939
 20
66.0244792451
 30
0.0
 10
18.3185849939
 20
66.0741856208
 30
0.0
  0
SPLINE
  5
2D4
100
AcDbEntity
  8
0
100
AcDbSpline
 62
7
  6
BYLAYER
 70
0
 71
3
 72
10
 73
6
 74
0
 42
0.0000001
 43
0.0000001
 44
0.0000000001
 40
0.0
 40
0.0
 40
0.0
 40
0.0
 40
0.2296384003
 40
0.4685145487
 40
1.0
 40
1.0
 40
1.0
 40
1.0
 10
37.8587401134
 20
54.0712594122
 30
0.0
 10
37.8891936868
 20
54.0888401229
 30
0.0
 10
37.9469894064
 20
54.1328677446
 30
0.0
 10
38.0432424448
 20
54.2534817036
 30
0.0
 10
38.08361806
 20
54.3683604304
 30
0.0
 10
38.0994569561
 20
54.4481892619
 30
0.0
  0
SPLINE
  5
2D5
100
AcDbEntity
  8
0
100
AcDbSpline
 62
7
  6
BYLAYER
 70
0
 71
3
 72
9
 73
5
 74
0
 42
0.0000001
 43
0.0000001
 44
0.0000000001
 40
0.0
 40
0.0
 40
0.0
 40
0.0
 40
0.2402785126
 40
1.0
 40
1.0
 40
1.0
 40
1.0
 10
38.0994569561
 20
54.4481892619
 30
0.0
 10
38.1025164764
 20
54.4636093978
 30
0.0
 10
38.113476445
 20
54.528133025
 30
0.0
 10
38.117657298
 20
54.5937381185
 30
0.0
 10
38.117657298
 20
54.6434444943
 30
0.0
  0
SPLINE
  5
2D6
100
AcDbEntity
  8
0
100
AcDbSpline
 62
7
  6
BYLAYER
 70
0
 71
3
 72
10
 73
6
 74
0
 42
0.0000001
 43
0.0000001
 44
0.0000000001
 40
0.0
 40
0.0
 40
0.0
 40
0.0
 40
0.2296384003
 40
0.4685145487
 40
1.0
 40
1.0
 40
1.0
 40
1.0
 10
32.2018623122
 20
57.3371854484
 30
0.0
 10
32.2323158856
 20
57.354766159
 30
0.0
 10
32.2901116052
 20
57.3987937808
 30
0.0
 10
32.3863646437
 20
57.5194077398
 30
0.0
 10
32.4267402588
 20
57.6342864666
 30
0.0
 10
32.442579155
 20
57.7141152981
 30
0.0
  0
SPLINE
  5
2D7
100
AcDbEntity
  8
0
100
AcDbSpline
 62
7
  6
BYLAYER
 70
0
 71
3
 72
9
 73
5
 74
0
 42
0.0000001
 43
0.0000001
 44
0.0000000001
 40
0.0
 40
0.0
 40
0.0
 40
0.0
 40
0.2402785126
 40
1.0
 40
1.0
 40
1.0
 40
1.0
 10
32.442579155
 20
57.7141152981
 30
0.0
 10
32.4456386753
 20
57.7295354339
 30
0.0
 10
32.4565986438
 20
57.7940590611
 30
0.0
 10
32.4607794968
 20
57.8596641547
 30
0.0
 10
32.4607794968
 20
57.9093705304
 30
0.0
  0
SPLINE
  5
2D8
100
AcDbEntity
  8
0
100
AcDbSpline
 62
7
  6
BYLAYER
 70
0
 71
3
 72
10
 73
6
 74
0
 42
0.0000001
 43
0.0000001
 44
0.0000000001
 40
0.0
 40
0.0
 40
0.0
 40
0.0
 40
0.2296384003
 40
0.4685145487
 40
1.0
 40
1.0
 40
1.0
 40
1.0
 10
35.0303012128
 20
55.7042224303
 30
0.0
 10
35.0607547862
 20
55.721803141
 30
0.0
 10
35.1185505058
 20
55.7658307627
 30
0.0
 10
35.2148035443
 20
55.8864447217
 30
0.0
 10
35.2551791594
 20
56.0013234485
 30
0.0
 10
35.2710180555
 20
56.08115228
 30
0.0
  0
SPLINE
  5
2D9
100
AcDbEntity
  8
0
100
AcDbSpline
 62
7
  6
BYLAYER
 70
0
 71
3
 72
9
 73
5
 74
0
 42
0.0000001
 43
0.0000001
 44
0.0000000001
 40
0.0
 40
0.0
 40
0.0
 40
0.0
 40
0.2402785126
 40
1.0
 40
1.0
 40
1.0
 40
1.0
 10
35.2710180555
 20
56.08115228
 30
0.0
 10
35.2740775759
 20
56.0965724158
 30
0.0
 10
35.2850375444
 20
56.161096043
 30
0.0
 10
35.2892183974
 20
56.2267011366
 30
0.0
 10
35.2892183974
 20
56.2764075123
 30
0.0
  0
SPLINE
  5
2DA
100
AcDbEntity
  8
0
100
AcDbSpline
 62
7
  6
BYLAYER
 70
0
 71
3
 72
8
 73
4
 74
0
 42
0.0000001
 43
0.0000001
 44
0.0000000001
 40
0.0
 40
0.0
 40
0.0
 40
0.0
 40
1.0
 40
1.0
 40
1.0
 40
1.0
 10
56.6583789628
 20
78.7792119862
 30
0.0
 10
56.6534486361
 20
78.7820509937
 30
0.0
 10
56.647638773
 20
78.7835982911
 30
0.0
 10
56.6419553739
 20
78.7838572525
 30
0.0
  0
SPLINE
  5
2DB
100
AcDbEntity
  8
0
100
AcDbSpline
 62
7
  6
BYLAYER
 70
0
 71
3
 72
9
 73
5
 74
0
 42
0.0000001
 43
0.0000001
 44
0.0000000001
 40
0.0
 40
0.0
 40
0.0
 40
0.0
 40
0.4373495712
 40
1.0
 40
1.0
 40
1.0
 40
1.0
 10
56.6419553739
 20
78.7838572525
 30
0.0
 10
56.6291811906
 20
78.784439302
 30
0.0
 10
56.6000715306
 20
78.7727940375
 30
0.0
 10
56.5794111045
 20
78.7516073752
 30
0.0
 10
56.5695538512
 20
78.7384365213
 30
0.0
  0
SPLINE
  5
2DC
100
AcDbEntity
  8
0
100
AcDbSpline
 62
7
  6
BYLAYER
 70
0
 71
3
 72
11
 73
7
 74
0
 42
0.0000001
 43
0.0000001
 44
0.0000000001
 40
0.0
 40
0.0
 40
0.0
 40
0.0
 40
0.1916843664
 40
0.4185583341
 40
0.6922437248
 40
1.0
 40
1.0
 40
1.0
 40
1.0
 10
55.8805576764
 20
79.4612833535
 30
0.0
 10
55.8747318903
 20
79.4646379893
 30
0.0
 10
55.8594788163
 20
79.4677923143
 30
0.0
 10
55.8356471103
 20
79.460601743
 30
0.0
 10
55.8120752137
 20
79.4443360917
 30
0.0
 10
55.7981998204
 20
79.4291491679
 30
0.0
 10
55.7917325648
 20
79.4205078887
 30
0.0
  0
SPLINE
  5
2DD
100
AcDbEntity
  8
0
100
AcDbSpline
 62
7
  6
BYLAYER
 70
0
 71
3
 72
8
 73
4
 74
0
 42
0.0000001
 43
0.0000001
 44
0.0000000001
 40
0.0
 40
0.0
 40
0.0
 40
0.0
 40
1.0
 40
1.0
 40
1.0
 40
1.0
 10
54.3956278424
 20
80.0855824006
 30
0.0
 10
54.3906975156
 20
80.0884214081
 30
0.0
 10
54.3848876525
 20
80.0899687056
 30
0.0
 10
54.3792042535
 20
80.0902276669
 30
0.0
  0
SPLINE
  5
2DE
100
AcDbEntity
  8
0
100
AcDbSpline
 62
7
  6
BYLAYER
 70
0
 71
3
 72
9
 73
5
 74
0
 42
0.0000001
 43
0.0000001
 44
0.0000000001
 40
0.0
 40
0.0
 40
0.0
 40
0.0
 40
0.4373495712
 40
1.0
 40
1.0
 40
1.0
 40
1.0
 10
54.3792042535
 20
80.0902276669
 30
0.0
 10
54.3664300701
 20
80.0908097165
 30
0.0
 10
54.3373204101
 20
80.0791644519
 30
0.0
 10
54.316659984
 20
80.0579777896
 30
0.0
 10
54.3068027308
 20
80.0448069358
 30
0.0
  0
SPLINE
  5
2DF
100
AcDbEntity
  8
0
100
AcDbSpline
 62
7
  6
BYLAYER
 70
0
 71
3
 72
11
 73
7
 74
0
 42
0.0000001
 43
0.0000001
 44
0.0000000001
 40
0.0
 40
0.0
 40
0.0
 40
0.0
 40
0.1916843664
 40
0.4185583341
 40
0.6922437248
 40
1.0
 40
1.0
 40
1.0
 40
1.0
 10
53.6178065559
 20
80.767653768
 30
0.0
 10
53.6119807698
 20
80.7710084037
 30
0.0
 10
53.5967276958
 20
80.7741627288
 30
0.0
 10
53.5728959898
 20
80.7669721575
 30
0.0
 10
53.5493240932
 20
80.7507065062
 30
0.0
 10
53.5354486999
 20
80.7355195824
 30
0.0
 10
53.5289814443
 20
80.7268783031
 30
0.0
  0
SPLINE
  5
2E0
100
AcDbEntity
  8
0
100
AcDbSpline
 62
7
  6
BYLAYER
 70
0
 71
3
 72
8
 73
4
 74
0
 42
0.0000001
 43
0.0000001
 44
0.0000000001
 40
0.0
 40
0.0
 40
0.0
 40
0.0
 40
1.0
 40
1.0
 40
1.0
 40
1.0
 10
52.1328767219
 20
81.3919528151
 30
0.0
 10
52.1279463951
 20
81.3947918226
 30
0.0
 10
52.122136532
 20
81.39633912
 30
0.0
 10
52.116453133
 20
81.3965980814
 30
0.0
  0
SPLINE
  5
2E1
100
AcDbEntity
  8
0
100
AcDbSpline
 62
7
  6
BYLAYER
 70
0
 71
3
 72
9
 73
5
 74
0
 42
0.0000001
 43
0.0000001
 44
0.0000000001
 40
0.0
 40
0.0
 40
0.0
 40
0.0
 40
0.4373495712
 40
1.0
 40
1.0
 40
1.0
 40
1.0
 10
52.116453133
 20
81.3965980814
 30
0.0
 10
52.1036789497
 20
81.397180131
 30
0.0
 10
52.0745692897
 20
81.3855348664
 30
0.0
 10
52.0539088636
 20
81.3643482041
 30
0.0
 10
52.0440516103
 20
81.3511773502
 30
0.0
  0
SPLINE
  5
2E2
100
AcDbEntity
  8
0
100
AcDbSpline
 62
7
  6
BYLAYER
 70
0
 71
3
 72
11
 73
7
 74
0
 42
0.0000001
 43
0.0000001
 44
0.0000000001
 40
0.0
 40
0.0
 40
0.0
 40
0.0
 40
0.1916843664
 40
0.4185583341
 40
0.6922437248
 40
1.0
 40
1.0
 40
1.0
 40
1.0
 10
51.3550554354
 20
82.0740241825
 30
0.0
 10
51.3492296493
 20
82.0773788182
 30
0.0
 10
51.3339765753
 20
82.0805331432
 30
0.0
 10
51.3101448693
 20
82.073342572
 30
0.0
 10
51.2865729728
 20
82.0570769207
 30
0.0
 10
51.2726975794
 20
82.0418899969
 30
0.0
 10
51.2662303238
 20
82.0332487176
 30
0.0
  0
SPLINE
  5
2E3
100
AcDbEntity
  8
0
100
AcDbSpline
 62
7
  6
BYLAYER
 70
0
 71
3
 72
8
 73
4
 74
0
 42
0.0000001
 43
0.0000001
 44
0.0000000001
 40
0.0
 40
0.0
 40
0.0
 40
0.0
 40
1.0
 40
1.0
 40
1.0
 40
1.0
 10
49.8701256014
 20
82.6983232296
 30
0.0
 10
49.8651952746
 20
82.7011622371
 30
0.0
 10
49.8593854116
 20
82.7027095345
 30
0.0
 10
49.8537020125
 20
82.7029684959
 30
0.0
  0
SPLINE
  5
2E4
100
AcDbEntity
  8
0
100
AcDbSpline
 62
7
  6
BYLAYER
 70
0
 71
3
 72
9
 73
5
 74
0
 42
0.0000001
 43
0.0000001
 44
0.0000000001
 40
0.0
 40
0.0
 40
0.0
 40
0.0
 40
0.4373495712
 40
1.0
 40
1.0
 40
1.0
 40
1.0
 10
49.8537020125
 20
82.7029684959
 30
0.0
 10
49.8409278292
 20
82.7035505454
 30
0.0
 10
49.8118181692
 20
82.6919052809
 30
0.0
 10
49.7911577431
 20
82.6707186186
 30
0.0
 10
49.7813004898
 20
82.6575477647
 30
0.0
  0
SPLINE
  5
2E5
100
AcDbEntity
  8
0
100
AcDbSpline
 62
7
  6
BYLAYER
 70
0
 71
3
 72
11
 73
7
 74
0
 42
0.0000001
 43
0.0000001
 44
0.0000000001
 40
0.0
 40
0.0
 40
0.0
 40
0.0
 40
0.1916843664
 40
0.4185583341
 40
0.6922437248
 40
1.0
 40
1.0
 40
1.0
 40
1.0
 10
49.092304315
 20
83.3803945969
 30
0.0
 10
49.0864785289
 20
83.3837492327
 30
0.0
 10
49.0712254548
 20
83.3869035577
 30
0.0
 10
49.0473937488
 20
83.3797129864
 30
0.0
 10
49.0238218523
 20
83.3634473351
 30
0.0
 10
49.009946459
 20
83.3482604113
 30
0.0
 10
49.0034792034
 20
83.3396191321
 30
0.0
  0
SPLINE
  5
2E6
100
AcDbEntity
  8
0
100
AcDbSpline
 62
7
  6
BYLAYER
 70
0
 71
3
 72
8
 73
4
 74
0
 42
0.0000001
 43
0.0000001
 44
0.0000000001
 40
0.0
 40
0.0
 40
0.0
 40
0.0
 40
1.0
 40
1.0
 40
1.0
 40
1.0
 10
47.607374481
 20
84.004693644
 30
0.0
 10
47.6024441542
 20
84.0075326515
 30
0.0
 10
47.5966342911
 20
84.0090799489
 30
0.0
 10
47.5909508921
 20
84.0093389103
 30
0.0
  0
SPLINE
  5
2E7
100
AcDbEntity
  8
0
100
AcDbSpline
 62
7
  6
BYLAYER
 70
0
 71
3
 72
9
 73
5
 74
0
 42
0.0000001
 43
0.0000001
 44
0.0000000001
 40
0.0
 40
0.0
 40
0.0
 40
0.0
 40
0.4373495712
 40
1.0
 40
1.0
 40
1.0
 40
1.0
 10
47.5909508921
 20
84.0093389103
 30
0.0
 10
47.5781767087
 20
84.0099209599
 30
0.0
 10
47.5490670487
 20
83.9982756953
 30
0.0
 10
47.5284066226
 20
83.977089033
 30
0.0
 10
47.5185493694
 20
83.9639181792
 30
0.0
  0
SPLINE
  5
2E8
100
AcDbEntity
  8
0
100
AcDbSpline
 62
7
  6
BYLAYER
 70
0
 71
3
 72
11
 73
7
 74
0
 42
0.0000001
 43
0.0000001
 44
0.0000000001
 40
0.0
 40
0.0
 40
0.0
 40
0.0
 40
0.1916843664
 40
0.4185583341
 40
0.6922437248
 40
1.0
 40
1.0
 40
1.0
 40
1.0
 10
46.8295531945
 20
84.6867650114
 30
0.0
 10
46.8237274084
 20
84.6901196471
 30
0.0
 10
46.8084743344
 20
84.6932739722
 30
0.0
 10
46.7846426284
 20
84.6860834009
 30
0.0
 10
46.7610707318
 20
84.6698177496
 30
0.0
 10
46.7471953385
 20
84.6546308258
 30
0.0
 10
46.7407280829
 20
84.6459895465
 30
0.0
  0
SPLINE
  5
2E9
100
AcDbEntity
  8
0
100
AcDbSpline
 62
7
  6
BYLAYER
 70
0
 71
3
 72
8
 73
4
 74
0
 42
0.0000001
 43
0.0000001
 44
0.0000000001
 40
0.0
 40
0.0
 40
0.0
 40
0.0
 40
1.0
 40
1.0
 40
1.0
 40
1.0
 10
45.3446233605
 20
85.3110640585
 30
0.0
 10
45.3396930337
 20
85.313903066
 30
0.0
 10
45.3338831706
 20
85.3154503634
 30
0.0
 10
45.3281997716
 20
85.3157093248
 30
0.0
  0
SPLINE
  5
2EA
100
AcDbEntity
  8
0
100
AcDbSpline
 62
7
  6
BYLAYER
 70
0
 71
3
 72
9
 73
5
 74
0
 42
0.0000001
 43
0.0000001
 44
0.0000000001
 40
0.0
 40
0.0
 40
0.0
 40
0.0
 40
0.4373495712
 40
1.0
 40
1.0
 40
1.0
 40
1.0
 10
45.3281997716
 20
85.3157093248
 30
0.0
 10
45.3154255883
 20
85.3162913744
 30
0.0
 10
45.2863159282
 20
85.3046461098
 30
0.0
 10
45.2656555021
 20
85.2834594475
 30
0.0
 10
45.2557982489
 20
85.2702885936
 30
0.0
  0
SPLINE
  5
2EB
100
AcDbEntity
  8
0
100
AcDbSpline
 62
7
  6
BYLAYER
 70
0
 71
3
 72
11
 73
7
 74
0
 42
0.0000001
 43
0.0000001
 44
0.0000000001
 40
0.0
 40
0.0
 40
0.0
 40
0.0
 40
0.1916843664
 40
0.4185583341
 40
0.6922437248
 40
1.0
 40
1.0
 40
1.0
 40
1.0
 10
44.566802074
 20
85.9931354258
 30
0.0
 10
44.5609762879
 20
85.9964900616
 30
0.0
 10
44.5457232139
 20
85.9996443866
 30
0.0
 10
44.5218915079
 20
85.9924538154
 30
0.0
 10
44.4983196114
 20
85.9761881641
 30
0.0
 10
44.484444218
 20
85.9610012403
 30
0.0
 10
44.4779769624
 20
85.952359961
 30
0.0
  0
SPLINE
  5
2EC
100
AcDbEntity
  8
0
100
AcDbSpline
 62
7
  6
BYLAYER
 70
0
 71
3
 72
17
 73
13
 74
0
 42
0.0000001
 43
0.0000001
 44
0.0000000001
 40
0.0
 40
0.0
 40
0.0
 40
0.0
 40
0.1286846513
 40
0.2703032228
 40
0.4174430309
 40
0.5617811216
 40
0.695448235
 40
0.8127121431
 40
0.8646788239
 40
0.9125086207
 40
0.9571391214
 40
1.0
 40
1.0
 40
1.0
 40
1.0
 10
35.2892183974
 20
56.2764075123
 30
0.0
 10
35.2892183974
 20
56.3832468835
 30
0.0
 10
35.2593062416
 20
56.6079160336
 30
0.0
 10
35.1477722742
 20
56.9377879963
 30
0.0
 10
34.9758230248
 20
57.2555312924
 30
0.0
 10
34.7574078029
 20
57.5351161841
 30
0.0
 10
34.5102884735
 20
57.7539748853
 30
0.0
 10
34.2866087381
 20
57.8762330254
 30
0.0
 10
34.1116536018
 20
57.9228477801
 30
0.0
 10
33.9912336945
 20
57.9316448876
 30
0.0
 10
33.8790873213
 20
57.9152866842
 30
0.0
 10
33.8111794199
 20
57.8869856602
 30
0.0
 10
33.7803612691
 20
57.8691944807
 30
0.0
  0
SPLINE
  5
2ED
100
AcDbEntity
  8
0
100
AcDbSpline
 62
7
  6
BYLAYER
 70
0
 71
3
 72
17
 73
13
 74
0
 42
0.0000001
 43
0.0000001
 44
0.0000000001
 40
0.0
 40
0.0
 40
0.0
 40
0.0
 40
0.1286846513
 40
0.2703032228
 40
0.4174430309
 40
0.5617811216
 40
0.695448235
 40
0.8127121431
 40
0.8646788239
 40
0.9125086207
 40
0.9571391214
 40
1.0
 40
1.0
 40
1.0
 40
1.0
 10
32.4607794968
 20
57.9093705304
 30
0.0
 10
32.4607794968
 20
58.0162099016
 30
0.0
 10
32.430867341
 20
58.2408790517
 30
0.0
 10
32.3193333736
 20
58.5707510144
 30
0.0
 10
32.1473841242
 20
58.8884943104
 30
0.0
 10
31.9289689023
 20
59.1680792022
 30
0.0
 10
31.6818495729
 20
59.3869379034
 30
0.0
 10
31.4581698375
 20
59.5091960434
 30
0.0
 10
31.2832147012
 20
59.5558107982
 30
0.0
 10
31.1627947939
 20
59.5646079056
 30
0.0
 10
31.0506484207
 20
59.5482497023
 30
0.0
 10
30.9827405193
 20
59.5199486783
 30
0.0
 10
30.9519223686
 20
59.5021574987
 30
0.0
  0
SPLINE
  5
2EE
100
AcDbEntity
  8
0
100
AcDbSpline
 62
7
  6
BYLAYER
 70
0
 71
3
 72
17
 73
13
 74
0
 42
0.0000001
 43
0.0000001
 44
0.0000000001
 40
0.0
 40
0.0
 40
0.0
 40
0.0
 40
0.1286846513
 40
0.2703032228
 40
0.4174430309
 40
0.5617811216
 40
0.695448235
 40
0.8127121431
 40
0.8646788239
 40
0.9125086207
 40
0.9571391214
 40
1.0
 40
1.0
 40
1.0
 40
1.0
 10
38.117657298
 20
54.6434444943
 30
0.0
 10
38.117657298
 20
54.7502838655
 30
0.0
 10
38.0877451422
 20
54.9749530155
 30
0.0
 10
37.9762111748
 20
55.3048249782
 30
0.0
 10
37.8042619254
 20
55.6225682743
 30
0.0
 10
37.5858467034
 20
55.902153166
 30
0.0
 10
37.3387273741
 20
56.1210118672
 30
0.0
 10
37.1150476387
 20
56.2432700073
 30
0.0
 10
36.9400925024
 20
56.289884762
 30
0.0
 10
36.8196725951
 20
56.2986818695
 30
0.0
 10
36.7075262218
 20
56.2823236661
 30
0.0
 10
36.6396183205
 20
56.2540226421
 30
0.0
 10
36.6088001697
 20
56.2362314626
 30
0.0
  0
SPLINE
  5
2EF
100
AcDbEntity
  8
0
100
AcDbSpline
 62
7
  6
BYLAYER
 70
0
 71
3
 72
17
 73
13
 74
0
 42
0.0000001
 43
0.0000001
 44
0.0000000001
 40
0.0
 40
0.0
 40
0.0
 40
0.0
 40
0.1286846513
 40
0.2703032228
 40
0.4174430309
 40
0.5617811216
 40
0.695448235
 40
0.8127121431
 40
0.8646788239
 40
0.9125086207
 40
0.9571391214
 40
1.0
 40
1.0
 40
1.0
 40
1.0
 10
23.9754627951
 20
62.8082595847
 30
0.0
 10
23.9754627951
 20
62.9150989559
 30
0.0
 10
23.9455506392
 20
63.139768106
 30
0.0
 10
23.8340166718
 20
63.4696400686
 30
0.0
 10
23.6620674224
 20
63.7873833647
 30
0.0
 10
23.4436522005
 20
64.0669682564
 30
0.0
 10
23.1965328711
 20
64.2858269576
 30
0.0
 10
22.9728531358
 20
64.4080850977
 30
0.0
 10
22.7978979995
 20
64.4546998524
 30
0.0
 10
22.6774780922
 20
64.4634969599
 30
0.0
 10
22.5653317189
 20
64.4471387565
 30
0.0
 10
22.4974238175
 20
64.4188377325
 30
0.0
 10
22.4666056668
 20
64.401046553
 30
0.0
  0
SPLINE
  5
2F0
100
AcDbEntity
  8
0
100
AcDbSpline
 62
7
  6
BYLAYER
 70
0
 71
3
 72
17
 73
13
 74
0
 42
0.0000001
 43
0.0000001
 44
0.0000000001
 40
0.0
 40
0.0
 40
0.0
 40
0.0
 40
0.1286846513
 40
0.2703032228
 40
0.4174430309
 40
0.5617811216
 40
0.695448235
 40
0.8127121431
 40
0.8646788239
 40
0.9125086207
 40
0.9571391214
 40
1.0
 40
1.0
 40
1.0
 40
1.0
 10
21.1470238945
 20
64.4412226027
 30
0.0
 10
21.1470238945
 20
64.5480619739
 30
0.0
 10
21.1171117386
 20
64.772731124
 30
0.0
 10
21.0055777712
 20
65.1026030867
 30
0.0
 10
20.8336285219
 20
65.4203463828
 30
0.0
 10
20.6152132999
 20
65.6999312745
 30
0.0
 10
20.3680939706
 20
65.9187899757
 30
0.0
 10
20.1444142352
 20
66.0410481158
 30
0.0
 10
19.9694590989
 20
66.0876628705
 30
0.0
 10
19.8490391916
 20
66.096459978
 30
0.0
 10
19.7368928183
 20
66.0801017746
 30
0.0
 10
19.6689849169
 20
66.0518007506
 30
0.0
 10
19.6381667662
 20
66.0340095711
 30
0.0
  0
SPLINE
  5
2F1
100
AcDbEntity
  8
0
100
AcDbSpline
 62
7
  6
BYLAYER
 70
0
 71
3
 72
17
 73
13
 74
0
 42
0.0000001
 43
0.0000001
 44
0.0000000001
 40
0.0
 40
0.0
 40
0.0
 40
0.0
 40
0.1286846513
 40
0.2703032228
 40
0.4174430309
 40
0.5617811216
 40
0.695448235
 40
0.8127121431
 40
0.8646788239
 40
0.9125086207
 40
0.9571391214
 40
1.0
 40
1.0
 40
1.0
 40
1.0
 10
15.4901460933
 20
67.7071486389
 30
0.0
 10
15.4901460933
 20
67.8139880101
 30
0.0
 10
15.4602339375
 20
68.0386571602
 30
0.0
 10
15.3486999701
 20
68.3685291229
 30
0.0
 10
15.1767507207
 20
68.6862724189
 30
0.0
 10
14.9583354987
 20
68.9658573107
 30
0.0
 10
14.7112161694
 20
69.1847160119
 30
0.0
 10
14.487536434
 20
69.3069741519
 30
0.0
 10
14.3125812977
 20
69.3535889067
 30
0.0
 10
14.1921613904
 20
69.3623860141
 30
0.0
 10
14.0800150171
 20
69.3460278108
 30
0.0
 10
14.0121071158
 20
69.3177267867
 30
0.0
 10
13.981288965
 20
69.2999356072
 30
0.0
  0
SPLINE
  5
2F2
100
AcDbEntity
  8
0
100
AcDbSpline
 62
7
  6
BYLAYER
 70
0
 71
3
 72
17
 73
13
 74
0
 42
0.0000001
 43
0.0000001
 44
0.0000000001
 40
0.0
 40
0.0
 40
0.0
 40
0.0
 40
0.1286846513
 40
0.2703032228
 40
0.4174430309
 40
0.5617811216
 40
0.695448235
 40
0.8127121431
 40
0.8646788239
 40
0.9125086207
 40
0.9571391214
 40
1.0
 40
1.0
 40
1.0
 40
1.0
 10
18.3185849939
 20
66.0741856208
 30
0.0
 10
18.3185849939
 20
66.181024992
 30
0.0
 10
18.2886728381
 20
66.4056941421
 30
0.0
 10
18.1771388707
 20
66.7355661048
 30
0.0
 10
18.0051896213
 20
67.0533094009
 30
0.0
 10
17.7867743993
 20
67.3328942926
 30
0.0
 10
17.53965507
 20
67.5517529938
 30
0.0
 10
17.3159753346
 20
67.6740111338
 30
0.0
 10
17.1410201983
 20
67.7206258886
 30
0.0
 10
17.020600291
 20
67.7294229961
 30
0.0
 10
16.9084539177
 20
67.7130647927
 30
0.0
 10
16.8405460163
 20
67.6847637687
 30
0.0
 10
16.8097278656
 20
67.6669725892
 30
0.0
  0
SPLINE
  5
2F3
100
AcDbEntity
  8
0
100
AcDbSpline
 62
7
  6
BYLAYER
 70
0
 71
3
 72
11
 73
7
 74
0
 42
0.0000001
 43
0.0000001
 44
0.0000000001
 40
0.0
 40
0.0
 40
0.0
 40
0.0
 40
0.3077562752
 40
0.5814416659
 40
0.8083156336
 40
1.0
 40
1.0
 40
1.0
 40
1.0
 10
54.3775131145
 20
80.2369893977
 30
0.0
 10
54.3839803701
 20
80.245630677
 30
0.0
 10
54.3978557634
 20
80.2608176008
 30
0.0
 10
54.42142766
 20
80.2770832521
 30
0.0
 10
54.445259366
 20
80.2842738234
 30
0.0
 10
54.46051244
 20
80.2811194983
 30
0.0
 10
54.4663382261
 20
80.2777648626
 30
0.0
  0
SPLINE
  5
2F4
100
AcDbEntity
  8
0
100
AcDbSpline
 62
7
  6
BYLAYER
 70
0
 71
3
 72
11
 73
7
 74
0
 42
0.0000001
 43
0.0000001
 44
0.0000000001
 40
0.0
 40
0.0
 40
0.0
 40
0.0
 40
0.2701064289
 40
0.5273937597
 40
0.7708460509
 40
1.0
 40
1.0
 40
1.0
 40
1.0
 10
54.5578671447
 20
64.5843330939
 30
0.0
 10
51.4324691327
 20
65.7258966808
 30
0.0
 10
45.4123615391
 20
68.1910057101
 30
0.0
 10
36.9547750518
 20
72.5363096224
 30
0.0
 10
29.3725376003
 20
77.3952563017
 30
0.0
 10
24.8230775881
 20
81.0523350328
 30
0.0
 10
22.7379295131
 20
82.9551670473
 30
0.0
  0
SPLINE
  5
2F5
100
AcDbEntity
  8
0
100
AcDbSpline
 62
7
  6
BYLAYER
 70
0
 71
3
 72
11
 73
7
 74
0
 42
0.0000001
 43
0.0000001
 44
0.0000000001
 40
0.0
 40
0.0
 40
0.0
 40
0.0
 40
0.3077562752
 40
0.5814416659
 40
0.8083156336
 40
1.0
 40
1.0
 40
1.0
 40
1.0
 10
56.640264235
 20
78.9306189832
 30
0.0
 10
56.6467314905
 20
78.9392602625
 30
0.0
 10
56.6606068839
 20
78.9544471863
 30
0.0
 10
56.6841787804
 20
78.9707128376
 30
0.0
 10
56.7080104864
 20
78.9779034089
 30
0.0
 10
56.7232635604
 20
78.9747490838
 30
0.0
 10
56.7290893466
 20
78.9713944481
 30
0.0
  0
SPLINE
  5
2F6
100
AcDbEntity
  8
0
100
AcDbSpline
 62
7
  6
BYLAYER
 70
0
 71
3
 72
11
 73
7
 74
0
 42
0.0000001
 43
0.0000001
 44
0.0000000001
 40
0.0
 40
0.0
 40
0.0
 40
0.0
 40
0.2177239861
 40
0.4508730345
 40
0.7104683317
 40
1.0
 40
1.0
 40
1.0
 40
1.0
 10
13.981288965
 20
69.2999356072
 30
0.0
 10
13.9400667048
 20
69.2761381822
 30
0.0
 10
13.8628732559
 20
69.2113592046
 30
0.0
 10
13.7807276026
 20
69.0770164828
 30
0.0
 10
13.7320380257
 20
68.9114944915
 30
0.0
 10
13.7223717804
 20
68.7910471663
 30
0.0
 10
13.7223717804
 20
68.7277505252
 30
0.0
  0
SPLINE
  5
2F7
100
AcDbEntity
  8
0
100
AcDbSpline
 62
7
  6
BYLAYER
 70
0
 71
3
 72
9
 73
5
 74
0
 42
0.0000001
 43
0.0000001
 44
0.0000000001
 40
0.0
 40
0.0
 40
0.0
 40
0.0
 40
0.2575445463
 40
1.0
 40
1.0
 40
1.0
 40
1.0
 10
22.9147923194
 20
64.2371056248
 30
0.0
 10
22.9147923194
 20
64.2503347969
 30
0.0
 10
22.9156686238
 20
64.3016943721
 30
0.0
 10
22.9201181281
 20
64.3530180147
 30
0.0
 10
22.9257463191
 20
64.3907378006
 30
0.0
  0
SPLINE
  5
2F8
100
AcDbEntity
  8
0
100
AcDbSpline
 62
7
  6
BYLAYER
 70
0
 71
3
 72
11
 73
7
 74
0
 42
0.0000001
 43
0.0000001
 44
0.0000000001
 40
0.0
 40
0.0
 40
0.0
 40
0.0
 40
0.3077562752
 40
0.5814416659
 40
0.8083156336
 40
1.0
 40
1.0
 40
1.0
 40
1.0
 10
45.3265086326
 20
85.4624710556
 30
0.0
 10
45.3329758882
 20
85.4711123348
 30
0.0
 10
45.3468512815
 20
85.4862992586
 30
0.0
 10
45.3704231781
 20
85.5025649099
 30
0.0
 10
45.3942548841
 20
85.5097554812
 30
0.0
 10
45.4095079581
 20
85.5066011562
 30
0.0
 10
45.4153337442
 20
85.5032465204
 30
0.0
  0
SPLINE
  5
2F9
100
AcDbEntity
  8
0
100
AcDbSpline
 62
7
  6
BYLAYER
 70
0
 71
3
 72
11
 73
7
 74
0
 42
0.0000001
 43
0.0000001
 44
0.0000000001
 40
0.0
 40
0.0
 40
0.0
 40
0.0
 40
0.2485832979
 40
0.5111944003
 40
0.7678453445
 40
1.0
 40
1.0
 40
1.0
 40
1.0
 10
23.6219020445
 20
62.8288577225
 30
0.0
 10
23.5178260995
 20
62.9134756467
 30
0.0
 10
23.325672636
 20
63.1150883826
 30
0.0
 10
23.1034492425
 20
63.4676341595
 30
0.0
 10
22.9556914372
 20
63.8478158993
 30
0.0
 10
22.9147923194
 20
64.11183619
 30
0.0
 10
22.9147923194
 20
64.2371056248
 30
0.0
  0
SPLINE
  5
2FA
100
AcDbEntity
  8
0
100
AcDbSpline
 62
7
  6
BYLAYER
 70
0
 71
3
 72
11
 73
7
 74
0
 42
0.0000001
 43
0.0000001
 44
0.0000000001
 40
0.0
 40
0.0
 40
0.0
 40
0.0
 40
0.2177239861
 40
0.4508730345
 40
0.7104683317
 40
1.0
 40
1.0
 40
1.0
 40
1.0
 10
36.6088001697
 20
56.2362314626
 30
0.0
 10
36.5675779095
 20
56.2124340375
 30
0.0
 10
36.4903844606
 20
56.14765506
 30
0.0
 10
36.4082388073
 20
56.0133123381
 30
0.0
 10
36.3595492304
 20
55.8477903469
 30
0.0
 10
36.3498829851
 20
55.7273430216
 30
0.0
 10
36.3498829851
 20
55.6640463806
 30
0.0
  0
SPLINE
  5
2FB
100
AcDbEntity
  8
0
100
AcDbSpline
 62
7
  6
BYLAYER
 70
0
 71
3
 72
9
 73
5
 74
0
 42
0.0000001
 43
0.0000001
 44
0.0000000001
 40
0.0
 40
0.0
 40
0.0
 40
0.0
 40
0.2450334775
 40
1.0
 40
1.0
 40
1.0
 40
1.0
 10
39.3972888636
 20
68.6502412612
 30
0.0
 10
40.1368796064
 20
68.2514615919
 30
0.0
 10
43.1753229418
 20
66.6614886424
 30
0.0
 10
46.2904606989
 20
65.2190225641
 30
0.0
 10
48.6738231247
 20
64.2081591511
 30
0.0
  0
SPLINE
  5
2FC
100
AcDbEntity
  8
0
100
AcDbSpline
 62
7
  6
BYLAYER
 70
0
 71
3
 72
11
 73
7
 74
0
 42
0.0000001
 43
0.0000001
 44
0.0000000001
 40
0.0
 40
0.0
 40
0.0
 40
0.0
 40
0.3077562752
 40
0.5814416659
 40
0.8083156336
 40
1.0
 40
1.0
 40
1.0
 40
1.0
 10
49.8520108736
 20
82.8497302266
 30
0.0
 10
49.8584781291
 20
82.8583715059
 30
0.0
 10
49.8723535225
 20
82.8735584297
 30
0.0
 10
49.895925419
 20
82.889824081
 30
0.0
 10
49.919757125
 20
82.8970146523
 30
0.0
 10
49.935010199
 20
82.8938603272
 30
0.0
 10
49.9408359851
 20
82.8905056915
 30
0.0
  0
SPLINE
  5
2FD
100
AcDbEntity
  8
0
100
AcDbSpline
 62
7
  6
BYLAYER
 70
0
 71
3
 72
9
 73
5
 74
0
 42
0.0000001
 43
0.0000001
 44
0.0000000001
 40
0.0
 40
0.0
 40
0.0
 40
0.0
 40
0.2575445463
 40
1.0
 40
1.0
 40
1.0
 40
1.0
 10
20.0863534188
 20
65.8700686429
 30
0.0
 10
20.0863534188
 20
65.883297815
 30
0.0
 10
20.0872297232
 20
65.9346573902
 30
0.0
 10
20.0916792276
 20
65.9859810328
 30
0.0
 10
20.0973074185
 20
66.0237008187
 30
0.0
  0
SPLINE
  5
2FE
100
AcDbEntity
  8
0
100
AcDbSpline
 62
7
  6
BYLAYER
 70
0
 71
3
 72
11
 73
7
 74
0
 42
0.0000001
 43
0.0000001
 44
0.0000000001
 40
0.0
 40
0.0
 40
0.0
 40
0.0
 40
0.2485832979
 40
0.5111944003
 40
0.7678453445
 40
1.0
 40
1.0
 40
1.0
 40
1.0
 10
20.793463144
 20
64.4618207405
 30
0.0
 10
20.6893871989
 20
64.5464386648
 30
0.0
 10
20.4972337354
 20
64.7480514007
 30
0.0
 10
20.2750103419
 20
65.1005971776
 30
0.0
 10
20.1272525366
 20
65.4807789174
 30
0.0
 10
20.0863534188
 20
65.7447992081
 30
0.0
 10
20.0863534188
 20
65.8700686429
 30
0.0
  0
SPLINE
  5
2FF
100
AcDbEntity
  8
0
100
AcDbSpline
 62
7
  6
BYLAYER
 70
0
 71
3
 72
11
 73
7
 74
0
 42
0.0000001
 43
0.0000001
 44
0.0000000001
 40
0.0
 40
0.0
 40
0.0
 40
0.0
 40
0.2177239861
 40
0.4508730345
 40
0.7104683317
 40
1.0
 40
1.0
 40
1.0
 40
1.0
 10
33.7803612691
 20
57.8691944807
 30
0.0
 10
33.7391390089
 20
57.8453970556
 30
0.0
 10
33.66194556
 20
57.7806180781
 30
0.0
 10
33.5797999067
 20
57.6462753562
 30
0.0
 10
33.5311103299
 20
57.4807533649
 30
0.0
 10
33.5214440845
 20
57.3603060397
 30
0.0
 10
33.5214440845
 20
57.2970093986
 30
0.0
  0
SPLINE
  5
300
100
AcDbEntity
  8
0
100
AcDbSpline
 62
7
  6
BYLAYER
 70
0
 71
3
 72
17
 73
13
 74
0
 42
0.0000001
 43
0.0000001
 44
0.0000000001
 40
0.0
 40
0.0
 40
0.0
 40
0.0
 40
0.1286846513
 40
0.2703032228
 40
0.4174430309
 40
0.5617811216
 40
0.695448235
 40
0.8127121431
 40
0.8646788239
 40
0.9125086207
 40
0.9571391214
 40
1.0
 40
1.0
 40
1.0
 40
1.0
 10
33.5214440845
 20
57.2970093986
 30
0.0
 10
33.5214440845
 20
57.1901700274
 30
0.0
 10
33.5513562404
 20
56.9655008773
 30
0.0
 10
33.6628902078
 20
56.6356289147
 30
0.0
 10
33.8348394572
 20
56.3178856186
 30
0.0
 10
34.0532546791
 20
56.0383007269
 30
0.0
 10
34.3003740084
 20
55.8194420256
 30
0.0
 10
34.5240537438
 20
55.6971838856
 30
0.0
 10
34.6990088801
 20
55.6505691309
 30
0.0
 10
34.8194287874
 20
55.6417720234
 30
0.0
 10
34.9315751607
 20
55.6581302268
 30
0.0
 10
34.9994830621
 20
55.6864312508
 30
0.0
 10
35.0303012128
 20
55.7042224303
 30
0.0
  0
SPLINE
  5
301
100
AcDbEntity
  8
0
100
AcDbSpline
 62
7
  6
BYLAYER
 70
0
 71
3
 72
17
 73
13
 74
0
 42
0.0000001
 43
0.0000001
 44
0.0000000001
 40
0.0
 40
0.0
 40
0.0
 40
0.0
 40
0.1286846513
 40
0.2703032228
 40
0.4174430309
 40
0.5617811216
 40
0.695448235
 40
0.8127121431
 40
0.8646788239
 40
0.9125086207
 40
0.9571391214
 40
1.0
 40
1.0
 40
1.0
 40
1.0
 10
30.693005184
 20
58.9299724167
 30
0.0
 10
30.693005184
 20
58.8231330455
 30
0.0
 10
30.7229173398
 20
58.5984638954
 30
0.0
 10
30.8344513072
 20
58.2685919328
 30
0.0
 10
31.0064005566
 20
57.9508486367
 30
0.0
 10
31.2248157785
 20
57.671263745
 30
0.0
 10
31.4719351079
 20
57.4524050437
 30
0.0
 10
31.6956148432
 20
57.3301469037
 30
0.0
 10
31.8705699795
 20
57.2835321489
 30
0.0
 10
31.9909898868
 20
57.2747350415
 30
0.0
 10
32.1031362601
 20
57.2910932448
 30
0.0
 10
32.1710441615
 20
57.3193942689
 30
0.0
 10
32.2018623122
 20
57.3371854484
 30
0.0
  0
SPLINE
  5
302
100
AcDbEntity
  8
0
100
AcDbSpline
 62
7
  6
BYLAYER
 70
0
 71
3
 72
11
 73
7
 74
0
 42
0.0000001
 43
0.0000001
 44
0.0000000001
 40
0.0
 40
0.0
 40
0.0
 40
0.0
 40
0.2177239861
 40
0.4508730345
 40
0.7104683317
 40
1.0
 40
1.0
 40
1.0
 40
1.0
 10
19.6381667662
 20
66.0340095711
 30
0.0
 10
19.596944506
 20
66.010212146
 30
0.0
 10
19.5197510571
 20
65.9454331685
 30
0.0
 10
19.4376054038
 20
65.8110904466
 30
0.0
 10
19.3889158269
 20
65.6455684553
 30
0.0
 10
19.3792495816
 20
65.5251211301
 30
0.0
 10
19.3792495816
 20
65.461824489
 30
0.0
  0
SPLINE
  5
303
100
AcDbEntity
  8
0
100
AcDbSpline
 62
7
  6
BYLAYER
 70
0
 71
3
 72
17
 73
13
 74
0
 42
0.0000001
 43
0.0000001
 44
0.0000000001
 40
0.0
 40
0.0
 40
0.0
 40
0.0
 40
0.1286846513
 40
0.2703032228
 40
0.4174430309
 40
0.5617811216
 40
0.695448235
 40
0.8127121431
 40
0.8646788239
 40
0.9125086207
 40
0.9571391214
 40
1.0
 40
1.0
 40
1.0
 40
1.0
 10
36.3498829851
 20
55.6640463806
 30
0.0
 10
36.3498829851
 20
55.5572070094
 30
0.0
 10
36.3797951409
 20
55.3325378593
 30
0.0
 10
36.4913291083
 20
55.0026658966
 30
0.0
 10
36.6632783577
 20
54.6849226005
 30
0.0
 10
36.8816935797
 20
54.4053377088
 30
0.0
 10
37.128812909
 20
54.1864790076
 30
0.0
 10
37.3524926444
 20
54.0642208675
 30
0.0
 10
37.5274477807
 20
54.0176061128
 30
0.0
 10
37.647867688
 20
54.0088090053
 30
0.0
 10
37.7600140613
 20
54.0251672087
 30
0.0
 10
37.8279219627
 20
54.0534682327
 30
0.0
 10
37.8587401134
 20
54.0712594122
 30
0.0
  0
SPLINE
  5
304
100
AcDbEntity
  8
0
100
AcDbSpline
 62
7
  6
BYLAYER
 70
0
 71
3
 72
11
 73
7
 74
0
 42
0.0000001
 43
0.0000001
 44
0.0000000001
 40
0.0
 40
0.0
 40
0.0
 40
0.0
 40
0.2177239861
 40
0.4508730345
 40
0.7104683317
 40
1.0
 40
1.0
 40
1.0
 40
1.0
 10
16.8097278656
 20
67.6669725892
 30
0.0
 10
16.7685056054
 20
67.6431751641
 30
0.0
 10
16.6913121565
 20
67.5783961866
 30
0.0
 10
16.6091665032
 20
67.4440534647
 30
0.0
 10
16.5604769263
 20
67.2785314734
 30
0.0
 10
16.550810681
 20
67.1580841482
 30
0.0
 10
16.550810681
 20
67.0947875071
 30
0.0
  0
SPLINE
  5
305
100
AcDbEntity
  8
0
100
AcDbSpline
 62
7
  6
BYLAYER
 70
0
 71
3
 72
9
 73
5
 74
0
 42
0.0000001
 43
0.0000001
 44
0.0000000001
 40
0.0
 40
0.0
 40
0.0
 40
0.0
 40
0.2575445463
 40
1.0
 40
1.0
 40
1.0
 40
1.0
 10
14.4294756176
 20
69.1359946791
 30
0.0
 10
14.4294756176
 20
69.1492238511
 30
0.0
 10
14.430351922
 20
69.2005834264
 30
0.0
 10
14.4348014264
 20
69.251907069
 30
0.0
 10
14.4404296173
 20
69.2896268548
 30
0.0
  0
SPLINE
  5
306
100
AcDbEntity
  8
0
100
AcDbSpline
 62
7
  6
BYLAYER
 70
0
 71
3
 72
11
 73
7
 74
0
 42
0.0000001
 43
0.0000001
 44
0.0000000001
 40
0.0
 40
0.0
 40
0.0
 40
0.0
 40
0.2485832979
 40
0.5111944003
 40
0.7678453445
 40
1.0
 40
1.0
 40
1.0
 40
1.0
 10
15.1365853428
 20
67.7277467767
 30
0.0
 10
15.0325093977
 20
67.812364701
 30
0.0
 10
14.8403559343
 20
68.0139774368
 30
0.0
 10
14.6181325407
 20
68.3665232138
 30
0.0
 10
14.4703747355
 20
68.7467049535
 30
0.0
 10
14.4294756176
 20
69.0107252443
 30
0.0
 10
14.4294756176
 20
69.1359946791
 30
0.0
  0
SPLINE
  5
307
100
AcDbEntity
  8
0
100
AcDbSpline
 62
7
  6
BYLAYER
 70
0
 71
3
 72
11
 73
7
 74
0
 42
0.0000001
 43
0.0000001
 44
0.0000000001
 40
0.0
 40
0.0
 40
0.0
 40
0.0
 40
0.2177239861
 40
0.4508730345
 40
0.7104683317
 40
1.0
 40
1.0
 40
1.0
 40
1.0
 10
22.4666056668
 20
64.401046553
 30
0.0
 10
22.4253834065
 20
64.377249128
 30
0.0
 10
22.3481899577
 20
64.3124701504
 30
0.0
 10
22.2660443044
 20
64.1781274285
 30
0.0
 10
22.2173547275
 20
64.0126054373
 30
0.0
 10
22.2076884822
 20
63.892158112
 30
0.0
 10
22.2076884822
 20
63.828861471
 30
0.0
  0
SPLINE
  5
308
100
AcDbEntity
  8
0
100
AcDbSpline
 62
7
  6
BYLAYER
 70
0
 71
3
 72
11
 73
7
 74
0
 42
0.0000001
 43
0.0000001
 44
0.0000000001
 40
0.0
 40
0.0
 40
0.0
 40
0.0
 40
0.2485832979
 40
0.5111944003
 40
0.7678453445
 40
1.0
 40
1.0
 40
1.0
 40
1.0
 10
34.9356576469
 20
56.2970056501
 30
0.0
 10
34.8315817018
 20
56.3816235744
 30
0.0
 10
34.6394282384
 20
56.5832363103
 30
0.0
 10
34.4172048448
 20
56.9357820872
 30
0.0
 10
34.2694470396
 20
57.315963827
 30
0.0
 10
34.2285479218
 20
57.5799841177
 30
0.0
 10
34.2285479218
 20
57.7052535525
 30
0.0
  0
SPLINE
  5
309
100
AcDbEntity
  8
0
100
AcDbSpline
 62
7
  6
BYLAYER
 70
0
 71
3
 72
9
 73
5
 74
0
 42
0.0000001
 43
0.0000001
 44
0.0000000001
 40
0.0
 40
0.0
 40
0.0
 40
0.0
 40
0.2575445463
 40
1.0
 40
1.0
 40
1.0
 40
1.0
 10
34.2285479218
 20
57.7052535525
 30
0.0
 10
34.2285479218
 20
57.7184827246
 30
0.0
 10
34.2294242262
 20
57.7698422998
 30
0.0
 10
34.2338737305
 20
57.8211659424
 30
0.0
 10
34.2395019215
 20
57.8588857283
 30
0.0
  0
SPLINE
  5
30A
100
AcDbEntity
  8
0
100
AcDbSpline
 62
7
  6
BYLAYER
 70
0
 71
3
 72
9
 73
5
 74
0
 42
0.0000001
 43
0.0000001
 44
0.0000000001
 40
0.0
 40
0.0
 40
0.0
 40
0.0
 40
0.2575445463
 40
1.0
 40
1.0
 40
1.0
 40
1.0
 10
17.2579145182
 20
67.503031661
 30
0.0
 10
17.2579145182
 20
67.516260833
 30
0.0
 10
17.2587908226
 20
67.5676204083
 30
0.0
 10
17.263240327
 20
67.6189440509
 30
0.0
 10
17.2688685179
 20
67.6566638367
 30
0.0
  0
SPLINE
  5
30B
100
AcDbEntity
  8
0
100
AcDbSpline
 62
7
  6
BYLAYER
 70
0
 71
3
 72
11
 73
7
 74
0
 42
0.0000001
 43
0.0000001
 44
0.0000000001
 40
0.0
 40
0.0
 40
0.0
 40
0.0
 40
0.2485832979
 40
0.5111944003
 40
0.7678453445
 40
1.0
 40
1.0
 40
1.0
 40
1.0
 10
17.9650242434
 20
66.0947837586
 30
0.0
 10
17.8609482983
 20
66.1794016829
 30
0.0
 10
17.6687948349
 20
66.3810144188
 30
0.0
 10
17.4465714413
 20
66.7335601957
 30
0.0
 10
17.2988136361
 20
67.1137419354
 30
0.0
 10
17.2579145182
 20
67.3777622262
 30
0.0
 10
17.2579145182
 20
67.503031661
 30
0.0
  0
SPLINE
  5
30C
100
AcDbEntity
  8
0
100
AcDbSpline
 62
7
  6
BYLAYER
 70
0
 71
3
 72
11
 73
7
 74
0
 42
0.0000001
 43
0.0000001
 44
0.0000000001
 40
0.0
 40
0.0
 40
0.0
 40
0.0
 40
0.2485832979
 40
0.5111944003
 40
0.7678453445
 40
1.0
 40
1.0
 40
1.0
 40
1.0
 10
32.1072187463
 20
57.9299686682
 30
0.0
 10
32.0031428013
 20
58.0145865925
 30
0.0
 10
31.8109893378
 20
58.2161993283
 30
0.0
 10
31.5887659442
 20
58.5687451053
 30
0.0
 10
31.441008139
 20
58.948926845
 30
0.0
 10
31.4001090212
 20
59.2129471358
 30
0.0
 10
31.4001090212
 20
59.3382165706
 30
0.0
  0
SPLINE
  5
30D
100
AcDbEntity
  8
0
100
AcDbSpline
 62
7
  6
BYLAYER
 70
0
 71
3
 72
9
 73
5
 74
0
 42
0.0000001
 43
0.0000001
 44
0.0000000001
 40
0.0
 40
0.0
 40
0.0
 40
0.0
 40
0.2575445463
 40
1.0
 40
1.0
 40
1.0
 40
1.0
 10
31.4001090212
 20
59.3382165706
 30
0.0
 10
31.4001090212
 20
59.3514457426
 30
0.0
 10
31.4009853256
 20
59.4028053179
 30
0.0
 10
31.4054348299
 20
59.4541289605
 30
0.0
 10
31.4110630209
 20
59.4918487463
 30
0.0
  0
SPLINE
  5
30E
100
AcDbEntity
  8
0
100
AcDbSpline
 62
7
  6
BYLAYER
 70
0
 71
3
 72
11
 73
7
 74
0
 42
0.0000001
 43
0.0000001
 44
0.0000000001
 40
0.0
 40
0.0
 40
0.0
 40
0.0
 40
0.2485832979
 40
0.5111944003
 40
0.7678453445
 40
1.0
 40
1.0
 40
1.0
 40
1.0
 10
37.7640965475
 20
54.664042632
 30
0.0
 10
37.6600206024
 20
54.7486605563
 30
0.0
 10
37.467867139
 20
54.9502732922
 30
0.0
 10
37.2456437454
 20
55.3028190691
 30
0.0
 10
37.0978859402
 20
55.6830008089
 30
0.0
 10
37.0569868223
 20
55.9470210996
 30
0.0
 10
37.0569868223
 20
56.0722905344
 30
0.0
  0
SPLINE
  5
30F
100
AcDbEntity
  8
0
100
AcDbSpline
 62
7
  6
BYLAYER
 70
0
 71
3
 72
9
 73
5
 74
0
 42
0.0000001
 43
0.0000001
 44
0.0000000001
 40
0.0
 40
0.0
 40
0.0
 40
0.0
 40
0.2575445463
 40
1.0
 40
1.0
 40
1.0
 40
1.0
 10
37.0569868223
 20
56.0722905344
 30
0.0
 10
37.0569868223
 20
56.0855197065
 30
0.0
 10
37.0578631268
 20
56.1368792817
 30
0.0
 10
37.0623126311
 20
56.1882029243
 30
0.0
 10
37.067940822
 20
56.2259227102
 30
0.0
  0
SPLINE
  5
310
100
AcDbEntity
  8
0
100
AcDbSpline
 62
7
  6
BYLAYER
 70
0
 71
3
 72
17
 73
13
 74
0
 42
0.0000001
 43
0.0000001
 44
0.0000000001
 40
0.0
 40
0.0
 40
0.0
 40
0.0
 40
0.1286846513
 40
0.2703032228
 40
0.4174430309
 40
0.5617811216
 40
0.695448235
 40
0.8127121431
 40
0.8646788239
 40
0.9125086207
 40
0.9571391214
 40
1.0
 40
1.0
 40
1.0
 40
1.0
 10
22.2076884822
 20
63.828861471
 30
0.0
 10
22.2076884822
 20
63.7220220998
 30
0.0
 10
22.237600638
 20
63.4973529497
 30
0.0
 10
22.3491346054
 20
63.167480987
 30
0.0
 10
22.5210838548
 20
62.8497376909
 30
0.0
 10
22.7394990767
 20
62.5701527992
 30
0.0
 10
22.9866184061
 20
62.351294098
 30
0.0
 10
23.2102981415
 20
62.2290359579
 30
0.0
 10
23.3852532778
 20
62.1824212032
 30
0.0
 10
23.5056731851
 20
62.1736240957
 30
0.0
 10
23.6178195583
 20
62.1899822991
 30
0.0
 10
23.6857274597
 20
62.2182833231
 30
0.0
 10
23.7165456104
 20
62.2360745026
 30
0.0
  0
SPLINE
  5
311
100
AcDbEntity
  8
0
100
AcDbSpline
 62
7
  6
BYLAYER
 70
0
 71
3
 72
11
 73
7
 74
0
 42
0.0000001
 43
0.0000001
 44
0.0000000001
 40
0.0
 40
0.0
 40
0.0
 40
0.0
 40
0.3077562752
 40
0.5814416659
 40
0.8083156336
 40
1.0
 40
1.0
 40
1.0
 40
1.0
 10
52.114761994
 20
81.5433598122
 30
0.0
 10
52.1212292496
 20
81.5520010915
 30
0.0
 10
52.135104643
 20
81.5671880152
 30
0.0
 10
52.1586765395
 20
81.5834536665
 30
0.0
 10
52.1825082455
 20
81.5906442378
 30
0.0
 10
52.1977613195
 20
81.5874899128
 30
0.0
 10
52.2035871056
 20
81.584135277
 30
0.0
  0
SPLINE
  5
312
100
AcDbEntity
  8
0
100
AcDbSpline
 62
7
  6
BYLAYER
 70
0
 71
3
 72
17
 73
13
 74
0
 42
0.0000001
 43
0.0000001
 44
0.0000000001
 40
0.0
 40
0.0
 40
0.0
 40
0.0
 40
0.1286846513
 40
0.2703032228
 40
0.4174430309
 40
0.5617811216
 40
0.695448235
 40
0.8127121431
 40
0.8646788239
 40
0.9125086207
 40
0.9571391214
 40
1.0
 40
1.0
 40
1.0
 40
1.0
 10
19.3792495816
 20
65.461824489
 30
0.0
 10
19.3792495816
 20
65.3549851178
 30
0.0
 10
19.4091617374
 20
65.1303159677
 30
0.0
 10
19.5206957048
 20
64.8004440051
 30
0.0
 10
19.6926449542
 20
64.482700709
 30
0.0
 10
19.9110601761
 20
64.2031158173
 30
0.0
 10
20.1581795055
 20
63.984257116
 30
0.0
 10
20.3818592409
 20
63.861998976
 30
0.0
 10
20.5568143772
 20
63.8153842213
 30
0.0
 10
20.6772342845
 20
63.8065871138
 30
0.0
 10
20.7893806577
 20
63.8229453172
 30
0.0
 10
20.8572885591
 20
63.8512463412
 30
0.0
 10
20.8881067099
 20
63.8690375207
 30
0.0
  0
SPLINE
  5
313
100
AcDbEntity
  8
0
100
AcDbSpline
 62
7
  6
BYLAYER
 70
0
 71
3
 72
17
 73
13
 74
0
 42
0.0000001
 43
0.0000001
 44
0.0000000001
 40
0.0
 40
0.0
 40
0.0
 40
0.0
 40
0.1286846513
 40
0.2703032228
 40
0.4174430309
 40
0.5617811216
 40
0.695448235
 40
0.8127121431
 40
0.8646788239
 40
0.9125086207
 40
0.9571391214
 40
1.0
 40
1.0
 40
1.0
 40
1.0
 10
13.7223717804
 20
68.7277505252
 30
0.0
 10
13.7223717804
 20
68.620911154
 30
0.0
 10
13.7522839362
 20
68.3962420039
 30
0.0
 10
13.8638179036
 20
68.0663700413
 30
0.0
 10
14.035767153
 20
67.7486267452
 30
0.0
 10
14.254182375
 20
67.4690418534
 30
0.0
 10
14.5013017043
 20
67.2501831522
 30
0.0
 10
14.7249814397
 20
67.1279250122
 30
0.0
 10
14.899936576
 20
67.0813102574
 30
0.0
 10
15.0203564833
 20
67.07251315
 30
0.0
 10
15.1325028566
 20
67.0888713533
 30
0.0
 10
15.200410758
 20
67.1171723774
 30
0.0
 10
15.2312289087
 20
67.1349635569
 30
0.0
  0
SPLINE
  5
314
100
AcDbEntity
  8
0
100
AcDbSpline
 62
7
  6
BYLAYER
 70
0
 71
3
 72
9
 73
5
 74
0
 42
0.0000001
 43
0.0000001
 44
0.0000000001
 40
0.0
 40
0.0
 40
0.0
 40
0.0
 40
0.244328529
 40
1.0
 40
1.0
 40
1.0
 40
1.0
 10
16.550810681
 20
67.0947875071
 30
0.0
 10
16.550810681
 20
67.0845757669
 30
0.0
 10
16.551363362
 20
67.0427816161
 30
0.0
 10
16.554055644
 20
67.0010227965
 30
0.0
 10
16.5571453791
 20
66.9695909111
 30
0.0
  0
SPLINE
  5
315
100
AcDbEntity
  8
0
100
AcDbSpline
 62
7
  6
BYLAYER
 70
0
 71
3
 72
16
 73
12
 74
0
 42
0.0000001
 43
0.0000001
 44
0.0000000001
 40
0.0
 40
0.0
 40
0.0
 40
0.0
 40
0.1344657782
 40
0.2787749481
 40
0.4259999224
 40
0.5685560157
 40
0.6996507683
 40
0.8146180454
 40
0.9127395457
 40
0.9571699474
 40
1.0
 40
1.0
 40
1.0
 40
1.0
 10
16.5571453791
 20
66.9695909111
 30
0.0
 10
16.5675154518
 20
66.8640961278
 30
0.0
 10
16.613410355
 20
66.6474860742
 30
0.0
 10
16.739573494
 20
66.334773419
 30
0.0
 10
16.9169019927
 20
66.0403811295
 30
0.0
 10
17.1324527256
 20
65.7861107205
 30
0.0
 10
17.3708701154
 20
65.5904892544
 30
0.0
 10
17.6156138273
 20
65.4673080001
 30
0.0
 10
17.821040924
 20
65.433890302
 30
0.0
 10
17.9663782403
 20
65.4579222111
 30
0.0
 10
18.0304264925
 20
65.4851196584
 30
0.0
 10
18.0596678093
 20
65.5020005388
 30
0.0
  0
SPLINE
  5
316
100
AcDbEntity
  8
0
100
AcDbSpline
 62
7
  6
BYLAYER
 70
0
 71
3
 72
11
 73
7
 74
0
 42
0.0000001
 43
0.0000001
 44
0.0000000001
 40
0.0
 40
0.0
 40
0.0
 40
0.0
 40
0.2177239861
 40
0.4508730345
 40
0.7104683317
 40
1.0
 40
1.0
 40
1.0
 40
1.0
 10
30.9519223686
 20
59.5021574987
 30
0.0
 10
30.9107001083
 20
59.4783600737
 30
0.0
 10
30.8335066594
 20
59.4135810961
 30
0.0
 10
30.7513610061
 20
59.2792383743
 30
0.0
 10
30.7026714293
 20
59.113716383
 30
0.0
 10
30.693005184
 20
58.9932690578
 30
0.0
 10
30.693005184
 20
58.9299724167
 30
0.0
  0
SPLINE
  5
317
100
AcDbEntity
  8
0
100
AcDbSpline
 62
7
  6
BYLAYER
 70
0
 71
3
 72
9
 73
5
 74
0
 42
0.0000001
 43
0.0000001
 44
0.0000000001
 40
0.0
 40
0.0
 40
0.0
 40
0.0
 40
0.4893970621
 40
1.0
 40
1.0
 40
1.0
 40
1.0
 10
24.0464802423
 20
79.0969932916
 30
0.0
 10
25.5361512679
 20
77.8056074126
 30
0.0
 10
28.6921751677
 20
75.2943061666
 30
0.0
 10
32.0280051583
 20
73.0290406727
 30
0.0
 10
33.7680267238
 20
71.9321111118
 30
0.0
  0
SPLINE
  5
318
100
AcDbEntity
  8
0
100
AcDbSpline
 62
7
  6
BYLAYER
 70
0
 71
3
 72
11
 73
7
 74
0
 42
0.0000001
 43
0.0000001
 44
0.0000000001
 40
0.0
 40
0.0
 40
0.0
 40
0.0
 40
0.3077562752
 40
0.5814416659
 40
0.8083156336
 40
1.0
 40
1.0
 40
1.0
 40
1.0
 10
47.5892597531
 20
84.1561006411
 30
0.0
 10
47.5957270087
 20
84.1647419204
 30
0.0
 10
47.609602402
 20
84.1799288442
 30
0.0
 10
47.6331742986
 20
84.1961944955
 30
0.0
 10
47.6570060045
 20
84.2033850667
 30
0.0
 10
47.6722590786
 20
84.2002307417
 30
0.0
 10
47.6780848647
 20
84.196876106
 30
0.0
  0
ENDSEC
  0
SECTION
  2
OBJECTS
  0
DICTIONARY
  5
C
100
AcDbDictionary
280
0
281
1
  3
ACAD_GROUP
350
D
  3
ACAD_MLINESTYLE
350
17
  3
ACAD_LAYOUT
350
1A
  3
ACAD_PLOTSETTINGS
350
19
  3
ACAD_PLOTSTYLENAME
350
E
  0
DICTIONARY
  5
D
102
{ACAD_REACTORS
330
C
102
}
100
AcDbDictionary
280
0
281
1
  0
ACDBDICTIONARYWDFLT
  5
E
102
{ACAD_REACTORS
330
C
102
}
100
AcDbDictionary
281
1
  3
Normal
350
F
100
AcDbDictionaryWithDefault
340
F
  0
DICTIONARY
  5
17
102
{ACAD_REACTORS
330
C
102
}
100
AcDbDictionary
280
0
281
1
  3
Standard
350
18
  0
DICTIONARY
  5
19
102
{ACAD_REACTORS
330
C
102
}
100
AcDbDictionary
281
1
  0
DICTIONARY
  5
1A
102
{ACAD_REACTORS
330
C
102
}
100
AcDbDictionary
281
1
  3
Model
350
319
  3
Layout1
350
31A
  0
ACDBPLACEHOLDER
  5
F
102
{ACAD_REACTORS
330
E
102
}
  0
MLINESTYLE
  5
18
102
{ACAD_REACTORS
330
17
102
}
100
AcDbMlineStyle
  2
STANDARD
 70
0
  3

 62
256
 51
90.0
 52
90.0
 71
2
 49
0.5
 62
256
  6
BYLAYER
 49
-0.5
 62
256
  6
BYLAYER
  0
LAYOUT
  5
319
102
{ACAD_REACTORS
330
1A
102
}
100
AcDbPlotSettings
  1

  2
none_device
  4

  6

 40
0.0
 41
0.0
 42
0.0
 43
0.0
 44
210.0
 45
297.0
 46
0.0
 47
0.0
 48
0.0
 49
0.0
140
0.0
141
0.0
142
1.0
143
1.0
 70
1024
 72
1
 73
0
 74
0
  7

 75
0
147
1.0
148
0.0
149
0.0
100
AcDbLayout
  1
Model
 70
0
 71
0
 10
0.0
 20
0.0
 11
210.0
 21
297.0
 12
0.0
 22
0.0
 32
0.0
 14
0.0
 24
0.0
 34
0.0
 15
0.0
 25
0.0
 35
0.0
146
0.0
 13
0.0
 23
0.0
 33
0.0
 16
1.0
 26
0.0
 36
0.0
 17
0.0
 27
1.0
 37
0.0
 76
0
330
210
345
0
346
0
  0
LAYOUT
  5
31A
102
{ACAD_REACTORS
330
1A
102
}
100
AcDbPlotSettings
  1

  2
none_device
  4

  6

 40
0.0
 41
0.0
 42
0.0
 43
0.0
 44
210.0
 45
297.0
 46
0.0
 47
0.0
 48
0.0
 49
0.0
140
0.0
141
0.0
142
1.0
143
1.0
 70
0
 72
1
 73
0
 74
0
  7

 75
0
147
1.0
148
0.0
149
0.0
100
AcDbLayout
  1
Layout1
 70
0
 71
1
 10
0.0
 20
0.0
 11
210.0
 21
297.0
 12
0.0
 22
0.0
 32
0.0
 14
0.0
 24
0.0
 34
0.0
 15
0.0
 25
0.0
 35
0.0
146
0.0
 13
0.0
 23
0.0
 33
0.0
 16
1.0
 26
0.0
 36
0.0
 17
0.0
 27
1.0
 37
0.0
 76
0
330
211
345
0
346
0
  0
ENDSEC
  0
EOF
