999
DXF file: C:\Users\sesa63760\Dev\_Creo\CAD\MCADID0001389_3D-CAD\drw0001_5.dxf
999
Pro/ENGINEER 2019471 by Parametric Technology Corporation
  0
SECTION
  2
HEADER
  9
$ACADVER
  1
AC1024
  9
$DWGCODEPAGE
  3
ANSI_1252
  9
$EXTMAX
 10
278.7070156907
 20
394.1713507625
 30
0.0
  9
$EXTMIN
 10
0.0
 20
0.0
 30
0.0
  9
$LIMMIN
 10
0.0
 20
0.0
  9
$LIMMAX
 10
278.7070156907
 20
394.1713507625
  9
$VIEWCTR
 10
139.3535078453
 20
197.0856753813
  9
$VIEWSIZE
 40
394.1713507625
  9
$CLAYER
  8
0
  9
$LTSCALE
 40
25.6941324941
  9
$CELTYPE
  6
BYLAYER
  9
$DIMSCALE
 40
1.0
  9
$DIMASZ
 40
3.317940663
  9
$DIMEXO
 40
1.0
  9
$DIMDLI
 40
17.7523097232
  9
$DIMEXE
 40
1.0
  9
$DIMCEN
 40
4.2044944081
  9
$DIMLFAC
 40
1.0
  9
$DIMBLK
  1
_FILLED
  9
$DIMALT
 70
0
  9
$DIMALTF
 40
0.0393700787
  9
$DIMTXT
 40
4.6451169282
  9
$DIMTOL
 70
1
  9
$DIMLIM
 70
0
  9
$DIMTFAC
 40
1.0
  9
$DIMTP
 40
0.01
  9
$DIMTM
 40
0.01
  9
$DIMGAP
 40
0.625
  9
$DIMDSEP
 70
46
  9
$AUNITS
 70
0
  9
$PDMODE
 70
3
  9
$PDSIZE
 40
0.3125
  9
$HANDSEED
  5
2DA
  9
$TILEMODE
 70
1
  9
$MEASUREMENT
 70
1
  9
$INSUNITS
 70
4
  0
ENDSEC
  0
SECTION
  2
CLASSES
  0
CLASS
  1
ACDBDICTIONARYWDFLT
  2
AcDbDictionaryWithDefault
  3
AutoCAD 2000
 90
0
 91
1
280
0
281
0
  0
CLASS
  1
ACDBPLACEHOLDER
  2
AcDbPlaceHolder
  3
AutoCAD 2000
 90
0
 91
1
280
0
281
0
  0
CLASS
  1
LAYOUT
  2
AcDbLayout
  3
AutoCAD 2000
 90
0
 91
0
280
0
281
0
  0
ENDSEC
  0
SECTION
  2
TABLES
  0
TABLE
  2
VPORT
  5
8
100
AcDbSymbolTable
 70
2
  0
VPORT
  5
1F4
100
AcDbSymbolTableRecord
100
AcDbViewportTableRecord
  2
*ACTIVE
 70
0
 10
0.0
 20
0.0
 11
1.0
 21
1.0
 12
139.3535078453
 22
197.0856753813
 13
0.0
 23
0.0
 14
1.0
 24
1.0
 15
0.0
 25
0.0
 16
0.0
 26
0.0
 36
1.0
 17
0.0
 27
0.0
 37
0.0
 40
394.1713507625
 41
0.7070707071
 42
50.0
 43
0.0
 44
0.0
 50
0.0
 51
0.0
 71
0
 72
100
 73
1
 74
1
 75
0
 76
0
 77
0
 78
0
  0
ENDTAB
  0
TABLE
  2
LTYPE
  5
5
100
AcDbSymbolTable
 70
6
  0
LTYPE
  5
14
100
AcDbSymbolTableRecord
100
AcDbLinetypeTableRecord
  2
BYBLOCK
 70
0
  3

 72
65
 73
0
 40
0.0
  0
LTYPE
  5
15
100
AcDbSymbolTableRecord
100
AcDbLinetypeTableRecord
  2
BYLAYER
 70
0
  3

 72
65
 73
0
 40
0.0
  0
LTYPE
  5
16
100
AcDbSymbolTableRecord
100
AcDbLinetypeTableRecord
  2
CONTINUOUS
 70
64
  3
Solid line
 72
65
 73
0
 40
0.0
  0
LTYPE
  5
1F5
100
AcDbSymbolTableRecord
100
AcDbLinetypeTableRecord
  2
CENTER
 70
64
  3
____ _ ____ _ ____ _ ____ _ ____ _ ____ _ ____
 72
65
 73
4
 40
0.6
 49
0.375
 74
0
 49
-0.075
 74
0
 49
0.075
 74
0
 49
-0.075
 74
0
  0
LTYPE
  5
1F6
100
AcDbSymbolTableRecord
100
AcDbLinetypeTableRecord
  2
HIDDEN
 70
64
  3
- - - - - - - - - - - - - - - - - - - -
 72
65
 73
2
 40
0.2
 49
0.1
 74
0
 49
-0.1
 74
0
  0
LTYPE
  5
1F7
100
AcDbSymbolTableRecord
100
AcDbLinetypeTableRecord
  2
PHANTOM
 70
64
  3
_____ _ _ _____ _ _ _____ _ _ _____
 72
65
 73
6
 40
0.8
 49
0.45
 74
0
 49
-0.05
 74
0
 49
0.1
 74
0
 49
-0.05
 74
0
 49
0.1
 74
0
 49
-0.05
 74
0
  0
LTYPE
  5
1F8
100
AcDbSymbolTableRecord
100
AcDbLinetypeTableRecord
  2
DOT
 70
64
  3
. . . . . . . . . . . . . . . . . . . .
 72
65
 73
2
 40
0.2
 49
0.1
 74
0
 49
-0.1
 74
0
  0
LTYPE
  5
1F9
100
AcDbSymbolTableRecord
100
AcDbLinetypeTableRecord
  2
DASHED
 70
64
  3
- - - - - - - - - - - - - - - - - - - -
 72
65
 73
2
 40
0.2
 49
0.1
 74
0
 49
-0.1
 74
0
  0
ENDTAB
  0
TABLE
  2
LAYER
  5
2
100
AcDbSymbolTable
 70
36
  0
LAYER
  5
10
100
AcDbSymbolTableRecord
100
AcDbLayerTableRecord
  2
0
 70
0
 62
7
  6
CONTINUOUS
370
-3
390
F
  0
LAYER
  5
1FA
100
AcDbSymbolTableRecord
100
AcDbLayerTableRecord
  2
DEFAULT_1
 70
0
 62
7
  6
CENTER
370
-3
390
F
  0
LAYER
  5
1FB
100
AcDbSymbolTableRecord
100
AcDbLayerTableRecord
  2
DEFAULT_2
 70
0
 62
8
  6
HIDDEN
370
-3
390
F
  0
LAYER
  5
1FC
100
AcDbSymbolTableRecord
100
AcDbLayerTableRecord
  2
DEFAULT_3
 70
0
 62
7
  6
PHANTOM
370
-3
390
F
  0
LAYER
  5
1FD
100
AcDbSymbolTableRecord
100
AcDbLayerTableRecord
  2
00_COMPONENTS
 70
0
 62
7
  6
CONTINUOUS
370
-3
390
F
  0
LAYER
  5
1FE
100
AcDbSymbolTableRecord
100
AcDbLayerTableRecord
  2
01_1_DEFAULT_DATUMS
 70
0
 62
7
  6
CONTINUOUS
370
-3
390
F
  0
LAYER
  5
1FF
100
AcDbSymbolTableRecord
100
AcDbLayerTableRecord
  2
01_PLANES
 70
0
 62
7
  6
CONTINUOUS
370
-3
390
F
  0
LAYER
  5
200
100
AcDbSymbolTableRecord
100
AcDbLayerTableRecord
  2
02_COORD_SYS
 70
0
 62
7
  6
CONTINUOUS
370
-3
390
F
  0
LAYER
  5
201
100
AcDbSymbolTableRecord
100
AcDbLayerTableRecord
  2
03_AXES
 70
0
 62
7
  6
CONTINUOUS
370
-3
390
F
  0
LAYER
  5
202
100
AcDbSymbolTableRecord
100
AcDbLayerTableRecord
  2
04_POINTS
 70
0
 62
7
  6
CONTINUOUS
370
-3
390
F
  0
LAYER
  5
203
100
AcDbSymbolTableRecord
100
AcDbLayerTableRecord
  2
05_CURVES
 70
0
 62
7
  6
CONTINUOUS
370
-3
390
F
  0
LAYER
  5
204
100
AcDbSymbolTableRecord
100
AcDbLayerTableRecord
  2
06_SURFS
 70
0
 62
7
  6
CONTINUOUS
370
-3
390
F
  0
LAYER
  5
205
100
AcDbSymbolTableRecord
100
AcDbLayerTableRecord
  2
07_COSMETICS
 70
0
 62
7
  6
CONTINUOUS
370
-3
390
F
  0
LAYER
  5
206
100
AcDbSymbolTableRecord
100
AcDbLayerTableRecord
  2
10_NOTES
 70
0
 62
7
  6
CONTINUOUS
370
-3
390
F
  0
LAYER
  5
207
100
AcDbSymbolTableRecord
100
AcDbLayerTableRecord
  2
11_NOTES_PUB
 70
0
 62
7
  6
CONTINUOUS
370
-3
390
F
  0
LAYER
  5
208
100
AcDbSymbolTableRecord
100
AcDbLayerTableRecord
  2
13_REF_GTOL
 70
0
 62
7
  6
CONTINUOUS
370
-3
390
F
  0
LAYER
  5
209
100
AcDbSymbolTableRecord
100
AcDbLayerTableRecord
  2
16_MISC
 70
0
 62
7
  6
CONTINUOUS
370
-3
390
F
  0
LAYER
  5
20A
100
AcDbSymbolTableRecord
100
AcDbLayerTableRecord
  2
17_NO_PRINT
 70
0
 62
7
  6
CONTINUOUS
370
-3
390
F
  0
LAYER
  5
20B
100
AcDbSymbolTableRecord
100
AcDbLayerTableRecord
  2
18_DATUM_CAMS_JOINTS
 70
0
 62
7
  6
CONTINUOUS
370
-3
390
F
  0
LAYER
  5
20C
100
AcDbSymbolTableRecord
100
AcDbLayerTableRecord
  2
19_DATUM_FUNCTIONAL
 70
0
 62
7
  6
CONTINUOUS
370
-3
390
F
  0
LAYER
  5
20D
100
AcDbSymbolTableRecord
100
AcDbLayerTableRecord
  2
20_DATUM_KINEMATIC_SCHEME
 70
0
 62
7
  6
CONTINUOUS
370
-3
390
F
  0
LAYER
  5
20E
100
AcDbSymbolTableRecord
100
AcDbLayerTableRecord
  2
INTFCLR_16532
 70
0
 62
7
  6
CONTINUOUS
370
-3
390
F
  0
LAYER
  5
20F
100
AcDbSymbolTableRecord
100
AcDbLayerTableRecord
  2
_1
 70
0
 62
7
  6
CONTINUOUS
370
-3
390
F
  0
ENDTAB
  0
TABLE
  2
STYLE
  5
3
100
AcDbSymbolTable
 70
1
  0
STYLE
  5
11
100
AcDbSymbolTableRecord
100
AcDbTextStyleTableRecord
  2
STANDARD
 70
0
 40
0.0
 41
0.8
 50
0.0
 71
0
 42
0.2
  3
txt
  4

  0
STYLE
  5
210
100
AcDbSymbolTableRecord
100
AcDbTextStyleTableRecord
  2
TEXTSTYLE_1
 70
0
 40
0.0
 41
0.8
 50
0.0
 71
0
 42
0.2
  3
gdt
  4

  0
ENDTAB
  0
TABLE
  2
VIEW
  5
6
100
AcDbSymbolTable
 70
0
  0
ENDTAB
  0
TABLE
  2
UCS
  5
7
100
AcDbSymbolTable
 70
0
  0
ENDTAB
  0
TABLE
  2
APPID
  5
9
100
AcDbSymbolTable
 70
1
  0
APPID
  5
211
100
AcDbSymbolTableRecord
100
AcDbRegAppTableRecord
  2
ACAD
 70
0
  0
ENDTAB
  0
TABLE
  2
BLOCK_RECORD
  5
1
100
AcDbSymbolTable
 70
0
  0
BLOCK_RECORD
  5
212
100
AcDbSymbolTableRecord
100
AcDbBlockTableRecord
  2
*Model_Space
  0
BLOCK_RECORD
  5
213
100
AcDbSymbolTableRecord
100
AcDbBlockTableRecord
  2
*Paper_Space
  0
BLOCK_RECORD
  5
214
100
AcDbSymbolTableRecord
100
AcDbBlockTableRecord
  2
_FILLED
  0
ENDTAB
  0
TABLE
  2
DIMSTYLE
  5
A
100
AcDbSymbolTable
 70
1
100
AcDbDimStyleTable
 71
0
  0
DIMSTYLE
105
215
100
AcDbSymbolTableRecord
100
AcDbDimStyleTableRecord
  2
STANDARD
 70
0
  3

  4

 40
1.0
 41
3.317940663
 42
1.0
 43
0.38
 44
1.0
 45
0.0
 46
0.0
 47
0.01
 48
0.01
140
4.6451169282
141
0.09
142
0.0
143
25.4
144
1.0
145
0.0
146
1.0
147
0.625
 71
1
 72
0
 73
0
 74
0
 75
0
 76
0
 77
1
 78
8
 79
2
170
0
171
1
172
0
173
0
174
0
175
0
176
0
177
0
178
0
270
2
179
2
271
2
272
2
273
2
274
2
275
0
280
0
281
0
282
0
283
1
284
8
285
0
286
0
287
3
288
0
340
11
278
46
341
214
342
214
343
214
344
214
  0
ENDTAB
  0
ENDSEC
  0
SECTION
  2
BLOCKS
  0
BLOCK
  5
20
100
AcDbEntity
  8
0
100
AcDbBlockBegin
  2
*Model_Space
 70
0
 10
0.0
 20
0.0
 30
0.0
  3
*Model_Space
  1

  0
ENDBLK
  5
21
100
AcDbEntity
  8
0
100
AcDbBlockEnd
  0
BLOCK
  5
1C
100
AcDbEntity
  8
0
100
AcDbBlockBegin
  2
*Paper_Space
 70
0
 10
0.0
 20
0.0
 30
0.0
  3
*Paper_Space
  1

  0
ENDBLK
  5
1D
100
AcDbEntity
  8
0
100
AcDbBlockEnd
  0
BLOCK
  5
216
100
AcDbEntity
  8
0
100
AcDbBlockBegin
  2
_FILLED
 70
64
 10
0.0
 20
0.0
  3
_FILLED
  1

  0
SOLID
  5
217
100
AcDbEntity
  8
0
  6
BYBLOCK
 62
0
100
AcDbTrace
 10
0.0
 20
0.0
 11
-1.0
 21
0.25
 12
-1.0
 22
-0.25
 13
-1.0
 23
-0.25
  0
ENDBLK
  5
218
100
AcDbEntity
  8
0
  6
BYBLOCK
 62
0
100
AcDbBlockEnd
  0
ENDSEC
  0
SECTION
  2
ENTITIES
  0
LINE
  5
219
100
AcDbEntity
  8
_1
100
AcDbLine
 62
7
  6
CONTINUOUS
 10
32.4882028344
 20
227.7683265659
 11
32.4882028344
 21
250.7679479444
  0
LINE
  5
21A
100
AcDbEntity
  8
_1
100
AcDbLine
 62
7
  6
CONTINUOUS
 10
51.5176454682
 20
183.5348037552
 11
51.6663630814
 21
179.530815003
  0
LINE
  5
21B
100
AcDbEntity
  8
_1
100
AcDbLine
 62
7
  6
CONTINUOUS
 10
48.4382028344
 20
227.0681372552
 11
48.4382028344
 21
251.3189109298
  0
LINE
  5
21C
100
AcDbEntity
  8
_1
100
AcDbLine
 62
7
  6
CONTINUOUS
 10
53.3380598557
 20
202.3681372552
 11
53.3380603965
 21
208.3681372552
  0
LINE
  5
21D
100
AcDbEntity
  8
_1
100
AcDbLine
 62
7
  6
CONTINUOUS
 10
53.3380598557
 20
155.8681372552
 11
53.3380603965
 21
161.8681372552
  0
LINE
  5
21E
100
AcDbEntity
  8
_1
100
AcDbLine
 62
7
  6
CONTINUOUS
 10
51.6663299944
 20
174.2091797807
 11
51.5176454682
 21
170.2014707552
  0
LWPOLYLINE
  5
21F
100
AcDbEntity
  8
_1
100
AcDbPolyline
 62
7
  6
CONTINUOUS
 90
3
 70
0
 10
53.3380488972
 20
208.3681372552
 10
52.6987905802
 20
205.3605285435
 10
53.338048898
 20
202.3681372552
  0
LINE
  5
220
100
AcDbEntity
  8
_1
100
AcDbLine
 62
7
  6
CONTINUOUS
 10
54.9382028344
 20
148.4204966279
 11
54.9382028344
 21
165.7195195714
  0
LINE
  5
221
100
AcDbEntity
  8
_1
100
AcDbLine
 62
7
  6
CONTINUOUS
 10
54.9382028344
 20
199.5681372552
 11
54.9382028344
 21
211.8681372552
  0
LINE
  5
222
100
AcDbEntity
  8
_1
100
AcDbLine
 62
7
  6
CONTINUOUS
 10
58.9382028344
 20
211.8681372552
 11
58.9382028344
 21
141.8681372552
  0
LINE
  5
223
100
AcDbEntity
  8
_1
100
AcDbLine
 62
7
  6
CONTINUOUS
 10
59.4382028344
 20
218.4681372552
 11
59.4382028344
 21
213.8681372552
  0
LINE
  5
224
100
AcDbEntity
  8
_1
100
AcDbLine
 62
7
  6
CONTINUOUS
 10
59.6882028344
 20
218.4681372552
 11
59.6882028344
 21
220.4681372552
  0
LINE
  5
225
100
AcDbEntity
  8
_1
100
AcDbLine
 62
7
  6
CONTINUOUS
 10
60.4382028344
 20
220.9681372552
 11
60.4382028344
 21
222.0681372552
  0
LINE
  5
226
100
AcDbEntity
  8
_1
100
AcDbLine
 62
7
  6
CONTINUOUS
 10
61.0479885536
 20
211.8681372552
 11
61.0479885536
 21
210.6335790491
  0
LINE
  5
227
100
AcDbEntity
  8
_1
100
AcDbLine
 62
7
  6
CONTINUOUS
 10
59.2531129643
 20
213.8681372552
 11
59.2182028344
 21
211.8681372552
  0
LINE
  5
228
100
AcDbEntity
  8
_1
100
AcDbLine
 62
7
  6
CONTINUOUS
 10
62.2182028344
 20
210.6489369868
 11
62.2182028344
 21
213.8681372552
  0
LINE
  5
229
100
AcDbEntity
  8
_1
100
AcDbLine
 62
7
  6
CONTINUOUS
 10
62.4382028344
 20
213.8681372552
 11
62.4382028344
 21
218.4681372552
  0
LINE
  5
22A
100
AcDbEntity
  8
_1
100
AcDbLine
 62
7
  6
CONTINUOUS
 10
62.6996138201
 20
222.0681372552
 11
62.6996138201
 21
220.9681372552
  0
LINE
  5
22B
100
AcDbEntity
  8
_1
100
AcDbLine
 62
7
  6
CONTINUOUS
 10
65.1882028344
 20
218.4681372552
 11
65.1882028344
 21
220.4681372552
  0
LINE
  5
22C
100
AcDbEntity
  8
_1
100
AcDbLine
 62
7
  6
CONTINUOUS
 10
65.4267918488
 20
218.4681372552
 11
65.4267918488
 21
222.0681372552
  0
LWPOLYLINE
  5
22D
100
AcDbEntity
  8
_1
100
AcDbPolyline
 62
7
  6
CONTINUOUS
 90
3
 70
0
 10
53.3380488972
 20
161.8681372552
 10
52.6987905802
 20
158.8605285435
 10
53.338048898
 20
155.8681372552
  0
LINE
  5
22E
100
AcDbEntity
  8
_1
100
AcDbLine
 62
7
  6
CONTINUOUS
 10
85.1779332707
 20
253.2681372552
 11
72.4382028344
 21
239.3651611288
  0
LINE
  5
22F
100
AcDbEntity
  8
_1
100
AcDbLine
 62
7
  6
CONTINUOUS
 10
72.4382028344
 20
239.3651611288
 11
72.4382028344
 21
222.0681372552
  0
LINE
  5
230
100
AcDbEntity
  8
_1
100
AcDbLine
 62
7
  6
CONTINUOUS
 10
85.7182028344
 20
211.8681372552
 11
85.6832927046
 21
213.8681372552
  0
LINE
  5
231
100
AcDbEntity
  8
_1
100
AcDbLine
 62
7
  6
CONTINUOUS
 10
79.4496138201
 20
222.0681372552
 11
79.4496138201
 21
218.4681372552
  0
LINE
  5
232
100
AcDbEntity
  8
_1
100
AcDbLine
 62
7
  6
CONTINUOUS
 10
79.6882028344
 20
218.4681372552
 11
79.6882028344
 21
220.4681372552
  0
LINE
  5
233
100
AcDbEntity
  8
_1
100
AcDbLine
 62
7
  6
CONTINUOUS
 10
82.1767918488
 20
220.9681372552
 11
82.1767918488
 21
222.0681372552
  0
LINE
  5
234
100
AcDbEntity
  8
_1
100
AcDbLine
 62
7
  6
CONTINUOUS
 10
82.4382028344
 20
218.4681372552
 11
82.4382028344
 21
213.8681372552
  0
LINE
  5
235
100
AcDbEntity
  8
_1
100
AcDbLine
 62
7
  6
CONTINUOUS
 10
82.7182028344
 20
213.8681372552
 11
82.7182028344
 21
210.6489369868
  0
LINE
  5
236
100
AcDbEntity
  8
_1
100
AcDbLine
 62
7
  6
CONTINUOUS
 10
83.8884171153
 20
210.6335790491
 11
83.8884171153
 21
211.8681372552
  0
LINE
  5
237
100
AcDbEntity
  8
_1
100
AcDbLine
 62
7
  6
CONTINUOUS
 10
84.4382028344
 20
220.9681372552
 11
84.4382028344
 21
222.0681372552
  0
LINE
  5
238
100
AcDbEntity
  8
_1
100
AcDbLine
 62
7
  6
CONTINUOUS
 10
85.1882028344
 20
218.4681372552
 11
85.1882028344
 21
220.4681372552
  0
LINE
  5
239
100
AcDbEntity
  8
_1
100
AcDbLine
 62
7
  6
CONTINUOUS
 10
85.4382028344
 20
213.8681372552
 11
85.4382028344
 21
218.4681372552
  0
LINE
  5
23A
100
AcDbEntity
  8
_1
100
AcDbLine
 62
7
  6
CONTINUOUS
 10
86.4382028344
 20
222.0681372552
 11
86.4382028344
 21
253.2681372552
  0
LINE
  5
23B
100
AcDbEntity
  8
_1
100
AcDbLine
 62
7
  6
CONTINUOUS
 10
89.4332927046
 20
213.8681372552
 11
89.4682028344
 21
211.8681372552
  0
LINE
  5
23C
100
AcDbEntity
  8
_1
100
AcDbLine
 62
7
  6
CONTINUOUS
 10
87.1243189651
 20
211.8681372552
 11
87.0955720442
 21
213.8681372552
  0
LINE
  5
23D
100
AcDbEntity
  8
INTFCLR_16532
100
AcDbLine
 62
7
  6
CONTINUOUS
 10
87.9382034711
 20
202.4570345286
 11
87.9381996649
 21
201.5038757389
  0
LINE
  5
23E
100
AcDbEntity
  8
INTFCLR_16532
100
AcDbLine
 62
7
  6
CONTINUOUS
 10
87.93820339
 20
200.7435096641
 11
87.9381999835
 21
200.0952553099
  0
LINE
  5
23F
100
AcDbEntity
  8
_1
100
AcDbLine
 62
7
  6
CONTINUOUS
 10
87.9382028344
 20
211.592896141
 11
87.9382028344
 21
211.2062599935
  0
LINE
  5
240
100
AcDbEntity
  8
_1
100
AcDbLine
 62
7
  6
CONTINUOUS
 10
87.9382028344
 20
201.6478778349
 11
87.9382028344
 21
198.1749994685
  0
LINE
  5
241
100
AcDbEntity
  8
_1
100
AcDbLine
 62
7
  6
CONTINUOUS
 10
87.9382028344
 20
203.9161453099
 11
87.9382057256
 21
210.6335790491
  0
LINE
  5
242
100
AcDbEntity
  8
_1
100
AcDbLine
 62
7
  6
CONTINUOUS
 10
202.3263286264
 20
155.5612750419
 11
222.4382028344
 21
158.6441801827
  0
LINE
  5
243
100
AcDbEntity
  8
_1
100
AcDbLine
 62
7
  6
CONTINUOUS
 10
222.4382028344
 20
157.3681372552
 11
202.4382028344
 21
154.3681372552
  0
LINE
  5
244
100
AcDbEntity
  8
_1
100
AcDbLine
 62
7
  6
CONTINUOUS
 10
202.4382028344
 20
148.4204964665
 11
222.4382028344
 21
148.4466760722
  0
LINE
  5
245
100
AcDbEntity
  8
_1
100
AcDbLine
 62
7
  6
CONTINUOUS
 10
53.1343151727
 20
141.8681372552
 11
230.9382028344
 21
141.8681372552
  0
LINE
  5
246
100
AcDbEntity
  8
_1
100
AcDbLine
 62
7
  6
CONTINUOUS
 10
53.7814546098
 20
143.2661214397
 11
202.3263329812
 21
143.2661214384
  0
LINE
  5
247
100
AcDbEntity
  8
_1
100
AcDbLine
 62
7
  6
CONTINUOUS
 10
202.4382028344
 20
144.7213327496
 11
53.7032630019
 21
144.7213327471
  0
LINE
  5
248
100
AcDbEntity
  8
_1
100
AcDbLine
 62
7
  6
CONTINUOUS
 10
230.9382028344
 20
146.7965811986
 11
222.4382028344
 21
146.7965811986
  0
LINE
  5
249
100
AcDbEntity
  8
_1
100
AcDbLine
 62
7
  6
CONTINUOUS
 10
230.9382028344
 20
146.8681372552
 11
233.4382028344
 21
146.8681372552
  0
LINE
  5
24A
100
AcDbEntity
  8
_1
100
AcDbLine
 62
7
  6
CONTINUOUS
 10
54.9382028344
 20
148.4204966279
 11
202.4382028344
 21
148.4204964682
  0
LINE
  5
24B
100
AcDbEntity
  8
_1
100
AcDbLine
 62
7
  6
CONTINUOUS
 10
54.9382028344
 20
154.3681372552
 11
202.4382028344
 21
154.3681372552
  0
LINE
  5
24C
100
AcDbEntity
  8
_1
100
AcDbLine
 62
7
  6
CONTINUOUS
 10
54.9382028344
 20
155.5615337137
 11
202.3263286284
 21
155.5612750419
  0
LINE
  5
24D
100
AcDbEntity
  8
_1
100
AcDbLine
 62
7
  6
CONTINUOUS
 10
54.9382028344
 20
155.8681372552
 11
53.3380585467
 21
155.8681372552
  0
LINE
  5
24E
100
AcDbEntity
  8
_1
100
AcDbLine
 62
7
  6
CONTINUOUS
 10
52.4329477249
 20
158.9279261029
 11
52.7131157317
 21
158.9279261029
  0
LINE
  5
24F
100
AcDbEntity
  8
_1
100
AcDbLine
 62
7
  6
CONTINUOUS
 10
54.9382028344
 20
161.8681372552
 11
53.338058866
 21
161.8681372552
  0
LINE
  5
250
100
AcDbEntity
  8
_1
100
AcDbLine
 62
7
  6
CONTINUOUS
 10
52.7198383727
 20
165.7195195714
 11
54.9382028344
 21
165.7195195714
  0
LINE
  5
251
100
AcDbEntity
  8
_1
100
AcDbLine
 62
7
  6
CONTINUOUS
 10
222.4382028344
 20
166.4456099724
 11
58.9382028344
 21
166.4456099724
  0
LINE
  5
252
100
AcDbEntity
  8
_1
100
AcDbLine
 62
7
  6
CONTINUOUS
 10
58.9382028344
 20
166.4558912402
 11
53.3180711494
 21
166.4558912402
  0
LINE
  5
253
100
AcDbEntity
  8
_1
100
AcDbLine
 62
7
  6
CONTINUOUS
 10
51.0175791609
 20
170.2014707552
 11
51.565144796
 21
170.2014707552
  0
LINE
  5
254
100
AcDbEntity
  8
_1
100
AcDbLine
 62
7
  6
CONTINUOUS
 10
253.9382028344
 20
171.3681372552
 11
233.4382028344
 21
171.3681372552
  0
LINE
  5
255
100
AcDbEntity
  8
_1
100
AcDbLine
 62
7
  6
CONTINUOUS
 10
53.1343151727
 20
176.8681372552
 11
230.9382028344
 21
176.8681372552
  0
LINE
  5
256
100
AcDbEntity
  8
_1
100
AcDbLine
 62
7
  6
CONTINUOUS
 10
132.9382028344
 20
141.8681372552
 11
132.9382028344
 21
211.8681372552
  0
LINE
  5
257
100
AcDbEntity
  8
_1
100
AcDbLine
 62
7
  6
CONTINUOUS
 10
253.9382028344
 20
182.3681372552
 11
233.4382028344
 21
182.3681372552
  0
LINE
  5
258
100
AcDbEntity
  8
_1
100
AcDbLine
 62
7
  6
CONTINUOUS
 10
51.0175791609
 20
183.5348037552
 11
51.565144796
 21
183.5348037552
  0
LINE
  5
259
100
AcDbEntity
  8
_1
100
AcDbLine
 62
7
  6
CONTINUOUS
 10
53.3180711494
 20
187.2803832702
 11
58.9382028344
 21
187.2803832702
  0
LINE
  5
25A
100
AcDbEntity
  8
_1
100
AcDbLine
 62
7
  6
CONTINUOUS
 10
58.9382028344
 20
187.290664538
 11
222.4382028344
 21
187.290664538
  0
LINE
  5
25B
100
AcDbEntity
  8
_1
100
AcDbLine
 62
7
  6
CONTINUOUS
 10
87.9382028344
 20
198.1749994685
 11
202.3263270217
 21
198.1749994685
  0
LINE
  5
25C
100
AcDbEntity
  8
_1
100
AcDbLine
 62
7
  6
CONTINUOUS
 10
132.9381969216
 20
199.3681136364
 11
87.9382001078
 21
210.6335568421
  0
LINE
  5
25D
100
AcDbEntity
  8
_1
100
AcDbLine
 62
7
  6
CONTINUOUS
 10
132.9382028344
 20
199.3681372552
 11
87.9382028344
 21
211.2062599841
  0
LINE
  5
25E
100
AcDbEntity
  8
_1
100
AcDbLine
 62
7
  6
CONTINUOUS
 10
202.4382028344
 20
199.3681372552
 11
132.9382028344
 21
199.3681372552
  0
LINE
  5
25F
100
AcDbEntity
  8
_1
100
AcDbLine
 62
7
  6
CONTINUOUS
 10
53.1448488823
 20
199.5681372552
 11
54.9382028344
 21
199.5681372552
  0
LINE
  5
260
100
AcDbEntity
  8
_1
100
AcDbLine
 62
7
  6
CONTINUOUS
 10
54.9382028344
 20
202.3681372552
 11
53.3380585467
 21
202.3681372552
  0
LINE
  5
261
100
AcDbEntity
  8
_1
100
AcDbLine
 62
7
  6
CONTINUOUS
 10
202.4382028344
 20
205.3157780422
 11
132.9382028344
 21
205.3157780422
  0
LINE
  5
262
100
AcDbEntity
  8
_1
100
AcDbLine
 62
7
  6
CONTINUOUS
 10
230.9382028344
 20
206.8681372552
 11
233.4382028344
 21
206.8681372552
  0
LINE
  5
263
100
AcDbEntity
  8
_1
100
AcDbLine
 62
7
  6
CONTINUOUS
 10
222.4382028344
 20
206.9396933117
 11
230.9382028344
 21
206.9396933117
  0
LINE
  5
264
100
AcDbEntity
  8
_1
100
AcDbLine
 62
7
  6
CONTINUOUS
 10
202.4382028344
 20
205.3157780442
 11
222.4382028344
 21
205.2895984383
  0
LINE
  5
265
100
AcDbEntity
  8
_1
100
AcDbLine
 62
7
  6
CONTINUOUS
 10
132.9382033553
 20
205.3157780823
 11
87.9382028345
 21
211.8681372553
  0
LINE
  5
266
100
AcDbEntity
  8
_1
100
AcDbLine
 62
7
  6
CONTINUOUS
 10
54.9382028344
 20
208.3681372552
 11
53.338058866
 21
208.3681372552
  0
LINE
  5
267
100
AcDbEntity
  8
_1
100
AcDbLine
 62
7
  6
CONTINUOUS
 10
222.4382028344
 20
210.3810822374
 11
132.9382028344
 21
210.3812270584
  0
LINE
  5
268
100
AcDbEntity
  8
_1
100
AcDbLine
 62
7
  6
CONTINUOUS
 10
54.9382028344
 20
210.6329290691
 11
61.0479885536
 21
210.6335790491
  0
LINE
  5
269
100
AcDbEntity
  8
_1
100
AcDbLine
 62
7
  6
CONTINUOUS
 10
83.8884171153
 20
210.6335790491
 11
87.9382027822
 21
210.6335790491
  0
LINE
  5
26A
100
AcDbEntity
  8
_1
100
AcDbLine
 62
7
  6
CONTINUOUS
 10
62.2182028344
 20
210.6489369868
 11
82.7182028344
 21
210.6489369868
  0
LINE
  5
26B
100
AcDbEntity
  8
_1
100
AcDbLine
 62
7
  6
CONTINUOUS
 10
90.4076878269
 20
211.8673120423
 11
102.2404330671
 21
211.8681372552
  0
LINE
  5
26C
100
AcDbEntity
  8
_1
100
AcDbLine
 62
7
  6
CONTINUOUS
 10
202.9382028344
 20
211.9681372552
 11
230.4382028344
 21
211.9681372552
  0
LINE
  5
26D
100
AcDbEntity
  8
_1
100
AcDbLine
 62
7
  6
CONTINUOUS
 10
218.3967509501
 20
212.4681372552
 11
226.4796547188
 21
212.4681372552
  0
LINE
  5
26E
100
AcDbEntity
  8
_1
100
AcDbLine
 62
7
  6
CONTINUOUS
 10
59.2531129643
 20
213.8681372552
 11
89.4329955527
 21
213.8681372552
  0
LINE
  5
26F
100
AcDbEntity
  8
_1
100
AcDbLine
 62
7
  6
CONTINUOUS
 10
53.1343151727
 20
211.8681372552
 11
230.9382028344
 21
211.8681372552
  0
LINE
  5
270
100
AcDbEntity
  8
_1
100
AcDbLine
 62
7
  6
CONTINUOUS
 10
87.9811091509
 20
211.868122914
 11
90.4076878269
 21
211.8673120423
  0
LINE
  5
271
100
AcDbEntity
  8
_1
100
AcDbLine
 62
7
  6
CONTINUOUS
 10
87.9382338778
 20
211.8681372414
 11
87.9811090591
 21
211.8681277571
  0
LINE
  5
272
100
AcDbEntity
  8
_1
100
AcDbLine
 62
7
  6
CONTINUOUS
 10
132.9382028344
 20
210.3812270579
 11
87.9382028344
 21
211.8681372552
  0
LINE
  5
273
100
AcDbEntity
  8
_1
100
AcDbLine
 62
7
  6
CONTINUOUS
 10
222.4382028344
 20
196.3681372552
 11
202.4382028344
 21
199.3681372552
  0
LINE
  5
274
100
AcDbEntity
  8
_1
100
AcDbLine
 62
7
  6
CONTINUOUS
 10
222.4382028344
 20
195.0920943276
 11
202.3263286264
 21
198.1749994685
  0
LINE
  5
275
100
AcDbEntity
  8
_1
100
AcDbLine
 62
7
  6
CONTINUOUS
 10
226.9382028344
 20
215.6681372552
 11
217.9382028344
 21
215.6681372552
  0
LINE
  5
276
100
AcDbEntity
  8
_1
100
AcDbLine
 62
7
  6
CONTINUOUS
 10
217.9382028344
 20
216.4681372552
 11
226.9382028344
 21
216.4681372552
  0
LINE
  5
277
100
AcDbEntity
  8
_1
100
AcDbLine
 62
7
  6
CONTINUOUS
 10
218.3967509501
 20
217.3681372552
 11
226.4796547188
 21
217.3681372552
  0
LINE
  5
278
100
AcDbEntity
  8
_1
100
AcDbLine
 62
7
  6
CONTINUOUS
 10
59.4382028344
 20
218.4681372552
 11
85.4382028344
 21
218.4681372552
  0
LINE
  5
279
100
AcDbEntity
  8
_1
100
AcDbLine
 62
7
  6
CONTINUOUS
 10
59.6882028344
 20
220.4681372552
 11
65.1882028344
 21
220.4681372552
  0
LINE
  5
27A
100
AcDbEntity
  8
_1
100
AcDbLine
 62
7
  6
CONTINUOUS
 10
79.6882028344
 20
220.4681372552
 11
85.1882028344
 21
220.4681372552
  0
LINE
  5
27B
100
AcDbEntity
  8
_1
100
AcDbLine
 62
7
  6
CONTINUOUS
 10
218.3967509501
 20
220.5681372552
 11
226.4796547188
 21
220.5681372552
  0
LINE
  5
27C
100
AcDbEntity
  8
_1
100
AcDbLine
 62
7
  6
CONTINUOUS
 10
60.1883498735
 20
220.9681372552
 11
64.6880557954
 21
220.9681372552
  0
LINE
  5
27D
100
AcDbEntity
  8
_1
100
AcDbLine
 62
7
  6
CONTINUOUS
 10
80.1883498735
 20
220.9681372552
 11
84.6880557954
 21
220.9681372552
  0
LINE
  5
27E
100
AcDbEntity
  8
_1
100
AcDbLine
 62
7
  6
CONTINUOUS
 10
86.4381877566
 20
222.0681372552
 11
53.4382028344
 21
222.0681372552
  0
LINE
  5
27F
100
AcDbEntity
  8
_1
100
AcDbLine
 62
7
  6
CONTINUOUS
 10
220.4382028344
 20
224.4681372552
 11
224.4382028344
 21
224.4681372552
  0
LINE
  5
280
100
AcDbEntity
  8
_1
100
AcDbLine
 62
7
  6
CONTINUOUS
 10
32.4882028344
 20
227.7681372552
 11
48.4382028344
 21
227.7681372552
  0
LINE
  5
281
100
AcDbEntity
  8
_1
100
AcDbLine
 62
7
  6
CONTINUOUS
 10
32.4882028344
 20
250.7681372552
 11
48.4382028344
 21
250.7681372552
  0
LINE
  5
282
100
AcDbEntity
  8
_1
100
AcDbLine
 62
7
  6
CONTINUOUS
 10
70.7179616838
 20
253.2681372552
 11
86.4381966938
 21
253.2681372552
  0
LINE
  5
283
100
AcDbEntity
  8
_1
100
AcDbLine
 62
7
  6
CONTINUOUS
 10
202.4382028344
 20
210.3811546479
 11
202.4382028344
 21
199.3681372552
  0
LINE
  5
284
100
AcDbEntity
  8
_1
100
AcDbLine
 62
7
  6
CONTINUOUS
 10
202.4382065313
 20
154.3681372552
 11
202.4382028344
 21
144.7249531605
  0
LINE
  5
285
100
AcDbEntity
  8
_1
100
AcDbLine
 62
7
  6
CONTINUOUS
 10
202.9382028344
 20
211.9681372552
 11
202.9382028344
 21
211.8681372552
  0
LINE
  5
286
100
AcDbEntity
  8
_1
100
AcDbLine
 62
7
  6
CONTINUOUS
 10
204.9382028344
 20
211.8681372552
 11
204.9382028344
 21
211.9681372552
  0
LINE
  5
287
100
AcDbEntity
  8
_1
100
AcDbLine
 62
7
  6
CONTINUOUS
 10
70.7179616838
 20
253.2681372552
 11
48.4382028344
 21
251.3189109298
  0
LINE
  5
288
100
AcDbEntity
  8
_1
100
AcDbLine
 62
7
  6
CONTINUOUS
 10
217.9382028344
 20
215.6681372552
 11
217.9382028344
 21
216.4681372552
  0
LINE
  5
289
100
AcDbEntity
  8
_1
100
AcDbLine
 62
7
  6
CONTINUOUS
 10
218.3967509501
 20
212.4681372552
 11
218.3967509501
 21
215.6681372552
  0
LINE
  5
28A
100
AcDbEntity
  8
_1
100
AcDbLine
 62
7
  6
CONTINUOUS
 10
218.3967509501
 20
217.3681372552
 11
218.3967509501
 21
220.5681372552
  0
LINE
  5
28B
100
AcDbEntity
  8
_1
100
AcDbLine
 62
7
  6
CONTINUOUS
 10
218.4382028344
 20
212.4681372552
 11
218.4382028344
 21
211.9681372552
  0
LINE
  5
28C
100
AcDbEntity
  8
_1
100
AcDbLine
 62
7
  6
CONTINUOUS
 10
218.6382028344
 20
216.4681372552
 11
218.6382028344
 21
217.3681372552
  0
LINE
  5
28D
100
AcDbEntity
  8
_1
100
AcDbLine
 62
7
  6
CONTINUOUS
 10
220.4174768923
 20
212.4681372552
 11
220.4174768923
 21
215.6681372552
  0
LINE
  5
28E
100
AcDbEntity
  8
_1
100
AcDbLine
 62
7
  6
CONTINUOUS
 10
220.4174768923
 20
217.3681372552
 11
220.4174768923
 21
220.5681372552
  0
LINE
  5
28F
100
AcDbEntity
  8
_1
100
AcDbLine
 62
7
  6
CONTINUOUS
 10
220.4382028344
 20
220.5681372552
 11
220.4382028344
 21
224.4681372552
  0
LINE
  5
290
100
AcDbEntity
  8
_1
100
AcDbLine
 62
7
  6
CONTINUOUS
 10
222.4382028344
 20
141.8681372552
 11
222.4382028344
 21
166.4456099724
  0
LINE
  5
291
100
AcDbEntity
  8
_1
100
AcDbLine
 62
7
  6
CONTINUOUS
 10
222.4382028344
 20
187.290664538
 11
222.4382028344
 21
211.8681372552
  0
LINE
  5
292
100
AcDbEntity
  8
_1
100
AcDbLine
 62
7
  6
CONTINUOUS
 10
223.4382028344
 20
211.9681372552
 11
223.4382028344
 21
211.8681372552
  0
LINE
  5
293
100
AcDbEntity
  8
_1
100
AcDbLine
 62
7
  6
CONTINUOUS
 10
224.4382028344
 20
220.5681372552
 11
224.4382028344
 21
224.4681372552
  0
LINE
  5
294
100
AcDbEntity
  8
_1
100
AcDbLine
 62
7
  6
CONTINUOUS
 10
224.4589287766
 20
212.4681372552
 11
224.4589287766
 21
215.6681372552
  0
LINE
  5
295
100
AcDbEntity
  8
_1
100
AcDbLine
 62
7
  6
CONTINUOUS
 10
224.4589287766
 20
217.3681372552
 11
224.4589287766
 21
220.5681372552
  0
LINE
  5
296
100
AcDbEntity
  8
_1
100
AcDbLine
 62
7
  6
CONTINUOUS
 10
226.2382028344
 20
216.4681372552
 11
226.2382028344
 21
217.3681372552
  0
LINE
  5
297
100
AcDbEntity
  8
_1
100
AcDbLine
 62
7
  6
CONTINUOUS
 10
226.4382028344
 20
212.4681372552
 11
226.4382028344
 21
211.9681372552
  0
LINE
  5
298
100
AcDbEntity
  8
_1
100
AcDbLine
 62
7
  6
CONTINUOUS
 10
226.4796547188
 20
212.4681372552
 11
226.4796547188
 21
215.6681372552
  0
LINE
  5
299
100
AcDbEntity
  8
_1
100
AcDbLine
 62
7
  6
CONTINUOUS
 10
226.4796547188
 20
217.3681372552
 11
226.4796547188
 21
220.5681372552
  0
LINE
  5
29A
100
AcDbEntity
  8
_1
100
AcDbLine
 62
7
  6
CONTINUOUS
 10
226.9382028344
 20
215.6681372552
 11
226.9382028344
 21
216.4681372552
  0
LINE
  5
29B
100
AcDbEntity
  8
_1
100
AcDbLine
 62
7
  6
CONTINUOUS
 10
230.4382028344
 20
211.9681372552
 11
230.4382028344
 21
211.8681372552
  0
LINE
  5
29C
100
AcDbEntity
  8
_1
100
AcDbLine
 62
7
  6
CONTINUOUS
 10
230.9382028344
 20
211.8681372552
 11
230.9382028344
 21
141.8681372552
  0
LINE
  5
29D
100
AcDbEntity
  8
_1
100
AcDbLine
 62
7
  6
CONTINUOUS
 10
233.4382028344
 20
206.8681050232
 11
233.4382028344
 21
146.8681694871
  0
LINE
  5
29E
100
AcDbEntity
  8
_1
100
AcDbLine
 62
7
  6
CONTINUOUS
 10
253.9382028344
 20
182.3677749633
 11
253.9382028344
 21
171.368499547
  0
ARC
  5
29F
100
AcDbEntity
  8
_1
100
AcDbCircle
 62
7
  6
CONTINUOUS
 10
293.0318753104
 20
3028.1065224214
 40
2884.8044102971
100
AcDbArc
 50
268.200401869
 51
268.5977824819
  0
ARC
  5
2A0
100
AcDbEntity
  8
_1
100
AcDbCircle
 62
7
  6
CONTINUOUS
 10
292.8294655231
 20
2965.6216470135
 40
2823.8062132934
100
AcDbArc
 50
268.163352742
 51
268.571594589
  0
ARC
  5
2A1
100
AcDbEntity
  8
_1
100
AcDbCircle
 62
7
  6
CONTINUOUS
 10
330.9382028344
 20
176.8681372552
 40
280.0
100
AcDbArc
 50
181.3643141166
 51
187.1807557815
  0
ARC
  5
2A2
100
AcDbEntity
  8
_1
100
AcDbCircle
 62
7
  6
CONTINUOUS
 10
330.9381571676
 20
176.8681406669
 40
279.9999542649
100
AcDbArc
 50
172.8192437431
 51
178.6356863589
  0
ARC
  5
2A3
100
AcDbEntity
  8
_1
100
AcDbCircle
 62
7
  6
CONTINUOUS
 10
330.9382028344
 20
176.8681372552
 40
279.2848008754
100
AcDbArc
 50
179.1451691559
 51
180.8548308441
  0
ARC
  5
2A4
100
AcDbEntity
  8
_1
100
AcDbCircle
 62
7
  6
CONTINUOUS
 10
330.9382028344
 20
176.8681372552
 40
279.2151455419
100
AcDbArc
 50
172.7989528092
 51
173.5222685841
  0
ARC
  5
2A5
100
AcDbEntity
  8
_1
100
AcDbCircle
 62
7
  6
CONTINUOUS
 10
330.9626096561
 20
176.6732067979
 40
279.0943703525
100
AcDbArc
 50
183.6454192217
 51
186.5738709214
  0
ARC
  5
2A6
100
AcDbEntity
  8
_1
100
AcDbCircle
 62
7
  6
CONTINUOUS
 10
330.9414619558
 20
176.5631508887
 40
277.8073141955
100
AcDbArc
 50
179.9370987219
 51
182.0850104506
  0
ARC
  5
2A7
100
AcDbEntity
  8
_1
100
AcDbCircle
 62
7
  6
CONTINUOUS
 10
330.9414619558
 20
177.1731236216
 40
277.8073141955
100
AcDbArc
 50
177.9149895494
 51
180.0629012781
  0
ARC
  5
2A8
100
AcDbEntity
  8
_1
100
AcDbCircle
 62
7
  6
CONTINUOUS
 10
13.4896496391
 20
172.1293515792
 40
38.1991200587
100
AcDbArc
 50
359.4221751688
 51
0.8581674071
  0
ARC
  5
2A9
100
AcDbEntity
  8
_1
100
AcDbCircle
 62
7
  6
CONTINUOUS
 10
14.9827042864
 20
181.6032334665
 40
36.7061823725
100
AcDbArc
 50
359.11268557
 51
0.6103003577
  0
ARC
  5
2AA
100
AcDbEntity
  8
_1
100
AcDbCircle
 62
7
  6
CONTINUOUS
 10
23.8523513218
 20
172.0455777241
 40
27.8361082296
100
AcDbArc
 50
358.4925063735
 51
359.3794938892
  0
ARC
  5
2AB
100
AcDbEntity
  8
_1
100
AcDbCircle
 62
7
  6
CONTINUOUS
 10
25.0630843745
 20
181.7131975288
 40
26.625202976
100
AcDbArc
 50
0.6047351043
 51
1.5354111862
  0
ARC
  5
2AC
100
AcDbEntity
  8
_1
100
AcDbCircle
 62
7
  6
CONTINUOUS
 10
32.4856451802
 20
171.8235840106
 40
19.19996298
100
AcDbArc
 50
357.342950941
 51
358.4769733578
  0
ARC
  5
2AD
100
AcDbEntity
  8
_1
100
AcDbCircle
 62
7
  6
CONTINUOUS
 10
34.0350829093
 20
181.9694060781
 40
17.6495677322
100
AcDbArc
 50
1.4843991829
 51
2.7104463598
  0
ARC
  5
2AE
100
AcDbEntity
  8
_1
100
AcDbCircle
 62
7
  6
CONTINUOUS
 10
53.4382028344
 20
227.0681372552
 40
5.0
100
AcDbArc
 50
180.0
 51
270.0
  0
ARC
  5
2AF
100
AcDbEntity
  8
_1
100
AcDbCircle
 62
7
  6
CONTINUOUS
 10
60.1882028344
 20
220.4681372552
 40
0.5
100
AcDbArc
 50
90.0
 51
180.0
  0
ARC
  5
2B0
100
AcDbEntity
  8
_1
100
AcDbCircle
 62
7
  6
CONTINUOUS
 10
64.6882028344
 20
220.4681372552
 40
0.5
100
AcDbArc
 50
0.0
 51
90.0
  0
ARC
  5
2B1
100
AcDbEntity
  8
_1
100
AcDbCircle
 62
7
  6
CONTINUOUS
 10
80.1882028344
 20
220.4681372552
 40
0.5
100
AcDbArc
 50
90.0
 51
180.0
  0
ARC
  5
2B2
100
AcDbEntity
  8
_1
100
AcDbCircle
 62
7
  6
CONTINUOUS
 10
84.6882028344
 20
220.4681372552
 40
0.5
100
AcDbArc
 50
0.0
 51
90.0
  0
SPLINE
  5
2B3
100
AcDbEntity
  8
_1
100
AcDbSpline
 62
7
  6
CONTINUOUS
 70
0
 71
3
 72
12
 73
8
 74
0
 42
0.0000001
 43
0.0000001
 44
0.0000000001
 40
0.0
 40
0.0
 40
0.0
 40
0.0
 40
0.4180751754
 40
0.7253035912
 40
0.9164864012
 40
0.9695712514
 40
1.0
 40
1.0
 40
1.0
 40
1.0
 10
51.6459286802
 20
170.6234739075
 30
0.0
 10
51.6411540178
 20
170.5628489368
 30
0.0
 10
51.6314827994
 20
170.4576119975
 30
0.0
 10
51.6136988851
 20
170.3259186663
 30
0.0
 10
51.5958324927
 20
170.2466406823
 30
0.0
 10
51.5802345182
 20
170.2104114296
 30
0.0
 10
51.5695709242
 20
170.2014707552
 30
0.0
 10
51.565144796
 20
170.2014707552
 30
0.0
  0
SPLINE
  5
2B4
100
AcDbEntity
  8
_1
100
AcDbSpline
 62
7
  6
CONTINUOUS
 70
0
 71
3
 72
9
 73
5
 74
0
 42
0.0000001
 43
0.0000001
 44
0.0000000001
 40
0.0
 40
0.0
 40
0.0
 40
0.0
 40
0.2719868335
 40
1.0
 40
1.0
 40
1.0
 40
1.0
 10
51.6649664134
 20
170.9335191462
 30
0.0
 10
51.6636239109
 20
170.9053882275
 30
0.0
 10
51.6583859774
 20
170.8019762985
 30
0.0
 10
51.651851134
 20
170.6986231751
 30
0.0
 10
51.6459286802
 20
170.6234739066
 30
0.0
  0
SPLINE
  5
2B5
100
AcDbEntity
  8
_1
100
AcDbSpline
 62
7
  6
CONTINUOUS
 70
0
 71
3
 72
9
 73
5
 74
0
 42
0.0000001
 43
0.0000001
 44
0.0000000001
 40
0.0
 40
0.0
 40
0.0
 40
0.0
 40
0.2273137421
 40
1.0
 40
1.0
 40
1.0
 40
1.0
 10
51.6457422508
 20
183.1151625615
 30
0.0
 10
51.647604864
 20
183.0916159058
 30
0.0
 10
51.6552581409
 20
182.9879865809
 30
0.0
 10
51.661068335
 20
182.8842271295
 30
0.0
 10
51.6649055362
 20
182.8040289131
 30
0.0
  0
SPLINE
  5
2B6
100
AcDbEntity
  8
_1
100
AcDbSpline
 62
7
  6
CONTINUOUS
 70
0
 71
3
 72
9
 73
5
 74
0
 42
0.0000001
 43
0.0000001
 44
0.0000000001
 40
0.0
 40
0.0
 40
0.0
 40
0.0
 40
0.2157702547
 40
1.0
 40
1.0
 40
1.0
 40
1.0
 10
51.62219088
 20
183.3448691234
 30
0.0
 10
51.6244389884
 20
183.3284127967
 30
0.0
 10
51.6340050095
 20
183.2520286998
 30
0.0
 10
51.6409849838
 20
183.1753418462
 30
0.0
 10
51.6457422508
 20
183.1151625615
 30
0.0
  0
SPLINE
  5
2B7
100
AcDbEntity
  8
_1
100
AcDbSpline
 62
7
  6
CONTINUOUS
 70
0
 71
3
 72
11
 73
7
 74
0
 42
0.0000001
 43
0.0000001
 44
0.0000000001
 40
0.0
 40
0.0
 40
0.0
 40
0.0
 40
0.0953190842
 40
0.2865683137
 40
0.5879992106
 40
1.0
 40
1.0
 40
1.0
 40
1.0
 10
51.565144796
 20
183.5348037552
 30
0.0
 10
51.5715887009
 20
183.5348037552
 30
0.0
 10
51.5862108291
 20
183.5166611069
 30
0.0
 10
51.5972299707
 20
183.4805153133
 30
0.0
 10
51.6114476999
 20
183.4198966714
 30
0.0
 10
51.6184237937
 20
183.3724658973
 30
0.0
 10
51.62219088
 20
183.3448691223
 30
0.0
  0
SPLINE
  5
2B8
100
AcDbEntity
  8
_1
100
AcDbSpline
 62
7
  6
CONTINUOUS
 70
0
 71
3
 72
13
 73
9
 74
0
 42
0.0000001
 43
0.0000001
 44
0.0000000001
 40
0.0
 40
0.0
 40
0.0
 40
0.0
 40
0.341969297
 40
0.6441965906
 40
0.769328642
 40
0.8720689517
 40
0.9496019684
 40
1.0
 40
1.0
 40
1.0
 40
1.0
 10
53.7032630019
 20
144.7213327471
 30
0.0
 10
53.7223154973
 20
144.5560125922
 30
0.0
 10
53.7544227514
 20
144.2441481954
 30
0.0
 10
53.7828699065
 20
143.8707429038
 30
0.0
 10
53.794285724
 20
143.6130450079
 30
0.0
 10
53.7967964438
 20
143.46433976
 30
0.0
 10
53.7934149182
 20
143.352258636
 30
0.0
 10
53.7873396588
 20
143.2899303648
 30
0.0
 10
53.7814546098
 20
143.2661214397
 30
0.0
  0
SPLINE
  5
2B9
100
AcDbEntity
  8
_1
100
AcDbSpline
 62
7
  6
CONTINUOUS
 70
0
 71
3
 72
21
 73
17
 74
0
 42
0.0000001
 43
0.0000001
 44
0.0000000001
 40
0.0
 40
0.0
 40
0.0
 40
0.0
 40
0.0051851889
 40
0.0112177097
 40
0.0187529826
 40
0.028130937
 40
0.0529760608
 40
0.0862732193
 40
0.1280126483
 40
0.1779337392
 40
0.2356639158
 40
0.3006965955
 40
0.4502744258
 40
0.6211099712
 40
0.8067158525
 40
1.0
 40
1.0
 40
1.0
 40
1.0
 10
52.7198383727
 20
165.7195195714
 30
0.0
 10
52.707942338
 20
165.7195195714
 30
0.0
 10
52.6819889927
 20
165.7129488006
 30
0.0
 10
52.6474872593
 20
165.686003481
 30
0.0
 10
52.6152728882
 20
165.6439579028
 30
0.0
 10
52.5700967441
 20
165.5591606888
 30
0.0
 10
52.5209594169
 20
165.4114404241
 30
0.0
 10
52.4708367202
 20
165.1877675131
 30
0.0
 10
52.4267168264
 20
164.9043007137
 30
0.0
 10
52.3889711391
 20
164.563593271
 30
0.0
 10
52.3583063783
 20
164.1685417869
 30
0.0
 10
52.3257839069
 20
163.54452805
 30
0.0
 10
52.307703381
 20
162.6602007035
 30
0.0
 10
52.3175216822
 20
161.4992046892
 30
0.0
 10
52.3582740053
 20
160.238558336
 30
0.0
 10
52.4047549911
 20
159.3704679746
 30
0.0
 10
52.4329477249
 20
158.9279261029
 30
0.0
  0
SPLINE
  5
2BA
100
AcDbEntity
  8
_1
100
AcDbSpline
 62
7
  6
CONTINUOUS
 70
0
 71
3
 72
8
 73
4
 74
0
 42
0.0000001
 43
0.0000001
 44
0.0000000001
 40
0.0
 40
0.0
 40
0.0
 40
0.0
 40
1.0
 40
1.0
 40
1.0
 40
1.0
 10
53.3180711494
 20
166.4558912402
 30
0.0
 10
53.3257707721
 20
166.2104288301
 30
0.0
 10
53.3336339234
 20
165.9649714948
 30
0.0
 10
53.3416608928
 20
165.7195195714
 30
0.0
  0
SPLINE
  5
2BB
100
AcDbEntity
  8
_1
100
AcDbSpline
 62
7
  6
CONTINUOUS
 70
0
 71
3
 72
9
 73
5
 74
0
 42
0.0000001
 43
0.0000001
 44
0.0000000001
 40
0.0
 40
0.0
 40
0.0
 40
0.0
 40
0.247456496
 40
1.0
 40
1.0
 40
1.0
 40
1.0
 10
53.8427579023
 20
199.5681372552
 30
0.0
 10
53.7877157624
 20
198.5551338603
 30
0.0
 10
53.5773542843
 20
194.4608225133
 30
0.0
 10
53.4147997043
 20
190.3640699845
 30
0.0
 10
53.3180711494
 20
187.2803832702
 30
0.0
  0
SPLINE
  5
2BC
100
AcDbEntity
  8
_1
100
AcDbSpline
 62
7
  6
CONTINUOUS
 70
0
 71
3
 72
17
 73
13
 74
0
 42
0.0000001
 43
0.0000001
 44
0.0000000001
 40
0.0
 40
0.0
 40
0.0
 40
0.0
 40
0.3976281821
 40
0.5684280271
 40
0.7145167584
 40
0.7771345559
 40
0.8322810539
 40
0.8796726895
 40
0.9190805079
 40
0.9504301072
 40
0.9738342626
 40
1.0
 40
1.0
 40
1.0
 40
1.0
 10
53.0349208943
 20
203.7142806187
 30
0.0
 10
52.993900865
 20
203.1593613167
 30
0.0
 10
52.9467969867
 20
202.3650364585
 30
0.0
 10
52.9219655269
 20
201.3653798519
 30
0.0
 10
52.9239865694
 20
200.8342007624
 30
0.0
 10
52.9374924352
 20
200.465146435
 30
0.0
 10
52.9520658114
 20
200.234546873
 30
0.0
 10
52.971718583
 20
200.0365507622
 30
0.0
 10
52.9952616323
 20
199.8736328945
 30
0.0
 10
53.0251291317
 20
199.7428260852
 30
0.0
 10
53.0579892995
 20
199.6408433467
 30
0.0
 10
53.1082330447
 20
199.5681372552
 30
0.0
 10
53.1448488823
 20
199.5681372552
 30
0.0
  0
SPLINE
  5
2BD
100
AcDbEntity
  8
_1
100
AcDbSpline
 62
7
  6
CONTINUOUS
 70
0
 71
3
 72
11
 73
7
 74
0
 42
0.0000001
 43
0.0000001
 44
0.0000000001
 40
0.0
 40
0.0
 40
0.0
 40
0.0
 40
0.3579521114
 40
0.6437493097
 40
0.8574232706
 40
1.0
 40
1.0
 40
1.0
 40
1.0
 10
53.7814546098
 20
143.2661214397
 30
0.0
 10
53.73929086
 20
143.0955411179
 30
0.0
 10
53.6604376513
 20
142.7895582412
 30
0.0
 10
53.542843467
 20
142.3850809264
 30
0.0
 10
53.4391043202
 20
142.0877851824
 30
0.0
 10
53.3673378398
 20
141.9269917897
 30
0.0
 10
53.3294615482
 20
141.8681372552
 30
0.0
  0
SPLINE
  5
2BE
100
AcDbEntity
  8
_1
100
AcDbSpline
 62
7
  6
CONTINUOUS
 70
0
 71
3
 72
9
 73
5
 74
0
 42
0.0000001
 43
0.0000001
 44
0.0000000001
 40
0.0
 40
0.0
 40
0.0
 40
0.0
 40
0.4999883401
 40
1.0
 40
1.0
 40
1.0
 40
1.0
 10
82.7182028344
 20
210.6484777646
 30
0.0
 10
82.9132510135
 20
210.648477749
 30
0.0
 10
83.3033225873
 20
210.6420736027
 30
0.0
 10
83.6933597991
 20
210.6330857171
 30
0.0
 10
83.8884170749
 20
210.6330724377
 30
0.0
  0
SPLINE
  5
2BF
100
AcDbEntity
  8
_1
100
AcDbSpline
 62
7
  6
CONTINUOUS
 70
0
 71
3
 72
9
 73
5
 74
0
 42
0.0000001
 43
0.0000001
 44
0.0000000001
 40
0.0
 40
0.0
 40
0.0
 40
0.0
 40
0.5000204678
 40
1.0
 40
1.0
 40
1.0
 40
1.0
 10
61.047988594
 20
210.6330726785
 30
0.0
 10
61.2430493057
 20
210.6330859518
 30
0.0
 10
61.6330865159
 20
210.6420739677
 30
0.0
 10
62.0231580914
 20
210.6484779672
 30
0.0
 10
62.2182028345
 20
210.6484779829
 30
0.0
  0
SPLINE
  5
2C0
100
AcDbEntity
  8
_1
100
AcDbSpline
 62
7
  6
CONTINUOUS
 70
0
 71
3
 72
13
 73
9
 74
0
 42
0.0000001
 43
0.0000001
 44
0.0000000001
 40
0.0
 40
0.0
 40
0.0
 40
0.0
 40
0.2452327822
 40
0.369166504
 40
0.4942797912
 40
0.6198705998
 40
0.7453625324
 40
1.0
 40
1.0
 40
1.0
 40
1.0
 10
87.9382028344
 20
210.8127750881
 30
0.0
 10
87.9405205439
 20
210.7982644572
 30
0.0
 10
87.9367613266
 20
210.7759700608
 30
0.0
 10
87.9358581169
 20
210.7463212809
 30
0.0
 10
87.9395335852
 20
210.7241071945
 30
0.0
 10
87.9431734532
 20
210.7018105446
 30
0.0
 10
87.942152031
 20
210.671398068
 30
0.0
 10
87.9375832539
 20
210.6488245667
 30
0.0
 10
87.9382027822
 20
210.6335790491
 30
0.0
  0
SPLINE
  5
2C1
100
AcDbEntity
  8
_1
100
AcDbSpline
 62
7
  6
CONTINUOUS
 70
0
 71
3
 72
11
 73
7
 74
0
 42
0.0000001
 43
0.0000001
 44
0.0000000001
 40
0.0
 40
0.0
 40
0.0
 40
0.0
 40
0.2336326347
 40
0.4785816885
 40
0.7349134163
 40
1.0
 40
1.0
 40
1.0
 40
1.0
 10
87.9382028344
 20
211.2062599935
 30
0.0
 10
87.9381761648
 20
211.1756103843
 30
0.0
 10
87.9372288397
 20
211.1128409424
 30
0.0
 10
87.9404949442
 20
211.0163629482
 30
0.0
 10
87.9362470359
 20
210.916139123
 30
0.0
 10
87.9327177709
 20
210.8471157738
 30
0.0
 10
87.9382028344
 20
210.8127750881
 30
0.0
  0
SPLINE
  5
2C2
100
AcDbEntity
  8
_1
100
AcDbSpline
 62
7
  6
CONTINUOUS
 70
0
 71
3
 72
9
 73
5
 74
0
 42
0.0000001
 43
0.0000001
 44
0.0000000001
 40
0.0
 40
0.0
 40
0.0
 40
0.0
 40
0.4505522748
 40
1.0
 40
1.0
 40
1.0
 40
1.0
 10
87.9382028344
 20
211.7498869472
 30
0.0
 10
87.9367178738
 20
211.7263562225
 30
0.0
 10
87.9391397265
 20
211.6739513605
 30
0.0
 10
87.9385222831
 20
211.6216471288
 30
0.0
 10
87.9382028344
 20
211.592896141
 30
0.0
  0
SPLINE
  5
2C3
100
AcDbEntity
  8
_1
100
AcDbSpline
 62
7
  6
CONTINUOUS
 70
0
 71
3
 72
9
 73
5
 74
0
 42
0.0000001
 43
0.0000001
 44
0.0000000001
 40
0.0
 40
0.0
 40
0.0
 40
0.0
 40
0.4573245854
 40
1.0
 40
1.0
 40
1.0
 40
1.0
 10
87.9382028344
 20
211.8097304058
 30
0.0
 10
87.9393841942
 20
211.8006844777
 30
0.0
 10
87.9369144704
 20
211.7806235779
 30
0.0
 10
87.9388846353
 20
211.7606907817
 30
0.0
 10
87.9382028344
 20
211.7498869472
 30
0.0
  0
SPLINE
  5
2C4
100
AcDbEntity
  8
_1
100
AcDbSpline
 62
7
  6
CONTINUOUS
 70
0
 71
3
 72
11
 73
7
 74
0
 42
0.0000001
 43
0.0000001
 44
0.0000000001
 40
0.0
 40
0.0
 40
0.0
 40
0.0
 40
0.5006659729
 40
0.750846542
 40
0.8762646652
 40
1.0
 40
1.0
 40
1.0
 40
1.0
 10
132.9351790882
 20
211.8681372552
 30
0.0
 10
132.7189117444
 20
211.8681372552
 30
0.0
 10
132.3945800864
 20
211.8679117394
 30
0.0
 10
132.0160611794
 20
211.8682271924
 30
0.0
 10
131.8003821081
 20
211.8674143113
 30
0.0
 10
131.692731896
 20
211.8687124665
 30
0.0
 10
131.6393020565
 20
211.8672951814
 30
0.0
  0
SPLINE
  5
2C5
100
AcDbEntity
  8
_1
100
AcDbSpline
 62
7
  6
CONTINUOUS
 70
0
 71
3
 72
11
 73
7
 74
0
 42
0.0000001
 43
0.0000001
 44
0.0000000001
 40
0.0
 40
0.0
 40
0.0
 40
0.0
 40
0.3820735799
 40
0.6311517302
 40
0.7987521641
 40
1.0
 40
1.0
 40
1.0
 40
1.0
 10
132.9382028344
 20
211.8228218239
 30
0.0
 10
132.9308585178
 20
211.8211488977
 30
0.0
 10
132.9193149258
 20
211.8179552546
 30
0.0
 10
132.9036483368
 20
211.8104170622
 30
0.0
 10
132.9019253702
 20
211.7967252373
 30
0.0
 10
132.9067466967
 20
211.7907816689
 30
0.0
 10
132.9090429444
 20
211.7875461593
 30
0.0
  0
SPLINE
  5
2C6
100
AcDbEntity
  8
_1
100
AcDbSpline
 62
7
  6
CONTINUOUS
 70
0
 71
3
 72
9
 73
5
 74
0
 42
0.0000001
 43
0.0000001
 44
0.0000000001
 40
0.0
 40
0.0
 40
0.0
 40
0.0
 40
0.2286418758
 40
1.0
 40
1.0
 40
1.0
 40
1.0
 10
132.9090429444
 20
211.7875461593
 30
0.0
 10
132.9110816509
 20
211.7846735361
 30
0.0
 10
132.9203873804
 20
211.7723878241
 30
0.0
 10
132.9304047876
 20
211.7606686107
 30
0.0
 10
132.9382028344
 20
211.751701128
 30
0.0
  0
SPLINE
  5
2C7
100
AcDbEntity
  8
_1
100
AcDbSpline
 62
7
  6
CONTINUOUS
 70
0
 71
3
 72
9
 73
5
 74
0
 42
0.0000001
 43
0.0000001
 44
0.0000000001
 40
0.0
 40
0.0
 40
0.0
 40
0.0
 40
0.4671281533
 40
1.0
 40
1.0
 40
1.0
 40
1.0
 10
132.9382028344
 20
211.751701128
 30
0.0
 10
132.9325536634
 20
211.7413473767
 30
0.0
 10
132.9193312252
 20
211.7197973206
 30
0.0
 10
132.8992717296
 20
211.7026351099
 30
0.0
 10
132.893993811
 20
211.6902589206
 30
0.0
  0
SPLINE
  5
2C8
100
AcDbEntity
  8
_1
100
AcDbSpline
 62
7
  6
CONTINUOUS
 70
0
 71
3
 72
10
 73
6
 74
0
 42
0.0000001
 43
0.0000001
 44
0.0000000001
 40
0.0
 40
0.0
 40
0.0
 40
0.0
 40
0.2093643046
 40
0.5668369477
 40
1.0
 40
1.0
 40
1.0
 40
1.0
 10
132.893993811
 20
211.6902589206
 30
0.0
 10
132.8910893136
 20
211.6834481659
 30
0.0
 10
132.8893303284
 20
211.6622852394
 30
0.0
 10
132.9069488658
 20
211.6299189641
 30
0.0
 10
132.9266722896
 20
211.610074903
 30
0.0
 10
132.9382028344
 20
211.5999894768
 30
0.0
  0
SPLINE
  5
2C9
100
AcDbEntity
  8
_1
100
AcDbSpline
 62
7
  6
CONTINUOUS
 70
0
 71
3
 72
11
 73
7
 74
0
 42
0.0000001
 43
0.0000001
 44
0.0000000001
 40
0.0
 40
0.0
 40
0.0
 40
0.0
 40
0.2418364439
 40
0.4825137135
 40
0.7357464056
 40
1.0
 40
1.0
 40
1.0
 40
1.0
 10
132.9382028344
 20
211.3779827502
 30
0.0
 10
132.9247776215
 20
211.3594611986
 30
0.0
 10
132.902219668
 20
211.3184731985
 30
0.0
 10
132.8957241786
 20
211.2475228451
 30
0.0
 10
132.9103209058
 20
211.1768643712
 30
0.0
 10
132.9272071136
 20
211.1306474538
 30
0.0
 10
132.9382028344
 20
211.1082000303
 30
0.0
  0
SPLINE
  5
2CA
100
AcDbEntity
  8
_1
100
AcDbSpline
 62
7
  6
CONTINUOUS
 70
0
 71
3
 72
10
 73
6
 74
0
 42
0.0000001
 43
0.0000001
 44
0.0000000001
 40
0.0
 40
0.0
 40
0.0
 40
0.0
 40
0.2004254227
 40
0.4344568515
 40
1.0
 40
1.0
 40
1.0
 40
1.0
 10
87.9382028344
 20
211.8485493702
 30
0.0
 10
87.9371047276
 20
211.846197306
 30
0.0
 10
87.9379675788
 20
211.8402026971
 30
0.0
 10
87.9390794318
 20
211.8275411507
 30
0.0
 10
87.9372543359
 20
211.8169932646
 30
0.0
 10
87.9382028344
 20
211.8097304058
 30
0.0
  0
SPLINE
  5
2CB
100
AcDbEntity
  8
_1
100
AcDbSpline
 62
7
  6
CONTINUOUS
 70
0
 71
3
 72
11
 73
7
 74
0
 42
0.0000001
 43
0.0000001
 44
0.0000000001
 40
0.0
 40
0.0
 40
0.0
 40
0.0
 40
0.0893526731
 40
0.2893836831
 40
0.5728924352
 40
1.0
 40
1.0
 40
1.0
 40
1.0
 10
87.9382018458
 20
211.8681372552
 30
0.0
 10
87.9375575422
 20
211.8681372552
 30
0.0
 10
87.9416037182
 20
211.8660726101
 30
0.0
 10
87.9421321455
 20
211.8629953081
 30
0.0
 10
87.9420859419
 20
211.8557779163
 30
0.0
 10
87.939505695
 20
211.8513400017
 30
0.0
 10
87.9382028344
 20
211.8485493702
 30
0.0
  0
SPLINE
  5
2CC
100
AcDbEntity
  8
_1
100
AcDbSpline
 62
7
  6
CONTINUOUS
 70
0
 71
3
 72
11
 73
7
 74
0
 42
0.0000001
 43
0.0000001
 44
0.0000000001
 40
0.0
 40
0.0
 40
0.0
 40
0.0
 40
0.2509080063
 40
0.5011805365
 40
0.7509053558
 40
1.0
 40
1.0
 40
1.0
 40
1.0
 10
87.9382028344
 20
201.6478778349
 30
0.0
 10
87.9212987228
 20
201.8369948492
 30
0.0
 10
87.8968214017
 20
202.2157164684
 30
0.0
 10
87.8941131507
 20
202.7841754069
 30
0.0
 10
87.9107472841
 20
203.350820246
 30
0.0
 10
87.9273061551
 20
203.7279617716
 30
0.0
 10
87.9382028344
 20
203.9161453099
 30
0.0
  0
SPLINE
  5
2CD
100
AcDbEntity
  8
_1
100
AcDbSpline
 62
7
  6
CONTINUOUS
 70
0
 71
3
 72
14
 73
10
 74
0
 42
0.0000001
 43
0.0000001
 44
0.0000000001
 40
0.0
 40
0.0
 40
0.0
 40
0.0
 40
0.2400940379
 40
0.3630302864
 40
0.4872074501
 40
0.6096510302
 40
0.7336343447
 40
0.8656945626
 40
1.0
 40
1.0
 40
1.0
 40
1.0
 10
132.9382028344
 20
198.6698361082
 30
0.0
 10
132.9298894989
 20
198.6501715381
 30
0.0
 10
132.9149518331
 20
198.6214472142
 30
0.0
 10
132.8918124838
 20
198.5847134472
 30
0.0
 10
132.875287733
 20
198.5566499802
 30
0.0
 10
132.8625373674
 20
198.5246732858
 30
0.0
 10
132.8754263909
 20
198.4901173147
 30
0.0
 10
132.9050496498
 20
198.4702259143
 30
0.0
 10
132.926809891
 20
198.4608755834
 30
0.0
 10
132.9382028344
 20
198.4572938231
 30
0.0
  0
SPLINE
  5
2CE
100
AcDbEntity
  8
_1
100
AcDbSpline
 62
7
  6
CONTINUOUS
 70
0
 71
3
 72
9
 73
5
 74
0
 42
0.0000001
 43
0.0000001
 44
0.0000000001
 40
0.0
 40
0.0
 40
0.0
 40
0.0
 40
0.5020352312
 40
1.0
 40
1.0
 40
1.0
 40
1.0
 10
132.9382028344
 20
211.8572726605
 30
0.0
 10
132.7208429818
 20
211.8594873415
 30
0.0
 10
132.2878819696
 20
211.8633119763
 30
0.0
 10
131.854885383
 20
211.8639870322
 30
0.0
 10
131.6393020565
 20
211.8672951814
 30
0.0
  0
SPLINE
  5
2CF
100
AcDbEntity
  8
_1
100
AcDbSpline
 62
7
  6
CONTINUOUS
 70
0
 71
3
 72
21
 73
17
 74
0
 42
0.0000001
 43
0.0000001
 44
0.0000000001
 40
0.0
 40
0.0
 40
0.0
 40
0.0
 40
0.204489397
 40
0.3960002478
 40
0.5685008244
 40
0.7171802443
 40
0.781235273
 40
0.8377553088
 40
0.886315515
 40
0.9266084223
 40
0.9583419887
 40
0.9812691681
 40
0.9893752727
 40
0.9952129817
 40
0.9987594632
 40
1.0
 40
1.0
 40
1.0
 40
1.0
 10
202.3263270217
 20
198.1749994685
 30
0.0
 10
202.3326658728
 20
198.2564633869
 30
0.0
 10
202.3451593856
 20
198.4142039654
 30
0.0
 10
202.3637547075
 20
198.6406044235
 30
0.0
 10
202.3812260699
 20
198.8447199416
 30
0.0
 10
202.3951379667
 20
198.9980248306
 30
0.0
 10
202.4053467844
 20
199.1051266516
 30
0.0
 10
202.4119391773
 20
199.1723924866
 30
0.0
 10
202.4178402493
 20
199.2301665458
 30
0.0
 10
202.4231267482
 20
199.2781006316
 30
0.0
 10
202.4280084518
 20
199.3156277182
 30
0.0
 10
202.4318867094
 20
199.3406259516
 30
0.0
 10
202.4348522174
 20
199.3547756733
 30
0.0
 10
202.4360712072
 20
199.3621304148
 30
0.0
 10
202.437592905
 20
199.3653040369
 30
0.0
 10
202.4376518955
 20
199.3681372552
 30
0.0
 10
202.438147591
 20
199.3681372552
 30
0.0
  0
SPLINE
  5
2D0
100
AcDbEntity
  8
_1
100
AcDbSpline
 62
7
  6
CONTINUOUS
 70
0
 71
3
 72
20
 73
16
 74
0
 42
0.0000001
 43
0.0000001
 44
0.0000000001
 40
0.0
 40
0.0
 40
0.0
 40
0.0
 40
0.0012970679
 40
0.0048581777
 40
0.01069546
 40
0.0187937939
 40
0.0417011605
 40
0.0734253702
 40
0.1137173933
 40
0.1622790748
 40
0.2828513538
 40
0.4315233567
 40
0.6040166171
 40
0.7955192291
 40
1.0
 40
1.0
 40
1.0
 40
1.0
 10
202.4381663366
 20
154.3681372552
 30
0.0
 10
202.4376480311
 20
154.3681372552
 30
0.0
 10
202.4372911711
 20
154.370876146
 30
0.0
 10
202.4359315564
 20
154.3741808243
 30
0.0
 10
202.4346100562
 20
154.381475729
 30
0.0
 10
202.431795885
 20
154.3956704836
 30
0.0
 10
202.4280138804
 20
154.4206480329
 30
0.0
 10
202.4232075755
 20
154.4581837186
 30
0.0
 10
202.4178929243
 20
154.5061087187
 30
0.0
 10
202.409333736
 20
154.5893399846
 30
0.0
 10
202.3971740632
 20
154.7157626053
 30
0.0
 10
202.3812301786
 20
154.8915547716
 30
0.0
 10
202.3637554765
 20
155.0956712208
 30
0.0
 10
202.3451575174
 20
155.3220704698
 30
0.0
 10
202.332667472
 20
155.4798112223
 30
0.0
 10
202.3263286284
 20
155.5612750419
 30
0.0
  0
SPLINE
  5
2D1
100
AcDbEntity
  8
_1
100
AcDbSpline
 62
7
  6
CONTINUOUS
 70
0
 71
3
 72
15
 73
11
 74
0
 42
0.0000001
 43
0.0000001
 44
0.0000000001
 40
0.0
 40
0.0
 40
0.0
 40
0.0
 40
0.3803500005
 40
0.5518287379
 40
0.702047095
 40
0.8254999679
 40
0.9176056581
 40
0.9754146865
 40
0.9913318398
 40
1.0
 40
1.0
 40
1.0
 40
1.0
 10
202.4382019525
 20
210.3812270584
 30
0.0
 10
202.4381709914
 20
210.5714940913
 30
0.0
 10
202.4341427165
 20
210.847555961
 30
0.0
 10
202.4203200242
 20
211.1985326011
 30
0.0
 10
202.4070080338
 20
211.4207404452
 30
0.0
 10
202.3908762518
 20
211.6033127046
 30
0.0
 10
202.3735107344
 20
211.7383437708
 30
0.0
 10
202.3557612236
 20
211.8208034421
 30
0.0
 10
202.3409629009
 20
211.8582146597
 30
0.0
 10
202.3306648039
 20
211.8681372552
 30
0.0
 10
202.3263286264
 20
211.8681372552
 30
0.0
  0
SPLINE
  5
2D2
100
AcDbEntity
  8
_1
100
AcDbSpline
 62
7
  6
CONTINUOUS
 70
0
 71
3
 72
13
 73
9
 74
0
 42
0.0000001
 43
0.0000001
 44
0.0000000001
 40
0.0
 40
0.0
 40
0.0
 40
0.0
 40
0.0514036875
 40
0.1295195925
 40
0.232467041
 40
0.3573073177
 40
0.6587431209
 40
1.0
 40
1.0
 40
1.0
 40
1.0
 10
202.3263329812
 20
143.2661214384
 30
0.0
 10
202.3350904097
 20
143.2895911259
 30
0.0
 10
202.3490891489
 20
143.3514697291
 30
0.0
 10
202.3669848371
 20
143.4632313861
 30
0.0
 10
202.3839593136
 20
143.6114296622
 30
0.0
 10
202.4060603941
 20
143.868386714
 30
0.0
 10
202.4254193281
 20
144.2419604286
 30
0.0
 10
202.4382106391
 20
144.5550295879
 30
0.0
 10
202.4382104079
 20
144.7213327496
 30
0.0
  0
SPLINE
  5
2D3
100
AcDbEntity
  8
INTFCLR_16532
100
AcDbSpline
 62
7
  6
CONTINUOUS
 70
0
 71
3
 72
10
 73
6
 74
0
 42
0.0000001
 43
0.0000001
 44
0.0000000001
 40
0.0
 40
0.0
 40
0.0
 40
0.0
 40
0.3486785605
 40
0.6807142157
 40
1.0
 40
1.0
 40
1.0
 40
1.0
 10
87.9382028344
 20
202.4570802948
 30
0.0
 10
87.9747164398
 20
202.3503659644
 30
0.0
 10
88.0260829219
 20
202.1339780792
 30
0.0
 10
88.0240270825
 20
201.8077578579
 30
0.0
 10
87.9744673416
 20
201.6006408178
 30
0.0
 10
87.9382028344
 20
201.5039364098
 30
0.0
  0
SPLINE
  5
2D4
100
AcDbEntity
  8
INTFCLR_16532
100
AcDbSpline
 62
7
  6
CONTINUOUS
 70
0
 71
3
 72
10
 73
6
 74
0
 42
0.0000001
 43
0.0000001
 44
0.0000000001
 40
0.0
 40
0.0
 40
0.0
 40
0.0
 40
0.3663738349
 40
0.6904718604
 40
1.0
 40
1.0
 40
1.0
 40
1.0
 10
87.9382028344
 20
200.7435823992
 30
0.0
 10
87.9718611714
 20
200.6685554978
 30
0.0
 10
88.0210161307
 20
200.5197363542
 30
0.0
 10
88.0281384545
 20
200.2909723433
 30
0.0
 10
87.9747858172
 20
200.1543980225
 30
0.0
 10
87.9382028344
 20
200.0953381897
 30
0.0
  0
SPLINE
  5
2D5
100
AcDbEntity
  8
INTFCLR_16532
100
AcDbSpline
 62
7
  6
CONTINUOUS
 70
0
 71
3
 72
10
 73
6
 74
0
 42
0.0000001
 43
0.0000001
 44
0.0000000001
 40
0.0
 40
0.0
 40
0.0
 40
0.0
 40
0.3202716245
 40
0.6509493767
 40
1.0
 40
1.0
 40
1.0
 40
1.0
 10
87.9382028344
 20
201.5039364054
 30
0.0
 10
87.9744452673
 20
201.6009742471
 30
0.0
 10
88.0241440852
 20
201.8079317793
 30
0.0
 10
88.0252997247
 20
202.1341133081
 30
0.0
 10
87.9743448842
 20
202.3501290238
 30
0.0
 10
87.9382028344
 20
202.4570803018
 30
0.0
  0
SPLINE
  5
2D6
100
AcDbEntity
  8
INTFCLR_16532
100
AcDbSpline
 62
7
  6
CONTINUOUS
 70
0
 71
3
 72
10
 73
6
 74
0
 42
0.0000001
 43
0.0000001
 44
0.0000000001
 40
0.0
 40
0.0
 40
0.0
 40
0.0
 40
0.3093016797
 40
0.634712782
 40
1.0
 40
1.0
 40
1.0
 40
1.0
 10
87.9382028344
 20
200.0953381902
 30
0.0
 10
87.9751012291
 20
200.1541670991
 30
0.0
 10
88.0289384454
 20
200.2910452725
 30
0.0
 10
88.0208402053
 20
200.5198795935
 30
0.0
 10
87.9718835323
 20
200.6688048556
 30
0.0
 10
87.9382028344
 20
200.743582409
 30
0.0
  0
ELLIPSE
  5
2D7
100
AcDbEntity
  8
_1
100
AcDbEllipse
 62
7
  6
CONTINUOUS
 10
-328.4693431264
 20
204.2902957352
 30
0.0
 11
400.905684634
 21
35.1175265754
 31
0.0
 40
0.0347875628
 41
-0.0030472239
 42
0.3447204724
  0
ENDSEC
  0
SECTION
  2
OBJECTS
  0
DICTIONARY
  5
C
100
AcDbDictionary
280
0
281
1
  3
ACAD_GROUP
350
D
  3
ACAD_MLINESTYLE
350
17
  3
ACAD_LAYOUT
350
1A
  3
ACAD_PLOTSETTINGS
350
19
  3
ACAD_PLOTSTYLENAME
350
E
  0
DICTIONARY
  5
D
102
{ACAD_REACTORS
330
C
102
}
100
AcDbDictionary
280
0
281
1
  0
ACDBDICTIONARYWDFLT
  5
E
102
{ACAD_REACTORS
330
C
102
}
100
AcDbDictionary
281
1
  3
Normal
350
F
100
AcDbDictionaryWithDefault
340
F
  0
DICTIONARY
  5
17
102
{ACAD_REACTORS
330
C
102
}
100
AcDbDictionary
280
0
281
1
  3
Standard
350
18
  0
DICTIONARY
  5
19
102
{ACAD_REACTORS
330
C
102
}
100
AcDbDictionary
281
1
  0
DICTIONARY
  5
1A
102
{ACAD_REACTORS
330
C
102
}
100
AcDbDictionary
281
1
  3
Model
350
2D8
  3
Layout1
350
2D9
  0
ACDBPLACEHOLDER
  5
F
102
{ACAD_REACTORS
330
E
102
}
  0
MLINESTYLE
  5
18
102
{ACAD_REACTORS
330
17
102
}
100
AcDbMlineStyle
  2
STANDARD
 70
0
  3

 62
256
 51
90.0
 52
90.0
 71
2
 49
0.5
 62
256
  6
BYLAYER
 49
-0.5
 62
256
  6
BYLAYER
  0
LAYOUT
  5
2D8
102
{ACAD_REACTORS
330
1A
102
}
100
AcDbPlotSettings
  1

  2
none_device
  4

  6

 40
0.0
 41
0.0
 42
0.0
 43
0.0
 44
210.0
 45
297.0
 46
0.0
 47
0.0
 48
0.0
 49
0.0
140
0.0
141
0.0
142
1.0
143
1.0
 70
1024
 72
1
 73
0
 74
0
  7

 75
0
147
1.0
148
0.0
149
0.0
100
AcDbLayout
  1
Model
 70
0
 71
0
 10
0.0
 20
0.0
 11
210.0
 21
297.0
 12
0.0
 22
0.0
 32
0.0
 14
0.0
 24
0.0
 34
0.0
 15
0.0
 25
0.0
 35
0.0
146
0.0
 13
0.0
 23
0.0
 33
0.0
 16
1.0
 26
0.0
 36
0.0
 17
0.0
 27
1.0
 37
0.0
 76
0
330
212
345
0
346
0
  0
LAYOUT
  5
2D9
102
{ACAD_REACTORS
330
1A
102
}
100
AcDbPlotSettings
  1

  2
none_device
  4

  6

 40
0.0
 41
0.0
 42
0.0
 43
0.0
 44
210.0
 45
297.0
 46
0.0
 47
0.0
 48
0.0
 49
0.0
140
0.0
141
0.0
142
1.0
143
1.0
 70
0
 72
1
 73
0
 74
0
  7

 75
0
147
1.0
148
0.0
149
0.0
100
AcDbLayout
  1
Layout1
 70
0
 71
1
 10
0.0
 20
0.0
 11
210.0
 21
297.0
 12
0.0
 22
0.0
 32
0.0
 14
0.0
 24
0.0
 34
0.0
 15
0.0
 25
0.0
 35
0.0
146
0.0
 13
0.0
 23
0.0
 33
0.0
 16
1.0
 26
0.0
 36
0.0
 17
0.0
 27
1.0
 37
0.0
 76
0
330
213
345
0
346
0
  0
ENDSEC
  0
EOF
