999
DXF file: C:\Users\sesa63760\Dev\_Creo\CAD\MCADID0002132_3D-CAD\drw0001_1.dxf
999
Pro/ENGINEER 2019471 by Parametric Technology Corporation
  0
SECTION
  2
HEADER
  9
$ACADVER
  1
AC1024
  9
$DWGCODEPAGE
  3
ANSI_1252
  9
$EXTMAX
 10
76.3167620368
 20
107.9337063092
 30
0.0
  9
$EXTMIN
 10
0.0
 20
0.0
 30
0.0
  9
$LIMMIN
 10
0.0
 20
0.0
  9
$LIMMAX
 10
76.3167620368
 20
107.9337063092
  9
$VIEWCTR
 10
38.1583810184
 20
53.9668531546
  9
$VIEWSIZE
 40
107.9337063092
  9
$CLAYER
  8
0
  9
$LTSCALE
 40
7.0356786335
  9
$CELTYPE
  6
BYLAYER
  9
$DIMSCALE
 40
1.0
  9
$DIMASZ
 40
0.9085328814
  9
$DIMEXO
 40
1.0
  9
$DIMDLI
 40
4.8610143286
  9
$DIMEXE
 40
1.0
  9
$DIMCEN
 40
1.1512928673
  9
$DIMLFAC
 40
1.0
  9
$DIMBLK
  1
_FILLED
  9
$DIMALT
 70
0
  9
$DIMALTF
 40
0.0393700787
  9
$DIMTXT
 40
1.2719460339
  9
$DIMTOL
 70
1
  9
$DIMLIM
 70
0
  9
$DIMTFAC
 40
1.0
  9
$DIMTP
 40
0.01
  9
$DIMTM
 40
0.01
  9
$DIMGAP
 40
0.625
  9
$DIMDSEP
 70
46
  9
$AUNITS
 70
0
  9
$PDMODE
 70
3
  9
$PDSIZE
 40
0.3125
  9
$HANDSEED
  5
334
  9
$TILEMODE
 70
1
  9
$MEASUREMENT
 70
1
  9
$INSUNITS
 70
4
  0
ENDSEC
  0
SECTION
  2
CLASSES
  0
CLASS
  1
ACDBDICTIONARYWDFLT
  2
AcDbDictionaryWithDefault
  3
AutoCAD 2000
 90
0
 91
1
280
0
281
0
  0
CLASS
  1
ACDBPLACEHOLDER
  2
AcDbPlaceHolder
  3
AutoCAD 2000
 90
0
 91
1
280
0
281
0
  0
CLASS
  1
LAYOUT
  2
AcDbLayout
  3
AutoCAD 2000
 90
0
 91
0
280
0
281
0
  0
ENDSEC
  0
SECTION
  2
TABLES
  0
TABLE
  2
VPORT
  5
8
100
AcDbSymbolTable
 70
2
  0
VPORT
  5
1F4
100
AcDbSymbolTableRecord
100
AcDbViewportTableRecord
  2
*ACTIVE
 70
0
 10
0.0
 20
0.0
 11
1.0
 21
1.0
 12
38.1583810184
 22
53.9668531546
 13
0.0
 23
0.0
 14
1.0
 24
1.0
 15
0.0
 25
0.0
 16
0.0
 26
0.0
 36
1.0
 17
0.0
 27
0.0
 37
0.0
 40
107.9337063092
 41
0.7070707071
 42
50.0
 43
0.0
 44
0.0
 50
0.0
 51
0.0
 71
0
 72
100
 73
1
 74
1
 75
0
 76
0
 77
0
 78
0
  0
ENDTAB
  0
TABLE
  2
LTYPE
  5
5
100
AcDbSymbolTable
 70
6
  0
LTYPE
  5
14
100
AcDbSymbolTableRecord
100
AcDbLinetypeTableRecord
  2
BYBLOCK
 70
0
  3

 72
65
 73
0
 40
0.0
  0
LTYPE
  5
15
100
AcDbSymbolTableRecord
100
AcDbLinetypeTableRecord
  2
BYLAYER
 70
0
  3

 72
65
 73
0
 40
0.0
  0
LTYPE
  5
16
100
AcDbSymbolTableRecord
100
AcDbLinetypeTableRecord
  2
CONTINUOUS
 70
64
  3
Solid line
 72
65
 73
0
 40
0.0
  0
LTYPE
  5
1F5
100
AcDbSymbolTableRecord
100
AcDbLinetypeTableRecord
  2
CENTER
 70
64
  3
____ _ ____ _ ____ _ ____ _ ____ _ ____ _ ____
 72
65
 73
4
 40
0.6
 49
0.375
 74
0
 49
-0.075
 74
0
 49
0.075
 74
0
 49
-0.075
 74
0
  0
LTYPE
  5
1F6
100
AcDbSymbolTableRecord
100
AcDbLinetypeTableRecord
  2
HIDDEN
 70
64
  3
- - - - - - - - - - - - - - - - - - - -
 72
65
 73
2
 40
0.2
 49
0.1
 74
0
 49
-0.1
 74
0
  0
LTYPE
  5
1F7
100
AcDbSymbolTableRecord
100
AcDbLinetypeTableRecord
  2
PHANTOM
 70
64
  3
_____ _ _ _____ _ _ _____ _ _ _____
 72
65
 73
6
 40
0.8
 49
0.45
 74
0
 49
-0.05
 74
0
 49
0.1
 74
0
 49
-0.05
 74
0
 49
0.1
 74
0
 49
-0.05
 74
0
  0
LTYPE
  5
1F8
100
AcDbSymbolTableRecord
100
AcDbLinetypeTableRecord
  2
DOT
 70
64
  3
. . . . . . . . . . . . . . . . . . . .
 72
65
 73
2
 40
0.2
 49
0.1
 74
0
 49
-0.1
 74
0
  0
LTYPE
  5
1F9
100
AcDbSymbolTableRecord
100
AcDbLinetypeTableRecord
  2
DASHED
 70
64
  3
- - - - - - - - - - - - - - - - - - - -
 72
65
 73
2
 40
0.2
 49
0.1
 74
0
 49
-0.1
 74
0
  0
ENDTAB
  0
TABLE
  2
LAYER
  5
2
100
AcDbSymbolTable
 70
36
  0
LAYER
  5
10
100
AcDbSymbolTableRecord
100
AcDbLayerTableRecord
  2
0
 70
0
 62
7
  6
CONTINUOUS
370
-3
390
F
  0
LAYER
  5
1FA
100
AcDbSymbolTableRecord
100
AcDbLayerTableRecord
  2
DEFAULT_1
 70
0
 62
7
  6
CENTER
370
-3
390
F
  0
LAYER
  5
1FB
100
AcDbSymbolTableRecord
100
AcDbLayerTableRecord
  2
DEFAULT_2
 70
0
 62
8
  6
HIDDEN
370
-3
390
F
  0
LAYER
  5
1FC
100
AcDbSymbolTableRecord
100
AcDbLayerTableRecord
  2
DEFAULT_3
 70
0
 62
7
  6
PHANTOM
370
-3
390
F
  0
LAYER
  5
1FD
100
AcDbSymbolTableRecord
100
AcDbLayerTableRecord
  2
00_COMPONENTS
 70
0
 62
7
  6
CONTINUOUS
370
-3
390
F
  0
LAYER
  5
1FE
100
AcDbSymbolTableRecord
100
AcDbLayerTableRecord
  2
01_1_DEFAULT_DATUMS
 70
0
 62
7
  6
CONTINUOUS
370
-3
390
F
  0
LAYER
  5
1FF
100
AcDbSymbolTableRecord
100
AcDbLayerTableRecord
  2
01_PLANES
 70
0
 62
7
  6
CONTINUOUS
370
-3
390
F
  0
LAYER
  5
200
100
AcDbSymbolTableRecord
100
AcDbLayerTableRecord
  2
02_COORD_SYS
 70
0
 62
7
  6
CONTINUOUS
370
-3
390
F
  0
LAYER
  5
201
100
AcDbSymbolTableRecord
100
AcDbLayerTableRecord
  2
03_AXES
 70
0
 62
7
  6
CONTINUOUS
370
-3
390
F
  0
LAYER
  5
202
100
AcDbSymbolTableRecord
100
AcDbLayerTableRecord
  2
04_POINTS
 70
0
 62
7
  6
CONTINUOUS
370
-3
390
F
  0
LAYER
  5
203
100
AcDbSymbolTableRecord
100
AcDbLayerTableRecord
  2
05_CURVES
 70
0
 62
7
  6
CONTINUOUS
370
-3
390
F
  0
LAYER
  5
204
100
AcDbSymbolTableRecord
100
AcDbLayerTableRecord
  2
06_SURFS
 70
0
 62
7
  6
CONTINUOUS
370
-3
390
F
  0
LAYER
  5
205
100
AcDbSymbolTableRecord
100
AcDbLayerTableRecord
  2
07_COSMETICS
 70
0
 62
7
  6
CONTINUOUS
370
-3
390
F
  0
LAYER
  5
206
100
AcDbSymbolTableRecord
100
AcDbLayerTableRecord
  2
10_NOTES
 70
0
 62
7
  6
CONTINUOUS
370
-3
390
F
  0
LAYER
  5
207
100
AcDbSymbolTableRecord
100
AcDbLayerTableRecord
  2
11_NOTES_PUB
 70
0
 62
7
  6
CONTINUOUS
370
-3
390
F
  0
LAYER
  5
208
100
AcDbSymbolTableRecord
100
AcDbLayerTableRecord
  2
13_REF_GTOL
 70
0
 62
7
  6
CONTINUOUS
370
-3
390
F
  0
LAYER
  5
209
100
AcDbSymbolTableRecord
100
AcDbLayerTableRecord
  2
16_MISC
 70
0
 62
7
  6
CONTINUOUS
370
-3
390
F
  0
LAYER
  5
20A
100
AcDbSymbolTableRecord
100
AcDbLayerTableRecord
  2
17_NO_PRINT
 70
0
 62
7
  6
CONTINUOUS
370
-3
390
F
  0
LAYER
  5
20B
100
AcDbSymbolTableRecord
100
AcDbLayerTableRecord
  2
18_DATUM_CAMS_JOINTS
 70
0
 62
7
  6
CONTINUOUS
370
-3
390
F
  0
LAYER
  5
20C
100
AcDbSymbolTableRecord
100
AcDbLayerTableRecord
  2
19_DATUM_FUNCTIONAL
 70
0
 62
7
  6
CONTINUOUS
370
-3
390
F
  0
LAYER
  5
20D
100
AcDbSymbolTableRecord
100
AcDbLayerTableRecord
  2
20_DATUM_KINEMATIC_SCHEME
 70
0
 62
7
  6
CONTINUOUS
370
-3
390
F
  0
ENDTAB
  0
TABLE
  2
STYLE
  5
3
100
AcDbSymbolTable
 70
1
  0
STYLE
  5
11
100
AcDbSymbolTableRecord
100
AcDbTextStyleTableRecord
  2
STANDARD
 70
0
 40
0.0
 41
0.8
 50
0.0
 71
0
 42
0.2
  3
txt
  4

  0
STYLE
  5
20E
100
AcDbSymbolTableRecord
100
AcDbTextStyleTableRecord
  2
TEXTSTYLE_1
 70
0
 40
0.0
 41
0.8
 50
0.0
 71
0
 42
0.2
  3
gdt
  4

  0
ENDTAB
  0
TABLE
  2
VIEW
  5
6
100
AcDbSymbolTable
 70
0
  0
ENDTAB
  0
TABLE
  2
UCS
  5
7
100
AcDbSymbolTable
 70
0
  0
ENDTAB
  0
TABLE
  2
APPID
  5
9
100
AcDbSymbolTable
 70
1
  0
APPID
  5
20F
100
AcDbSymbolTableRecord
100
AcDbRegAppTableRecord
  2
ACAD
 70
0
  0
ENDTAB
  0
TABLE
  2
BLOCK_RECORD
  5
1
100
AcDbSymbolTable
 70
0
  0
BLOCK_RECORD
  5
210
100
AcDbSymbolTableRecord
100
AcDbBlockTableRecord
  2
*Model_Space
  0
BLOCK_RECORD
  5
211
100
AcDbSymbolTableRecord
100
AcDbBlockTableRecord
  2
*Paper_Space
  0
BLOCK_RECORD
  5
212
100
AcDbSymbolTableRecord
100
AcDbBlockTableRecord
  2
_FILLED
  0
ENDTAB
  0
TABLE
  2
DIMSTYLE
  5
A
100
AcDbSymbolTable
 70
1
100
AcDbDimStyleTable
 71
0
  0
DIMSTYLE
105
213
100
AcDbSymbolTableRecord
100
AcDbDimStyleTableRecord
  2
STANDARD
 70
0
  3

  4

 40
1.0
 41
0.9085328814
 42
1.0
 43
0.38
 44
1.0
 45
0.0
 46
0.0
 47
0.01
 48
0.01
140
1.2719460339
141
0.09
142
0.0
143
25.4
144
1.0
145
0.0
146
1.0
147
0.625
 71
1
 72
0
 73
0
 74
0
 75
0
 76
0
 77
1
 78
8
 79
2
170
0
171
1
172
0
173
0
174
0
175
0
176
0
177
0
178
0
270
2
179
2
271
2
272
2
273
2
274
2
275
0
280
0
281
0
282
0
283
1
284
8
285
0
286
0
287
3
288
0
340
11
278
46
341
212
342
212
343
212
344
212
  0
ENDTAB
  0
ENDSEC
  0
SECTION
  2
BLOCKS
  0
BLOCK
  5
20
100
AcDbEntity
  8
0
100
AcDbBlockBegin
  2
*Model_Space
 70
0
 10
0.0
 20
0.0
 30
0.0
  3
*Model_Space
  1

  0
ENDBLK
  5
21
100
AcDbEntity
  8
0
100
AcDbBlockEnd
  0
BLOCK
  5
1C
100
AcDbEntity
  8
0
100
AcDbBlockBegin
  2
*Paper_Space
 70
0
 10
0.0
 20
0.0
 30
0.0
  3
*Paper_Space
  1

  0
ENDBLK
  5
1D
100
AcDbEntity
  8
0
100
AcDbBlockEnd
  0
BLOCK
  5
214
100
AcDbEntity
  8
0
100
AcDbBlockBegin
  2
_FILLED
 70
64
 10
0.0
 20
0.0
  3
_FILLED
  1

  0
SOLID
  5
215
100
AcDbEntity
  8
0
  6
BYBLOCK
 62
0
100
AcDbTrace
 10
0.0
 20
0.0
 11
-1.0
 21
0.25
 12
-1.0
 22
-0.25
 13
-1.0
 23
-0.25
  0
ENDBLK
  5
216
100
AcDbEntity
  8
0
  6
BYBLOCK
 62
0
100
AcDbBlockEnd
  0
ENDSEC
  0
SECTION
  2
ENTITIES
  0
LINE
  5
217
100
AcDbEntity
  8
0
100
AcDbLine
 62
7
  6
CONTINUOUS
 10
10.0026663241
 20
34.2888505748
 11
8.9420105683
 21
37.041467275
  0
LINE
  5
218
100
AcDbEntity
  8
0
100
AcDbLine
 62
7
  6
CONTINUOUS
 10
9.9319641835
 20
36.4699302187
 11
10.5353997231
 21
34.9038926664
  0
LINE
  5
219
100
AcDbEntity
  8
0
100
AcDbLine
 62
7
  6
CONTINUOUS
 10
8.8536224415
 20
51.7386170442
 11
8.8536224415
 21
54.8886471068
  0
LINE
  5
21A
100
AcDbEntity
  8
0
100
AcDbLine
 62
7
  6
CONTINUOUS
 10
8.9420105683
 20
41.8309121969
 11
8.9420105683
 21
37.041467275
  0
LINE
  5
21B
100
AcDbEntity
  8
0
100
AcDbLine
 62
7
  6
CONTINUOUS
 10
9.9319641835
 20
36.4699302187
 11
9.9319641835
 21
40.4658472325
  0
LINE
  5
21C
100
AcDbEntity
  8
0
100
AcDbLine
 62
7
  6
CONTINUOUS
 10
31.1098916198
 20
22.1028640524
 11
24.1802163133
 21
26.1036234467
  0
LINE
  5
21D
100
AcDbEntity
  8
0
100
AcDbLine
 62
7
  6
CONTINUOUS
 10
24.0211166252
 20
26.1954776164
 11
17.0914413187
 21
30.1962370107
  0
LINE
  5
21E
100
AcDbEntity
  8
0
100
AcDbLine
 62
7
  6
CONTINUOUS
 10
16.9323416306
 20
30.2880911805
 11
10.0026663241
 21
34.2888505748
  0
LINE
  5
21F
100
AcDbEntity
  8
0
100
AcDbLine
 62
7
  6
CONTINUOUS
 10
22.5824098347
 20
27.9316201328
 11
17.6326417587
 21
30.7893054144
  0
LINE
  5
220
100
AcDbEntity
  8
0
100
AcDbLine
 62
7
  6
CONTINUOUS
 10
29.6627177883
 20
23.8609802566
 11
24.7129497123
 21
26.7186655383
  0
LINE
  5
221
100
AcDbEntity
  8
0
100
AcDbLine
 62
7
  6
CONTINUOUS
 10
15.4851677991
 20
32.0462073848
 11
10.5353997231
 21
34.9038926664
  0
LINE
  5
222
100
AcDbEntity
  8
0
100
AcDbLine
 62
7
  6
CONTINUOUS
 10
30.049235864
 20
24.8554807526
 11
29.0592822488
 21
25.4270178089
  0
LINE
  5
223
100
AcDbEntity
  8
0
100
AcDbLine
 62
7
  6
CONTINUOUS
 10
24.1095141727
 20
28.2847030905
 11
23.1195605575
 21
28.8562401468
  0
LINE
  5
224
100
AcDbEntity
  8
0
100
AcDbLine
 62
7
  6
CONTINUOUS
 10
22.9604608694
 20
28.9480943166
 11
21.9705072542
 21
29.5196313729
  0
LINE
  5
225
100
AcDbEntity
  8
0
100
AcDbLine
 62
7
  6
CONTINUOUS
 10
17.0207391781
 20
32.3773166546
 11
16.0307855629
 21
32.9488537109
  0
LINE
  5
226
100
AcDbEntity
  8
0
100
AcDbLine
 62
7
  6
CONTINUOUS
 10
15.8716858748
 20
33.0407078807
 11
14.8817322596
 21
33.612244937
  0
LINE
  5
227
100
AcDbEntity
  8
0
100
AcDbLine
 62
7
  6
CONTINUOUS
 10
9.9319641835
 20
36.4699302187
 11
8.9420105683
 21
37.041467275
  0
LINE
  5
228
100
AcDbEntity
  8
0
100
AcDbLine
 62
7
  6
CONTINUOUS
 10
18.0813949339
 20
31.7884313598
 11
21.9705072542
 21
29.543102111
  0
LINE
  5
229
100
AcDbEntity
  8
0
100
AcDbLine
 62
7
  6
CONTINUOUS
 10
14.8817322596
 20
33.6765407959
 11
10.9926199393
 21
35.9218700447
  0
LINE
  5
22A
100
AcDbEntity
  8
0
100
AcDbLine
 62
7
  6
CONTINUOUS
 10
25.1701699285
 20
27.7366429166
 11
29.0592822488
 21
25.4913136678
  0
LINE
  5
22B
100
AcDbEntity
  8
0
100
AcDbLine
 62
7
  6
CONTINUOUS
 10
15.4851677991
 20
32.0462073848
 11
14.8817322596
 21
33.612244937
  0
LINE
  5
22C
100
AcDbEntity
  8
0
100
AcDbLine
 62
7
  6
CONTINUOUS
 10
15.8716858748
 20
33.0407078807
 11
16.9323416306
 21
30.2880911805
  0
LINE
  5
22D
100
AcDbEntity
  8
0
100
AcDbLine
 62
7
  6
CONTINUOUS
 10
17.0914413187
 20
30.1962370107
 11
16.0307855629
 21
32.9488537109
  0
LINE
  5
22E
100
AcDbEntity
  8
0
100
AcDbLine
 62
7
  6
CONTINUOUS
 10
10.9926199394
 20
38.7374309432
 11
10.9926199394
 21
35.9218700447
  0
LINE
  5
22F
100
AcDbEntity
  8
0
100
AcDbLine
 62
7
  6
CONTINUOUS
 10
11.2097310853
 20
52.22002462
 11
11.2097310853
 21
57.1190391228
  0
LINE
  5
230
100
AcDbEntity
  8
0
100
AcDbLine
 62
7
  6
CONTINUOUS
 10
12.3227365039
 20
50.6686968353
 11
12.3227365039
 21
55.5677113381
  0
LINE
  5
231
100
AcDbEntity
  8
0
100
AcDbLine
 62
7
  6
CONTINUOUS
 10
14.8817322596
 20
36.4921016944
 11
10.9926199394
 21
38.7374309432
  0
LINE
  5
232
100
AcDbEntity
  8
0
100
AcDbLine
 62
7
  6
CONTINUOUS
 10
25.1701699285
 20
30.5522038151
 11
29.0592822488
 21
28.3068745663
  0
LINE
  5
233
100
AcDbEntity
  8
0
100
AcDbLine
 62
7
  6
CONTINUOUS
 10
18.0813949339
 20
35.1552786517
 11
21.9705072542
 21
32.9099494029
  0
LINE
  5
234
100
AcDbEntity
  8
0
100
AcDbLine
 62
7
  6
CONTINUOUS
 10
29.0592822488
 20
29.4229348227
 11
24.1095141727
 21
32.2806201044
  0
LINE
  5
235
100
AcDbEntity
  8
0
100
AcDbLine
 62
7
  6
CONTINUOUS
 10
14.8817322596
 20
37.6081619508
 11
9.9319641835
 21
40.4658472325
  0
LINE
  5
236
100
AcDbEntity
  8
0
100
AcDbLine
 62
7
  6
CONTINUOUS
 10
17.0207391781
 20
32.3773166546
 11
17.6326417587
 21
30.7893054144
  0
LINE
  5
237
100
AcDbEntity
  8
0
100
AcDbLine
 62
7
  6
CONTINUOUS
 10
12.8925915929
 20
59.6571814276
 11
12.8925915929
 21
64.5561959304
  0
LINE
  5
238
100
AcDbEntity
  8
0
100
AcDbLine
 62
7
  6
CONTINUOUS
 10
12.903204772
 20
48.9327541978
 11
12.903204772
 21
50.333570906
  0
LINE
  5
239
100
AcDbEntity
  8
0
100
AcDbLine
 62
7
  6
CONTINUOUS
 10
13.5239179017
 20
56.9154267008
 11
13.5239179017
 21
57.3226444019
  0
LINE
  5
23A
100
AcDbEntity
  8
0
100
AcDbLine
 62
7
  6
CONTINUOUS
 10
14.0055970114
 20
59.641961075
 11
14.0055970114
 21
63.0048681457
  0
LINE
  5
23B
100
AcDbEntity
  8
0
100
AcDbLine
 62
7
  6
CONTINUOUS
 10
14.8817322596
 20
33.612244937
 11
14.8817322596
 21
37.6081619508
  0
LINE
  5
23C
100
AcDbEntity
  8
0
100
AcDbLine
 62
7
  6
CONTINUOUS
 10
15.5603303204
 20
64.1484631311
 11
15.5603303204
 21
64.9649480395
  0
LINE
  5
23D
100
AcDbEntity
  8
0
100
AcDbLine
 62
7
  6
CONTINUOUS
 10
15.6662392663
 20
47.7316066783
 11
15.6662392663
 21
44.5815766157
  0
LINE
  5
23E
100
AcDbEntity
  8
0
100
AcDbLine
 62
7
  6
CONTINUOUS
 10
8.9420105683
 20
41.8309121969
 11
11.3983800732
 21
50.2694337779
  0
LINE
  5
23F
100
AcDbEntity
  8
0
100
AcDbLine
 62
7
  6
CONTINUOUS
 10
30.049235864
 20
29.6449256745
 11
23.1195605575
 21
33.6456850688
  0
LINE
  5
240
100
AcDbEntity
  8
0
100
AcDbLine
 62
7
  6
CONTINUOUS
 10
22.9604608694
 20
33.7375392386
 11
16.0307855629
 21
37.7382986329
  0
LINE
  5
241
100
AcDbEntity
  8
0
100
AcDbLine
 62
7
  6
CONTINUOUS
 10
15.8716858748
 20
37.8301528026
 11
8.9420105683
 21
41.8309121969
  0
LINE
  5
242
100
AcDbEntity
  8
0
100
AcDbLine
 62
7
  6
CONTINUOUS
 10
15.6662392663
 20
44.5815766158
 11
12.903204772
 21
48.9327541978
  0
LINE
  5
243
100
AcDbEntity
  8
0
100
AcDbLine
 62
7
  6
CONTINUOUS
 10
22.5824098347
 20
27.9316201328
 11
21.9705072542
 21
29.5196313729
  0
LINE
  5
244
100
AcDbEntity
  8
0
100
AcDbLine
 62
7
  6
CONTINUOUS
 10
22.9604608694
 20
28.9480943166
 11
24.0211166252
 21
26.1954776164
  0
LINE
  5
245
100
AcDbEntity
  8
0
100
AcDbLine
 62
7
  6
CONTINUOUS
 10
24.1802163133
 20
26.1036234467
 11
23.1195605575
 21
28.8562401468
  0
LINE
  5
246
100
AcDbEntity
  8
0
100
AcDbLine
 62
7
  6
CONTINUOUS
 10
15.8716858748
 20
33.0407078807
 11
15.8716858748
 21
37.8301528026
  0
LINE
  5
247
100
AcDbEntity
  8
0
100
AcDbLine
 62
7
  6
CONTINUOUS
 10
16.0307855629
 20
32.9488537109
 11
16.0307855629
 21
37.7382986329
  0
LINE
  5
248
100
AcDbEntity
  8
0
100
AcDbLine
 62
7
  6
CONTINUOUS
 10
16.4955713609
 20
53.158578512
 11
16.4955713609
 21
48.2595640092
  0
LINE
  5
249
100
AcDbEntity
  8
0
100
AcDbLine
 62
7
  6
CONTINUOUS
 10
16.5653342165
 20
61.5270366143
 11
16.5653342165
 21
61.1198189132
  0
LINE
  5
24A
100
AcDbEntity
  8
0
100
AcDbLine
 62
7
  6
CONTINUOUS
 10
16.6299949953
 20
77.8880914216
 11
16.6299949953
 21
70.0823283138
  0
LINE
  5
24B
100
AcDbEntity
  8
0
100
AcDbLine
 62
7
  6
CONTINUOUS
 10
16.6494588802
 20
63.5196720885
 11
16.6494588802
 21
65.7241763446
  0
LINE
  5
24C
100
AcDbEntity
  8
0
100
AcDbLine
 62
7
  6
CONTINUOUS
 10
17.0207391781
 20
32.3773166546
 11
17.0207391781
 21
37.1667615766
  0
LINE
  5
24D
100
AcDbEntity
  8
0
100
AcDbLine
 62
7
  6
CONTINUOUS
 10
17.59961196
 20
43.4653687457
 11
17.59961196
 21
46.6153988083
  0
LINE
  5
24E
100
AcDbEntity
  8
0
100
AcDbLine
 62
7
  6
CONTINUOUS
 10
17.766540925
 20
59.7721093251
 11
17.766540925
 21
56.2482413793
  0
LINE
  5
24F
100
AcDbEntity
  8
0
100
AcDbLine
 62
7
  6
CONTINUOUS
 10
18.0813949339
 20
31.7884313598
 11
18.0813949339
 21
35.1552786517
  0
LINE
  5
250
100
AcDbEntity
  8
0
100
AcDbLine
 62
7
  6
CONTINUOUS
 10
14.8148180057
 20
42.4099832806
 11
15.1217862376
 21
44.5974551909
  0
LINE
  5
251
100
AcDbEntity
  8
0
100
AcDbLine
 62
7
  6
CONTINUOUS
 10
18.6906161894
 20
62.8332507514
 11
17.5137133677
 21
54.4465787896
  0
LINE
  5
252
100
AcDbEntity
  8
0
100
AcDbLine
 62
7
  6
CONTINUOUS
 10
11.0456443368
 20
56.1542039838
 11
11.2097310853
 21
56.3123357926
  0
LINE
  5
253
100
AcDbEntity
  8
0
100
AcDbLine
 62
7
  6
CONTINUOUS
 10
17.2392756424
 20
67.9744777991
 11
14.0055746373
 21
66.1075107976
  0
LINE
  5
254
100
AcDbEntity
  8
0
100
AcDbLine
 62
7
  6
CONTINUOUS
 10
16.6494588802
 20
65.7241763446
 11
18.0807187049
 21
66.5505096572
  0
LINE
  5
255
100
AcDbEntity
  8
0
100
AcDbLine
 62
7
  6
CONTINUOUS
 10
15.5603303204
 20
64.9649480395
 11
16.6494588802
 21
65.5937529532
  0
LINE
  5
256
100
AcDbEntity
  8
0
100
AcDbLine
 62
7
  6
CONTINUOUS
 10
14.6568988018
 20
49.3210980911
 11
15.6662392663
 21
47.7316066783
  0
LINE
  5
257
100
AcDbEntity
  8
0
100
AcDbLine
 62
7
  6
CONTINUOUS
 10
24.1095141727
 20
28.2847030905
 11
24.7129497123
 21
26.7186655383
  0
LINE
  5
258
100
AcDbEntity
  8
0
100
AcDbLine
 62
7
  6
CONTINUOUS
 10
19.1799949953
 20
64.0402104271
 11
19.1799949953
 21
63.3150892674
  0
LINE
  5
259
100
AcDbEntity
  8
0
100
AcDbLine
 62
7
  6
CONTINUOUS
 10
20.3799949953
 20
64.1565889638
 11
20.3799949953
 21
64.0402104271
  0
LINE
  5
25A
100
AcDbEntity
  8
0
100
AcDbLine
 62
7
  6
CONTINUOUS
 10
19.1861697249
 20
64.2596387878
 11
19.1800492081
 21
64.0402104271
  0
LINE
  5
25B
100
AcDbEntity
  8
0
100
AcDbLine
 62
7
  6
CONTINUOUS
 10
16.7350923525
 20
40.7962677056
 11
15.8716858748
 21
37.8301528027
  0
LINE
  5
25C
100
AcDbEntity
  8
0
100
AcDbLine
 62
7
  6
CONTINUOUS
 10
16.0307855629
 20
37.7382986329
 11
16.9092839052
 21
40.756259573
  0
LINE
  5
25D
100
AcDbEntity
  8
0
100
AcDbLine
 62
7
  6
CONTINUOUS
 10
10.5353997231
 20
34.9038926664
 11
10.9926199394
 21
35.9218700447
  0
LINE
  5
25E
100
AcDbEntity
  8
0
100
AcDbLine
 62
7
  6
CONTINUOUS
 10
10.9926199394
 20
38.7374309432
 11
11.4165502907
 21
39.6087404342
  0
LINE
  5
25F
100
AcDbEntity
  8
0
100
AcDbLine
 62
7
  6
CONTINUOUS
 10
16.565337153
 20
61.1198189132
 11
12.3227141298
 21
58.67035399
  0
LINE
  5
260
100
AcDbEntity
  8
0
100
AcDbLine
 62
7
  6
CONTINUOUS
 10
14.8513694274
 20
55.7097271842
 11
14.3724525084
 21
56.4255377954
  0
LINE
  5
261
100
AcDbEntity
  8
0
100
AcDbLine
 62
7
  6
CONTINUOUS
 10
29.6627177883
 20
23.8609802566
 11
29.0592822488
 21
25.4270178089
  0
LINE
  5
262
100
AcDbEntity
  8
0
100
AcDbLine
 62
7
  6
CONTINUOUS
 10
30.049235864
 20
24.8554807526
 11
31.1098916198
 21
22.1028640524
  0
LINE
  5
263
100
AcDbEntity
  8
0
100
AcDbLine
 62
7
  6
CONTINUOUS
 10
21.8695828978
 20
48.2595769268
 11
21.8695828978
 21
53.1585914296
  0
LINE
  5
264
100
AcDbEntity
  8
0
100
AcDbLine
 62
7
  6
CONTINUOUS
 10
21.9705072542
 20
29.5196313729
 11
21.9705072542
 21
34.3090762949
  0
LINE
  5
265
100
AcDbEntity
  8
0
100
AcDbLine
 62
7
  6
CONTINUOUS
 10
22.9604608694
 20
28.9480943166
 11
22.9604608694
 21
33.7375392386
  0
LINE
  5
266
100
AcDbEntity
  8
0
100
AcDbLine
 62
7
  6
CONTINUOUS
 10
23.1195605575
 20
28.8562401468
 11
23.1195605575
 21
33.6456850688
  0
LINE
  5
267
100
AcDbEntity
  8
0
100
AcDbLine
 62
7
  6
CONTINUOUS
 10
24.1095141727
 20
28.2847030905
 11
24.1095141727
 21
32.2806201044
  0
LINE
  5
268
100
AcDbEntity
  8
0
100
AcDbLine
 62
7
  6
CONTINUOUS
 10
22.6518034053
 20
62.2773768084
 11
21.6401642997
 21
55.0683828576
  0
LINE
  5
269
100
AcDbEntity
  8
0
100
AcDbLine
 62
7
  6
CONTINUOUS
 10
20.7565988296
 20
41.5761723662
 11
20.9229988043
 21
42.7619474163
  0
LINE
  5
26A
100
AcDbEntity
  8
0
100
AcDbLine
 62
7
  6
CONTINUOUS
 10
8.8536224415
 20
54.8886471068
 11
11.0456443368
 21
56.1542039838
  0
LINE
  5
26B
100
AcDbEntity
  8
0
100
AcDbLine
 62
7
  6
CONTINUOUS
 10
13.5239179017
 20
57.3226444019
 11
17.766540925
 21
59.7721093251
  0
LINE
  5
26C
100
AcDbEntity
  8
0
100
AcDbLine
 62
7
  6
CONTINUOUS
 10
29.9962032234
 20
39.5322184841
 11
31.9053835838
 21
39.3616763956
  0
LINE
  5
26D
100
AcDbEntity
  8
0
100
AcDbLine
 62
7
  6
CONTINUOUS
 10
25.1362030171
 20
41.8701891446
 11
17.5996119599
 21
43.4653687457
  0
LINE
  5
26E
100
AcDbEntity
  8
0
100
AcDbLine
 62
7
  6
CONTINUOUS
 10
8.8536224415
 20
51.7386170442
 11
12.903204772
 21
49.4006424876
  0
LINE
  5
26F
100
AcDbEntity
  8
0
100
AcDbLine
 62
7
  6
CONTINUOUS
 10
25.5414119549
 20
42.1041352375
 11
29.9962032234
 21
39.5322184841
  0
LINE
  5
270
100
AcDbEntity
  8
0
100
AcDbLine
 62
7
  6
CONTINUOUS
 10
12.3227365039
 20
50.6686968353
 11
16.4955713609
 21
48.2595640092
  0
LINE
  5
271
100
AcDbEntity
  8
0
100
AcDbLine
 62
7
  6
CONTINUOUS
 10
32.8526906891
 20
39.2758114171
 11
32.3046708767
 21
39.5922036456
  0
LINE
  5
272
100
AcDbEntity
  8
0
100
AcDbLine
 62
7
  6
CONTINUOUS
 10
8.8536224415
 20
54.8886471068
 11
11.2097310853
 21
53.5283779204
  0
LINE
  5
273
100
AcDbEntity
  8
0
100
AcDbLine
 62
7
  6
CONTINUOUS
 10
25.5414119549
 20
45.2541653001
 11
29.9962032234
 21
42.6822485466
  0
LINE
  5
274
100
AcDbEntity
  8
0
100
AcDbLine
 62
7
  6
CONTINUOUS
 10
24.9280196758
 20
58.1686180372
 11
24.9280196758
 21
56.7458988577
  0
LINE
  5
275
100
AcDbEntity
  8
0
100
AcDbLine
 62
7
  6
CONTINUOUS
 10
25.1362030171
 20
41.8701891446
 11
25.1362030171
 21
45.0202192072
  0
LINE
  5
276
100
AcDbEntity
  8
0
100
AcDbLine
 62
7
  6
CONTINUOUS
 10
25.1701699285
 20
27.7366429166
 11
25.1701699285
 21
30.5522038151
  0
LINE
  5
277
100
AcDbEntity
  8
0
100
AcDbLine
 62
7
  6
CONTINUOUS
 10
25.5414119549
 20
45.2541653001
 11
25.5414119549
 21
42.1041352375
  0
LINE
  5
278
100
AcDbEntity
  8
0
100
AcDbLine
 62
7
  6
CONTINUOUS
 10
26.1122059211
 20
55.6080563528
 11
26.1122059211
 21
50.70904185
  0
LINE
  5
279
100
AcDbEntity
  8
0
100
AcDbLine
 62
7
  6
CONTINUOUS
 10
26.8175377525
 20
50.7090435454
 11
26.8175377525
 21
55.6080580482
  0
LINE
  5
27A
100
AcDbEntity
  8
0
100
AcDbLine
 62
7
  6
CONTINUOUS
 10
27.4288285316
 20
56.8339671887
 11
27.4288285316
 21
57.5858610747
  0
LINE
  5
27B
100
AcDbEntity
  8
0
100
AcDbLine
 62
7
  6
CONTINUOUS
 10
17.5996119599
 20
46.6153988083
 11
25.1362030171
 21
45.0202192072
  0
LINE
  5
27C
100
AcDbEntity
  8
0
100
AcDbLine
 62
7
  6
CONTINUOUS
 10
36.2937508981
 20
41.2624965962
 11
35.7457310857
 21
41.5788888247
  0
LINE
  5
27D
100
AcDbEntity
  8
0
100
AcDbLine
 62
7
  6
CONTINUOUS
 10
11.0456443368
 20
56.1542039838
 11
11.2097310853
 21
56.0594705985
  0
LINE
  5
27E
100
AcDbEntity
  8
0
100
AcDbLine
 62
7
  6
CONTINUOUS
 10
23.2947040077
 20
49.0823660718
 11
32.1882251187
 21
43.9478054236
  0
LINE
  5
27F
100
AcDbEntity
  8
0
100
AcDbLine
 62
7
  6
CONTINUOUS
 10
12.3227365039
 20
55.5677113381
 11
16.4955713609
 21
53.158578512
  0
LINE
  5
280
100
AcDbEntity
  8
0
100
AcDbLine
 62
7
  6
CONTINUOUS
 10
29.0592822488
 20
25.4270178089
 11
29.0592822488
 21
29.4229348227
  0
LINE
  5
281
100
AcDbEntity
  8
0
100
AcDbLine
 62
7
  6
CONTINUOUS
 10
29.3772749576
 20
54.1302265168
 11
29.3772749576
 21
49.2312120141
  0
LINE
  5
282
100
AcDbEntity
  8
0
100
AcDbLine
 62
7
  6
CONTINUOUS
 10
29.9962032234
 20
39.5322184841
 11
29.9962032234
 21
42.6822485466
  0
LINE
  5
283
100
AcDbEntity
  8
0
100
AcDbLine
 62
7
  6
CONTINUOUS
 10
30.049235864
 20
29.6449256745
 11
30.049235864
 21
24.8554807526
  0
LINE
  5
284
100
AcDbEntity
  8
0
100
AcDbLine
 62
7
  6
CONTINUOUS
 10
25.3664974372
 20
42.0031488965
 11
22.9604608694
 21
33.7375392386
  0
LINE
  5
285
100
AcDbEntity
  8
0
100
AcDbLine
 62
7
  6
CONTINUOUS
 10
23.1195605575
 20
33.6456850688
 11
25.5759300624
 21
42.0842066498
  0
LINE
  5
286
100
AcDbEntity
  8
0
100
AcDbLine
 62
7
  6
CONTINUOUS
 10
17.6326417587
 20
30.7893054144
 11
18.0813949339
 21
31.7884313598
  0
LINE
  5
287
100
AcDbEntity
  8
0
100
AcDbLine
 62
7
  6
CONTINUOUS
 10
18.0813949339
 20
35.1552786517
 11
18.6128468439
 21
36.2475785819
  0
LINE
  5
288
100
AcDbEntity
  8
0
100
AcDbLine
 62
7
  6
CONTINUOUS
 10
17.1631846441
 20
54.5247489905
 11
17.556553409
 21
54.7518591972
  0
LINE
  5
289
100
AcDbEntity
  8
0
100
AcDbLine
 62
7
  6
CONTINUOUS
 10
44.9911955707
 20
68.9213140154
 11
45.4110024018
 21
69.1636881555
  0
LINE
  5
28A
100
AcDbEntity
  8
0
100
AcDbLine
 62
7
  6
CONTINUOUS
 10
23.7769735887
 20
56.3020629117
 11
19.5343505654
 21
53.8525979885
  0
LINE
  5
28B
100
AcDbEntity
  8
0
100
AcDbLine
 62
7
  6
CONTINUOUS
 10
18.829018734
 20
53.8525962931
 11
17.9804870638
 21
54.3424851985
  0
LINE
  5
28C
100
AcDbEntity
  8
0
100
AcDbLine
 62
7
  6
CONTINUOUS
 10
14.3724525084
 20
56.4255377954
 11
13.5239208383
 21
56.9154267008
  0
LINE
  5
28D
100
AcDbEntity
  8
0
100
AcDbLine
 62
7
  6
CONTINUOUS
 10
26.8175377525
 20
50.7090435454
 11
29.3772749576
 21
49.2312120141
  0
LINE
  5
28E
100
AcDbEntity
  8
0
100
AcDbLine
 62
7
  6
CONTINUOUS
 10
31.2601588702
 20
55.0843713482
 11
31.2601588702
 21
57.2888756043
  0
LINE
  5
28F
100
AcDbEntity
  8
0
100
AcDbLine
 62
7
  6
CONTINUOUS
 10
21.8695828978
 20
53.1585914296
 11
26.1122059211
 21
55.6080563528
  0
LINE
  5
290
100
AcDbEntity
  8
0
100
AcDbLine
 62
7
  6
CONTINUOUS
 10
38.3930611431
 20
45.5772358815
 11
38.1705877445
 21
45.7056780523
  0
LINE
  5
291
100
AcDbEntity
  8
0
100
AcDbLine
 62
7
  6
CONTINUOUS
 10
38.675902678
 20
45.7405335431
 11
38.2933285183
 21
45.9614078403
  0
LINE
  5
292
100
AcDbEntity
  8
0
100
AcDbLine
 62
7
  6
CONTINUOUS
 10
33.7986827835
 20
55.6214774777
 11
33.7986827835
 21
55.8232912956
  0
LINE
  5
293
100
AcDbEntity
  8
0
100
AcDbLine
 62
7
  6
CONTINUOUS
 10
34.7512864945
 20
49.2312249316
 11
34.7512864945
 21
54.1302394344
  0
LINE
  5
294
100
AcDbEntity
  8
0
100
AcDbLine
 62
7
  6
CONTINUOUS
 10
47.4952841103
 20
63.7309805561
 11
33.7986827835
 21
55.8232912956
  0
LINE
  5
295
100
AcDbEntity
  8
0
100
AcDbLine
 62
7
  6
CONTINUOUS
 10
55.6815453562
 20
68.2554786599
 11
41.8930205306
 21
60.2947176594
  0
LINE
  5
296
100
AcDbEntity
  8
0
100
AcDbLine
 62
7
  6
CONTINUOUS
 10
40.4788128561
 20
59.4782293517
 11
32.7713810305
 21
55.0283680745
  0
LINE
  5
297
100
AcDbEntity
  8
0
100
AcDbLine
 62
7
  6
CONTINUOUS
 10
42.2465753931
 20
60.0905972822
 11
40.8323677187
 21
59.2741089744
  0
LINE
  5
298
100
AcDbEntity
  8
0
100
AcDbLine
 62
7
  6
CONTINUOUS
 10
21.8695828978
 20
48.2595769268
 11
26.1122059211
 21
50.70904185
  0
LWPOLYLINE
  5
299
100
AcDbEntity
  8
0
100
AcDbPolyline
 62
7
  6
CONTINUOUS
 90
7
 70
0
 10
38.3046471093
 20
59.7536825046
 10
35.6485057004
 20
58.6393221863
 10
32.5319841487
 20
58.0536201032
 10
29.2232167317
 20
58.0540631394
 10
26.0893916844
 20
58.6458475632
 10
23.4365717945
 20
59.7645542808
 10
22.4137486854
 20
60.5809862413
  0
LINE
  5
29A
100
AcDbEntity
  8
0
100
AcDbLine
 62
7
  6
CONTINUOUS
 10
17.9804870638
 20
54.3424851985
 11
16.7406450043
 21
54.6189780973
  0
LINE
  5
29B
100
AcDbEntity
  8
0
100
AcDbLine
 62
7
  6
CONTINUOUS
 10
14.0055970114
 20
63.0048681457
 11
16.5653342165
 21
61.5270366143
  0
LINE
  5
29C
100
AcDbEntity
  8
0
100
AcDbLine
 62
7
  6
CONTINUOUS
 10
26.8175377525
 20
55.6080580482
 11
29.3772749576
 21
54.1302265168
  0
LINE
  5
29D
100
AcDbEntity
  8
0
100
AcDbLine
 62
7
  6
CONTINUOUS
 10
24.9280196758
 20
58.1686180372
 11
22.2890261962
 21
59.6922071648
  0
LINE
  5
29E
100
AcDbEntity
  8
0
100
AcDbLine
 62
7
  6
CONTINUOUS
 10
31.3571674681
 20
55.0283646752
 11
29.1509851257
 21
56.3020758293
  0
LINE
  5
29F
100
AcDbEntity
  8
0
100
AcDbLine
 62
7
  6
CONTINUOUS
 10
17.7665185508
 20
62.874751977
 11
15.5603362084
 21
64.1484631311
  0
LINE
  5
2A0
100
AcDbEntity
  8
0
100
AcDbLine
 62
7
  6
CONTINUOUS
 10
38.675902678
 20
45.3322823345
 11
38.675902678
 21
45.7405335431
  0
LINE
  5
2A1
100
AcDbEntity
  8
0
100
AcDbLine
 62
7
  6
CONTINUOUS
 10
32.8526906891
 20
39.2758114171
 11
30.049235864
 21
29.6449256745
  0
LINE
  5
2A2
100
AcDbEntity
  8
0
100
AcDbLine
 62
7
  6
CONTINUOUS
 10
24.7129497123
 20
26.7186655383
 11
25.1701699285
 21
27.7366429166
  0
LINE
  5
2A3
100
AcDbEntity
  8
0
100
AcDbLine
 62
7
  6
CONTINUOUS
 10
25.1701699285
 20
30.5522038151
 11
25.5941002799
 21
31.4235133061
  0
LINE
  5
2A4
100
AcDbEntity
  8
0
100
AcDbLine
 62
7
  6
CONTINUOUS
 10
34.7512864945
 20
54.1302394344
 11
57.4493196691
 21
67.2348767736
  0
LINE
  5
2A5
100
AcDbEntity
  8
0
100
AcDbLine
 62
7
  6
CONTINUOUS
 10
44.0498918408
 20
48.4349379039
 11
42.6533256952
 21
49.2412275033
  0
LINE
  5
2A6
100
AcDbEntity
  8
0
100
AcDbLine
 62
7
  6
CONTINUOUS
 10
44.0498918408
 20
48.8431891125
 11
43.0068866674
 21
49.4453548073
  0
LINE
  5
2A7
100
AcDbEntity
  8
0
100
AcDbLine
 62
7
  6
CONTINUOUS
 10
43.2511164239
 20
49.5324675416
 11
44.1615739545
 21
49.0068265328
  0
LINE
  5
2A8
100
AcDbEntity
  8
0
100
AcDbLine
 62
7
  6
CONTINUOUS
 10
43.340346322
 20
49.5609585922
 11
44.0692445396
 21
49.1401385303
  0
LINE
  5
2A9
100
AcDbEntity
  8
0
100
AcDbLine
 62
7
  6
CONTINUOUS
 10
33.7986827835
 20
55.8232912956
 11
31.2601588702
 21
57.2888756043
  0
LINE
  5
2AA
100
AcDbEntity
  8
0
100
AcDbLine
 62
7
  6
CONTINUOUS
 10
19.1861697249
 20
64.2596387878
 11
16.6494588802
 21
65.7241763446
  0
LINE
  5
2AB
100
AcDbEntity
  8
0
100
AcDbLine
 62
7
  6
CONTINUOUS
 10
41.2566417969
 20
52.9870711472
 11
41.4512853862
 21
52.8746961608
  0
LINE
  5
2AC
100
AcDbEntity
  8
0
100
AcDbLine
 62
7
  6
CONTINUOUS
 10
41.8930205306
 20
59.8864735056
 11
41.8930205306
 21
60.2947176594
  0
LINE
  5
2AD
100
AcDbEntity
  8
0
100
AcDbLine
 62
7
  6
CONTINUOUS
 10
36.3601377583
 20
41.933614565
 11
38.7996459967
 21
47.016317773
  0
LINE
  5
2AE
100
AcDbEntity
  8
0
100
AcDbLine
 62
7
  6
CONTINUOUS
 10
41.4512853862
 20
52.8746961608
 11
32.1882251187
 21
43.9478054236
  0
LINE
  5
2AF
100
AcDbEntity
  8
0
100
AcDbLine
 62
7
  6
CONTINUOUS
 10
25.5414119549
 20
45.2541653001
 11
25.1362030171
 21
45.0202192072
  0
LINE
  5
2B0
100
AcDbEntity
  8
0
100
AcDbLine
 62
7
  6
CONTINUOUS
 10
34.7512864945
 20
49.2312249316
 11
57.4493196691
 21
62.3358622709
  0
LINE
  5
2B1
100
AcDbEntity
  8
0
100
AcDbLine
 62
7
  6
CONTINUOUS
 10
54.5327063747
 20
60.4272130074
 11
41.4512853862
 21
52.8746961608
  0
LINE
  5
2B2
100
AcDbEntity
  8
0
100
AcDbLine
 62
7
  6
CONTINUOUS
 10
44.0692445396
 20
49.1401385303
 11
44.1616153016
 21
49.0068980983
  0
LINE
  5
2B3
100
AcDbEntity
  8
0
100
AcDbLine
 62
7
  6
CONTINUOUS
 10
44.0498918408
 20
48.8431891125
 11
44.0498918408
 21
48.4349379039
  0
LINE
  5
2B4
100
AcDbEntity
  8
0
100
AcDbLine
 62
7
  6
CONTINUOUS
 10
38.3930611431
 20
45.5772358815
 11
36.2937508981
 21
41.2624965962
  0
LINE
  5
2B5
100
AcDbEntity
  8
0
100
AcDbLine
 62
7
  6
CONTINUOUS
 10
25.5414119549
 20
42.1041352375
 11
25.1362030171
 21
41.8701891446
  0
LINE
  5
2B6
100
AcDbEntity
  8
0
100
AcDbLine
 62
7
  6
CONTINUOUS
 10
50.6082800782
 20
56.283502394
 11
54.5327063747
 21
58.549257448
  0
LINE
  5
2B7
100
AcDbEntity
  8
0
100
AcDbLine
 62
7
  6
CONTINUOUS
 10
29.9962032234
 20
42.6822485466
 11
32.1882251187
 21
43.9478054236
  0
LINE
  5
2B8
100
AcDbEntity
  8
0
100
AcDbLine
 62
7
  6
CONTINUOUS
 10
49.5122626537
 20
53.6910988948
 11
49.250629958
 21
53.5400460892
  0
LINE
  5
2B9
100
AcDbEntity
  8
0
100
AcDbLine
 62
7
  6
CONTINUOUS
 10
43.04226902
 20
49.4657826962
 11
38.7996459967
 21
47.016317773
  0
LINE
  5
2BA
100
AcDbEntity
  8
0
100
AcDbLine
 62
7
  6
CONTINUOUS
 10
56.553253266
 20
56.5009928053
 11
53.754885677
 21
55.4551318531
  0
LINE
  5
2BB
100
AcDbEntity
  8
0
100
AcDbLine
 62
7
  6
CONTINUOUS
 10
49.5122626537
 20
53.6910988948
 11
52.6765586548
 21
51.8641619886
  0
LINE
  5
2BC
100
AcDbEntity
  8
0
100
AcDbLine
 62
7
  6
CONTINUOUS
 10
40.8323677187
 20
59.2741089744
 11
40.4788128561
 21
59.4782293517
  0
LINE
  5
2BD
100
AcDbEntity
  8
0
100
AcDbLine
 62
7
  6
CONTINUOUS
 10
45.1299949953
 20
77.8880914216
 11
45.1299949953
 21
70.0823283138
  0
LINE
  5
2BE
100
AcDbEntity
  8
0
100
AcDbLine
 62
7
  6
CONTINUOUS
 10
47.4952841103
 20
63.5291667382
 11
47.4952841103
 21
63.7309805561
  0
LINE
  5
2BF
100
AcDbEntity
  8
0
100
AcDbLine
 62
7
  6
CONTINUOUS
 10
47.5323315772
 20
63.5505559755
 11
47.5323315772
 21
67.938965892
  0
LINE
  5
2C0
100
AcDbEntity
  8
0
100
AcDbLine
 62
7
  6
CONTINUOUS
 10
47.4952841103
 20
63.7309805561
 11
47.5323315772
 21
67.938965892
  0
LINE
  5
2C1
100
AcDbEntity
  8
0
100
AcDbLine
 62
7
  6
CONTINUOUS
 10
50.2193845981
 20
53.2828510856
 11
53.754885677
 21
55.3240614009
  0
LINE
  5
2C2
100
AcDbEntity
  8
0
100
AcDbLine
 62
7
  6
CONTINUOUS
 10
50.2900833514
 20
53.2420340648
 11
49.1940724037
 21
52.6092556263
  0
LINE
  5
2C3
100
AcDbEntity
  8
0
100
AcDbLine
 62
7
  6
CONTINUOUS
 10
44.360956283
 20
49.0227811799
 11
44.0498918408
 21
48.8431891125
  0
LINE
  5
2C4
100
AcDbEntity
  8
0
100
AcDbLine
 62
7
  6
CONTINUOUS
 10
38.675902678
 20
45.7405335431
 11
38.3930611431
 21
45.5772358815
  0
LINE
  5
2C5
100
AcDbEntity
  8
0
100
AcDbLine
 62
7
  6
CONTINUOUS
 10
50.2900833514
 20
52.4255316477
 11
44.4115697127
 21
49.0315904751
  0
LINE
  5
2C6
100
AcDbEntity
  8
0
100
AcDbLine
 62
7
  6
CONTINUOUS
 10
44.0498918408
 20
48.4349379039
 11
38.675902678
 21
45.3322823345
  0
LINE
  5
2C7
100
AcDbEntity
  8
0
100
AcDbLine
 62
7
  6
CONTINUOUS
 10
52.6765586548
 20
51.8641619886
 11
50.0602744571
 21
50.3536586193
  0
LINE
  5
2C8
100
AcDbEntity
  8
0
100
AcDbLine
 62
7
  6
CONTINUOUS
 10
57.3934649385
 20
54.2528726249
 11
52.0185511846
 21
52.2440541843
  0
LINE
  5
2C9
100
AcDbEntity
  8
0
100
AcDbLine
 62
7
  6
CONTINUOUS
 10
60.2302238368
 20
54.3781408818
 11
52.6765586548
 21
51.5550366226
  0
LINE
  5
2CA
100
AcDbEntity
  8
0
100
AcDbLine
 62
7
  6
CONTINUOUS
 10
41.8930205306
 20
60.2947176594
 11
42.2465753931
 21
60.0905972822
  0
LINE
  5
2CB
100
AcDbEntity
  8
0
100
AcDbLine
 62
7
  6
CONTINUOUS
 10
49.1940724037
 20
52.6092556263
 11
49.1940724037
 21
53.4257580434
  0
LINE
  5
2CC
100
AcDbEntity
  8
0
100
AcDbLine
 62
7
  6
CONTINUOUS
 10
50.0602744571
 20
50.3536586193
 11
50.0602744571
 21
52.2928522127
  0
LINE
  5
2CD
100
AcDbEntity
  8
0
100
AcDbLine
 62
7
  6
CONTINUOUS
 10
50.2900833514
 20
52.4255316477
 11
50.2900833514
 21
53.2420340648
  0
LINE
  5
2CE
100
AcDbEntity
  8
0
100
AcDbLine
 62
7
  6
CONTINUOUS
 10
49.1940724037
 20
53.4257580434
 11
50.6082800782
 21
56.283502394
  0
LINE
  5
2CF
100
AcDbEntity
  8
0
100
AcDbLine
 62
7
  6
CONTINUOUS
 10
36.3601377583
 20
41.933614565
 11
31.9053835838
 21
39.3616763956
  0
LINE
  5
2D0
100
AcDbEntity
  8
0
100
AcDbLine
 62
7
  6
CONTINUOUS
 10
17.0335352508
 20
30.3465149956
 11
16.9323416306
 21
30.2880911805
  0
LINE
  5
2D1
100
AcDbEntity
  8
0
100
AcDbLine
 62
7
  6
CONTINUOUS
 10
36.2937508981
 20
41.2624965962
 11
32.8526906891
 21
39.2758114171
  0
LINE
  5
2D2
100
AcDbEntity
  8
0
100
AcDbLine
 62
7
  6
CONTINUOUS
 10
61.0704355093
 20
52.1300207014
 11
52.6765586548
 21
48.9928960172
  0
LINE
  5
2D3
100
AcDbEntity
  8
0
100
AcDbLine
 62
7
  6
CONTINUOUS
 10
52.6765586548
 20
46.81544615
 11
54.3263588603
 21
47.4320419184
  0
LINE
  5
2D4
100
AcDbEntity
  8
0
100
AcDbLine
 62
7
  6
CONTINUOUS
 10
52.6765586548
 20
37.9192936765
 11
52.6765586548
 21
51.8641619886
  0
LINE
  5
2D5
100
AcDbEntity
  8
0
100
AcDbLine
 62
7
  6
CONTINUOUS
 10
55.3440310991
 20
47.1718512439
 11
65.887101638
 21
51.1122148456
  0
LINE
  5
2D6
100
AcDbEntity
  8
0
100
AcDbLine
 62
7
  6
CONTINUOUS
 10
56.1827444248
 20
44.9231710719
 11
66.7273133105
 21
48.8640946652
  0
LINE
  5
2D7
100
AcDbEntity
  8
0
100
AcDbLine
 62
7
  6
CONTINUOUS
 10
54.3380627854
 20
60.5395879938
 11
54.5327063747
 21
60.4272130074
  0
LINE
  5
2D8
100
AcDbEntity
  8
0
100
AcDbLine
 62
7
  6
CONTINUOUS
 10
53.754885677
 20
58.1001851394
 11
53.754885677
 21
55.3240614009
  0
LINE
  5
2D9
100
AcDbEntity
  8
0
100
AcDbLine
 62
7
  6
CONTINUOUS
 10
54.5327063747
 20
58.549257448
 11
54.5327063747
 21
60.4272130074
  0
LINE
  5
2DA
100
AcDbEntity
  8
0
100
AcDbLine
 62
7
  6
CONTINUOUS
 10
51.615902899
 20
33.9419445146
 11
52.6765586548
 21
37.9192936765
  0
LINE
  5
2DB
100
AcDbEntity
  8
0
100
AcDbLine
 62
7
  6
CONTINUOUS
 10
24.1223102454
 20
26.2539014316
 11
24.0211166252
 21
26.1954776164
  0
LINE
  5
2DC
100
AcDbEntity
  8
0
100
AcDbLine
 62
7
  6
CONTINUOUS
 10
52.6765586548
 20
42.9722352419
 11
55.5866763691
 21
44.0598616479
  0
LINE
  5
2DD
100
AcDbEntity
  8
0
100
AcDbLine
 62
7
  6
CONTINUOUS
 10
45.4110024018
 20
69.1636881555
 11
47.5323315772
 21
67.938965892
  0
LINE
  5
2DE
100
AcDbEntity
  8
0
100
AcDbLine
 62
7
  6
CONTINUOUS
 10
57.4493196691
 20
62.3358622709
 11
57.4493196691
 21
67.2348767736
  0
LINE
  5
2DF
100
AcDbEntity
  8
0
100
AcDbLine
 62
7
  6
CONTINUOUS
 10
57.4493196691
 20
67.2348767736
 11
55.6815453562
 21
68.2554786599
  0
LINE
  5
2E0
100
AcDbEntity
  8
0
100
AcDbLine
 62
7
  6
CONTINUOUS
 10
31.1098916198
 20
22.1028640524
 11
51.615902899
 21
33.9419445146
  0
ARC
  5
2E1
100
AcDbEntity
  8
0
100
AcDbCircle
 62
7
  6
CONTINUOUS
 10
26.8162342955
 20
68.9208821742
 40
7.6063487781
100
AcDbArc
 50
227.541895553
 51
231.5693596667
  0
ARC
  5
2E2
100
AcDbEntity
  8
0
100
AcDbCircle
 62
7
  6
CONTINUOUS
 10
23.1095834548
 20
64.0409541661
 40
3.9295809406
100
AcDbArc
 50
180.0108441963
 51
190.2123940717
  0
ARC
  5
2E3
100
AcDbEntity
  8
0
100
AcDbCircle
 62
7
  6
CONTINUOUS
 10
23.9137830485
 20
64.0418580691
 40
3.5337838392
100
AcDbArc
 50
180.0267144132
 51
188.8204736122
  0
ARC
  5
2E4
100
AcDbEntity
  8
0
100
AcDbCircle
 62
7
  6
CONTINUOUS
 10
60.4174128957
 20
53.8772873351
 40
0.5346907437
100
AcDbArc
 50
109.6016195439
 51
110.4927322603
  0
SPLINE
  5
2E5
100
AcDbEntity
  8
0
100
AcDbSpline
 62
7
  6
CONTINUOUS
 70
0
 71
3
 72
11
 73
7
 74
0
 42
0.0000001
 43
0.0000001
 44
0.0000000001
 40
0.0
 40
0.0
 40
0.0
 40
0.0
 40
0.2682104062
 40
0.5212882134
 40
0.763493572
 40
1.0
 40
1.0
 40
1.0
 40
1.0
 10
15.3490602083
 20
45.0295962469
 30
0.0
 10
15.3179895747
 20
44.9979264629
 30
0.0
 10
15.2613370374
 20
44.9325042248
 30
0.0
 10
15.1931901542
 20
44.8255849229
 30
0.0
 10
15.145342474
 20
44.7137884606
 30
0.0
 10
15.1272239416
 20
44.6361973085
 30
0.0
 10
15.1217887772
 20
44.5974548357
 30
0.0
  0
SPLINE
  5
2E6
100
AcDbEntity
  8
0
100
AcDbSpline
 62
7
  6
CONTINUOUS
 70
0
 71
3
 72
25
 73
21
 74
0
 42
0.0000001
 43
0.0000001
 44
0.0000000001
 40
0.0
 40
0.0
 40
0.0
 40
0.0
 40
0.0658870589
 40
0.1360260506
 40
0.2094320949
 40
0.2850468554
 40
0.3617084693
 40
0.4382311036
 40
0.5134278165
 40
0.5861578672
 40
0.6553685772
 40
0.7201412062
 40
0.7797473157
 40
0.8337225998
 40
0.8819679146
 40
0.9248880334
 40
0.9446952893
 40
0.9636401997
 40
0.9819773062
 40
1.0
 40
1.0
 40
1.0
 40
1.0
 10
19.5256223933
 20
40.6545228912
 30
0.0
 10
19.4076062249
 20
40.6269844876
 30
0.0
 10
19.1610361878
 20
40.5822453071
 30
0.0
 10
18.7772536376
 20
40.5451265695
 30
0.0
 10
18.3738903049
 20
40.5364120313
 30
0.0
 10
17.9589502856
 20
40.5562485337
 30
0.0
 10
17.5405616635
 20
40.6042882691
 30
0.0
 10
17.1269894908
 20
40.6795762648
 30
0.0
 10
16.7263835529
 20
40.7806266473
 30
0.0
 10
16.3466288235
 20
40.905434098
 30
0.0
 10
15.9951651006
 20
41.0515318421
 30
0.0
 10
15.6788254081
 20
41.2160673259
 30
0.0
 10
15.4036936684
 20
41.3958754475
 30
0.0
 10
15.1749583948
 20
41.5877040853
 30
0.0
 10
14.9969687582
 20
41.7881585923
 30
0.0
 10
14.8912217294
 20
41.9647609432
 30
0.0
 10
14.8384509698
 20
42.105797191
 30
0.0
 10
14.8147000716
 20
42.2084238982
 30
0.0
 10
14.8059640494
 20
42.3101134021
 30
0.0
 10
14.8102150378
 20
42.3771551381
 30
0.0
 10
14.8148205925
 20
42.4099829179
 30
0.0
  0
SPLINE
  5
2E7
100
AcDbEntity
  8
0
100
AcDbSpline
 62
7
  6
CONTINUOUS
 70
0
 71
3
 72
14
 73
10
 74
0
 42
0.0000001
 43
0.0000001
 44
0.0000000001
 40
0.0
 40
0.0
 40
0.0
 40
0.0
 40
0.1030907819
 40
0.2088478108
 40
0.3196516062
 40
0.4374416465
 40
0.6989288534
 40
0.8445336218
 40
1.0
 40
1.0
 40
1.0
 40
1.0
 10
22.6517952728
 20
62.2773779489
 30
0.0
 10
22.6555474357
 20
62.3041142115
 30
0.0
 10
22.6581155121
 20
62.3591150156
 30
0.0
 10
22.6467847387
 20
62.4424670421
 30
0.0
 10
22.6206148255
 20
62.526422436
 30
0.0
 10
22.5643876943
 20
62.642230136
 30
0.0
 10
22.4799897225
 20
62.7525573888
 30
0.0
 10
22.374930504
 20
62.8559179275
 30
0.0
 10
22.3141400785
 20
62.9063260704
 30
0.0
 10
22.2818699634
 20
62.9311521952
 30
0.0
  0
SPLINE
  5
2E8
100
AcDbEntity
  8
0
100
AcDbSpline
 62
7
  6
CONTINUOUS
 70
0
 71
3
 72
15
 73
11
 74
0
 42
0.0000001
 43
0.0000001
 44
0.0000000001
 40
0.0
 40
0.0
 40
0.0
 40
0.0
 40
0.0956145623
 40
0.1951869374
 40
0.3020673916
 40
0.4186723592
 40
0.5464341825
 40
0.6859995171
 40
0.8374181517
 40
1.0
 40
1.0
 40
1.0
 40
1.0
 10
20.7565962427
 20
41.5761727289
 30
0.0
 10
20.7493957695
 20
41.5248487155
 30
0.0
 10
20.7219910338
 20
41.4214729378
 30
0.0
 10
20.6446633684
 20
41.2757779883
 30
0.0
 10
20.532565426
 20
41.1399173547
 30
0.0
 10
20.3876270852
 20
41.0152983488
 30
0.0
 10
20.2117871724
 20
40.9029258883
 30
0.0
 10
20.0070608594
 20
40.8038967461
 30
0.0
 10
19.7758779495
 20
40.7192768699
 30
0.0
 10
19.611442333
 20
40.6745484874
 30
0.0
 10
19.5256223933
 20
40.6545228912
 30
0.0
  0
SPLINE
  5
2E9
100
AcDbEntity
  8
0
100
AcDbSpline
 62
7
  6
CONTINUOUS
 70
0
 71
3
 72
26
 73
22
 74
0
 42
0.0000001
 43
0.0000001
 44
0.0000000001
 40
0.0
 40
0.0
 40
0.0
 40
0.0
 40
0.0593683045
 40
0.1243981587
 40
0.1941893755
 40
0.2676667492
 40
0.3435573515
 40
0.4205014455
 40
0.4970930072
 40
0.5719402155
 40
0.6437221848
 40
0.7112470582
 40
0.7735243452
 40
0.8298515884
 40
0.8799330614
 40
0.902720392
 40
0.9241175784
 40
0.9442860793
 40
0.9634551641
 40
0.9819129754
 40
1.0
 40
1.0
 40
1.0
 40
1.0
 10
22.2818699634
 20
62.9311521952
 30
0.0
 10
22.2194913339
 20
62.9791414771
 30
0.0
 10
22.0817070662
 20
63.0706283614
 30
0.0
 10
21.8528243774
 20
63.1892774179
 30
0.0
 10
21.5966821236
 20
63.2933795274
 30
0.0
 10
21.3192305507
 20
63.3805474128
 30
0.0
 10
21.0267928664
 20
63.4487420129
 30
0.0
 10
20.72614419
 20
63.4963819587
 30
0.0
 10
20.4242398634
 20
63.5223673209
 30
0.0
 10
20.1280686951
 20
63.5261023861
 30
0.0
 10
19.8444637598
 20
63.5075144323
 30
0.0
 10
19.5799370311
 20
63.467044632
 30
0.0
 10
19.3404518155
 20
63.4056112463
 30
0.0
 10
19.1314029501
 20
63.324580693
 30
0.0
 10
18.9817248137
 20
63.2394275479
 30
0.0
 10
18.883192273
 20
63.1622330624
 30
0.0
 10
18.8220119374
 20
63.1025010454
 30
0.0
 10
18.7716441155
 20
63.039394579
 30
0.0
 10
18.7324203692
 20
62.9732615444
 30
0.0
 10
18.7046649335
 20
62.9045041138
 30
0.0
 10
18.6939566376
 20
62.8569942267
 30
0.0
 10
18.6906243219
 20
62.833249611
 30
0.0
  0
SPLINE
  5
2EA
100
AcDbEntity
  8
0
100
AcDbSpline
 62
7
  6
CONTINUOUS
 70
0
 71
3
 72
9
 73
5
 74
0
 42
0.0000001
 43
0.0000001
 44
0.0000000001
 40
0.0
 40
0.0
 40
0.0
 40
0.0
 40
0.2568431023
 40
1.0
 40
1.0
 40
1.0
 40
1.0
 10
19.8325906252
 20
42.8419948014
 30
0.0
 10
19.8571156865
 20
42.8477175854
 30
0.0
 10
19.9523637086
 20
42.870999523
 30
0.0
 10
20.0466345267
 20
42.8983510491
 30
0.0
 10
20.1158060063
 20
42.9212644003
 30
0.0
  0
SPLINE
  5
2EB
100
AcDbEntity
  8
0
100
AcDbSpline
 62
7
  6
CONTINUOUS
 70
0
 71
3
 72
15
 73
11
 74
0
 42
0.0000001
 43
0.0000001
 44
0.0000000001
 40
0.0
 40
0.0
 40
0.0
 40
0.0
 40
0.1295686152
 40
0.2628925717
 40
0.3973891556
 40
0.5304230675
 40
0.6594317249
 40
0.7820066164
 40
0.8960955743
 40
1.0
 40
1.0
 40
1.0
 40
1.0
 10
18.7211191265
 20
43.2167878415
 30
0.0
 10
18.6194931468
 20
43.2117433674
 30
0.0
 10
18.4127851548
 20
43.2102573936
 30
0.0
 10
18.1011929896
 20
43.2319493679
 30
0.0
 10
17.7893458471
 20
43.2769955227
 30
0.0
 10
17.4849947009
 20
43.3442782703
 30
0.0
 10
17.19567785
 20
43.4321280224
 30
0.0
 10
16.9284626866
 20
43.5383470215
 30
0.0
 10
16.6899836063
 20
43.6603225134
 30
0.0
 10
16.5466892305
 20
43.7549571203
 30
0.0
 10
16.4820164834
 20
43.8047113184
 30
0.0
  0
SPLINE
  5
2EC
100
AcDbEntity
  8
0
100
AcDbSpline
 62
7
  6
CONTINUOUS
 70
0
 71
3
 72
14
 73
10
 74
0
 42
0.0000001
 43
0.0000001
 44
0.0000000001
 40
0.0
 40
0.0
 40
0.0
 40
0.0
 40
0.1030907819
 40
0.2088478108
 40
0.3196516062
 40
0.4374416465
 40
0.6989288534
 40
0.8445336218
 40
1.0
 40
1.0
 40
1.0
 40
1.0
 10
18.6906243219
 20
62.833249611
 30
0.0
 10
18.686872159
 20
62.8065133483
 30
0.0
 10
18.6843040825
 20
62.7515125443
 30
0.0
 10
18.6956348559
 20
62.6681605177
 30
0.0
 10
18.7218047692
 20
62.5842051238
 30
0.0
 10
18.7780319004
 20
62.4683974239
 30
0.0
 10
18.8624298722
 20
62.358070171
 30
0.0
 10
18.9674890907
 20
62.2547096323
 30
0.0
 10
19.0282795162
 20
62.2043014895
 30
0.0
 10
19.0605496312
 20
62.1794753646
 30
0.0
  0
SPLINE
  5
2ED
100
AcDbEntity
  8
0
100
AcDbSpline
 62
7
  6
CONTINUOUS
 70
0
 71
3
 72
9
 73
5
 74
0
 42
0.0000001
 43
0.0000001
 44
0.0000000001
 40
0.0
 40
0.0
 40
0.0
 40
0.0
 40
0.2604270338
 40
1.0
 40
1.0
 40
1.0
 40
1.0
 10
16.4820164834
 20
43.8047113184
 30
0.0
 10
16.4679499257
 20
43.8155330374
 30
0.0
 10
16.414610976
 20
43.8579466499
 30
0.0
 10
16.3640325004
 20
43.9039044845
 30
0.0
 10
16.3289242768
 20
43.9400655533
 30
0.0
  0
SPLINE
  5
2EE
100
AcDbEntity
  8
0
100
AcDbSpline
 62
7
  6
CONTINUOUS
 70
0
 71
3
 72
26
 73
22
 74
0
 42
0.0000001
 43
0.0000001
 44
0.0000000001
 40
0.0
 40
0.0
 40
0.0
 40
0.0
 40
0.0593683045
 40
0.1243981587
 40
0.1941893755
 40
0.2676667492
 40
0.3435573515
 40
0.4205014455
 40
0.4970930072
 40
0.5719402155
 40
0.6437221848
 40
0.7112470582
 40
0.7735243452
 40
0.8298515884
 40
0.8799330614
 40
0.902720392
 40
0.9241175784
 40
0.9442860793
 40
0.9634551641
 40
0.9819129754
 40
1.0
 40
1.0
 40
1.0
 40
1.0
 10
19.0605496312
 20
62.1794753646
 30
0.0
 10
19.1229282607
 20
62.1314860827
 30
0.0
 10
19.2607125285
 20
62.0399991984
 30
0.0
 10
19.4895952173
 20
61.921350142
 30
0.0
 10
19.745737471
 20
61.8172480324
 30
0.0
 10
20.023189044
 20
61.730080147
 30
0.0
 10
20.3156267283
 20
61.661885547
 30
0.0
 10
20.6162754047
 20
61.6142456011
 30
0.0
 10
20.9181797313
 20
61.5882602389
 30
0.0
 10
21.2143508996
 20
61.5845251737
 30
0.0
 10
21.4979558349
 20
61.6031131275
 30
0.0
 10
21.7624825636
 20
61.6435829278
 30
0.0
 10
22.0019677792
 20
61.7050163135
 30
0.0
 10
22.2110166446
 20
61.7860468668
 30
0.0
 10
22.360694781
 20
61.8712000119
 30
0.0
 10
22.4592273217
 20
61.9483944974
 30
0.0
 10
22.5204076573
 20
62.0081265145
 30
0.0
 10
22.5707754792
 20
62.0712329808
 30
0.0
 10
22.6099992255
 20
62.1373660154
 30
0.0
 10
22.6377546612
 20
62.206123446
 30
0.0
 10
22.6484629571
 20
62.2536333331
 30
0.0
 10
22.6517952728
 20
62.2773779489
 30
0.0
  0
SPLINE
  5
2EF
100
AcDbEntity
  8
0
100
AcDbSpline
 62
7
  6
CONTINUOUS
 70
0
 71
3
 72
25
 73
21
 74
0
 42
0.0000001
 43
0.0000001
 44
0.0000000001
 40
0.0
 40
0.0
 40
0.0
 40
0.0
 40
0.0180229337
 40
0.0363603035
 40
0.0553055069
 40
0.0751130895
 40
0.1180338282
 40
0.1662796549
 40
0.22025526
 40
0.2798613889
 40
0.3446335709
 40
0.4138434152
 40
0.4865723563
 40
0.5617679501
 40
0.6382897067
 40
0.7149509154
 40
0.790565741
 40
0.8639720732
 40
0.9341122334
 40
1.0
 40
1.0
 40
1.0
 40
1.0
 10
15.1217887772
 20
44.5974548357
 30
0.0
 10
15.1171833182
 20
44.5646265975
 30
0.0
 10
15.1129324327
 20
44.4975839399
 30
0.0
 10
15.1216686795
 20
44.395892972
 30
0.0
 10
15.1454205004
 20
44.2932647837
 30
0.0
 10
15.1981932351
 20
44.1522268387
 30
0.0
 10
15.3039426713
 20
43.9756228165
 30
0.0
 10
15.481935294
 20
43.7751673638
 30
0.0
 10
15.7106728892
 20
43.5833390611
 30
0.0
 10
15.9858054613
 20
43.4035326159
 30
0.0
 10
16.3021434865
 20
43.2389991666
 30
0.0
 10
16.6536033067
 20
43.0929036931
 30
0.0
 10
17.0333527207
 20
42.9680983577
 30
0.0
 10
17.4339531163
 20
42.8670494677
 30
0.0
 10
17.8475208013
 20
42.7917616307
 30
0.0
 10
18.265907103
 20
42.743721352
 30
0.0
 10
18.6808469798
 20
42.7238842585
 30
0.0
 10
19.0842131398
 20
42.7325978069
 30
0.0
 10
19.4679996486
 20
42.7697169031
 30
0.0
 10
19.7145731916
 20
42.8144561026
 30
0.0
 10
19.8325906252
 20
42.8419948014
 30
0.0
  0
SPLINE
  5
2F0
100
AcDbEntity
  8
0
100
AcDbSpline
 62
7
  6
CONTINUOUS
 70
0
 71
3
 72
15
 73
11
 74
0
 42
0.0000001
 43
0.0000001
 44
0.0000000001
 40
0.0
 40
0.0
 40
0.0
 40
0.0
 40
0.2571630419
 40
0.3817884957
 40
0.5050814913
 40
0.6280566429
 40
0.7514366168
 40
0.8134050701
 40
0.8755424499
 40
1.0
 40
1.0
 40
1.0
 40
1.0
 10
57.3934649385
 20
54.2528726249
 30
0.0
 10
57.6283297782
 20
54.3406509303
 30
0.0
 10
57.9682552818
 20
54.4993939277
 30
0.0
 10
58.3762643067
 20
54.7767173871
 30
0.0
 10
58.649316294
 20
55.0153761605
 30
0.0
 10
58.8868227316
 20
55.2880558204
 30
0.0
 10
59.0483017779
 20
55.5432458633
 30
0.0
 10
59.1515931735
 20
55.7616089246
 30
0.0
 10
59.2362866205
 20
55.988893473
 30
0.0
 10
59.2776539575
 20
56.1673030435
 30
0.0
 10
59.294492755
 20
56.2874741711
 30
0.0
  0
SPLINE
  5
2F1
100
AcDbEntity
  8
0
100
AcDbSpline
 62
7
  6
CONTINUOUS
 70
0
 71
3
 72
18
 73
14
 74
0
 42
0.0000001
 43
0.0000001
 44
0.0000000001
 40
0.0
 40
0.0
 40
0.0
 40
0.0
 40
0.0312567543
 40
0.0695451596
 40
0.1141550076
 40
0.1643654043
 40
0.2195152903
 40
0.2789916118
 40
0.4086615777
 40
0.5492832254
 40
0.6970875704
 40
0.8484939992
 40
1.0
 40
1.0
 40
1.0
 40
1.0
 10
56.832707777
 20
56.6324654677
 30
0.0
 10
56.8092396399
 20
56.6579994839
 30
0.0
 10
56.7542946204
 20
56.7123209768
 30
0.0
 10
56.6576852102
 20
56.7943857765
 30
0.0
 10
56.5387885989
 20
56.882173412
 30
0.0
 10
56.3991218212
 20
56.9727911613
 30
0.0
 10
56.2403477154
 20
57.0637427922
 30
0.0
 10
55.9986059545
 20
57.186557789
 30
0.0
 10
55.6609710881
 20
57.3288779876
 30
0.0
 10
55.2200309811
 20
57.4743572005
 30
0.0
 10
54.7461984955
 20
57.5929055379
 30
0.0
 10
54.2534312588
 20
57.6803087737
 30
0.0
 10
53.918951801
 20
57.7162925579
 30
0.0
 10
53.7512865582
 20
57.7283962464
 30
0.0
  0
SPLINE
  5
2F2
100
AcDbEntity
  8
0
100
AcDbSpline
 62
7
  6
CONTINUOUS
 70
0
 71
3
 72
14
 73
10
 74
0
 42
0.0000001
 43
0.0000001
 44
0.0000000001
 40
0.0
 40
0.0
 40
0.0
 40
0.0
 40
0.3965646817
 40
0.5610718818
 40
0.7016027655
 40
0.8167647614
 40
0.9049977092
 40
0.9658368524
 40
1.0
 40
1.0
 40
1.0
 40
1.0
 10
56.553253266
 20
56.5009928053
 30
0.0
 10
56.6103132719
 20
56.5223183925
 30
0.0
 10
56.6899791026
 20
56.5556530347
 30
0.0
 10
56.7858411368
 20
56.6049923857
 30
0.0
 10
56.841495715
 20
56.6377558359
 30
0.0
 10
56.8854471789
 20
56.6671208896
 30
0.0
 10
56.9177365825
 20
56.6917694997
 30
0.0
 10
56.938821977
 20
56.7104493623
 30
0.0
 10
56.9490622625
 20
56.7208651616
 30
0.0
 10
56.9525658333
 20
56.7247719686
 30
0.0
  0
SPLINE
  5
2F3
100
AcDbEntity
  8
0
100
AcDbSpline
 62
7
  6
CONTINUOUS
 70
0
 71
3
 72
19
 73
15
 74
0
 42
0.0000001
 43
0.0000001
 44
0.0000000001
 40
0.0
 40
0.0
 40
0.0
 40
0.0
 40
0.0565557373
 40
0.1128882345
 40
0.1689361667
 40
0.2248287295
 40
0.2809321096
 40
0.3377699918
 40
0.4554974833
 40
0.5172707876
 40
0.5811709638
 40
0.7151112677
 40
0.8557477029
 40
1.0
 40
1.0
 40
1.0
 40
1.0
 10
59.294492755
 20
56.2874741711
 30
0.0
 10
59.3119718719
 20
56.4122149785
 30
0.0
 10
59.3241315166
 20
56.6649905992
 30
0.0
 10
59.2745224608
 20
57.0398039567
 30
0.0
 10
59.1629773947
 20
57.3993688909
 30
0.0
 10
58.9971633507
 20
57.7363986876
 30
0.0
 10
58.7855327461
 20
58.0485258413
 30
0.0
 10
58.4465461388
 20
58.435906986
 30
0.0
 10
58.0379848296
 20
58.7736252377
 30
0.0
 10
57.5813975041
 20
59.0663114608
 30
0.0
 10
57.0726654773
 20
59.342151263
 30
0.0
 10
56.3755992759
 20
59.6344826796
 30
0.0
 10
55.479182026
 20
59.8980549052
 30
0.0
 10
54.8542536323
 20
60.0148638987
 30
0.0
 10
54.5359311114
 20
60.0583194262
 30
0.0
  0
SPLINE
  5
2F4
100
AcDbEntity
  8
0
100
AcDbSpline
 62
7
  6
CONTINUOUS
 70
0
 71
3
 72
15
 73
11
 74
0
 42
0.0000001
 43
0.0000001
 44
0.0000000001
 40
0.0
 40
0.0
 40
0.0
 40
0.0
 40
0.1121738849
 40
0.2323406144
 40
0.3588795202
 40
0.4895638235
 40
0.6217266332
 40
0.7525632375
 40
0.8794351412
 40
1.0
 40
1.0
 40
1.0
 40
1.0
 10
57.1207038536
 20
56.426919232
 30
0.0
 10
57.1783416589
 20
56.3936427824
 30
0.0
 10
57.2908660466
 20
56.312439152
 30
0.0
 10
57.440833217
 20
56.1601478641
 30
0.0
 10
57.5730291183
 20
55.9784733897
 30
0.0
 10
57.6825717561
 20
55.7742960011
 30
0.0
 10
57.7653970887
 20
55.5551921006
 30
0.0
 10
57.8184561369
 20
55.3293299069
 30
0.0
 10
57.8396931778
 20
55.1052070176
 30
0.0
 10
57.831831534
 20
54.9578822036
 30
0.0
 10
57.8218907725
 20
54.8870438097
 30
0.0
  0
SPLINE
  5
2F5
100
AcDbEntity
  8
0
100
AcDbSpline
 62
7
  6
CONTINUOUS
 70
0
 71
3
 72
12
 73
8
 74
0
 42
0.0000001
 43
0.0000001
 44
0.0000000001
 40
0.0
 40
0.0
 40
0.0
 40
0.0
 40
0.2816858099
 40
0.539150783
 40
0.7754808882
 40
0.8885722938
 40
1.0
 40
1.0
 40
1.0
 40
1.0
 10
57.8218907725
 20
54.8870438097
 30
0.0
 10
57.8114283869
 20
54.812488295
 30
0.0
 10
57.7783407085
 20
54.67102427
 30
0.0
 10
57.686819312
 20
54.4829040577
 30
0.0
 10
57.577566621
 20
54.3594592308
 30
0.0
 10
57.4759141812
 20
54.2890830249
 30
0.0
 10
57.4213615743
 20
54.2632985211
 30
0.0
 10
57.393464995
 20
54.2528724739
 30
0.0
  0
SPLINE
  5
2F6
100
AcDbEntity
  8
0
100
AcDbSpline
 62
7
  6
CONTINUOUS
 70
0
 71
3
 72
11
 73
7
 74
0
 42
0.0000001
 43
0.0000001
 44
0.0000000001
 40
0.0
 40
0.0
 40
0.0
 40
0.0
 40
0.2323930154
 40
0.4726683313
 40
0.7273393293
 40
1.0
 40
1.0
 40
1.0
 40
1.0
 10
56.5532532096
 20
56.5009929563
 30
0.0
 10
56.5960899241
 20
56.5170027189
 30
0.0
 10
56.6878396835
 20
56.538330383
 30
0.0
 10
56.8322304488
 20
56.5353520213
 30
0.0
 10
56.9798167827
 20
56.4983721534
 30
0.0
 10
57.0742373139
 20
56.4537460943
 30
0.0
 10
57.1207038536
 20
56.426919232
 30
0.0
  0
SPLINE
  5
2F7
100
AcDbEntity
  8
0
100
AcDbSpline
 62
7
  6
CONTINUOUS
 70
0
 71
3
 72
11
 73
7
 74
0
 42
0.0000001
 43
0.0000001
 44
0.0000000001
 40
0.0
 40
0.0
 40
0.0
 40
0.0
 40
0.2323914688
 40
0.4726677465
 40
0.7273422382
 40
1.0
 40
1.0
 40
1.0
 40
1.0
 10
54.3263599498
 20
47.4320390085
 30
0.0
 10
54.3906147437
 20
47.4560528146
 30
0.0
 10
54.5282380466
 20
47.4880476215
 30
0.0
 10
54.74482516
 20
47.483579223
 30
0.0
 10
54.9662047108
 20
47.4281099059
 30
0.0
 10
55.1078357745
 20
47.3611713657
 30
0.0
 10
55.1775347417
 20
47.3209315585
 30
0.0
  0
SPLINE
  5
2F8
100
AcDbEntity
  8
0
100
AcDbSpline
 62
7
  6
CONTINUOUS
 70
0
 71
3
 72
20
 73
16
 74
0
 42
0.0000001
 43
0.0000001
 44
0.0000000001
 40
0.0
 40
0.0
 40
0.0
 40
0.0
 40
0.1234241887
 40
0.1900473292
 40
0.2590818869
 40
0.4009042989
 40
0.5419335689
 40
0.6100191409
 40
0.6754030251
 40
0.7375270019
 40
0.7960775054
 40
0.8510453273
 40
0.9027880029
 40
0.9520655659
 40
1.0
 40
1.0
 40
1.0
 40
1.0
 10
55.1775347417
 20
47.3209315585
 30
0.0
 10
55.3154899696
 20
47.2412848724
 30
0.0
 10
55.5087750575
 20
47.0838302101
 30
0.0
 10
55.7267256739
 20
46.8298361897
 30
0.0
 10
55.9282697138
 20
46.5328918025
 30
0.0
 10
56.1216625085
 20
46.1182652888
 30
0.0
 10
56.2279477651
 20
45.6743472227
 30
0.0
 10
56.2532055311
 20
45.3203077578
 30
0.0
 10
56.241663288
 20
45.0674880381
 30
0.0
 10
56.2000472772
 20
44.8302518748
 30
0.0
 10
56.1291796743
 20
44.6140025912
 30
0.0
 10
56.0304087235
 20
44.4237627003
 30
0.0
 10
55.9055764011
 20
44.2641452041
 30
0.0
 10
55.7574246216
 20
44.1393804779
 30
0.0
 10
55.6446264702
 20
44.0815225317
 30
0.0
 10
55.5866752796
 20
44.0598645577
 30
0.0
  0
SPLINE
  5
2F9
100
AcDbEntity
  8
0
100
AcDbSpline
 62
7
  6
CONTINUOUS
 70
0
 71
3
 72
23
 73
19
 74
0
 42
0.0000001
 43
0.0000001
 44
0.0000000001
 40
0.0
 40
0.0
 40
0.0
 40
0.0
 40
0.0599742194
 40
0.1231362962
 40
0.1891917966
 40
0.2576316702
 40
0.3275681259
 40
0.3979854783
 40
0.4678093865
 40
0.5360282038
 40
0.6018046112
 40
0.6645945134
 40
0.7242687499
 40
0.7812004365
 40
0.8362693875
 40
0.8906156508
 40
0.945123854
 40
1.0
 40
1.0
 40
1.0
 40
1.0
 10
60.2302238368
 20
54.3781408818
 30
0.0
 10
60.4243290113
 20
54.4506856838
 30
0.0
 10
60.8329011483
 20
54.5734950219
 30
0.0
 10
61.4763996162
 20
54.6938639123
 30
0.0
 10
62.1573462828
 20
54.7565703675
 30
0.0
 10
62.8643976083
 20
54.7628350341
 30
0.0
 10
63.5847988397
 20
54.7132913766
 30
0.0
 10
64.3042026516
 20
54.6094346678
 30
0.0
 10
65.0080449623
 20
54.4533042982
 30
0.0
 10
65.6823335766
 20
54.2475529002
 30
0.0
 10
66.3145248834
 20
53.9949141054
 30
0.0
 10
66.8941178113
 20
53.697403844
 30
0.0
 10
67.412647495
 20
53.3551705188
 30
0.0
 10
67.8623570601
 20
52.9652653062
 30
0.0
 10
68.2329124355
 20
52.522027066
 30
0.0
 10
68.5061759289
 20
52.0208184164
 30
0.0
 10
68.6552799747
 20
51.4691889539
 30
0.0
 10
68.6546728115
 20
51.0856377179
 30
0.0
 10
68.6282120775
 20
50.8978890518
 30
0.0
  0
SPLINE
  5
2FA
100
AcDbEntity
  8
0
100
AcDbSpline
 62
7
  6
CONTINUOUS
 70
0
 71
3
 72
28
 73
24
 74
0
 42
0.0000001
 43
0.0000001
 44
0.0000000001
 40
0.0
 40
0.0
 40
0.0
 40
0.0
 40
0.0143106974
 40
0.0267552761
 40
0.0371842252
 40
0.0454386363
 40
0.0513514507
 40
0.0547488046
 40
0.0554573167
 40
0.0576422669
 40
0.0628018321
 40
0.0709457766
 40
0.082084923
 40
0.0962365981
 40
0.1336766032
 40
0.1835370744
 40
0.2460122293
 40
0.3207026253
 40
0.4070872915
 40
0.5046841173
 40
0.6130785738
 40
0.7319587338
 40
1.0
 40
1.0
 40
1.0
 40
1.0
 10
66.2755290986
 20
51.3151687619
 30
0.0
 10
66.2765333206
 20
51.3172901421
 30
0.0
 10
66.2784813525
 20
51.3212259454
 30
0.0
 10
66.2813725817
 20
51.3265868772
 30
0.0
 10
66.2839393742
 20
51.3310286053
 30
0.0
 10
66.2860475892
 20
51.3343951526
 30
0.0
 10
66.287649632
 20
51.3369562367
 30
0.0
 10
66.2885198172
 20
51.3380788474
 30
0.0
 10
66.2891523954
 20
51.3392439821
 30
0.0
 10
66.2875720526
 20
51.3372399424
 30
0.0
 10
66.2864341199
 20
51.3360987055
 30
0.0
 10
66.2834378939
 20
51.3327424422
 30
0.0
 10
66.279758487
 20
51.3289596527
 30
0.0
 10
66.2723829394
 20
51.3216344921
 30
0.0
 10
66.2601175424
 20
51.3104852229
 30
0.0
 10
66.2411034961
 20
51.2948652742
 30
0.0
 10
66.2164405935
 20
51.2766278127
 30
0.0
 10
66.1860349127
 20
51.2561143497
 30
0.0
 10
66.1499155936
 20
51.233841622
 30
0.0
 10
66.1081218612
 20
51.2103064221
 30
0.0
 10
66.0606965758
 20
51.1859928807
 30
0.0
 10
65.9871208805
 20
51.1515276607
 30
0.0
 10
65.9282804995
 20
51.1276050193
 30
0.0
 10
65.887101638
 20
51.1122148456
 30
0.0
  0
SPLINE
  5
2FB
100
AcDbEntity
  8
0
100
AcDbSpline
 62
7
  6
CONTINUOUS
 70
0
 71
3
 72
14
 73
10
 74
0
 42
0.0000001
 43
0.0000001
 44
0.0000000001
 40
0.0
 40
0.0
 40
0.0
 40
0.0
 40
0.1244699935
 40
0.2484742713
 40
0.3718592962
 40
0.4948699693
 40
0.6181592515
 40
0.7428182481
 40
1.0
 40
1.0
 40
1.0
 40
1.0
 10
68.6282120775
 20
50.8978890518
 30
0.0
 10
68.6112823179
 20
50.7777661639
 30
0.0
 10
68.5563979314
 20
50.5403943195
 30
0.0
 10
68.4143187871
 20
50.2051917035
 30
0.0
 10
68.2203703746
 20
49.8989024289
 30
0.0
 10
67.9828683936
 20
49.6263216487
 30
0.0
 10
67.7098758289
 20
49.3877240658
 30
0.0
 10
67.3019335912
 20
49.1105532516
 30
0.0
 10
66.9621037989
 20
48.9518451826
 30
0.0
 10
66.7273133105
 20
48.8640946652
 30
0.0
  0
SPLINE
  5
2FC
100
AcDbEntity
  8
0
100
AcDbSpline
 62
7
  6
CONTINUOUS
 70
0
 71
3
 72
24
 73
20
 74
0
 42
0.0000001
 43
0.0000001
 44
0.0000000001
 40
0.0
 40
0.0
 40
0.0
 40
0.0
 40
0.0488708184
 40
0.105391465
 40
0.1681376064
 40
0.2357205884
 40
0.3069273616
 40
0.380595573
 40
0.5307752121
 40
0.6051359538
 40
0.6775085158
 40
0.7467493237
 40
0.8116630818
 40
0.8709612211
 40
0.9232158581
 40
0.9462154139
 40
0.9668301539
 40
0.9848331236
 40
1.0
 40
1.0
 40
1.0
 40
1.0
 10
61.0704355093
 20
52.1300207014
 30
0.0
 10
61.1523260482
 20
52.1606264436
 30
0.0
 10
61.332639376
 20
52.2168268058
 30
0.0
 10
61.6266716823
 20
52.2815035933
 30
0.0
 10
61.9578517678
 20
52.3287774609
 30
0.0
 10
62.3176107362
 20
52.3556443327
 30
0.0
 10
62.6978747777
 20
52.3605761981
 30
0.0
 10
63.2253643394
 20
52.3368382995
 30
0.0
 10
63.755731773
 20
52.2684547029
 30
0.0
 10
64.2753421578
 20
52.1574366309
 30
0.0
 10
64.6481898926
 20
52.0553164647
 30
0.0
 10
64.9982608132
 20
51.9365198605
 30
0.0
 10
65.3183559623
 20
51.8042868843
 30
0.0
 10
65.6010123011
 20
51.663109518
 30
0.0
 10
65.8073222084
 20
51.538438263
 30
0.0
 10
65.9471467797
 20
51.4390318039
 30
0.0
 10
66.0336505164
 20
51.3706258135
 30
0.0
 10
66.1055420856
 20
51.3066044624
 30
0.0
 10
66.1474040355
 20
51.2644821102
 30
0.0
 10
66.1657855147
 20
51.2445263258
 30
0.0
  0
SPLINE
  5
2FD
100
AcDbEntity
  8
0
100
AcDbSpline
 62
7
  6
CONTINUOUS
 70
0
 71
3
 72
18
 73
14
 74
0
 42
0.0000001
 43
0.0000001
 44
0.0000000001
 40
0.0
 40
0.0
 40
0.0
 40
0.0
 40
0.0479606128
 40
0.0972969613
 40
0.1486715668
 40
0.2025641807
 40
0.2592431578
 40
0.3187935137
 40
0.4458270834
 40
0.5815614592
 40
0.7221993077
 40
0.8632082464
 40
1.0
 40
1.0
 40
1.0
 40
1.0
 10
52.6804639668
 20
42.9798558577
 30
0.0
 10
52.7246769135
 20
43.0027101284
 30
0.0
 10
52.810289006
 20
43.0574441912
 30
0.0
 10
52.9242165563
 20
43.1625188844
 30
0.0
 10
53.0233849301
 20
43.2894779499
 30
0.0
 10
53.106266314
 20
43.4363163046
 30
0.0
 10
53.1718783174
 20
43.600738522
 30
0.0
 10
53.2364041066
 20
43.8453294429
 30
0.0
 10
53.2667358863
 20
44.1810197765
 30
0.0
 10
53.22644335
 20
44.5997403787
 30
0.0
 10
53.1129586496
 20
45.0198162734
 30
0.0
 10
52.9329457888
 20
45.4169401819
 30
0.0
 10
52.7711025059
 20
45.6576267952
 30
0.0
 10
52.6811929307
 20
45.7674774352
 30
0.0
  0
SPLINE
  5
2FE
100
AcDbEntity
  8
0
100
AcDbSpline
 62
7
  6
CONTINUOUS
 70
0
 71
3
 72
12
 73
8
 74
0
 42
0.0000001
 43
0.0000001
 44
0.0000000001
 40
0.0
 40
0.0
 40
0.0
 40
0.0
 40
0.2816858099
 40
0.539150783
 40
0.7754808882
 40
0.8885722938
 40
1.0
 40
1.0
 40
1.0
 40
1.0
 10
61.4988613432
 20
52.7641918861
 30
0.0
 10
61.4883989577
 20
52.6896363714
 30
0.0
 10
61.4553112793
 20
52.5481723465
 30
0.0
 10
61.3637898827
 20
52.3600521342
 30
0.0
 10
61.2545371918
 20
52.2366073073
 30
0.0
 10
61.152884752
 20
52.1662311014
 30
0.0
 10
61.0983321451
 20
52.1404465976
 30
0.0
 10
61.0704355658
 20
52.1300205503
 30
0.0
  0
SPLINE
  5
2FF
100
AcDbEntity
  8
0
100
AcDbSpline
 62
7
  6
CONTINUOUS
 70
0
 71
3
 72
12
 73
8
 74
0
 42
0.0000001
 43
0.0000001
 44
0.0000000001
 40
0.0
 40
0.0
 40
0.0
 40
0.0
 40
0.2816693263
 40
0.5391591349
 40
0.775476513
 40
0.8885719052
 40
1.0
 40
1.0
 40
1.0
 40
1.0
 10
67.1557391444
 20
49.49826585
 30
0.0
 10
67.1452774059
 20
49.4237149463
 30
0.0
 10
67.1121820064
 20
49.2822532835
 30
0.0
 10
67.0206773751
 20
49.09412186
 30
0.0
 10
66.9114023343
 20
48.9706976713
 30
0.0
 10
66.8097691927
 20
48.900295915
 30
0.0
 10
66.7552061433
 20
48.8745307486
 30
0.0
 10
66.7273108433
 20
48.8641012655
 30
0.0
  0
SPLINE
  5
300
100
AcDbEntity
  8
0
100
AcDbSpline
 62
7
  6
CONTINUOUS
 70
0
 71
3
 72
15
 73
11
 74
0
 42
0.0000001
 43
0.0000001
 44
0.0000000001
 40
0.0
 40
0.0
 40
0.0
 40
0.0
 40
0.1121738849
 40
0.2323406144
 40
0.3588795202
 40
0.4895638235
 40
0.6217266332
 40
0.7525632375
 40
0.8794351412
 40
1.0
 40
1.0
 40
1.0
 40
1.0
 10
60.7976744243
 20
54.3040673085
 30
0.0
 10
60.8553122297
 20
54.2707908589
 30
0.0
 10
60.9678366173
 20
54.1895872285
 30
0.0
 10
61.1178037878
 20
54.0372959406
 30
0.0
 10
61.2499996891
 20
53.8556214662
 30
0.0
 10
61.3595423269
 20
53.6514440776
 30
0.0
 10
61.4423676595
 20
53.4323401771
 30
0.0
 10
61.4954267076
 20
53.2064779834
 30
0.0
 10
61.5166637486
 20
52.9823550941
 30
0.0
 10
61.5088021047
 20
52.8350302801
 30
0.0
 10
61.4988613432
 20
52.7641918861
 30
0.0
  0
SPLINE
  5
301
100
AcDbEntity
  8
0
100
AcDbSpline
 62
7
  6
CONTINUOUS
 70
0
 71
3
 72
17
 73
13
 74
0
 42
0.0000001
 43
0.0000001
 44
0.0000000001
 40
0.0
 40
0.0
 40
0.0
 40
0.0
 40
0.0478040334
 40
0.096739852
 40
0.147777974
 40
0.2016212498
 40
0.3187473866
 40
0.4483619489
 40
0.5869603449
 40
0.7291050176
 40
0.8686509984
 40
1.0
 40
1.0
 40
1.0
 40
1.0
 10
65.8871041052
 20
51.1122082453
 30
0.0
 10
65.9224574306
 20
51.1254261318
 30
0.0
 10
65.9970835746
 20
51.1445889784
 30
0.0
 10
66.1143929663
 20
51.1497613852
 30
0.0
 10
66.2351860263
 20
51.1316144585
 30
0.0
 10
66.4020936894
 20
51.0756796801
 30
0.0
 10
66.6059273199
 20
50.9475292091
 30
0.0
 10
66.8182299668
 20
50.7263835242
 30
0.0
 10
66.9914362637
 20
50.4501084898
 30
0.0
 10
67.1128021955
 20
50.1391831812
 30
0.0
 10
67.1735301701
 20
49.8168991431
 30
0.0
 10
67.1701510191
 20
49.6009656342
 30
0.0
 10
67.1557391444
 20
49.49826585
 30
0.0
  0
SPLINE
  5
302
100
AcDbEntity
  8
0
100
AcDbSpline
 62
7
  6
CONTINUOUS
 70
0
 71
3
 72
11
 73
7
 74
0
 42
0.0000001
 43
0.0000001
 44
0.0000000001
 40
0.0
 40
0.0
 40
0.0
 40
0.0
 40
0.2323446604
 40
0.4727718468
 40
0.7275240965
 40
1.0
 40
1.0
 40
1.0
 40
1.0
 10
60.2380358084
 20
54.380991665
 30
0.0
 10
60.2805048847
 20
54.3961155291
 30
0.0
 10
60.3712274445
 20
54.4159163388
 30
0.0
 10
60.5135542161
 20
54.4117164641
 30
0.0
 10
60.6588780298
 20
54.3745944539
 30
0.0
 10
60.7518889056
 20
54.3305009921
 30
0.0
 10
60.7976744243
 20
54.3040673085
 30
0.0
  0
SPLINE
  5
303
100
AcDbEntity
  8
0
100
AcDbSpline
 62
7
  6
CONTINUOUS
 70
0
 71
3
 72
15
 73
11
 74
0
 42
0.0000001
 43
0.0000001
 44
0.0000000001
 40
0.0
 40
0.0
 40
0.0
 40
0.0
 40
0.1080117884
 40
0.2180601879
 40
0.3319969432
 40
0.4513558793
 40
0.5772754071
 40
0.7104908442
 40
0.8514144112
 40
1.0
 40
1.0
 40
1.0
 40
1.0
 10
45.1299751942
 20
70.0823283121
 30
0.0
 10
45.1299758412
 20
69.8125600677
 30
0.0
 10
45.0831337889
 20
69.2668417431
 30
0.0
 10
44.8740372348
 20
68.4607955579
 30
0.0
 10
44.528867665
 20
67.6721166493
 30
0.0
 10
44.0520233797
 20
66.9087890544
 30
0.0
 10
43.448885887
 20
66.1777263764
 30
0.0
 10
42.7255923971
 20
65.4853932874
 30
0.0
 10
41.8893635987
 20
64.8381499132
 30
0.0
 10
41.2776950845
 20
64.45044904
 30
0.0
 10
40.9563085786
 20
64.2648975619
 30
0.0
  0
SPLINE
  5
304
100
AcDbEntity
  8
0
100
AcDbSpline
 62
7
  6
CONTINUOUS
 70
0
 71
3
 72
27
 73
23
 74
0
 42
0.0000001
 43
0.0000001
 44
0.0000000001
 40
0.0
 40
0.0
 40
0.0
 40
0.0
 40
0.0213294432
 40
0.0428873859
 40
0.0648900165
 40
0.0875322359
 40
0.1109788618
 40
0.1353631447
 40
0.1607832008
 40
0.1873060041
 40
0.2437373614
 40
0.3046785781
 40
0.3697593486
 40
0.4383494073
 40
0.5096284527
 40
0.582645134
 40
0.6563689473
 40
0.7297383554
 40
0.8017071179
 40
0.8712924624
 40
0.9376230686
 40
1.0
 40
1.0
 40
1.0
 40
1.0
 10
45.1299797524
 20
77.8880914216
 30
0.0
 10
45.1299797047
 20
78.0902431018
 30
0.0
 10
45.1039187485
 20
78.4971829121
 30
0.0
 10
44.986960427
 20
79.1025109495
 30
0.0
 10
44.7930650988
 20
79.7008443429
 30
0.0
 10
44.5233748624
 20
80.2886398621
 30
0.0
 10
44.1797395279
 20
80.8628154401
 30
0.0
 10
43.7640934025
 20
81.4202422524
 30
0.0
 10
43.2789114796
 20
81.9581291309
 30
0.0
 10
42.5273412469
 20
82.6597716063
 30
0.0
 10
41.4218786898
 20
83.4675738123
 30
0.0
 10
39.8991605376
 20
84.2957184307
 30
0.0
 10
38.1849326619
 20
84.9863387126
 30
0.0
 10
36.3155272148
 20
85.525088202
 30
0.0
 10
34.3303713697
 20
85.9008047764
 30
0.0
 10
32.2716661036
 20
86.1055282617
 30
0.0
 10
30.183273185
 20
86.1349135686
 30
0.0
 10
28.1097387055
 20
85.9883246232
 30
0.0
 10
26.09529726
 20
85.6689069692
 30
0.0
 10
24.1826985533
 20
85.1833537876
 30
0.0
 10
22.412821541
 20
84.5420791025
 30
0.0
 10
21.3156615625
 20
84.0011122868
 30
0.0
 10
20.8036814119
 20
83.7055221735
 30
0.0
  0
SPLINE
  5
305
100
AcDbEntity
  8
0
100
AcDbSpline
 62
7
  6
CONTINUOUS
 70
0
 71
3
 72
10
 73
6
 74
0
 42
0.0000001
 43
0.0000001
 44
0.0000000001
 40
0.0
 40
0.0
 40
0.0
 40
0.0
 40
0.4722961146
 40
0.7292703448
 40
1.0
 40
1.0
 40
1.0
 40
1.0
 10
43.3886158867
 20
66.0242642245
 30
0.0
 10
43.0304808597
 20
65.5326984185
 30
0.0
 10
42.3730816732
 20
64.8468145298
 30
0.0
 10
41.3525898995
 20
64.0603868294
 30
0.0
 10
40.7773951016
 20
63.6961864622
 30
0.0
 10
40.4754739655
 20
63.5218732536
 30
0.0
  0
SPLINE
  5
306
100
AcDbEntity
  8
0
100
AcDbSpline
 62
7
  6
CONTINUOUS
 70
0
 71
3
 72
9
 73
5
 74
0
 42
0.0000001
 43
0.0000001
 44
0.0000000001
 40
0.0
 40
0.0
 40
0.0
 40
0.0
 40
0.4854914863
 40
1.0
 40
1.0
 40
1.0
 40
1.0
 10
40.0228462406
 20
63.2587000185
 30
0.0
 10
39.8068132885
 20
63.0647349206
 30
0.0
 10
39.3375639529
 20
62.6917689386
 30
0.0
 10
38.8327408825
 20
62.3692828277
 30
0.0
 10
38.5662777076
 20
62.2154411602
 30
0.0
  0
SPLINE
  5
307
100
AcDbEntity
  8
0
100
AcDbSpline
 62
7
  6
CONTINUOUS
 70
0
 71
3
 72
22
 73
18
 74
0
 42
0.0000001
 43
0.0000001
 44
0.0000000001
 40
0.0
 40
0.0
 40
0.0
 40
0.0
 40
0.0564550359
 40
0.1156084056
 40
0.1771454749
 40
0.2407346155
 40
0.3059684534
 40
0.3724038875
 40
0.5069243389
 40
0.5740901753
 40
0.6405218642
 40
0.7057486247
 40
0.769327522
 40
0.8308561485
 40
0.8899847713
 40
0.9464317853
 40
1.0
 40
1.0
 40
1.0
 40
1.0
 10
38.5662777076
 20
62.2154411602
 30
0.0
 10
38.2911189346
 20
62.0565791168
 30
0.0
 10
37.7123185706
 20
61.7572923092
 30
0.0
 10
36.7914362624
 20
61.3728455473
 30
0.0
 10
35.8062084493
 20
61.0459598888
 30
0.0
 10
34.7675441697
 20
60.7801552885
 30
0.0
 10
33.6865264963
 20
60.5782653592
 30
0.0
 10
32.1987468917
 20
60.3965854631
 30
0.0
 10
30.685987778
 20
60.3517100072
 30
0.0
 10
29.1791218537
 20
60.4430447875
 30
0.0
 10
28.067684638
 20
60.579152546
 30
0.0
 10
26.9869120981
 20
60.7813830673
 30
0.0
 10
25.9484610337
 20
61.0475277154
 30
0.0
 10
24.9636185252
 20
61.3747012181
 30
0.0
 10
24.0430074941
 20
61.7594437971
 30
0.0
 10
23.196679942
 20
62.1975851955
 30
0.0
 10
22.6737981896
 20
62.531288132
 30
0.0
 10
22.4284245217
 20
62.7064484661
 30
0.0
  0
SPLINE
  5
308
100
AcDbEntity
  8
0
100
AcDbSpline
 62
7
  6
CONTINUOUS
 70
0
 71
3
 72
19
 73
15
 74
0
 42
0.0000001
 43
0.0000001
 44
0.0000000001
 40
0.0
 40
0.0
 40
0.0
 40
0.0
 40
0.0553587985
 40
0.1130766861
 40
0.1729160512
 40
0.2346421938
 40
0.3625108814
 40
0.4940964149
 40
0.626492322
 40
0.7567360599
 40
0.8201866124
 40
0.8820697254
 40
0.9420922416
 40
1.0
 40
1.0
 40
1.0
 40
1.0
 10
40.4754739655
 20
63.5218732536
 30
0.0
 10
40.1749734413
 20
63.3483802306
 30
0.0
 10
39.5465589831
 20
63.0188373271
 30
0.0
 10
38.5519703753
 20
62.5861053917
 30
0.0
 10
37.4929340896
 20
62.2078054435
 30
0.0
 10
35.9896334214
 20
61.7752670606
 30
0.0
 10
34.0081489774
 20
61.3933863323
 30
0.0
 10
31.5556737276
 20
61.1932520383
 30
0.0
 10
29.0809199068
 20
61.2523717645
 30
0.0
 10
27.0498407752
 20
61.5183930637
 30
0.0
 10
25.4842105557
 20
61.8611718485
 30
0.0
 10
24.3652426184
 20
62.1765425228
 30
0.0
 10
23.3009895049
 20
62.5497459277
 30
0.0
 10
22.620675641
 20
62.8406417901
 30
0.0
 10
22.2924235092
 20
62.9955408103
 30
0.0
  0
SPLINE
  5
309
100
AcDbEntity
  8
0
100
AcDbSpline
 62
7
  6
CONTINUOUS
 70
0
 71
3
 72
12
 73
8
 74
0
 42
0.0000001
 43
0.0000001
 44
0.0000000001
 40
0.0
 40
0.0
 40
0.0
 40
0.0
 40
0.2798433458
 40
0.5395898683
 40
0.6618918707
 40
0.7792376645
 40
1.0
 40
1.0
 40
1.0
 40
1.0
 10
22.2924235092
 20
62.9955408103
 30
0.0
 10
21.8069929459
 20
63.2246108188
 30
0.0
 10
20.893844566
 20
63.7175943473
 30
0.0
 10
19.8597781795
 20
64.4617992769
 30
0.0
 10
19.1512427888
 20
65.1080057322
 30
0.0
 10
18.5495180172
 20
65.7551012411
 30
0.0
 10
18.1709524306
 20
66.288192095
 30
0.0
 10
17.9645271163
 20
66.657910163
 30
0.0
  0
SPLINE
  5
30A
100
AcDbEntity
  8
0
100
AcDbSpline
 62
7
  6
CONTINUOUS
 70
0
 71
3
 72
27
 73
23
 74
0
 42
0.0000001
 43
0.0000001
 44
0.0000000001
 40
0.0
 40
0.0
 40
0.0
 40
0.0
 40
0.0623769961
 40
0.1287077856
 40
0.1982932129
 40
0.2702617415
 40
0.3436312403
 40
0.417355099
 40
0.4903717224
 40
0.5616506719
 40
0.6302407485
 40
0.6953216182
 40
0.7562629017
 40
0.8126942849
 40
0.839217088
 40
0.8646371256
 40
0.8890213742
 40
0.9124679549
 40
0.9351101238
 40
0.9571127074
 40
0.9786706023
 40
1.0
 40
1.0
 40
1.0
 40
1.0
 10
40.9563085786
 20
64.2648975619
 30
0.0
 10
40.4443280552
 20
63.9693072333
 30
0.0
 10
39.3471661943
 20
63.4283397267
 30
0.0
 10
37.5772864821
 20
62.7870649448
 30
0.0
 10
35.6646877938
 20
62.3015128763
 30
0.0
 10
33.6502473723
 20
61.9820966187
 30
0.0
 10
31.5767144147
 20
61.8355083404
 30
0.0
 10
29.4883214088
 20
61.8648946772
 30
0.0
 10
27.4296178852
 20
62.0696187494
 30
0.0
 10
25.4444640553
 20
62.4453356489
 30
0.0
 10
23.575059136
 20
62.9840855137
 30
0.0
 10
21.8608303577
 20
63.6747067143
 30
0.0
 10
20.338111398
 20
64.5028525834
 30
0.0
 10
19.2326489971
 20
65.3106557739
 30
0.0
 10
18.4810793139
 20
66.0122984754
 30
0.0
 10
17.9958982954
 20
66.5501851913
 30
0.0
 10
17.5802531528
 20
67.107611304
 30
0.0
 10
17.2366188422
 20
67.6817858112
 30
0.0
 10
16.966929389
 20
68.2695799744
 30
0.0
 10
16.7730346048
 20
68.8679118727
 30
0.0
 10
16.6560762875
 20
69.4732383676
 30
0.0
 10
16.6300152811
 20
69.8801771287
 30
0.0
 10
16.6300147963
 20
70.0823283155
 30
0.0
  0
SPLINE
  5
30B
100
AcDbEntity
  8
0
100
AcDbSpline
 62
7
  6
CONTINUOUS
 70
0
 71
3
 72
15
 73
11
 74
0
 42
0.0000001
 43
0.0000001
 44
0.0000000001
 40
0.0
 40
0.0
 40
0.0
 40
0.0
 40
0.1485855515
 40
0.2895083633
 40
0.4227232286
 40
0.5486425556
 40
0.6680017289
 40
0.7819390888
 40
0.8919878313
 40
1.0
 40
1.0
 40
1.0
 40
1.0
 10
20.8036814119
 20
83.7055221735
 30
0.0
 10
20.4822948866
 20
83.5199706842
 30
0.0
 10
19.8706276135
 20
83.1322711589
 30
0.0
 10
19.0344010611
 20
82.4850298418
 30
0.0
 10
18.3111099462
 20
81.792699572
 30
0.0
 10
17.7079697419
 20
81.0616404172
 30
0.0
 10
17.2311247577
 20
80.2983109426
 30
0.0
 10
16.8859517265
 20
79.5096302167
 30
0.0
 10
16.6768514436
 20
78.703581081
 30
0.0
 10
16.6300101745
 20
78.1578606997
 30
0.0
 10
16.6300102382
 20
77.8880914216
 30
0.0
  0
SPLINE
  5
30C
100
AcDbEntity
  8
0
100
AcDbSpline
 62
7
  6
CONTINUOUS
 70
0
 71
3
 72
27
 73
23
 74
0
 42
0.0000001
 43
0.0000001
 44
0.0000000001
 40
0.0
 40
0.0
 40
0.0
 40
0.0
 40
0.0213294432
 40
0.0428873859
 40
0.0648900165
 40
0.0875322359
 40
0.1109788618
 40
0.1353631447
 40
0.1607832008
 40
0.1873060041
 40
0.2437373614
 40
0.3046785781
 40
0.3697593486
 40
0.4383494073
 40
0.5096284527
 40
0.582645134
 40
0.6563689473
 40
0.7297383554
 40
0.8017071179
 40
0.8712924624
 40
0.9376230686
 40
1.0
 40
1.0
 40
1.0
 40
1.0
 10
16.6300102382
 20
77.8880914216
 30
0.0
 10
16.6300102859
 20
77.6859397414
 30
0.0
 10
16.6560712421
 20
77.2789999311
 30
0.0
 10
16.7730295636
 20
76.6736718936
 30
0.0
 10
16.9669248918
 20
76.0753385002
 30
0.0
 10
17.2366151282
 20
75.4875429811
 30
0.0
 10
17.5802504627
 20
74.913367403
 30
0.0
 10
17.9958965881
 20
74.3559405907
 30
0.0
 10
18.4810785109
 20
73.8180537123
 30
0.0
 10
19.2326487437
 20
73.1164112368
 30
0.0
 10
20.3381113007
 20
72.3086090308
 30
0.0
 10
21.860829453
 20
71.4804644125
 30
0.0
 10
23.5750573287
 20
70.7898441305
 30
0.0
 10
25.4444627758
 20
70.2510946412
 30
0.0
 10
27.4296186209
 20
69.8753780667
 30
0.0
 10
29.4883238869
 20
69.6706545814
 30
0.0
 10
31.5767168056
 20
69.6412692746
 30
0.0
 10
33.650251285
 20
69.7878582199
 30
0.0
 10
35.6646927306
 20
70.1072758739
 30
0.0
 10
37.5772914373
 20
70.5928290555
 30
0.0
 10
39.3471684495
 20
71.2341037406
 30
0.0
 10
40.444328428
 20
71.7750705563
 30
0.0
 10
40.9563085786
 20
72.0706606697
 30
0.0
  0
SPLINE
  5
30D
100
AcDbEntity
  8
0
100
AcDbSpline
 62
7
  6
CONTINUOUS
 70
0
 71
3
 72
15
 73
11
 74
0
 42
0.0000001
 43
0.0000001
 44
0.0000000001
 40
0.0
 40
0.0
 40
0.0
 40
0.0
 40
0.1080133178
 40
0.2180605081
 40
0.331995636
 40
0.4513561724
 40
0.5772697966
 40
0.7104870112
 40
0.8514256032
 40
1.0
 40
1.0
 40
1.0
 40
1.0
 10
41.3799903972
 20
64.0402104274
 30
0.0
 10
41.3799901942
 20
63.8414311285
 30
0.0
 10
41.345440931
 20
63.4393253316
 30
0.0
 10
41.1913896141
 20
62.845398321
 30
0.0
 10
40.9370744146
 20
62.2642568901
 30
0.0
 10
40.5856843289
 20
61.701838432
 30
0.0
 10
40.1413022947
 20
61.1631411109
 30
0.0
 10
39.6083314018
 20
60.6529871236
 30
0.0
 10
38.9921385213
 20
60.1760879656
 30
0.0
 10
38.5414402424
 20
59.8903942676
 30
0.0
 10
38.3046471093
 20
59.7536825046
 30
0.0
  0
SPLINE
  5
30E
100
AcDbEntity
  8
0
100
AcDbSpline
 62
7
  6
CONTINUOUS
 70
0
 71
3
 72
9
 73
5
 74
0
 42
0.0000001
 43
0.0000001
 44
0.0000000001
 40
0.0
 40
0.0
 40
0.0
 40
0.0
 40
0.4963085503
 40
1.0
 40
1.0
 40
1.0
 40
1.0
 10
27.4288285316
 20
57.5858610747
 30
0.0
 10
28.055446084
 20
57.4741792959
 30
0.0
 10
29.330215262
 20
57.3138302882
 30
0.0
 10
30.6143121581
 20
57.276753529
 30
0.0
 10
31.2601588702
 20
57.2888756043
 30
0.0
  0
SPLINE
  5
30F
100
AcDbEntity
  8
0
100
AcDbSpline
 62
7
  6
CONTINUOUS
 70
0
 71
3
 72
9
 73
5
 74
0
 42
0.0000001
 43
0.0000001
 44
0.0000000001
 40
0.0
 40
0.0
 40
0.0
 40
0.0
 40
0.2600082673
 40
1.0
 40
1.0
 40
1.0
 40
1.0
 10
27.1323740977
 20
57.7940918696
 30
0.0
 10
27.1595877812
 20
57.7783803975
 30
0.0
 10
27.2629684569
 20
57.7157887865
 30
0.0
 10
27.361063394
 20
57.6442220711
 30
0.0
 10
27.4288285316
 20
57.5858610747
 30
0.0
  0
SPLINE
  5
310
100
AcDbEntity
  8
0
100
AcDbSpline
 62
7
  6
CONTINUOUS
 70
0
 71
3
 72
11
 73
7
 74
0
 42
0.0000001
 43
0.0000001
 44
0.0000000001
 40
0.0
 40
0.0
 40
0.0
 40
0.0
 40
0.2625237295
 40
0.523424876
 40
0.7722088687
 40
1.0
 40
1.0
 40
1.0
 40
1.0
 10
24.9280196758
 20
58.1686180372
 30
0.0
 10
25.1251409985
 20
58.1932302401
 30
0.0
 10
25.522333777
 20
58.2131176226
 30
0.0
 10
26.1061744825
 20
58.1592887919
 30
0.0
 10
26.6501472386
 20
58.0256364236
 30
0.0
 10
26.9830967013
 20
57.8802752648
 30
0.0
 10
27.1323740977
 20
57.7940918696
 30
0.0
  0
SPLINE
  5
311
100
AcDbEntity
  8
0
100
AcDbSpline
 62
7
  6
CONTINUOUS
 70
0
 71
3
 72
15
 73
11
 74
0
 42
0.0000001
 43
0.0000001
 44
0.0000000001
 40
0.0
 40
0.0
 40
0.0
 40
0.0
 40
0.1485855515
 40
0.2895083633
 40
0.4227232286
 40
0.5486425556
 40
0.6680017289
 40
0.7819390888
 40
0.8919878313
 40
1.0
 40
1.0
 40
1.0
 40
1.0
 10
40.9563085786
 20
72.0706606697
 30
0.0
 10
41.277695104
 20
72.256212159
 30
0.0
 10
41.889362377
 20
72.6439116842
 30
0.0
 10
42.7255889295
 20
73.2911530013
 30
0.0
 10
43.4488800443
 20
73.9834832711
 30
0.0
 10
44.0520202487
 20
74.7145424259
 30
0.0
 10
44.5288652329
 20
75.4778719005
 30
0.0
 10
44.8740382641
 20
76.2665526264
 30
0.0
 10
45.083138547
 20
77.0726017621
 30
0.0
 10
45.129979816
 20
77.6183221434
 30
0.0
 10
45.1299797524
 20
77.8880914216
 30
0.0
  0
SPLINE
  5
312
100
AcDbEntity
  8
0
100
AcDbSpline
 62
7
  6
CONTINUOUS
 70
0
 71
3
 72
40
 73
36
 74
0
 42
0.0000001
 43
0.0000001
 44
0.0000000001
 40
0.0
 40
0.0
 40
0.0
 40
0.0
 40
0.0309855797
 40
0.060375656
 40
0.0881569781
 40
0.1014749052
 40
0.11442893
 40
0.1393207663
 40
0.1630816555
 40
0.1860315698
 40
0.208556987
 40
0.2310823994
 40
0.2540325354
 40
0.2777935022
 40
0.302684957
 40
0.3156389407
 40
0.3289577783
 40
0.3567406267
 40
0.386123533
 40
0.4171147277
 40
0.4496635785
 40
0.4836714224
 40
0.5189983487
 40
0.5554714326
 40
0.5928920045
 40
0.6310402863
 40
0.7085410162
 40
0.7474317668
 40
0.7860734116
 40
0.8242214961
 40
0.8616425132
 40
0.8981155814
 40
0.9334407665
 40
0.9674560097
 40
1.0
 40
1.0
 40
1.0
 40
1.0
 10
21.9633413612
 20
83.4360935205
 30
0.0
 10
21.6789513074
 20
83.2719018264
 30
0.0
 10
21.1376688753
 20
82.9287998446
 30
0.0
 10
20.3977124999
 20
82.3560975597
 30
0.0
 10
19.8568041703
 20
81.8383438829
 30
0.0
 10
19.4797855439
 20
81.4065977124
 30
0.0
 10
19.1490181183
 20
80.9765814116
 30
0.0
 10
18.8019111864
 20
80.4209563331
 30
0.0
 10
18.4964864955
 20
79.7231201117
 30
0.0
 10
18.311477299
 20
79.0096519732
 30
0.0
 10
18.249472081
 20
78.2881480351
 30
0.0
 10
18.3114610465
 20
77.5666353813
 30
0.0
 10
18.4965407497
 20
76.8531826688
 30
0.0
 10
18.8019425761
 20
76.1553413801
 30
0.0
 10
19.1490438283
 20
75.5997149042
 30
0.0
 10
19.479820493
 20
75.169698915
 30
0.0
 10
19.8568976605
 20
74.7379679705
 30
0.0
 10
20.3977491998
 20
74.2202514045
 30
0.0
 10
21.1377224871
 20
73.6474747369
 30
0.0
 10
21.9706496989
 20
73.1196023124
 30
0.0
 10
22.8885199794
 20
72.6414918438
 30
0.0
 10
23.8826683028
 20
72.2176023761
 30
0.0
 10
24.9436415394
 20
71.8519013992
 30
0.0
 10
26.0613167645
 20
71.5478043178
 30
0.0
 10
27.2251149406
 20
71.3082275118
 30
0.0
 10
28.8314732073
 20
71.0767462165
 30
0.0
 10
30.4709841173
 20
70.9847074744
 30
0.0
 10
32.1140006572
 20
71.0311406513
 30
0.0
 10
33.3362588982
 20
71.135462216
 30
0.0
 10
34.5349608671
 20
71.3082429424
 30
0.0
 10
35.6987197912
 20
71.5478334023
 30
0.0
 10
36.8163951205
 20
71.8518928808
 30
0.0
 10
37.8774403347
 20
72.2176256507
 30
0.0
 10
38.8715104607
 20
72.6415465649
 30
0.0
 10
39.4979552613
 20
72.9678120244
 30
0.0
 10
39.7966486294
 20
73.1402616915
 30
0.0
  0
SPLINE
  5
313
100
AcDbEntity
  8
0
100
AcDbSpline
 62
7
  6
CONTINUOUS
 70
0
 71
3
 72
40
 73
36
 74
0
 42
0.0000001
 43
0.0000001
 44
0.0000000001
 40
0.0
 40
0.0
 40
0.0
 40
0.0
 40
0.0309855797
 40
0.060375656
 40
0.0881569781
 40
0.1014749052
 40
0.11442893
 40
0.1393207663
 40
0.1630816555
 40
0.1860315698
 40
0.208556987
 40
0.2310823994
 40
0.2540325354
 40
0.2777935022
 40
0.302684957
 40
0.3156389407
 40
0.3289577783
 40
0.3567406267
 40
0.386123533
 40
0.4171147277
 40
0.4496635785
 40
0.4836714224
 40
0.5189983487
 40
0.5554714326
 40
0.5928920045
 40
0.6310402863
 40
0.7085410162
 40
0.7474317668
 40
0.7860734116
 40
0.8242214961
 40
0.8616425132
 40
0.8981155814
 40
0.9334407665
 40
0.9674560097
 40
1.0
 40
1.0
 40
1.0
 40
1.0
 10
39.7966486294
 20
73.1402616915
 30
0.0
 10
40.0810386832
 20
73.3044533855
 30
0.0
 10
40.6223211153
 20
73.6475553674
 30
0.0
 10
41.3622774906
 20
74.2202576522
 30
0.0
 10
41.9031858202
 20
74.738011329
 30
0.0
 10
42.2802044467
 20
75.1697574995
 30
0.0
 10
42.6109718723
 20
75.5997738003
 30
0.0
 10
42.9580788041
 20
76.1553988788
 30
0.0
 10
43.2635034951
 20
76.8532351003
 30
0.0
 10
43.4485126916
 20
77.5667032388
 30
0.0
 10
43.5105179096
 20
78.2882071769
 30
0.0
 10
43.4485289441
 20
79.0097198306
 30
0.0
 10
43.2634492409
 20
79.7231725431
 30
0.0
 10
42.9580474144
 20
80.4210138319
 30
0.0
 10
42.6109461622
 20
80.9766403078
 30
0.0
 10
42.2801694975
 20
81.4066562969
 30
0.0
 10
41.9030923301
 20
81.8383872415
 30
0.0
 10
41.3622407908
 20
82.3561038074
 30
0.0
 10
40.6222675035
 20
82.928880475
 30
0.0
 10
39.7893402917
 20
83.4567528995
 30
0.0
 10
38.8714700112
 20
83.9348633681
 30
0.0
 10
37.8773216878
 20
84.3587528358
 30
0.0
 10
36.8163484512
 20
84.7244538127
 30
0.0
 10
35.6986732261
 20
85.0285508942
 30
0.0
 10
34.53487505
 20
85.2681277001
 30
0.0
 10
32.9285167833
 20
85.4996089954
 30
0.0
 10
31.2890058733
 20
85.5916477375
 30
0.0
 10
29.6459893334
 20
85.5452145606
 30
0.0
 10
28.4237310923
 20
85.4408929959
 30
0.0
 10
27.2250291235
 20
85.2681122695
 30
0.0
 10
26.0612701994
 20
85.0285218096
 30
0.0
 10
24.94359487
 20
84.7244623311
 30
0.0
 10
23.8825496558
 20
84.3587295612
 30
0.0
 10
22.8884795299
 20
83.934808647
 30
0.0
 10
22.2620347292
 20
83.6085431875
 30
0.0
 10
21.9633413612
 20
83.4360935205
 30
0.0
  0
SPLINE
  5
314
100
AcDbEntity
  8
0
100
AcDbSpline
 62
7
  6
CONTINUOUS
 70
0
 71
3
 72
11
 73
7
 74
0
 42
0.0000001
 43
0.0000001
 44
0.0000000001
 40
0.0
 40
0.0
 40
0.0
 40
0.0
 40
0.2174414153
 40
0.45050118
 40
0.7103612287
 40
1.0
 40
1.0
 40
1.0
 40
1.0
 10
44.161583149
 20
49.0068424066
 30
0.0
 10
44.1781695856
 20
48.9972667099
 30
0.0
 10
44.2163130107
 20
48.9834431007
 30
0.0
 10
44.279744718
 20
48.9819560056
 30
0.0
 10
44.3472395933
 20
48.9987492283
 30
0.0
 10
44.391147312
 20
49.0197996669
 30
0.0
 10
44.4132407168
 20
49.032555224
 30
0.0
  0
SPLINE
  5
315
100
AcDbEntity
  8
0
100
AcDbSpline
 62
7
  6
CONTINUOUS
 70
0
 71
3
 72
12
 73
8
 74
0
 42
0.0000001
 43
0.0000001
 44
0.0000000001
 40
0.0
 40
0.0
 40
0.0
 40
0.0
 40
0.2872064888
 40
0.5519815788
 40
0.6745027616
 40
0.7899625645
 40
1.0
 40
1.0
 40
1.0
 40
1.0
 10
17.5996119599
 20
43.4653687457
 30
0.0
 10
17.3855823117
 20
43.5106481597
 30
0.0
 10
16.979274379
 20
43.6247035095
 30
0.0
 10
16.5090895608
 20
43.8382311384
 30
0.0
 10
16.1858658421
 20
44.0449461533
 30
0.0
 10
15.9189903267
 20
44.2579967103
 30
0.0
 10
15.7519726742
 20
44.4465006088
 30
0.0
 10
15.6662392663
 20
44.5815766158
 30
0.0
  0
SPLINE
  5
316
100
AcDbEntity
  8
0
100
AcDbSpline
 62
7
  6
CONTINUOUS
 70
0
 71
3
 72
12
 73
8
 74
0
 42
0.0000001
 43
0.0000001
 44
0.0000000001
 40
0.0
 40
0.0
 40
0.0
 40
0.0
 40
0.2895576306
 40
0.5486425359
 40
0.781625947
 40
0.8918340231
 40
1.0
 40
1.0
 40
1.0
 40
1.0
 10
43.04226902
 20
49.4657826962
 30
0.0
 10
43.1081038428
 20
49.503792222
 30
0.0
 10
43.239053666
 20
49.566083643
 30
0.0
 10
43.4401733877
 20
49.6147314854
 30
0.0
 10
43.600774658
 20
49.6104424354
 30
0.0
 10
43.7154394075
 20
49.5787219717
 30
0.0
 10
43.7676550316
 20
49.5542588544
 30
0.0
 10
43.7922488241
 20
49.5400615597
 30
0.0
  0
SPLINE
  5
317
100
AcDbEntity
  8
0
100
AcDbSpline
 62
7
  6
CONTINUOUS
 70
0
 71
3
 72
12
 73
8
 74
0
 42
0.0000001
 43
0.0000001
 44
0.0000000001
 40
0.0
 40
0.0
 40
0.0
 40
0.0
 40
0.2100374355
 40
0.3254972384
 40
0.4480184212
 40
0.7127935112
 40
1.0
 40
1.0
 40
1.0
 40
1.0
 10
15.6662392663
 20
47.7316066783
 30
0.0
 10
15.7519726742
 20
47.5965306714
 30
0.0
 10
15.9189903267
 20
47.4080267729
 30
0.0
 10
16.1858658421
 20
47.1949762159
 30
0.0
 10
16.5090895608
 20
46.9882612009
 30
0.0
 10
16.979274379
 20
46.774733572
 30
0.0
 10
17.3855823117
 20
46.6606782222
 30
0.0
 10
17.5996119599
 20
46.6153988083
 30
0.0
  0
SPLINE
  5
318
100
AcDbEntity
  8
0
100
AcDbSpline
 62
7
  6
CONTINUOUS
 70
0
 71
3
 72
11
 73
7
 74
0
 42
0.0000001
 43
0.0000001
 44
0.0000000001
 40
0.0
 40
0.0
 40
0.0
 40
0.0
 40
0.2319660499
 40
0.4718432959
 40
0.7264512875
 40
1.0
 40
1.0
 40
1.0
 40
1.0
 10
43.7922488241
 20
49.5400615597
 30
0.0
 10
43.8256645906
 20
49.520771591
 30
0.0
 10
43.8892572351
 20
49.473391855
 30
0.0
 10
43.9681013623
 20
49.3806417516
 30
0.0
 10
44.0297868416
 20
49.2679069022
 30
0.0
 10
44.0579292879
 20
49.184209622
 30
0.0
 10
44.0692445396
 20
49.1401385303
 30
0.0
  0
SPLINE
  5
319
100
AcDbEntity
  8
0
100
AcDbSpline
 62
7
  6
CONTINUOUS
 70
0
 71
3
 72
10
 73
6
 74
0
 42
0.0000001
 43
0.0000001
 44
0.0000000001
 40
0.0
 40
0.0
 40
0.0
 40
0.0
 40
0.4714709235
 40
0.7287328863
 40
1.0
 40
1.0
 40
1.0
 40
1.0
 10
18.5984428182
 20
62.151497223
 30
0.0
 10
18.4979015917
 20
62.2939348686
 30
0.0
 10
18.3108900558
 20
62.4926516985
 30
0.0
 10
18.0187123105
 20
62.7196213735
 30
0.0
 10
17.8533927537
 20
62.8245962673
 30
0.0
 10
17.7665185508
 20
62.874751977
 30
0.0
  0
SPLINE
  5
31A
100
AcDbEntity
  8
0
100
AcDbSpline
 62
7
  6
CONTINUOUS
 70
0
 71
3
 72
10
 73
6
 74
0
 42
0.0000001
 43
0.0000001
 44
0.0000000001
 40
0.0
 40
0.0
 40
0.0
 40
0.0
 40
0.2724484132
 40
0.5299068245
 40
1.0
 40
1.0
 40
1.0
 40
1.0
 10
15.5962536048
 20
55.0490255281
 30
0.0
 10
15.5173858935
 20
55.0945587924
 30
0.0
 10
15.3676962007
 20
55.1899723134
 30
0.0
 10
15.104999753
 20
55.3969392338
 30
0.0
 10
14.938746666
 20
55.5791292619
 30
0.0
 10
14.8513694274
 20
55.7097271842
 30
0.0
  0
SPLINE
  5
31B
100
AcDbEntity
  8
0
100
AcDbSpline
 62
7
  6
CONTINUOUS
 70
0
 71
3
 72
9
 73
5
 74
0
 42
0.0000001
 43
0.0000001
 44
0.0000000001
 40
0.0
 40
0.0
 40
0.0
 40
0.0
 40
0.5197699502
 40
1.0
 40
1.0
 40
1.0
 40
1.0
 10
16.7406450043
 20
54.6189780973
 30
0.0
 10
16.5333257889
 20
54.6652116401
 30
0.0
 10
16.1395462358
 20
54.7795115266
 30
0.0
 10
15.7662148916
 20
54.9509005533
 30
0.0
 10
15.5962536048
 20
55.0490255281
 30
0.0
  0
SPLINE
  5
31C
100
AcDbEntity
  8
0
100
AcDbSpline
 62
7
  6
CONTINUOUS
 70
0
 71
3
 72
13
 73
9
 74
0
 42
0.0000001
 43
0.0000001
 44
0.0000000001
 40
0.0
 40
0.0
 40
0.0
 40
0.0
 40
0.1141757996
 40
0.2375697486
 40
0.4999996443
 40
0.7624297362
 40
0.885823858
 40
1.0
 40
1.0
 40
1.0
 40
1.0
 10
19.5343505654
 20
53.8525979885
 30
0.0
 10
19.5102251482
 20
53.8386692555
 30
0.0
 10
19.4574118536
 20
53.814106409
 30
0.0
 10
19.3404199702
 20
53.7785122022
 30
0.0
 10
19.1816850979
 20
53.7613132717
 30
0.0
 10
19.0229501263
 20
53.7785115172
 30
0.0
 10
18.9059578763
 20
53.8141051102
 30
0.0
 10
18.853144324
 20
53.8386676923
 30
0.0
 10
18.829018734
 20
53.8525962931
 30
0.0
  0
SPLINE
  5
31D
100
AcDbEntity
  8
0
100
AcDbSpline
 62
7
  6
CONTINUOUS
 70
0
 71
3
 72
15
 73
11
 74
0
 42
0.0000001
 43
0.0000001
 44
0.0000000001
 40
0.0
 40
0.0
 40
0.0
 40
0.0
 40
0.1141549974
 40
0.2373268943
 40
0.3669765742
 40
0.5000005394
 40
0.633024429
 40
0.7626738905
 40
0.8858454396
 40
1.0
 40
1.0
 40
1.0
 40
1.0
 10
29.1509851257
 20
56.3020758293
 30
0.0
 10
28.9670371176
 20
56.4082758587
 30
0.0
 10
28.5648022678
 20
56.5955781826
 30
0.0
 10
27.9097871753
 20
56.794659582
 30
0.0
 10
27.2006320682
 20
56.9172003863
 30
0.0
 10
26.4639747302
 20
56.9585429063
 30
0.0
 10
25.727317994
 20
56.9171968719
 30
0.0
 10
25.0181646748
 20
56.7946526842
 30
0.0
 10
24.3631524636
 20
56.5955681807
 30
0.0
 10
23.9609201267
 20
56.408263861
 30
0.0
 10
23.7769735887
 20
56.3020629117
 30
0.0
  0
SPLINE
  5
31E
100
AcDbEntity
  8
0
100
AcDbSpline
 62
7
  6
CONTINUOUS
 70
0
 71
3
 72
15
 73
11
 74
0
 42
0.0000001
 43
0.0000001
 44
0.0000000001
 40
0.0
 40
0.0
 40
0.0
 40
0.0
 40
0.1141231812
 40
0.2373468278
 40
0.366971913
 40
0.4999994099
 40
0.6330269884
 40
0.76265231
 40
0.885876356
 40
1.0
 40
1.0
 40
1.0
 40
1.0
 10
32.7713810305
 20
55.0283680745
 30
0.0
 10
32.7229875556
 20
55.0004282555
 30
0.0
 10
32.6171199178
 20
54.9511535346
 30
0.0
 10
32.4447602463
 20
54.8987326771
 30
0.0
 10
32.2581220512
 20
54.8665049813
 30
0.0
 10
32.0642755392
 20
54.8556054276
 30
0.0
 10
31.8704288592
 20
54.8665040391
 30
0.0
 10
31.6837901536
 20
54.8987308354
 30
0.0
 10
31.5114296808
 20
54.951150894
 30
0.0
 10
31.4055613407
 20
55.0004250919
 30
0.0
 10
31.3571674681
 20
55.0283646752
 30
0.0
  0
SPLINE
  5
31F
100
AcDbEntity
  8
0
100
AcDbSpline
 62
7
  6
CONTINUOUS
 70
0
 71
3
 72
14
 73
10
 74
0
 42
0.0000001
 43
0.0000001
 44
0.0000000001
 40
0.0
 40
0.0
 40
0.0
 40
0.0
 40
0.2892745128
 40
0.4225579986
 40
0.54850166
 40
0.667890265
 40
0.7818704175
 40
0.891954003
 40
1.0
 40
1.0
 40
1.0
 40
1.0
 10
12.3227141298
 20
58.67035399
 30
0.0
 10
12.1559168719
 20
58.5740541231
 30
0.0
 10
11.922311749
 20
58.4132187407
 30
0.0
 10
11.6580370115
 20
58.1602731876
 30
0.0
 10
11.4971744019
 20
57.965312091
 30
0.0
 10
11.3700667291
 20
57.761751089
 30
0.0
 10
11.2779776632
 20
57.5514558984
 30
0.0
 10
11.2222574503
 20
57.3364967696
 30
0.0
 10
11.2097375776
 20
57.1909767547
 30
0.0
 10
11.2097375727
 20
57.1190391228
 30
0.0
  0
SPLINE
  5
320
100
AcDbEntity
  8
0
100
AcDbSpline
 62
7
  6
CONTINUOUS
 70
0
 71
3
 72
14
 73
10
 74
0
 42
0.0000001
 43
0.0000001
 44
0.0000000001
 40
0.0
 40
0.0
 40
0.0
 40
0.0
 40
0.2892745128
 40
0.4225579986
 40
0.54850166
 40
0.667890265
 40
0.7818704175
 40
0.891954003
 40
1.0
 40
1.0
 40
1.0
 40
1.0
 10
14.0055746373
 20
66.1075107976
 30
0.0
 10
13.8387773794
 20
66.0112109307
 30
0.0
 10
13.6051722566
 20
65.8503755483
 30
0.0
 10
13.3408975191
 20
65.5974299952
 30
0.0
 10
13.1800349094
 20
65.4024688986
 30
0.0
 10
13.0529272367
 20
65.1989078966
 30
0.0
 10
12.9608381708
 20
64.988612706
 30
0.0
 10
12.9051179578
 20
64.7736535773
 30
0.0
 10
12.8925980851
 20
64.6281335623
 30
0.0
 10
12.8925980802
 20
64.5561959304
 30
0.0
  0
SPLINE
  5
321
100
AcDbEntity
  8
0
100
AcDbSpline
 62
7
  6
CONTINUOUS
 70
0
 71
3
 72
11
 73
7
 74
0
 42
0.0000001
 43
0.0000001
 44
0.0000000001
 40
0.0
 40
0.0
 40
0.0
 40
0.0
 40
0.2897052857
 40
0.5490919933
 40
0.7822182543
 40
1.0
 40
1.0
 40
1.0
 40
1.0
 10
15.5603362084
 20
64.1484631311
 30
0.0
 10
15.5164567751
 20
64.1737963606
 30
0.0
 10
15.4368484004
 20
64.2286273214
 30
0.0
 10
15.341705174
 20
64.3286172269
 30
0.0
 10
15.2815206145
 20
64.4392305399
 30
0.0
 10
15.2674450248
 20
64.5186188633
 30
0.0
 10
15.2674450354
 20
64.556707285
 30
0.0
  0
SPLINE
  5
322
100
AcDbEntity
  8
0
100
AcDbSpline
 62
7
  6
CONTINUOUS
 70
0
 71
3
 72
11
 73
7
 74
0
 42
0.0000001
 43
0.0000001
 44
0.0000000001
 40
0.0
 40
0.0
 40
0.0
 40
0.0
 40
0.2895421522
 40
0.5491196247
 40
0.782256727
 40
1.0
 40
1.0
 40
1.0
 40
1.0
 10
13.5239208383
 20
56.9154267008
 30
0.0
 10
13.5020489448
 20
56.9280541587
 30
0.0
 10
13.4623586789
 20
56.9554215378
 30
0.0
 10
13.4148812133
 20
57.0052643452
 30
0.0
 10
13.3848428266
 20
57.0604457504
 30
0.0
 10
13.3778682667
 20
57.1000437193
 30
0.0
 10
13.3778682709
 20
57.1190363989
 30
0.0
  0
SPLINE
  5
323
100
AcDbEntity
  8
0
100
AcDbSpline
 62
7
  6
CONTINUOUS
 70
0
 71
3
 72
11
 73
7
 74
0
 42
0.0000001
 43
0.0000001
 44
0.0000000001
 40
0.0
 40
0.0
 40
0.0
 40
0.0
 40
0.2177438688
 40
0.4508811915
 40
0.7104582954
 40
1.0
 40
1.0
 40
1.0
 40
1.0
 10
16.7113867838
 20
61.3234269163
 30
0.0
 10
16.7113867796
 20
61.304434429
 30
0.0
 10
16.7044123912
 20
61.2648368996
 30
0.0
 10
16.6743746277
 20
61.2096560444
 30
0.0
 10
16.6268981598
 20
61.1598135913
 30
0.0
 10
16.5872086402
 20
61.1324463468
 30
0.0
 10
16.565337153
 20
61.1198189132
 30
0.0
  0
SPLINE
  5
324
100
AcDbEntity
  8
0
100
AcDbSpline
 62
7
  6
CONTINUOUS
 70
0
 71
3
 72
15
 73
11
 74
0
 42
0.0000001
 43
0.0000001
 44
0.0000000001
 40
0.0
 40
0.0
 40
0.0
 40
0.0
 40
0.1141545727
 40
0.2373261359
 40
0.366975604
 40
0.4999994966
 40
0.6330234588
 40
0.7626731321
 40
0.8858450149
 40
1.0
 40
1.0
 40
1.0
 40
1.0
 10
34.7512864945
 20
49.2312249316
 30
0.0
 10
34.5673399367
 20
49.1250239708
 30
0.0
 10
34.1651075513
 20
48.9377196379
 30
0.0
 10
33.5100952785
 20
48.7386351249
 30
0.0
 10
32.8009419113
 20
48.6160909533
 30
0.0
 10
32.0642851621
 20
48.574744937
 30
0.0
 10
31.3276278371
 20
48.6160874751
 30
0.0
 10
30.618472778
 20
48.7386282956
 30
0.0
 10
29.9634577471
 20
48.9377096854
 30
0.0
 10
29.5612229458
 20
49.1250119961
 30
0.0
 10
29.3772749576
 20
49.2312120141
 30
0.0
  0
SPLINE
  5
325
100
AcDbEntity
  8
0
100
AcDbSpline
 62
7
  6
CONTINUOUS
 70
0
 71
3
 72
13
 73
9
 74
0
 42
0.0000001
 43
0.0000001
 44
0.0000000001
 40
0.0
 40
0.0
 40
0.0
 40
0.0
 40
0.1141762243
 40
0.2375705078
 40
0.5000006893
 40
0.7624304955
 40
0.8858242827
 40
1.0
 40
1.0
 40
1.0
 40
1.0
 10
26.8175377525
 20
50.7090435454
 30
0.0
 10
26.7934121451
 20
50.7229721562
 30
0.0
 10
26.7405985271
 20
50.747534739
 30
0.0
 10
26.6236062049
 20
50.7831283702
 30
0.0
 10
26.4648711803
 20
50.8003265668
 30
0.0
 10
26.3061363611
 20
50.7831275875
 30
0.0
 10
26.1891445499
 20
50.7475334188
 30
0.0
 10
26.1363313209
 20
50.722970573
 30
0.0
 10
26.1122059211
 20
50.70904185
 30
0.0
  0
SPLINE
  5
326
100
AcDbEntity
  8
0
100
AcDbSpline
 62
7
  6
CONTINUOUS
 70
0
 71
3
 72
15
 73
11
 74
0
 42
0.0000001
 43
0.0000001
 44
0.0000000001
 40
0.0
 40
0.0
 40
0.0
 40
0.0
 40
0.1141545727
 40
0.2373261359
 40
0.366975604
 40
0.4999994966
 40
0.6330234588
 40
0.7626731321
 40
0.8858450149
 40
1.0
 40
1.0
 40
1.0
 40
1.0
 10
21.8695828978
 20
48.2595769268
 30
0.0
 10
21.68563634
 20
48.153375966
 30
0.0
 10
21.2834039546
 20
47.9660716331
 30
0.0
 10
20.6283916818
 20
47.7669871201
 30
0.0
 10
19.9192383146
 20
47.6444429485
 30
0.0
 10
19.1825815654
 20
47.6030969322
 30
0.0
 10
18.4459242404
 20
47.6444394703
 30
0.0
 10
17.7367691813
 20
47.7669802908
 30
0.0
 10
17.0817541504
 20
47.9660616806
 30
0.0
 10
16.6795193491
 20
48.1533639913
 30
0.0
 10
16.4955713609
 20
48.2595640092
 30
0.0
  0
SPLINE
  5
327
100
AcDbEntity
  8
0
100
AcDbSpline
 62
7
  6
CONTINUOUS
 70
0
 71
3
 72
14
 73
10
 74
0
 42
0.0000001
 43
0.0000001
 44
0.0000000001
 40
0.0
 40
0.0
 40
0.0
 40
0.0
 40
0.2892749824
 40
0.422558598
 40
0.5485023015
 40
0.6678908559
 40
0.7818708695
 40
0.8919542479
 40
1.0
 40
1.0
 40
1.0
 40
1.0
 10
12.3227365039
 20
50.6686968353
 30
0.0
 10
12.1559361276
 20
50.7649968989
 30
0.0
 10
11.9223265081
 20
50.9258329386
 30
0.0
 10
11.6580463944
 20
51.1787803307
 30
0.0
 10
11.4971804826
 20
51.3737430465
 30
0.0
 10
11.3700701511
 20
51.5773059365
 30
0.0
 10
11.2779791309
 20
51.787603234
 30
0.0
 10
11.2222577231
 20
52.0025646248
 30
0.0
 10
11.2097375744
 20
52.1480862225
 30
0.0
 10
11.2097375727
 20
52.22002462
 30
0.0
  0
SPLINE
  5
328
100
AcDbEntity
  8
0
100
AcDbSpline
 62
7
  6
CONTINUOUS
 70
0
 71
3
 72
9
 73
5
 74
0
 42
0.0000001
 43
0.0000001
 44
0.0000000001
 40
0.0
 40
0.0
 40
0.0
 40
0.0
 40
0.5078542233
 40
1.0
 40
1.0
 40
1.0
 40
1.0
 10
13.0177830356
 20
59.0987313896
 30
0.0
 10
12.9773495622
 20
59.1873940598
 30
0.0
 10
12.9144120381
 20
59.3702945901
 30
0.0
 10
12.8925980825
 20
59.5627484774
 30
0.0
 10
12.8925980802
 20
59.6571814276
 30
0.0
  0
SPLINE
  5
329
100
AcDbEntity
  8
0
100
AcDbSpline
 62
7
  6
CONTINUOUS
 70
0
 71
3
 72
13
 73
9
 74
0
 42
0.0000001
 43
0.0000001
 44
0.0000000001
 40
0.0
 40
0.0
 40
0.0
 40
0.0
 40
0.1141757996
 40
0.2375697486
 40
0.4999996443
 40
0.7624297362
 40
0.885823858
 40
1.0
 40
1.0
 40
1.0
 40
1.0
 10
26.1122059211
 20
55.6080563528
 30
0.0
 10
26.1363313383
 20
55.6219850858
 30
0.0
 10
26.189144633
 20
55.6465479322
 30
0.0
 10
26.3061365163
 20
55.6821421391
 30
0.0
 10
26.4648713886
 20
55.6993410696
 30
0.0
 10
26.6236063602
 20
55.6821428241
 30
0.0
 10
26.7405986102
 20
55.646549231
 30
0.0
 10
26.7934121625
 20
55.621986649
 30
0.0
 10
26.8175377525
 20
55.6080580482
 30
0.0
  0
SPLINE
  5
32A
100
AcDbEntity
  8
0
100
AcDbSpline
 62
7
  6
CONTINUOUS
 70
0
 71
3
 72
9
 73
5
 74
0
 42
0.0000001
 43
0.0000001
 44
0.0000000001
 40
0.0
 40
0.0
 40
0.0
 40
0.0
 40
0.5184861116
 40
1.0
 40
1.0
 40
1.0
 40
1.0
 10
17.766540925
 20
59.7721093251
 30
0.0
 10
17.8828560784
 20
59.8392635094
 30
0.0
 10
18.1001900133
 20
59.9815086413
 30
0.0
 10
18.2969568131
 20
60.151613143
 30
0.0
 10
18.3843930484
 20
60.2405675818
 30
0.0
  0
SPLINE
  5
32B
100
AcDbEntity
  8
0
100
AcDbSpline
 62
7
  6
CONTINUOUS
 70
0
 71
3
 72
15
 73
11
 74
0
 42
0.0000001
 43
0.0000001
 44
0.0000000001
 40
0.0
 40
0.0
 40
0.0
 40
0.0
 40
0.1141549974
 40
0.2373268943
 40
0.3669765742
 40
0.5000005394
 40
0.633024429
 40
0.7626738905
 40
0.8858454396
 40
1.0
 40
1.0
 40
1.0
 40
1.0
 10
16.4955713609
 20
53.158578512
 30
0.0
 10
16.6795193689
 20
53.0523784826
 30
0.0
 10
17.0817542187
 20
52.8650761587
 30
0.0
 10
17.7367693112
 20
52.6659947593
 30
0.0
 10
18.4459244183
 20
52.543453955
 30
0.0
 10
19.1825817564
 20
52.5021114349
 30
0.0
 10
19.9192384925
 20
52.5434574694
 30
0.0
 10
20.6283918117
 20
52.6660016571
 30
0.0
 10
21.2834040229
 20
52.8650861606
 30
0.0
 10
21.6856363598
 20
53.0523904803
 30
0.0
 10
21.8695828978
 20
53.1585914296
 30
0.0
  0
SPLINE
  5
32C
100
AcDbEntity
  8
0
100
AcDbSpline
 62
7
  6
CONTINUOUS
 70
0
 71
3
 72
11
 73
7
 74
0
 42
0.0000001
 43
0.0000001
 44
0.0000000001
 40
0.0
 40
0.0
 40
0.0
 40
0.0
 40
0.2895421522
 40
0.5491196247
 40
0.782256727
 40
1.0
 40
1.0
 40
1.0
 40
1.0
 10
16.5653342165
 20
61.5270366143
 30
0.0
 10
16.5872061099
 20
61.5144091564
 30
0.0
 10
16.6268963758
 20
61.4870417773
 30
0.0
 10
16.6743738415
 20
61.4371989699
 30
0.0
 10
16.7044122281
 20
61.3820175647
 30
0.0
 10
16.711386788
 20
61.3424195959
 30
0.0
 10
16.7113867838
 20
61.3234269163
 30
0.0
  0
SPLINE
  5
32D
100
AcDbEntity
  8
0
100
AcDbSpline
 62
7
  6
CONTINUOUS
 70
0
 71
3
 72
11
 73
7
 74
0
 42
0.0000001
 43
0.0000001
 44
0.0000000001
 40
0.0
 40
0.0
 40
0.0
 40
0.0
 40
0.2177821605
 40
0.4509085882
 40
0.7102951949
 40
1.0
 40
1.0
 40
1.0
 40
1.0
 10
15.2674450354
 20
64.556707285
 30
0.0
 10
15.2674450461
 20
64.5947952885
 30
0.0
 10
15.2815202707
 20
64.6741826838
 30
0.0
 10
15.3417035382
 20
64.7847949303
 30
0.0
 10
15.4368448434
 20
64.88478409
 30
0.0
 10
15.516451708
 20
64.9396148621
 30
0.0
 10
15.5603303204
 20
64.9649480395
 30
0.0
  0
SPLINE
  5
32E
100
AcDbEntity
  8
0
100
AcDbSpline
 62
7
  6
CONTINUOUS
 70
0
 71
3
 72
14
 73
10
 74
0
 42
0.0000001
 43
0.0000001
 44
0.0000000001
 40
0.0
 40
0.0
 40
0.0
 40
0.0
 40
0.108045758
 40
0.2181291408
 40
0.3321091572
 40
0.4514977165
 40
0.5774414204
 40
0.7107250264
 40
1.0
 40
1.0
 40
1.0
 40
1.0
 10
12.8925980802
 20
64.5561959304
 30
0.0
 10
12.8925980754
 20
64.4842575289
 30
0.0
 10
12.9051182343
 20
64.3387359241
 30
0.0
 10
12.9608396412
 20
64.123774525
 30
0.0
 10
13.0529306665
 20
63.9134772198
 30
0.0
 10
13.1800410102
 20
63.7099143308
 30
0.0
 10
13.340906922
 20
63.514951619
 30
0.0
 10
13.6051870275
 20
63.262004235
 30
0.0
 10
13.83879664
 20
63.1011682064
 30
0.0
 10
14.0055970114
 20
63.0048681457
 30
0.0
  0
SPLINE
  5
32F
100
AcDbEntity
  8
0
100
AcDbSpline
 62
7
  6
CONTINUOUS
 70
0
 71
3
 72
11
 73
7
 74
0
 42
0.0000001
 43
0.0000001
 44
0.0000000001
 40
0.0
 40
0.0
 40
0.0
 40
0.0
 40
0.2177438688
 40
0.4508811915
 40
0.7104582954
 40
1.0
 40
1.0
 40
1.0
 40
1.0
 10
13.3778682709
 20
57.1190363989
 30
0.0
 10
13.3778682752
 20
57.1380288861
 30
0.0
 10
13.3848426635
 20
57.1776264155
 30
0.0
 10
13.414880427
 20
57.2328072707
 30
0.0
 10
13.4623568949
 20
57.2826497238
 30
0.0
 10
13.5020464145
 20
57.3100169683
 30
0.0
 10
13.5239179017
 20
57.3226444019
 30
0.0
  0
SPLINE
  5
330
100
AcDbEntity
  8
0
100
AcDbSpline
 62
7
  6
CONTINUOUS
 70
0
 71
3
 72
15
 73
11
 74
0
 42
0.0000001
 43
0.0000001
 44
0.0000000001
 40
0.0
 40
0.0
 40
0.0
 40
0.0
 40
0.1141549974
 40
0.2373268943
 40
0.3669765742
 40
0.5000005394
 40
0.633024429
 40
0.7626738905
 40
0.8858454396
 40
1.0
 40
1.0
 40
1.0
 40
1.0
 10
29.3772749576
 20
54.1302265168
 30
0.0
 10
29.5612229656
 20
54.0240264874
 30
0.0
 10
29.9634578154
 20
53.8367241635
 30
0.0
 10
30.6184729079
 20
53.6376427641
 30
0.0
 10
31.327628015
 20
53.5151019598
 30
0.0
 10
32.0642853531
 20
53.4737594397
 30
0.0
 10
32.8009420892
 20
53.5151054742
 30
0.0
 10
33.5100954084
 20
53.6376496619
 30
0.0
 10
34.1651076196
 20
53.8367341654
 30
0.0
 10
34.5673399565
 20
54.0240384851
 30
0.0
 10
34.7512864945
 20
54.1302394344
 30
0.0
  0
SPLINE
  5
331
100
AcDbEntity
  8
0
100
AcDbSpline
 62
7
  6
CONTINUOUS
 70
0
 71
3
 72
14
 73
10
 74
0
 42
0.0000001
 43
0.0000001
 44
0.0000000001
 40
0.0
 40
0.0
 40
0.0
 40
0.0
 40
0.108045758
 40
0.2181291408
 40
0.3321091572
 40
0.4514977165
 40
0.5774414204
 40
0.7107250264
 40
1.0
 40
1.0
 40
1.0
 40
1.0
 10
11.2097375727
 20
57.1190391228
 30
0.0
 10
11.2097375679
 20
57.0471007213
 30
0.0
 10
11.2222577268
 20
56.9015791165
 30
0.0
 10
11.2779791337
 20
56.6866177174
 30
0.0
 10
11.370070159
 20
56.4763204122
 30
0.0
 10
11.4971805026
 20
56.2727575232
 30
0.0
 10
11.6580464145
 20
56.0777948113
 30
0.0
 10
11.92232652
 20
55.8248474274
 30
0.0
 10
12.1559361325
 20
55.6640113988
 30
0.0
 10
12.3227365039
 20
55.5677113381
 30
0.0
  0
ENDSEC
  0
SECTION
  2
OBJECTS
  0
DICTIONARY
  5
C
100
AcDbDictionary
280
0
281
1
  3
ACAD_GROUP
350
D
  3
ACAD_MLINESTYLE
350
17
  3
ACAD_LAYOUT
350
1A
  3
ACAD_PLOTSETTINGS
350
19
  3
ACAD_PLOTSTYLENAME
350
E
  0
DICTIONARY
  5
D
102
{ACAD_REACTORS
330
C
102
}
100
AcDbDictionary
280
0
281
1
  0
ACDBDICTIONARYWDFLT
  5
E
102
{ACAD_REACTORS
330
C
102
}
100
AcDbDictionary
281
1
  3
Normal
350
F
100
AcDbDictionaryWithDefault
340
F
  0
DICTIONARY
  5
17
102
{ACAD_REACTORS
330
C
102
}
100
AcDbDictionary
280
0
281
1
  3
Standard
350
18
  0
DICTIONARY
  5
19
102
{ACAD_REACTORS
330
C
102
}
100
AcDbDictionary
281
1
  0
DICTIONARY
  5
1A
102
{ACAD_REACTORS
330
C
102
}
100
AcDbDictionary
281
1
  3
Model
350
332
  3
Layout1
350
333
  0
ACDBPLACEHOLDER
  5
F
102
{ACAD_REACTORS
330
E
102
}
  0
MLINESTYLE
  5
18
102
{ACAD_REACTORS
330
17
102
}
100
AcDbMlineStyle
  2
STANDARD
 70
0
  3

 62
256
 51
90.0
 52
90.0
 71
2
 49
0.5
 62
256
  6
BYLAYER
 49
-0.5
 62
256
  6
BYLAYER
  0
LAYOUT
  5
332
102
{ACAD_REACTORS
330
1A
102
}
100
AcDbPlotSettings
  1

  2
none_device
  4

  6

 40
0.0
 41
0.0
 42
0.0
 43
0.0
 44
210.0
 45
297.0
 46
0.0
 47
0.0
 48
0.0
 49
0.0
140
0.0
141
0.0
142
1.0
143
1.0
 70
1024
 72
1
 73
0
 74
0
  7

 75
0
147
1.0
148
0.0
149
0.0
100
AcDbLayout
  1
Model
 70
0
 71
0
 10
0.0
 20
0.0
 11
210.0
 21
297.0
 12
0.0
 22
0.0
 32
0.0
 14
0.0
 24
0.0
 34
0.0
 15
0.0
 25
0.0
 35
0.0
146
0.0
 13
0.0
 23
0.0
 33
0.0
 16
1.0
 26
0.0
 36
0.0
 17
0.0
 27
1.0
 37
0.0
 76
0
330
210
345
0
346
0
  0
LAYOUT
  5
333
102
{ACAD_REACTORS
330
1A
102
}
100
AcDbPlotSettings
  1

  2
none_device
  4

  6

 40
0.0
 41
0.0
 42
0.0
 43
0.0
 44
210.0
 45
297.0
 46
0.0
 47
0.0
 48
0.0
 49
0.0
140
0.0
141
0.0
142
1.0
143
1.0
 70
0
 72
1
 73
0
 74
0
  7

 75
0
147
1.0
148
0.0
149
0.0
100
AcDbLayout
  1
Layout1
 70
0
 71
1
 10
0.0
 20
0.0
 11
210.0
 21
297.0
 12
0.0
 22
0.0
 32
0.0
 14
0.0
 24
0.0
 34
0.0
 15
0.0
 25
0.0
 35
0.0
146
0.0
 13
0.0
 23
0.0
 33
0.0
 16
1.0
 26
0.0
 36
0.0
 17
0.0
 27
1.0
 37
0.0
 76
0
330
211
345
0
346
0
  0
ENDSEC
  0
EOF
