999
DXF file: C:\Users\sesa63760\Dev\_Creo\CAD\MCADPD0004503_3D-CAD\drw0001_5.dxf
999
Pro/ENGINEER 2019471 by Parametric Technology Corporation
  0
SECTION
  2
HEADER
  9
$ACADVER
  1
AC1024
  9
$DWGCODEPAGE
  3
ANSI_1252
  9
$EXTMAX
 10
203.8859180036
 20
288.3529411765
 30
0.0
  9
$EXTMIN
 10
0.0
 20
0.0
 30
0.0
  9
$LIMMIN
 10
0.0
 20
0.0
  9
$LIMMAX
 10
203.8859180036
 20
288.3529411765
  9
$VIEWCTR
 10
101.9429590018
 20
144.1764705882
  9
$VIEWSIZE
 40
288.3529411765
  9
$CLAYER
  8
0
  9
$LTSCALE
 40
18.7963398693
  9
$CELTYPE
  6
BYLAYER
  9
$DIMSCALE
 40
1.0
  9
$DIMASZ
 40
2.4272133096
  9
$DIMEXO
 40
1.0
  9
$DIMDLI
 40
12.9865620915
  9
$DIMEXE
 40
1.0
  9
$DIMCEN
 40
3.0757647059
  9
$DIMLFAC
 40
1.0
  9
$DIMBLK
  1
_FILLED
  9
$DIMALT
 70
0
  9
$DIMALTF
 40
0.0393700787
  9
$DIMTXT
 40
3.3980986334
  9
$DIMTOL
 70
1
  9
$DIMLIM
 70
0
  9
$DIMTFAC
 40
1.0
  9
$DIMTP
 40
0.01
  9
$DIMTM
 40
0.01
  9
$DIMGAP
 40
0.625
  9
$DIMDSEP
 70
46
  9
$AUNITS
 70
0
  9
$PDMODE
 70
3
  9
$PDSIZE
 40
0.3125
  9
$HANDSEED
  5
2E1
  9
$TILEMODE
 70
1
  9
$MEASUREMENT
 70
1
  9
$INSUNITS
 70
4
  0
ENDSEC
  0
SECTION
  2
CLASSES
  0
CLASS
  1
ACDBDICTIONARYWDFLT
  2
AcDbDictionaryWithDefault
  3
AutoCAD 2000
 90
0
 91
1
280
0
281
0
  0
CLASS
  1
ACDBPLACEHOLDER
  2
AcDbPlaceHolder
  3
AutoCAD 2000
 90
0
 91
1
280
0
281
0
  0
CLASS
  1
LAYOUT
  2
AcDbLayout
  3
AutoCAD 2000
 90
0
 91
0
280
0
281
0
  0
ENDSEC
  0
SECTION
  2
TABLES
  0
TABLE
  2
VPORT
  5
8
100
AcDbSymbolTable
 70
2
  0
VPORT
  5
1F4
100
AcDbSymbolTableRecord
100
AcDbViewportTableRecord
  2
*ACTIVE
 70
0
 10
0.0
 20
0.0
 11
1.0
 21
1.0
 12
101.9429590018
 22
144.1764705882
 13
0.0
 23
0.0
 14
1.0
 24
1.0
 15
0.0
 25
0.0
 16
0.0
 26
0.0
 36
1.0
 17
0.0
 27
0.0
 37
0.0
 40
288.3529411765
 41
0.7070707071
 42
50.0
 43
0.0
 44
0.0
 50
0.0
 51
0.0
 71
0
 72
100
 73
1
 74
1
 75
0
 76
0
 77
0
 78
0
  0
ENDTAB
  0
TABLE
  2
LTYPE
  5
5
100
AcDbSymbolTable
 70
6
  0
LTYPE
  5
14
100
AcDbSymbolTableRecord
100
AcDbLinetypeTableRecord
  2
BYBLOCK
 70
0
  3

 72
65
 73
0
 40
0.0
  0
LTYPE
  5
15
100
AcDbSymbolTableRecord
100
AcDbLinetypeTableRecord
  2
BYLAYER
 70
0
  3

 72
65
 73
0
 40
0.0
  0
LTYPE
  5
16
100
AcDbSymbolTableRecord
100
AcDbLinetypeTableRecord
  2
CONTINUOUS
 70
64
  3
Solid line
 72
65
 73
0
 40
0.0
  0
LTYPE
  5
1F5
100
AcDbSymbolTableRecord
100
AcDbLinetypeTableRecord
  2
CENTER
 70
64
  3
____ _ ____ _ ____ _ ____ _ ____ _ ____ _ ____
 72
65
 73
4
 40
0.6
 49
0.375
 74
0
 49
-0.075
 74
0
 49
0.075
 74
0
 49
-0.075
 74
0
  0
LTYPE
  5
1F6
100
AcDbSymbolTableRecord
100
AcDbLinetypeTableRecord
  2
HIDDEN
 70
64
  3
- - - - - - - - - - - - - - - - - - - -
 72
65
 73
2
 40
0.2
 49
0.1
 74
0
 49
-0.1
 74
0
  0
LTYPE
  5
1F7
100
AcDbSymbolTableRecord
100
AcDbLinetypeTableRecord
  2
PHANTOM
 70
64
  3
_____ _ _ _____ _ _ _____ _ _ _____
 72
65
 73
6
 40
0.8
 49
0.45
 74
0
 49
-0.05
 74
0
 49
0.1
 74
0
 49
-0.05
 74
0
 49
0.1
 74
0
 49
-0.05
 74
0
  0
LTYPE
  5
1F8
100
AcDbSymbolTableRecord
100
AcDbLinetypeTableRecord
  2
DOT
 70
64
  3
. . . . . . . . . . . . . . . . . . . .
 72
65
 73
2
 40
0.2
 49
0.1
 74
0
 49
-0.1
 74
0
  0
LTYPE
  5
1F9
100
AcDbSymbolTableRecord
100
AcDbLinetypeTableRecord
  2
DASHED
 70
64
  3
- - - - - - - - - - - - - - - - - - - -
 72
65
 73
2
 40
0.2
 49
0.1
 74
0
 49
-0.1
 74
0
  0
ENDTAB
  0
TABLE
  2
LAYER
  5
2
100
AcDbSymbolTable
 70
36
  0
LAYER
  5
10
100
AcDbSymbolTableRecord
100
AcDbLayerTableRecord
  2
0
 70
0
 62
7
  6
CONTINUOUS
370
-3
390
F
  0
LAYER
  5
1FA
100
AcDbSymbolTableRecord
100
AcDbLayerTableRecord
  2
DEFAULT_1
 70
0
 62
7
  6
CENTER
370
-3
390
F
  0
LAYER
  5
1FB
100
AcDbSymbolTableRecord
100
AcDbLayerTableRecord
  2
DEFAULT_2
 70
0
 62
7
  6
HIDDEN
370
-3
390
F
  0
LAYER
  5
1FC
100
AcDbSymbolTableRecord
100
AcDbLayerTableRecord
  2
DEFAULT_3
 70
0
 62
7
  6
PHANTOM
370
-3
390
F
  0
LAYER
  5
1FD
100
AcDbSymbolTableRecord
100
AcDbLayerTableRecord
  2
00_COMPONENTS
 70
0
 62
7
  6
CONTINUOUS
370
-3
390
F
  0
LAYER
  5
1FE
100
AcDbSymbolTableRecord
100
AcDbLayerTableRecord
  2
01_1_DEFAULT_DATUMS
 70
0
 62
7
  6
CONTINUOUS
370
-3
390
F
  0
LAYER
  5
1FF
100
AcDbSymbolTableRecord
100
AcDbLayerTableRecord
  2
01_PLANES
 70
0
 62
7
  6
CONTINUOUS
370
-3
390
F
  0
LAYER
  5
200
100
AcDbSymbolTableRecord
100
AcDbLayerTableRecord
  2
02_COORD_SYS
 70
0
 62
7
  6
CONTINUOUS
370
-3
390
F
  0
LAYER
  5
201
100
AcDbSymbolTableRecord
100
AcDbLayerTableRecord
  2
03_AXES
 70
0
 62
7
  6
CONTINUOUS
370
-3
390
F
  0
LAYER
  5
202
100
AcDbSymbolTableRecord
100
AcDbLayerTableRecord
  2
04_POINTS
 70
0
 62
7
  6
CONTINUOUS
370
-3
390
F
  0
LAYER
  5
203
100
AcDbSymbolTableRecord
100
AcDbLayerTableRecord
  2
05_CURVES
 70
0
 62
7
  6
CONTINUOUS
370
-3
390
F
  0
LAYER
  5
204
100
AcDbSymbolTableRecord
100
AcDbLayerTableRecord
  2
06_SURFS
 70
0
 62
7
  6
CONTINUOUS
370
-3
390
F
  0
LAYER
  5
205
100
AcDbSymbolTableRecord
100
AcDbLayerTableRecord
  2
07_COSMETICS
 70
0
 62
7
  6
CONTINUOUS
370
-3
390
F
  0
LAYER
  5
206
100
AcDbSymbolTableRecord
100
AcDbLayerTableRecord
  2
10_NOTES
 70
0
 62
7
  6
CONTINUOUS
370
-3
390
F
  0
LAYER
  5
207
100
AcDbSymbolTableRecord
100
AcDbLayerTableRecord
  2
11_NOTES_PUB
 70
0
 62
7
  6
CONTINUOUS
370
-3
390
F
  0
LAYER
  5
208
100
AcDbSymbolTableRecord
100
AcDbLayerTableRecord
  2
13_REF_GTOL
 70
0
 62
7
  6
CONTINUOUS
370
-3
390
F
  0
LAYER
  5
209
100
AcDbSymbolTableRecord
100
AcDbLayerTableRecord
  2
16_MISC
 70
0
 62
7
  6
CONTINUOUS
370
-3
390
F
  0
LAYER
  5
20A
100
AcDbSymbolTableRecord
100
AcDbLayerTableRecord
  2
17_NO_PRINT
 70
0
 62
7
  6
CONTINUOUS
370
-3
390
F
  0
LAYER
  5
20B
100
AcDbSymbolTableRecord
100
AcDbLayerTableRecord
  2
18_DATUM_CAMS_JOINTS
 70
0
 62
7
  6
CONTINUOUS
370
-3
390
F
  0
LAYER
  5
20C
100
AcDbSymbolTableRecord
100
AcDbLayerTableRecord
  2
19_DATUM_FUNCTIONAL
 70
0
 62
7
  6
CONTINUOUS
370
-3
390
F
  0
LAYER
  5
20D
100
AcDbSymbolTableRecord
100
AcDbLayerTableRecord
  2
20_DATUM_KINEMATIC_SCHEME
 70
0
 62
7
  6
CONTINUOUS
370
-3
390
F
  0
ENDTAB
  0
TABLE
  2
STYLE
  5
3
100
AcDbSymbolTable
 70
1
  0
STYLE
  5
11
100
AcDbSymbolTableRecord
100
AcDbTextStyleTableRecord
  2
STANDARD
 70
0
 40
0.0
 41
1.0
 50
0.0
 71
0
 42
0.2
  3
ARIAL.TTF
  4

  0
STYLE
  5
20E
100
AcDbSymbolTableRecord
100
AcDbTextStyleTableRecord
  2
TEXTSTYLE_1
 70
0
 40
0.0
 41
0.8
 50
0.0
 71
0
 42
0.2
  3
gdt
  4

  0
ENDTAB
  0
TABLE
  2
VIEW
  5
6
100
AcDbSymbolTable
 70
0
  0
ENDTAB
  0
TABLE
  2
UCS
  5
7
100
AcDbSymbolTable
 70
0
  0
ENDTAB
  0
TABLE
  2
APPID
  5
9
100
AcDbSymbolTable
 70
1
  0
APPID
  5
20F
100
AcDbSymbolTableRecord
100
AcDbRegAppTableRecord
  2
ACAD
 70
0
  0
ENDTAB
  0
TABLE
  2
BLOCK_RECORD
  5
1
100
AcDbSymbolTable
 70
0
  0
BLOCK_RECORD
  5
210
100
AcDbSymbolTableRecord
100
AcDbBlockTableRecord
  2
*Model_Space
  0
BLOCK_RECORD
  5
211
100
AcDbSymbolTableRecord
100
AcDbBlockTableRecord
  2
*Paper_Space
  0
BLOCK_RECORD
  5
212
100
AcDbSymbolTableRecord
100
AcDbBlockTableRecord
  2
_FILLED
  0
ENDTAB
  0
TABLE
  2
DIMSTYLE
  5
A
100
AcDbSymbolTable
 70
1
100
AcDbDimStyleTable
 71
0
  0
DIMSTYLE
105
213
100
AcDbSymbolTableRecord
100
AcDbDimStyleTableRecord
  2
STANDARD
 70
0
  3

  4

 40
1.0
 41
2.4272133096
 42
1.0
 43
0.38
 44
1.0
 45
0.0
 46
0.0
 47
0.01
 48
0.01
140
3.3980986334
141
0.09
142
0.0
143
25.4
144
1.0
145
0.0
146
1.0
147
0.625
 71
1
 72
0
 73
0
 74
0
 75
0
 76
0
 77
1
 78
8
 79
2
170
0
171
1
172
0
173
0
174
0
175
0
176
0
177
0
178
0
270
2
179
2
271
2
272
2
273
2
274
2
275
0
280
0
281
0
282
0
283
1
284
8
285
0
286
0
287
3
288
0
340
11
278
46
341
212
342
212
343
212
344
212
  0
ENDTAB
  0
ENDSEC
  0
SECTION
  2
BLOCKS
  0
BLOCK
  5
20
100
AcDbEntity
  8
0
100
AcDbBlockBegin
  2
*Model_Space
 70
0
 10
0.0
 20
0.0
 30
0.0
  3
*Model_Space
  1

  0
ENDBLK
  5
21
100
AcDbEntity
  8
0
100
AcDbBlockEnd
  0
BLOCK
  5
1C
100
AcDbEntity
  8
0
100
AcDbBlockBegin
  2
*Paper_Space
 70
0
 10
0.0
 20
0.0
 30
0.0
  3
*Paper_Space
  1

  0
ENDBLK
  5
1D
100
AcDbEntity
  8
0
100
AcDbBlockEnd
  0
BLOCK
  5
214
100
AcDbEntity
  8
0
100
AcDbBlockBegin
  2
_FILLED
 70
64
 10
0.0
 20
0.0
  3
_FILLED
  1

  0
SOLID
  5
215
100
AcDbEntity
  8
0
  6
BYBLOCK
 62
0
100
AcDbTrace
 10
0.0
 20
0.0
 11
-1.0
 21
0.25
 12
-1.0
 22
-0.25
 13
-1.0
 23
-0.25
  0
ENDBLK
  5
216
100
AcDbEntity
  8
0
  6
BYBLOCK
 62
0
100
AcDbBlockEnd
  0
ENDSEC
  0
SECTION
  2
ENTITIES
  0
LWPOLYLINE
  5
217
100
AcDbEntity
  8
0
100
AcDbPolyline
 62
7
  6
BYLAYER
 90
4
 70
0
 10
149.3653332489
 20
59.7110665242
 10
149.3629177931
 20
59.7108247911
 10
149.4124849346
 20
59.7130219774
 10
149.5110083386
 20
59.7162950523
  0
LINE
  5
218
100
AcDbEntity
  8
0
100
AcDbLine
 62
7
  6
BYLAYER
 10
149.5110083386
 20
59.7162950523
 11
149.8539558563
 21
59.7246849403
  0
LINE
  5
219
100
AcDbEntity
  8
0
100
AcDbLine
 62
7
  6
BYLAYER
 10
149.8539558563
 20
59.7246849403
 11
150.4267956538
 21
59.7350812651
  0
LINE
  5
21A
100
AcDbEntity
  8
0
100
AcDbLine
 62
7
  6
BYLAYER
 10
150.4267956538
 20
59.7350812651
 11
151.8607928745
 21
59.752689506
  0
LINE
  5
21B
100
AcDbEntity
  8
0
100
AcDbLine
 62
7
  6
BYLAYER
 10
151.8607928745
 20
59.752689506
 11
153.3145686856
 21
59.7625634946
  0
LINE
  5
21C
100
AcDbEntity
  8
0
100
AcDbLine
 62
7
  6
BYLAYER
 10
23.7664884135
 20
122.4610350028
 11
23.7664884135
 21
125.4610350028
  0
LINE
  5
21D
100
AcDbEntity
  8
0
100
AcDbLine
 62
7
  6
BYLAYER
 10
45.9164884135
 20
59.697565955
 11
150.0033817037
 21
59.697565955
  0
LINE
  5
21E
100
AcDbEntity
  8
0
100
AcDbLine
 62
7
  6
BYLAYER
 10
159.5289100581
 20
59.6975659552
 11
163.6164884135
 21
59.697565955
  0
LINE
  5
21F
100
AcDbEntity
  8
0
100
AcDbLine
 62
7
  6
BYLAYER
 10
45.9164884135
 20
60.9268900505
 11
163.6164884135
 21
60.9268900505
  0
LINE
  5
220
100
AcDbEntity
  8
0
100
AcDbLine
 62
7
  6
BYLAYER
 10
163.6164884135
 20
62.9219727542
 11
45.9164884135
 21
62.9219727542
  0
LINE
  5
221
100
AcDbEntity
  8
0
100
AcDbLine
 62
7
  6
BYLAYER
 10
165.6164884135
 20
63.4401520953
 11
164.1164884135
 21
63.4401520953
  0
LINE
  5
222
100
AcDbEntity
  8
0
100
AcDbLine
 62
7
  6
BYLAYER
 10
45.4164884135
 20
63.4401525441
 11
43.9164884135
 21
63.4401525441
  0
LINE
  5
223
100
AcDbEntity
  8
0
100
AcDbLine
 62
7
  6
BYLAYER
 10
43.0164884135
 20
65.0610350028
 11
166.5164884135
 21
65.0610350028
  0
LINE
  5
224
100
AcDbEntity
  8
0
100
AcDbLine
 62
7
  6
BYLAYER
 10
153.3145686856
 20
59.7625634946
 11
155.3332156194
 21
59.7652925665
  0
LINE
  5
225
100
AcDbEntity
  8
0
100
AcDbLine
 62
7
  6
BYLAYER
 10
155.3332156194
 20
59.7652925665
 11
157.1035875926
 21
59.7573966895
  0
LINE
  5
226
100
AcDbEntity
  8
0
100
AcDbLine
 62
7
  6
BYLAYER
 10
157.1035875926
 20
59.7573966895
 11
158.3725669122
 21
59.7452401789
  0
LINE
  5
227
100
AcDbEntity
  8
0
100
AcDbLine
 62
7
  6
BYLAYER
 10
158.3725669122
 20
59.7452401789
 11
159.2366447694
 21
59.7329529227
  0
LWPOLYLINE
  5
228
100
AcDbEntity
  8
0
100
AcDbPolyline
 62
7
  6
BYLAYER
 90
6
 70
0
 10
159.2366447694
 20
59.7329529227
 10
159.7850257972
 20
59.7223669455
 10
159.9643527481
 20
59.7179323055
 10
160.0890487408
 20
59.7141595391
 10
160.1602146428
 20
59.7113356612
 10
160.1663835658
 20
59.7110242897
  0
LINE
  5
229
100
AcDbEntity
  8
0
100
AcDbLine
 62
7
  6
BYLAYER
 10
36.2664884135
 20
225.8610350028
 11
36.2664884135
 21
228.8610350028
  0
LINE
  5
22A
100
AcDbEntity
  8
0
100
AcDbLine
 62
7
  6
BYLAYER
 10
38.7664884135
 20
125.4610350028
 11
38.7664884135
 21
122.4610350028
  0
LINE
  5
22B
100
AcDbEntity
  8
0
100
AcDbLine
 62
7
  6
BYLAYER
 10
39.7645256728
 20
122.4610350028
 11
39.7645256728
 21
125.4610350028
  0
LINE
  5
22C
100
AcDbEntity
  8
0
100
AcDbLine
 62
7
  6
BYLAYER
 10
40.6373171069
 20
122.4610350028
 11
40.6373171069
 21
125.4610350028
  0
LINE
  5
22D
100
AcDbEntity
  8
0
100
AcDbLine
 62
7
  6
BYLAYER
 10
43.0164884135
 20
117.5610350028
 11
43.0164884135
 21
65.0610350028
  0
LINE
  5
22E
100
AcDbEntity
  8
0
100
AcDbLine
 62
7
  6
BYLAYER
 10
43.2664884135
 20
150.3610350028
 11
43.2664884135
 21
117.5610350028
  0
LINE
  5
22F
100
AcDbEntity
  8
0
100
AcDbLine
 62
7
  6
BYLAYER
 10
43.7664884135
 20
150.3610350028
 11
43.7664884135
 21
168.3610350028
  0
LINE
  5
230
100
AcDbEntity
  8
0
100
AcDbLine
 62
7
  6
BYLAYER
 10
43.9164884135
 20
61.697631597
 11
43.9164884135
 21
65.0610350028
  0
LINE
  5
231
100
AcDbEntity
  8
0
100
AcDbLine
 62
7
  6
BYLAYER
 10
45.4164884135
 20
63.4401525441
 11
45.4164884135
 21
65.0610350028
  0
LINE
  5
232
100
AcDbEntity
  8
0
100
AcDbLine
 62
7
  6
BYLAYER
 10
45.9164884135
 20
59.697565955
 11
45.9164884135
 21
62.9219727542
  0
LINE
  5
233
100
AcDbEntity
  8
0
100
AcDbLine
 62
7
  6
BYLAYER
 10
46.0164884135
 20
65.0610350028
 11
46.0164884135
 21
117.5610350028
  0
LINE
  5
234
100
AcDbEntity
  8
0
100
AcDbLine
 62
7
  6
BYLAYER
 10
46.2664884135
 20
117.5610350028
 11
46.2664884135
 21
150.3610350028
  0
LINE
  5
235
100
AcDbEntity
  8
0
100
AcDbLine
 62
7
  6
BYLAYER
 10
48.7664884135
 20
168.3610350025
 11
48.7664884135
 21
133.8610350028
  0
LINE
  5
236
100
AcDbEntity
  8
0
100
AcDbLine
 62
7
  6
BYLAYER
 10
50.7664884135
 20
131.8610350028
 11
50.7664884135
 21
168.3610350028
  0
LINE
  5
237
100
AcDbEntity
  8
0
100
AcDbLine
 62
7
  6
BYLAYER
 10
138.6325138173
 20
229.3610350028
 11
137.7664884135
 21
228.8610350028
  0
LINE
  5
238
100
AcDbEntity
  8
0
100
AcDbLine
 62
7
  6
BYLAYER
 10
56.7664883888
 20
174.3610350028
 11
56.7664883888
 21
176.3610350028
  0
LINE
  5
239
100
AcDbEntity
  8
0
100
AcDbLine
 62
7
  6
BYLAYER
 10
67.5164884135
 20
226.561035003
 11
67.5164884135
 21
177.3610350028
  0
LINE
  5
23A
100
AcDbEntity
  8
0
100
AcDbLine
 62
7
  6
BYLAYER
 10
68.5164884135
 20
176.3610350028
 11
68.5164884135
 21
226.5610350028
  0
LINE
  5
23B
100
AcDbEntity
  8
0
100
AcDbLine
 62
7
  6
BYLAYER
 10
68.6055678829
 20
179.3610352431
 11
68.6055678861
 21
176.3610350028
  0
LINE
  5
23C
100
AcDbEntity
  8
0
100
AcDbLine
 62
7
  6
BYLAYER
 10
69.5164884736
 20
227.5610350028
 11
69.5164884736
 21
228.5610350028
  0
LINE
  5
23D
100
AcDbEntity
  8
0
100
AcDbLine
 62
7
  6
BYLAYER
 10
69.5714937124
 20
177.3610350028
 11
69.5714937124
 21
179.3610349418
  0
LINE
  5
23E
100
AcDbEntity
  8
0
100
AcDbLine
 62
7
  6
BYLAYER
 10
70.676120247
 20
180.3610350028
 11
70.676120247
 21
181.3610350031
  0
LINE
  5
23F
100
AcDbEntity
  8
0
100
AcDbLine
 62
7
  6
BYLAYER
 10
71.1192895747
 20
179.3269614424
 11
71.1192907886
 21
177.2588148892
  0
LINE
  5
240
100
AcDbEntity
  8
0
100
AcDbLine
 62
7
  6
BYLAYER
 10
73.0511421921
 20
174.3610352203
 11
73.051142288
 21
178.3610350028
  0
LINE
  5
241
100
AcDbEntity
  8
0
100
AcDbLine
 62
7
  6
BYLAYER
 10
43.0164884135
 20
117.5610350028
 11
166.5164884135
 21
117.5610350028
  0
LINE
  5
242
100
AcDbEntity
  8
0
100
AcDbLine
 62
7
  6
BYLAYER
 10
185.7664884135
 20
122.4610350028
 11
166.2664884135
 21
122.4610350028
  0
LINE
  5
243
100
AcDbEntity
  8
0
100
AcDbLine
 62
7
  6
BYLAYER
 10
23.7664884135
 20
122.4610350028
 11
43.2664884135
 21
122.4610350028
  0
LINE
  5
244
100
AcDbEntity
  8
0
100
AcDbLine
 62
7
  6
BYLAYER
 10
23.7664884135
 20
125.4610350028
 11
43.2664884135
 21
125.4610350028
  0
LINE
  5
245
100
AcDbEntity
  8
0
100
AcDbLine
 62
7
  6
BYLAYER
 10
166.2664884135
 20
125.4610350028
 11
185.7664884135
 21
125.4610350028
  0
LINE
  5
246
100
AcDbEntity
  8
0
100
AcDbLine
 62
7
  6
BYLAYER
 10
91.3664884135
 20
127.8610350028
 11
118.1664884135
 21
127.8610350028
  0
LINE
  5
247
100
AcDbEntity
  8
0
100
AcDbLine
 62
7
  6
BYLAYER
 10
139.3796090281
 20
176.2928839355
 11
136.4818343135
 21
174.3610350028
  0
LINE
  5
248
100
AcDbEntity
  8
0
100
AcDbLine
 62
7
  6
BYLAYER
 10
50.7664884135
 20
131.8610350028
 11
93.6758894903
 21
131.8610350028
  0
LINE
  5
249
100
AcDbEntity
  8
0
100
AcDbLine
 62
7
  6
BYLAYER
 10
115.8570873368
 20
131.8610350028
 11
158.7664884135
 21
131.8610350028
  0
LINE
  5
24A
100
AcDbEntity
  8
0
100
AcDbLine
 62
7
  6
BYLAYER
 10
160.7664884135
 20
133.8610350028
 11
113.54768626
 21
133.8610350028
  0
LINE
  5
24B
100
AcDbEntity
  8
0
100
AcDbLine
 62
7
  6
BYLAYER
 10
95.9852905671
 20
133.8610350028
 11
48.7664884135
 21
133.8610350028
  0
LINE
  5
24C
100
AcDbEntity
  8
0
100
AcDbLine
 62
7
  6
BYLAYER
 10
93.8305900287
 20
132.1289841952
 11
91.3664884135
 21
127.8610350028
  0
LINE
  5
24D
100
AcDbEntity
  8
0
100
AcDbLine
 62
7
  6
BYLAYER
 10
95.9852905671
 20
133.8610350028
 11
92.5211889519
 21
127.8610350028
  0
LINE
  5
24E
100
AcDbEntity
  8
0
100
AcDbLine
 62
7
  6
BYLAYER
 10
152.5664884135
 20
139.8610350028
 11
153.9664884135
 21
139.8610350028
  0
LINE
  5
24F
100
AcDbEntity
  8
0
100
AcDbLine
 62
7
  6
BYLAYER
 10
153.9664884135
 20
148.8610350028
 11
152.5664884135
 21
148.8610350028
  0
LINE
  5
250
100
AcDbEntity
  8
0
100
AcDbLine
 62
7
  6
BYLAYER
 10
43.2664884135
 20
150.3610350028
 11
48.7664884135
 21
150.3610350028
  0
LINE
  5
251
100
AcDbEntity
  8
0
100
AcDbLine
 62
7
  6
BYLAYER
 10
160.7664884135
 20
150.3610350028
 11
166.2664884135
 21
150.3610350028
  0
LINE
  5
252
100
AcDbEntity
  8
0
100
AcDbLine
 62
7
  6
BYLAYER
 10
73.0511425144
 20
174.3610350028
 11
70.1533666016
 21
176.2928859393
  0
LINE
  5
253
100
AcDbEntity
  8
0
100
AcDbLine
 62
7
  6
BYLAYER
 10
117.0117878752
 20
127.8610350028
 11
113.54768626
 21
133.8610350028
  0
LINE
  5
254
100
AcDbEntity
  8
0
100
AcDbLine
 62
7
  6
BYLAYER
 10
118.1664884135
 20
127.8610350028
 11
115.7023867984
 21
132.1289841952
  0
LINE
  5
255
100
AcDbEntity
  8
0
100
AcDbLine
 62
7
  6
BYLAYER
 10
48.7664884135
 20
168.3610350028
 11
50.7664884135
 21
168.3610350028
  0
LINE
  5
256
100
AcDbEntity
  8
0
100
AcDbLine
 62
7
  6
BYLAYER
 10
158.7664884135
 20
168.3610350277
 11
160.7664884135
 21
168.3610350277
  0
LINE
  5
257
100
AcDbEntity
  8
0
100
AcDbLine
 62
7
  6
BYLAYER
 10
136.4818345384
 20
178.3610350028
 11
136.4818346336
 21
174.3610352188
  0
LINE
  5
258
100
AcDbEntity
  8
0
100
AcDbLine
 62
7
  6
BYLAYER
 10
56.7664926159
 20
174.3610351415
 11
73.0511421921
 21
174.3610352203
  0
LINE
  5
259
100
AcDbEntity
  8
0
100
AcDbLine
 62
7
  6
BYLAYER
 10
136.4818346336
 20
174.3610352188
 11
152.7664842399
 21
174.3610351406
  0
LINE
  5
25A
100
AcDbEntity
  8
0
100
AcDbLine
 62
7
  6
BYLAYER
 10
157.7664884135
 20
176.3610350028
 11
139.5876629745
 21
176.3610350028
  0
LINE
  5
25B
100
AcDbEntity
  8
0
100
AcDbLine
 62
7
  6
BYLAYER
 10
69.9453148946
 20
176.3610350028
 11
51.7664884135
 21
176.3610350028
  0
LINE
  5
25C
100
AcDbEntity
  8
0
100
AcDbLine
 62
7
  6
BYLAYER
 10
138.4136823826
 20
177.2588072171
 11
138.4136866222
 21
179.3269680725
  0
LINE
  5
25D
100
AcDbEntity
  8
0
100
AcDbLine
 62
7
  6
BYLAYER
 10
138.8568565801
 20
181.3610350031
 11
138.8568565801
 21
180.3610350028
  0
LINE
  5
25E
100
AcDbEntity
  8
0
100
AcDbLine
 62
7
  6
BYLAYER
 10
139.9614831147
 20
179.3610349117
 11
139.9614831147
 21
177.3610350028
  0
LINE
  5
25F
100
AcDbEntity
  8
0
100
AcDbLine
 62
7
  6
BYLAYER
 10
140.0164884135
 20
228.5610350028
 11
140.0164884135
 21
227.5610350028
  0
LINE
  5
260
100
AcDbEntity
  8
0
100
AcDbLine
 62
7
  6
BYLAYER
 10
140.927408941
 20
176.3610350028
 11
140.9274089421
 21
179.3610350624
  0
LINE
  5
261
100
AcDbEntity
  8
0
100
AcDbLine
 62
7
  6
BYLAYER
 10
141.0164884135
 20
226.5610350028
 11
141.0164884135
 21
176.3610350028
  0
LINE
  5
262
100
AcDbEntity
  8
0
100
AcDbLine
 62
7
  6
BYLAYER
 10
142.0164884135
 20
177.3610350028
 11
142.0164884135
 21
226.5610349862
  0
LINE
  5
263
100
AcDbEntity
  8
0
100
AcDbLine
 62
7
  6
BYLAYER
 10
142.0164884135
 20
177.3610350028
 11
138.6217371484
 21
177.3610326157
  0
LINE
  5
264
100
AcDbEntity
  8
0
100
AcDbLine
 62
7
  6
BYLAYER
 10
70.9112420699
 20
177.3610353933
 11
67.5164884135
 21
177.3610350028
  0
LINE
  5
265
100
AcDbEntity
  8
0
100
AcDbLine
 62
7
  6
BYLAYER
 10
73.051142288
 20
178.3610350028
 11
136.4818345384
 21
178.3610350028
  0
LINE
  5
266
100
AcDbEntity
  8
0
100
AcDbLine
 62
7
  6
BYLAYER
 10
68.6055678845
 20
179.3610351866
 11
71.0499477835
 21
179.3610302699
  0
LINE
  5
267
100
AcDbEntity
  8
0
100
AcDbLine
 62
7
  6
BYLAYER
 10
138.4830438941
 20
179.3610335284
 11
140.9274089415
 21
179.3610350056
  0
LINE
  5
268
100
AcDbEntity
  8
0
100
AcDbLine
 62
7
  6
BYLAYER
 10
70.6761206208
 20
180.3610350028
 11
138.8568563638
 21
180.3610350028
  0
LINE
  5
269
100
AcDbEntity
  8
0
100
AcDbLine
 62
7
  6
BYLAYER
 10
138.8568566417
 20
181.361035003
 11
70.6761201406
 21
181.3610350032
  0
LINE
  5
26A
100
AcDbEntity
  8
0
100
AcDbLine
 62
7
  6
BYLAYER
 10
152.7664884111
 20
176.3610350028
 11
152.7664884111
 21
174.3610350028
  0
LINE
  5
26B
100
AcDbEntity
  8
0
100
AcDbLine
 62
7
  6
BYLAYER
 10
154.766488407
 20
59.7051700554
 11
154.7664884079
 21
59.7657888612
  0
LINE
  5
26C
100
AcDbEntity
  8
0
100
AcDbLine
 62
7
  6
BYLAYER
 10
158.7664884135
 20
168.3610350028
 11
158.7664884135
 21
131.8610350028
  0
LINE
  5
26D
100
AcDbEntity
  8
0
100
AcDbLine
 62
7
  6
BYLAYER
 10
160.7664884135
 20
133.8610350028
 11
160.7664884135
 21
168.3610350156
  0
LINE
  5
26E
100
AcDbEntity
  8
0
100
AcDbLine
 62
7
  6
BYLAYER
 10
163.2664884135
 20
150.3610350028
 11
163.2664884135
 21
117.5610350028
  0
LINE
  5
26F
100
AcDbEntity
  8
0
100
AcDbLine
 62
7
  6
BYLAYER
 10
163.5164884135
 20
117.5610350028
 11
163.5164884135
 21
65.0610350028
  0
LINE
  5
270
100
AcDbEntity
  8
0
100
AcDbLine
 62
7
  6
BYLAYER
 10
163.6164884135
 20
62.9219727542
 11
163.6164884135
 21
59.697565955
  0
LINE
  5
271
100
AcDbEntity
  8
0
100
AcDbLine
 62
7
  6
BYLAYER
 10
164.1164884135
 20
65.0610350028
 11
164.1164884135
 21
63.4401520953
  0
LINE
  5
272
100
AcDbEntity
  8
0
100
AcDbLine
 62
7
  6
BYLAYER
 10
165.6164884135
 20
61.6976305694
 11
165.6164884135
 21
65.0610350028
  0
LINE
  5
273
100
AcDbEntity
  8
0
100
AcDbLine
 62
7
  6
BYLAYER
 10
165.7664884135
 20
150.3610350028
 11
165.7664884135
 21
168.3610350028
  0
LINE
  5
274
100
AcDbEntity
  8
0
100
AcDbLine
 62
7
  6
BYLAYER
 10
166.2664884135
 20
117.5610350028
 11
166.2664884135
 21
150.3610350028
  0
LINE
  5
275
100
AcDbEntity
  8
0
100
AcDbLine
 62
7
  6
BYLAYER
 10
166.5164884135
 20
65.0610350028
 11
166.5164884135
 21
117.5610350028
  0
LINE
  5
276
100
AcDbEntity
  8
0
100
AcDbLine
 62
7
  6
BYLAYER
 10
71.7664884135
 20
228.8610350028
 11
70.9004630098
 21
229.3610350028
  0
LINE
  5
277
100
AcDbEntity
  8
0
100
AcDbLine
 62
7
  6
BYLAYER
 10
168.8956597202
 20
125.4610350028
 11
168.8956597202
 21
122.4610350028
  0
LINE
  5
278
100
AcDbEntity
  8
0
100
AcDbLine
 62
7
  6
BYLAYER
 10
169.7684511543
 20
125.4610350028
 11
169.7684511543
 21
122.4610350028
  0
LINE
  5
279
100
AcDbEntity
  8
0
100
AcDbLine
 62
7
  6
BYLAYER
 10
170.7664884135
 20
122.4610350028
 11
170.7664884135
 21
125.4610350028
  0
LINE
  5
27A
100
AcDbEntity
  8
0
100
AcDbLine
 62
7
  6
BYLAYER
 10
173.2664884135
 20
225.8610350028
 11
173.2664884135
 21
228.8610350028
  0
LINE
  5
27B
100
AcDbEntity
  8
0
100
AcDbLine
 62
7
  6
BYLAYER
 10
185.7664884135
 20
125.4610350028
 11
185.7664884135
 21
122.4610350028
  0
LINE
  5
27C
100
AcDbEntity
  8
0
100
AcDbLine
 62
7
  6
BYLAYER
 10
67.5164884135
 20
225.3610350028
 11
36.7664884135
 21
225.3610350028
  0
LINE
  5
27D
100
AcDbEntity
  8
0
100
AcDbLine
 62
7
  6
BYLAYER
 10
142.0164884135
 20
225.3610350028
 11
172.7664884135
 21
225.3610350028
  0
LINE
  5
27E
100
AcDbEntity
  8
0
100
AcDbLine
 62
7
  6
BYLAYER
 10
67.5164884135
 20
226.5610350028
 11
68.5164884135
 21
226.5610350028
  0
LINE
  5
27F
100
AcDbEntity
  8
0
100
AcDbLine
 62
7
  6
BYLAYER
 10
141.0164884135
 20
226.5610349427
 11
142.0164884135
 21
226.5610349427
  0
LINE
  5
280
100
AcDbEntity
  8
0
100
AcDbLine
 62
7
  6
BYLAYER
 10
69.5164884135
 20
227.5610350028
 11
140.0164884135
 21
227.5610350028
  0
LINE
  5
281
100
AcDbEntity
  8
0
100
AcDbLine
 62
7
  6
BYLAYER
 10
140.0164884137
 20
228.5610350028
 11
69.5164884483
 21
228.5610350028
  0
LINE
  5
282
100
AcDbEntity
  8
0
100
AcDbLine
 62
7
  6
BYLAYER
 10
137.7664884135
 20
228.8610350028
 11
71.7664884135
 21
228.8610350028
  0
LINE
  5
283
100
AcDbEntity
  8
0
100
AcDbLine
 62
7
  6
BYLAYER
 10
172.7664884135
 20
229.3610350028
 11
138.6325138173
 21
229.3610350028
  0
LINE
  5
284
100
AcDbEntity
  8
0
100
AcDbLine
 62
7
  6
BYLAYER
 10
36.7664884135
 20
229.3610350028
 11
70.9004630098
 21
229.3610350028
  0
ARC
  5
285
100
AcDbEntity
  8
0
100
AcDbCircle
 62
7
  6
BYLAYER
 10
51.7664884135
 20
168.3610350028
 40
8.0
100
AcDbArc
 50
90.0
 51
180.0
  0
ARC
  5
286
100
AcDbEntity
  8
0
100
AcDbCircle
 62
7
  6
BYLAYER
 10
56.7664884135
 20
168.3610350028
 40
8.0
100
AcDbArc
 50
90.0
 51
180.0000000026
  0
ARC
  5
287
100
AcDbEntity
  8
0
100
AcDbCircle
 62
7
  6
BYLAYER
 10
56.7664884135
 20
168.3610350028
 40
6.0
100
AcDbArc
 50
89.9999598703
 51
180.0
  0
CIRCLE
  5
288
100
AcDbEntity
  8
0
100
AcDbCircle
 62
7
  6
BYLAYER
 10
56.2664884135
 20
144.3610350028
 40
4.5
  0
CIRCLE
  5
289
100
AcDbEntity
  8
0
100
AcDbCircle
 62
7
  6
BYLAYER
 10
67.2664884135
 20
157.8610350028
 40
3.5
  0
ARC
  5
28A
100
AcDbEntity
  8
0
100
AcDbCircle
 62
7
  6
BYLAYER
 10
45.9164884135
 20
61.697565955
 40
2.0
100
AcDbArc
 50
180.0
 51
270.0
  0
ARC
  5
28B
100
AcDbEntity
  8
0
100
AcDbCircle
 62
7
  6
BYLAYER
 10
69.5164884135
 20
226.5610350028
 40
2.0
100
AcDbArc
 50
90.0
 51
179.9999999941
  0
ARC
  5
28C
100
AcDbEntity
  8
0
100
AcDbCircle
 62
7
  6
BYLAYER
 10
50.7664884135
 20
133.8610350028
 40
2.0
100
AcDbArc
 50
180.0
 51
270.0
  0
ARC
  5
28D
100
AcDbEntity
  8
0
100
AcDbCircle
 62
7
  6
BYLAYER
 10
45.9085233319
 20
62.9222682573
 40
1.9920349175
100
AcDbArc
 50
180.0040740058
 51
270.0213754
  0
ARC
  5
28E
100
AcDbEntity
  8
0
100
AcDbCircle
 62
7
  6
BYLAYER
 10
66.5164884135
 20
177.3610350028
 40
1.0
100
AcDbArc
 50
270.0
 51
360.0
  0
ARC
  5
28F
100
AcDbEntity
  8
0
100
AcDbCircle
 62
7
  6
BYLAYER
 10
69.5164884135
 20
226.5610350028
 40
1.0
100
AcDbArc
 50
90.0000000001
 51
180.0
  0
ARC
  5
290
100
AcDbEntity
  8
0
100
AcDbCircle
 62
7
  6
BYLAYER
 10
72.1495904492
 20
179.3322350016
 40
0.9628102605
100
AcDbArc
 50
93.833798521
 51
95.7272671391
  0
ARC
  5
291
100
AcDbEntity
  8
0
100
AcDbCircle
 62
7
  6
BYLAYER
 10
36.7664884135
 20
225.8610350028
 40
0.5
100
AcDbArc
 50
180.0
 51
270.0
  0
ARC
  5
292
100
AcDbEntity
  8
0
100
AcDbCircle
 62
7
  6
BYLAYER
 10
36.7664884135
 20
228.8610350028
 40
0.5
100
AcDbArc
 50
90.0
 51
180.0
  0
ARC
  5
293
100
AcDbEntity
  8
0
100
AcDbCircle
 62
7
  6
BYLAYER
 10
154.7652641184
 20
-270.5841629231
 40
330.3500698991
100
AcDbArc
 50
89.7490782645
 51
89.9851165352
  0
ARC
  5
294
100
AcDbEntity
  8
0
100
AcDbCircle
 62
7
  6
BYLAYER
 10
154.7643201987
 20
-269.0660138297
 40
328.8319201068
100
AcDbArc
 50
90.0131152353
 51
90.2573314926
  0
ARC
  5
295
100
AcDbEntity
  8
0
100
AcDbCircle
 62
7
  6
BYLAYER
 10
155.0467516023
 20
-217.8589721394
 40
277.6241281861
100
AcDbArc
 50
89.2057246381
 51
89.7242749069
  0
ARC
  5
296
100
AcDbEntity
  8
0
100
AcDbCircle
 62
7
  6
BYLAYER
 10
154.2742741247
 20
-195.2874652066
 40
255.0518749255
100
AcDbArc
 50
90.2561442117
 51
90.8147036998
  0
ARC
  5
297
100
AcDbEntity
  8
0
100
AcDbCircle
 62
7
  6
BYLAYER
 10
152.1173066435
 20
-49.2786976558
 40
109.0271405825
100
AcDbArc
 50
90.8272941255
 51
91.2164801047
  0
ARC
  5
298
100
AcDbEntity
  8
0
100
AcDbCircle
 62
7
  6
BYLAYER
 10
142.2664884135
 20
157.8610350028
 40
33.25
100
AcDbArc
 50
176.0
 51
197.0000000001
  0
ARC
  5
299
100
AcDbEntity
  8
0
100
AcDbCircle
 62
7
  6
BYLAYER
 10
142.2664884135
 20
157.8610350028
 40
17.25
100
AcDbArc
 50
176.0
 51
197.0
  0
CIRCLE
  5
29A
100
AcDbEntity
  8
0
100
AcDbCircle
 62
7
  6
BYLAYER
 10
142.2664884135
 20
157.8610350028
 40
9.25
  0
ARC
  5
29B
100
AcDbEntity
  8
0
100
AcDbCircle
 62
7
  6
BYLAYER
 10
152.7664884135
 20
168.3610350028
 40
8.0
100
AcDbArc
 50
0.0
 51
90.0000000072
  0
ARC
  5
29C
100
AcDbEntity
  8
0
100
AcDbCircle
 62
7
  6
BYLAYER
 10
117.0779961445
 20
159.6223859648
 40
8.0
100
AcDbArc
 50
356.0
 51
176.0000000001
  0
ARC
  5
29D
100
AcDbEntity
  8
0
100
AcDbCircle
 62
7
  6
BYLAYER
 10
118.1197933255
 20
150.4786494586
 40
8.0
100
AcDbArc
 50
197.0000000003
 51
17.0
  0
ARC
  5
29E
100
AcDbEntity
  8
0
100
AcDbCircle
 62
7
  6
BYLAYER
 10
157.7664884135
 20
168.3610350028
 40
8.0
100
AcDbArc
 50
0.0
 51
90.0
  0
CIRCLE
  5
29F
100
AcDbEntity
  8
0
100
AcDbCircle
 62
7
  6
BYLAYER
 10
142.2664884135
 20
157.8610350028
 40
7.875
  0
ARC
  5
2A0
100
AcDbEntity
  8
0
100
AcDbCircle
 62
7
  6
BYLAYER
 10
152.7664884135
 20
168.3610350028
 40
6.0
100
AcDbArc
 50
0.0
 51
90.0000398554
  0
ARC
  5
2A1
100
AcDbEntity
  8
0
100
AcDbCircle
 62
7
  6
BYLAYER
 10
153.9664884135
 20
144.3610350028
 40
4.5
100
AcDbArc
 50
270.0
 51
90.0
  0
ARC
  5
2A2
100
AcDbEntity
  8
0
100
AcDbCircle
 62
7
  6
BYLAYER
 10
152.5664884135
 20
144.3610350028
 40
4.5
100
AcDbArc
 50
90.0
 51
270.0
  0
ARC
  5
2A3
100
AcDbEntity
  8
0
100
AcDbCircle
 62
7
  6
BYLAYER
 10
163.6164884135
 20
61.697565955
 40
2.0
100
AcDbArc
 50
270.0
 51
360.0
  0
ARC
  5
2A4
100
AcDbEntity
  8
0
100
AcDbCircle
 62
7
  6
BYLAYER
 10
140.0164884135
 20
226.5610350028
 40
2.0
100
AcDbArc
 50
0.0000000007
 51
89.9999999932
  0
ARC
  5
2A5
100
AcDbEntity
  8
0
100
AcDbCircle
 62
7
  6
BYLAYER
 10
158.7664884135
 20
133.8610350028
 40
2.0
100
AcDbArc
 50
270.0
 51
360.0
  0
ARC
  5
2A6
100
AcDbEntity
  8
0
100
AcDbCircle
 62
7
  6
BYLAYER
 10
163.6244623706
 20
62.9222661798
 40
1.9920260645
100
AcDbArc
 50
269.9786060271
 51
359.9915603276
  0
ARC
  5
2A7
100
AcDbEntity
  8
0
100
AcDbCircle
 62
7
  6
BYLAYER
 10
164.3947952097
 20
62.6555524154
 40
1.1668970353
100
AcDbArc
 50
326.4990094108
 51
329.052713094
  0
ARC
  5
2A8
100
AcDbEntity
  8
0
100
AcDbCircle
 62
7
  6
BYLAYER
 10
143.0164884135
 20
177.3610350028
 40
1.0
100
AcDbArc
 50
180.0
 51
270.0
  0
ARC
  5
2A9
100
AcDbEntity
  8
0
100
AcDbCircle
 62
7
  6
BYLAYER
 10
140.0164884136
 20
226.5610350028
 40
1.0
100
AcDbArc
 50
0.0000000005
 51
90.0000000014
  0
ARC
  5
2AA
100
AcDbEntity
  8
0
100
AcDbCircle
 62
7
  6
BYLAYER
 10
137.3832136095
 20
179.330312286
 40
0.9644964186
100
AcDbArc
 50
84.2735820003
 51
86.1621073105
  0
ARC
  5
2AB
100
AcDbEntity
  8
0
100
AcDbCircle
 62
7
  6
BYLAYER
 10
172.7664884135
 20
228.8610350028
 40
0.5
100
AcDbArc
 50
0.0
 51
90.0
  0
ARC
  5
2AC
100
AcDbEntity
  8
0
100
AcDbCircle
 62
7
  6
BYLAYER
 10
172.7664884135
 20
225.8610350028
 40
0.5
100
AcDbArc
 50
270.0
 51
360.0
  0
SPLINE
  5
2AD
100
AcDbEntity
  8
0
100
AcDbSpline
 62
7
  6
BYLAYER
 70
0
 71
3
 72
9
 73
5
 74
0
 42
0.0000001
 43
0.0000001
 44
0.0000000001
 40
0.0
 40
0.0
 40
0.0
 40
0.0
 40
0.4224158548
 40
1.0
 40
1.0
 40
1.0
 40
1.0
 10
159.5295097738
 20
59.6975674575
 30
0.0
 10
158.8588502972
 20
59.6975727307
 30
0.0
 10
157.2711804678
 20
59.7031105536
 30
0.0
 10
155.6835048426
 20
59.7051704258
 30
0.0
 10
154.7664884094
 20
59.7051588536
 30
0.0
  0
SPLINE
  5
2AE
100
AcDbEntity
  8
0
100
AcDbSpline
 62
7
  6
BYLAYER
 70
0
 71
3
 72
9
 73
5
 74
0
 42
0.0000001
 43
0.0000001
 44
0.0000000001
 40
0.0
 40
0.0
 40
0.0
 40
0.0
 40
0.5775826971
 40
1.0
 40
1.0
 40
1.0
 40
1.0
 10
154.7664884094
 20
59.7051588536
 30
0.0
 10
153.8494742596
 20
59.7051693372
 30
0.0
 10
152.2617986074
 20
59.7031109116
 30
0.0
 10
150.674128751
 20
59.6975727639
 30
0.0
 10
150.0034669639
 20
59.6975674646
 30
0.0
  0
SPLINE
  5
2AF
100
AcDbEntity
  8
0
100
AcDbSpline
 62
7
  6
BYLAYER
 70
0
 71
3
 72
9
 73
5
 74
0
 42
0.0000001
 43
0.0000001
 44
0.0000000001
 40
0.0
 40
0.0
 40
0.0
 40
0.0
 40
0.5009430119
 40
1.0
 40
1.0
 40
1.0
 40
1.0
 10
163.6164884135
 20
62.9219727542
 30
0.0
 10
163.7425123841
 20
62.9372832913
 30
0.0
 10
163.9804464315
 20
63.0676382852
 30
0.0
 10
164.1143156179
 20
63.3136981277
 30
0.0
 10
164.1164884135
 20
63.4401520953
 30
0.0
  0
SPLINE
  5
2B0
100
AcDbEntity
  8
0
100
AcDbSpline
 62
7
  6
BYLAYER
 70
0
 71
3
 72
9
 73
5
 74
0
 42
0.0000001
 43
0.0000001
 44
0.0000000001
 40
0.0
 40
0.0
 40
0.0
 40
0.0
 40
0.4986342301
 40
1.0
 40
1.0
 40
1.0
 40
1.0
 10
45.4164884135
 20
63.4401525441
 30
0.0
 10
45.4176971347
 20
63.3139493602
 30
0.0
 10
45.5547729856
 20
63.0683132744
 30
0.0
 10
45.7908937455
 20
62.9401297986
 30
0.0
 10
45.9164884135
 20
62.9219727542
 30
0.0
  0
SPLINE
  5
2B1
100
AcDbEntity
  8
0
100
AcDbSpline
 62
7
  6
BYLAYER
 70
0
 71
3
 72
11
 73
7
 74
0
 42
0.0000001
 43
0.0000001
 44
0.0000000001
 40
0.0
 40
0.0
 40
0.0
 40
0.0
 40
0.2501504231
 40
0.5001659113
 40
0.7500855024
 40
1.0
 40
1.0
 40
1.0
 40
1.0
 10
138.8568566417
 20
181.361035003
 30
0.0
 10
139.1217356398
 20
181.3610314686
 30
0.0
 10
139.6566960425
 20
181.2608856211
 30
0.0
 10
140.3438913611
 20
180.8258054766
 30
0.0
 10
140.8151786058
 20
180.1612188023
 30
0.0
 10
140.9275034653
 20
179.6256642271
 30
0.0
 10
140.9274089421
 20
179.3610350624
 30
0.0
  0
SPLINE
  5
2B2
100
AcDbEntity
  8
0
100
AcDbSpline
 62
7
  6
BYLAYER
 70
0
 71
3
 72
11
 73
7
 74
0
 42
0.0000001
 43
0.0000001
 44
0.0000000001
 40
0.0
 40
0.0
 40
0.0
 40
0.0
 40
0.2499155562
 40
0.4998341185
 40
0.7498494781
 40
1.0
 40
1.0
 40
1.0
 40
1.0
 10
68.6055678829
 20
179.3610352431
 30
0.0
 10
68.6054570764
 20
179.6256657085
 30
0.0
 10
68.7178064276
 20
180.1612205453
 30
0.0
 10
69.1890816141
 20
180.8258086554
 30
0.0
 10
69.8762804083
 20
181.2608901862
 30
0.0
 10
70.4112408517
 20
181.361027762
 30
0.0
 10
70.6761201406
 20
181.3610350032
 30
0.0
  0
SPLINE
  5
2B3
100
AcDbEntity
  8
0
100
AcDbSpline
 62
7
  6
BYLAYER
 70
0
 71
3
 72
9
 73
5
 74
0
 42
0.0000001
 43
0.0000001
 44
0.0000000001
 40
0.0
 40
0.0
 40
0.0
 40
0.0
 40
0.2386660679
 40
1.0
 40
1.0
 40
1.0
 40
1.0
 10
139.5876658632
 20
176.3610347411
 30
0.0
 10
139.5700972103
 20
176.3610373349
 30
0.0
 10
139.4964364951
 20
176.3550598041
 30
0.0
 10
139.4262433272
 20
176.3239614542
 30
0.0
 10
139.3796116445
 20
176.292875651
 30
0.0
  0
SPLINE
  5
2B4
100
AcDbEntity
  8
0
100
AcDbSpline
 62
7
  6
BYLAYER
 70
0
 71
3
 72
19
 73
15
 74
0
 42
0.0000001
 43
0.0000001
 44
0.0000000001
 40
0.0
 40
0.0
 40
0.0
 40
0.0
 40
0.1501724993
 40
0.2238788315
 40
0.2949668635
 40
0.3630219348
 40
0.428683338
 40
0.491440539
 40
0.5503904458
 40
0.6061166151
 40
0.660282447
 40
0.7678331088
 40
0.8800847406
 40
1.0
 40
1.0
 40
1.0
 40
1.0
 10
163.6164884135
 20
62.9219727542
 30
0.0
 10
163.6274598622
 20
62.7879012961
 30
0.0
 10
163.6717119811
 20
62.5903108
 30
0.0
 10
163.7562859774
 20
62.3401121821
 30
0.0
 10
163.8328102929
 20
62.1648768196
 30
0.0
 10
163.9336832297
 20
62.0103379753
 30
0.0
 10
164.0555963643
 20
61.882447836
 30
0.0
 10
164.1846453481
 20
61.774806607
 30
0.0
 10
164.3164744082
 20
61.6853133583
 30
0.0
 10
164.4546841655
 20
61.621440897
 30
0.0
 10
164.6463528575
 20
61.5794871932
 30
0.0
 10
164.8983603033
 20
61.6089567183
 30
0.0
 10
165.1672125106
 20
61.7644181635
 30
0.0
 10
165.308538856
 20
61.9219204915
 30
0.0
 10
165.367842968
 20
62.0114819604
 30
0.0
  0
SPLINE
  5
2B5
100
AcDbEntity
  8
0
100
AcDbSpline
 62
7
  6
BYLAYER
 70
0
 71
3
 72
9
 73
5
 74
0
 42
0.0000001
 43
0.0000001
 44
0.0000000001
 40
0.0
 40
0.0
 40
0.0
 40
0.0
 40
0.2363158408
 40
1.0
 40
1.0
 40
1.0
 40
1.0
 10
165.3955736952
 20
62.0554764919
 30
0.0
 10
165.4320541075
 20
62.1162935502
 30
0.0
 10
165.5638517388
 20
62.3869219701
 30
0.0
 10
165.6164885415
 20
62.6927884518
 30
0.0
 10
165.6164884135
 20
62.9219727542
 30
0.0
  0
SPLINE
  5
2B6
100
AcDbEntity
  8
0
100
AcDbSpline
 62
7
  6
BYLAYER
 70
0
 71
3
 72
13
 73
9
 74
0
 42
0.0000001
 43
0.0000001
 44
0.0000000001
 40
0.0
 40
0.0
 40
0.0
 40
0.0
 40
0.0919400522
 40
0.2046979006
 40
0.328164085
 40
0.4576943926
 40
0.7261474983
 40
1.0
 40
1.0
 40
1.0
 40
1.0
 10
115.7023867984
 20
132.1289841952
 30
0.0
 10
115.6599013944
 20
132.2025710736
 30
0.0
 10
115.5300462358
 20
132.3438054985
 30
0.0
 10
115.3058751402
 20
132.5468401241
 30
0.0
 10
115.043142302
 20
132.760179812
 30
0.0
 10
114.6614003697
 20
133.0541700283
 30
0.0
 10
114.1605135076
 20
133.4213076807
 30
0.0
 10
113.7533301129
 20
133.7134980959
 30
0.0
 10
113.54768626
 20
133.8610350028
 30
0.0
  0
SPLINE
  5
2B7
100
AcDbEntity
  8
0
100
AcDbSpline
 62
7
  6
BYLAYER
 70
0
 71
3
 72
11
 73
7
 74
0
 42
0.0000001
 43
0.0000001
 44
0.0000000001
 40
0.0
 40
0.0
 40
0.0
 40
0.0
 40
0.4944167055
 40
0.7981757265
 40
0.9030247875
 40
1.0
 40
1.0
 40
1.0
 40
1.0
 10
149.9266928801
 20
59.6975857543
 30
0.0
 10
149.8062223283
 20
59.6976462099
 30
0.0
 10
149.5851627914
 20
59.6987886009
 30
0.0
 10
149.4321415202
 20
59.6984228259
 30
0.0
 10
149.2229168452
 20
59.7040495105
 30
0.0
 10
149.3137701137
 20
59.709730276
 30
0.0
 10
149.3373754151
 20
59.7107921869
 30
0.0
  0
SPLINE
  5
2B8
100
AcDbEntity
  8
0
100
AcDbSpline
 62
7
  6
BYLAYER
 70
0
 71
3
 72
9
 73
5
 74
0
 42
0.0000001
 43
0.0000001
 44
0.0000000001
 40
0.0
 40
0.0
 40
0.0
 40
0.0
 40
0.1640548275
 40
1.0
 40
1.0
 40
1.0
 40
1.0
 10
149.3373754151
 20
59.7107921869
 30
0.0
 10
149.3628041782
 20
59.7119361283
 30
0.0
 10
149.5178620148
 20
59.7176117407
 30
0.0
 10
149.6729879394
 20
59.7210769691
 30
0.0
 10
149.8026617553
 20
59.723870216
 30
0.0
  0
LINE
  5
2B9
100
AcDbEntity
  8
0
100
AcDbLine
 62
7
  6
BYLAYER
 10
150.5431177663
 20
59.7370778677
 11
150.6065728427
 21
59.7380241603
  0
LINE
  5
2BA
100
AcDbEntity
  8
0
100
AcDbLine
 62
7
  6
BYLAYER
 10
150.6065728427
 20
59.7380241603
 11
150.6477469034
 21
59.7386260142
  0
LINE
  5
2BB
100
AcDbEntity
  8
0
100
AcDbLine
 62
7
  6
BYLAYER
 10
153.13405325
 20
59.7618610019
 11
153.2874483409
 21
59.7625897477
  0
LINE
  5
2BC
100
AcDbEntity
  8
0
100
AcDbLine
 62
7
  6
BYLAYER
 10
154.6890492448
 20
59.7658976622
 11
154.7664884179
 21
59.7659061943
  0
SPLINE
  5
2BD
100
AcDbEntity
  8
0
100
AcDbSpline
 62
7
  6
BYLAYER
 70
0
 71
3
 72
11
 73
7
 74
0
 42
0.0000001
 43
0.0000001
 44
0.0000000001
 40
0.0
 40
0.0
 40
0.0
 40
0.0
 40
0.2459838538
 40
0.4943392633
 40
0.7460104057
 40
1.0
 40
1.0
 40
1.0
 40
1.0
 10
68.6055683904
 20
176.3610350028
 30
0.0
 10
68.7313683981
 20
176.3610350708
 30
0.0
 10
68.987074281
 20
176.4137256948
 30
0.0
 10
69.3081406919
 20
176.6375818869
 30
0.0
 10
69.5218132478
 20
176.9698419741
 30
0.0
 10
69.5714937124
 20
177.2311407336
 30
0.0
 10
69.5714937124
 20
177.3610350028
 30
0.0
  0
SPLINE
  5
2BE
100
AcDbEntity
  8
0
100
AcDbSpline
 62
7
  6
BYLAYER
 70
0
 71
3
 72
11
 73
7
 74
0
 42
0.0000001
 43
0.0000001
 44
0.0000000001
 40
0.0
 40
0.0
 40
0.0
 40
0.0
 40
0.2539888947
 40
0.5056603334
 40
0.7540162647
 40
1.0
 40
1.0
 40
1.0
 40
1.0
 10
139.9614831147
 20
177.3610350028
 30
0.0
 10
139.9614831147
 20
177.2311410478
 30
0.0
 10
140.0111633389
 20
176.9698424028
 30
0.0
 10
140.2248358891
 20
176.6375820317
 30
0.0
 10
140.5459027382
 20
176.4137255204
 30
0.0
 10
140.8016089508
 20
176.3610350029
 30
0.0
 10
140.9274089401
 20
176.3610350028
 30
0.0
  0
SPLINE
  5
2BF
100
AcDbEntity
  8
0
100
AcDbSpline
 62
7
  6
BYLAYER
 70
0
 71
3
 72
9
 73
5
 74
0
 42
0.0000001
 43
0.0000001
 44
0.0000000001
 40
0.0
 40
0.0
 40
0.0
 40
0.0
 40
0.5033636713
 40
1.0
 40
1.0
 40
1.0
 40
1.0
 10
138.4136771254
 20
177.2587961822
 30
0.0
 10
138.4300051569
 20
177.0150260767
 30
0.0
 10
138.6548310798
 20
176.5305158782
 30
0.0
 10
139.139089534
 20
176.3089798566
 30
0.0
 10
139.3796016023
 20
176.2928684883
 30
0.0
  0
SPLINE
  5
2C0
100
AcDbEntity
  8
0
100
AcDbSpline
 62
7
  6
BYLAYER
 70
0
 71
3
 72
9
 73
5
 74
0
 42
0.0000001
 43
0.0000001
 44
0.0000000001
 40
0.0
 40
0.0
 40
0.0
 40
0.0
 40
0.2246458019
 40
1.0
 40
1.0
 40
1.0
 40
1.0
 10
138.6217371484
 20
177.3610326157
 30
0.0
 10
138.6040953384
 20
177.3610361785
 30
0.0
 10
138.525272441
 20
177.3512249386
 30
0.0
 10
138.4567397336
 20
177.3018611335
 30
0.0
 10
138.4136823826
 20
177.2588072171
 30
0.0
  0
SPLINE
  5
2C1
100
AcDbEntity
  8
0
100
AcDbSpline
 62
7
  6
BYLAYER
 70
0
 71
3
 72
11
 73
7
 74
0
 42
0.0000001
 43
0.0000001
 44
0.0000000001
 40
0.0
 40
0.0
 40
0.0
 40
0.0
 40
0.2362264595
 40
0.4943426376
 40
0.756036039
 40
1.0
 40
1.0
 40
1.0
 40
1.0
 10
139.5876629708
 20
176.3610347411
 30
0.0
 10
139.4668566905
 20
176.3610347415
 30
0.0
 10
139.2114623994
 20
176.4114256833
 30
0.0
 10
138.8834159148
 20
176.6361880649
 30
0.0
 10
138.6692966931
 20
176.9753051388
 30
0.0
 10
138.6217373222
 20
177.236271762
 30
0.0
 10
138.6217373759
 20
177.3610350028
 30
0.0
  0
SPLINE
  5
2C2
100
AcDbEntity
  8
0
100
AcDbSpline
 62
7
  6
BYLAYER
 70
0
 71
3
 72
12
 73
8
 74
0
 42
0.0000001
 43
0.0000001
 44
0.0000000001
 40
0.0
 40
0.0
 40
0.0
 40
0.0
 40
0.0809394874
 40
0.188786606
 40
0.3760188671
 40
0.5781656108
 40
1.0
 40
1.0
 40
1.0
 40
1.0
 10
138.4136845024
 20
177.2588116287
 30
0.0
 10
138.3616025428
 20
177.1806038388
 30
0.0
 10
138.2377912613
 20
176.9997541293
 30
0.0
 10
137.996333411
 20
176.6360872171
 30
0.0
 10
137.67834127
 20
176.1543454107
 30
0.0
 10
137.1538175244
 20
175.3721970069
 30
0.0
 10
136.7532943975
 20
174.7686170853
 30
0.0
 10
136.4818344376
 20
174.3610349267
 30
0.0
  0
SPLINE
  5
2C3
100
AcDbEntity
  8
0
100
AcDbSpline
 62
7
  6
BYLAYER
 70
0
 71
3
 72
11
 73
7
 74
0
 42
0.0000001
 43
0.0000001
 44
0.0000000001
 40
0.0
 40
0.0
 40
0.0
 40
0.0
 40
0.1494331815
 40
0.3868296353
 40
0.6800123921
 40
1.0
 40
1.0
 40
1.0
 40
1.0
 10
138.4136845024
 20
179.3269589687
 30
0.0
 10
138.320150002
 20
179.2737850295
 30
0.0
 10
138.0718519286
 20
179.1473322164
 30
0.0
 10
137.6362083674
 20
178.9239643617
 30
0.0
 10
137.0835003717
 20
178.660083869
 30
0.0
 10
136.6868586052
 20
178.4661342074
 30
0.0
 10
136.4818344376
 20
178.3610349541
 30
0.0
  0
SPLINE
  5
2C4
100
AcDbEntity
  8
0
100
AcDbSpline
 62
7
  6
BYLAYER
 70
0
 71
3
 72
10
 73
6
 74
0
 42
0.0000001
 43
0.0000001
 44
0.0000000001
 40
0.0
 40
0.0
 40
0.0
 40
0.0
 40
0.3858630364
 40
0.6797573929
 40
1.0
 40
1.0
 40
1.0
 40
1.0
 10
137.447763596
 20
180.2928917271
 30
0.0
 10
137.3244498591
 20
180.0439539799
 30
0.0
 10
137.104469255
 20
179.6067738038
 30
0.0
 10
136.7819194137
 20
178.9631217589
 30
0.0
 10
136.5875997807
 20
178.5659071087
 30
0.0
 10
136.4818345384
 20
178.3610350028
 30
0.0
  0
SPLINE
  5
2C5
100
AcDbEntity
  8
0
100
AcDbSpline
 62
7
  6
BYLAYER
 70
0
 71
3
 72
9
 73
5
 74
0
 42
0.0000001
 43
0.0000001
 44
0.0000000001
 40
0.0
 40
0.0
 40
0.0
 40
0.0
 40
0.4980583961
 40
1.0
 40
1.0
 40
1.0
 40
1.0
 10
138.4135719482
 20
179.3269482276
 30
0.0
 10
138.3977407883
 20
179.5631747176
 30
0.0
 10
138.1841392713
 20
180.0373043869
 30
0.0
 10
137.7168626199
 20
180.266201928
 30
0.0
 10
137.4794496545
 20
180.2899955489
 30
0.0
  0
SPLINE
  5
2C6
100
AcDbEntity
  8
0
100
AcDbSpline
 62
7
  6
BYLAYER
 70
0
 71
3
 72
11
 73
7
 74
0
 42
0.0000001
 43
0.0000001
 44
0.0000000001
 40
0.0
 40
0.0
 40
0.0
 40
0.0
 40
0.1494210825
 40
0.3868235435
 40
0.6800094813
 40
1.0
 40
1.0
 40
1.0
 40
1.0
 10
72.0852120487
 20
180.2928914329
 30
0.0
 10
72.1383268825
 20
180.1993329642
 30
0.0
 10
72.2647791298
 20
179.9510424158
 30
0.0
 10
72.4881981533
 20
179.5154231331
 30
0.0
 10
72.7520996976
 20
178.9627138041
 30
0.0
 10
72.9460474423
 20
178.5660646407
 30
0.0
 10
73.051142288
 20
178.3610350028
 30
0.0
  0
SPLINE
  5
2C7
100
AcDbEntity
  8
0
100
AcDbSpline
 62
7
  6
BYLAYER
 70
0
 71
3
 72
9
 73
5
 74
0
 42
0.0000001
 43
0.0000001
 44
0.0000000001
 40
0.0
 40
0.0
 40
0.0
 40
0.0
 40
0.1799401444
 40
1.0
 40
1.0
 40
1.0
 40
1.0
 10
72.0158662729
 20
180.3610350028
 30
0.0
 10
72.0218814026
 20
180.3610383134
 30
0.0
 10
72.0552986812
 20
180.3513136551
 30
0.0
 10
72.0729422797
 20
180.3174056338
 30
0.0
 10
72.0852120487
 20
180.2928914329
 30
0.0
  0
SPLINE
  5
2C8
100
AcDbEntity
  8
0
100
AcDbSpline
 62
7
  6
BYLAYER
 70
0
 71
3
 72
10
 73
6
 74
0
 42
0.0000001
 43
0.0000001
 44
0.0000000001
 40
0.0
 40
0.0
 40
0.0
 40
0.0
 40
0.3858659198
 40
0.6797543463
 40
1.0
 40
1.0
 40
1.0
 40
1.0
 10
71.1192901816
 20
179.32696035
 30
0.0
 10
71.3677545968
 20
179.2026926561
 30
0.0
 10
71.8056104086
 20
178.9840771946
 30
0.0
 10
72.4489994875
 20
178.6610026605
 30
0.0
 10
72.8462407679
 20
178.4667464582
 30
0.0
 10
73.0511423895
 20
178.3610349531
 30
0.0
  0
SPLINE
  5
2C9
100
AcDbEntity
  8
0
100
AcDbSpline
 62
7
  6
BYLAYER
 70
0
 71
3
 72
9
 73
5
 74
0
 42
0.0000001
 43
0.0000001
 44
0.0000000001
 40
0.0
 40
0.0
 40
0.0
 40
0.0
 40
0.500392319
 40
1.0
 40
1.0
 40
1.0
 40
1.0
 10
72.0535084488
 20
180.2902390971
 30
0.0
 10
71.8167844158
 20
180.2665080822
 30
0.0
 10
71.3494475685
 20
180.038268452
 30
0.0
 10
71.1351605133
 20
179.5639603226
 30
0.0
 10
71.1192916862
 20
179.3269534849
 30
0.0
  0
SPLINE
  5
2CA
100
AcDbEntity
  8
0
100
AcDbSpline
 62
7
  6
BYLAYER
 70
0
 71
3
 72
9
 73
5
 74
0
 42
0.0000001
 43
0.0000001
 44
0.0000000001
 40
0.0
 40
0.0
 40
0.0
 40
0.0
 40
0.289228985
 40
1.0
 40
1.0
 40
1.0
 40
1.0
 10
71.1192895747
 20
179.3269614424
 30
0.0
 10
71.1139492528
 20
179.3322995951
 30
0.0
 10
71.0946175159
 20
179.3496305035
 30
0.0
 10
71.0685036855
 20
179.3610397571
 30
0.0
 10
71.0499477835
 20
179.3610302699
 30
0.0
  0
SPLINE
  5
2CB
100
AcDbEntity
  8
0
100
AcDbSpline
 62
7
  6
BYLAYER
 70
0
 71
3
 72
11
 73
7
 74
0
 42
0.0000001
 43
0.0000001
 44
0.0000000001
 40
0.0
 40
0.0
 40
0.0
 40
0.0
 40
0.2476182196
 40
0.4972468356
 40
0.7477338175
 40
1.0
 40
1.0
 40
1.0
 40
1.0
 10
70.6761202939
 20
180.3610350028
 30
0.0
 10
70.5406733233
 20
180.3610350028
 30
0.0
 10
70.2661481385
 20
180.3153888832
 30
0.0
 10
69.9038623195
 20
180.1071765777
 30
0.0
 10
69.6402534401
 20
179.777165873
 30
0.0
 10
69.5725984012
 20
179.499017586
 30
0.0
 10
69.5714936359
 20
179.3610326059
 30
0.0
  0
SPLINE
  5
2CC
100
AcDbEntity
  8
0
100
AcDbSpline
 62
7
  6
BYLAYER
 70
0
 71
3
 72
11
 73
7
 74
0
 42
0.0000001
 43
0.0000001
 44
0.0000000001
 40
0.0
 40
0.0
 40
0.0
 40
0.0
 40
0.2520992964
 40
0.5024524269
 40
0.7521464882
 40
1.0
 40
1.0
 40
1.0
 40
1.0
 10
139.9614831147
 20
179.3610350028
 30
0.0
 10
139.9604950054
 20
179.4989286799
 30
0.0
 10
139.8928105475
 20
179.776925526
 30
0.0
 10
139.6293981313
 20
180.1068642518
 30
0.0
 10
139.2671236933
 20
180.3152880332
 30
0.0
 10
138.9924312638
 20
180.3610350147
 30
0.0
 10
138.8568564722
 20
180.3610350028
 30
0.0
  0
SPLINE
  5
2CD
100
AcDbEntity
  8
0
100
AcDbSpline
 62
7
  6
BYLAYER
 70
0
 71
3
 72
9
 73
5
 74
0
 42
0.0000001
 43
0.0000001
 44
0.0000000001
 40
0.0
 40
0.0
 40
0.0
 40
0.0
 40
0.2246442412
 40
1.0
 40
1.0
 40
1.0
 40
1.0
 10
138.4830438941
 20
179.3610335284
 30
0.0
 10
138.4771632213
 20
179.3610388219
 30
0.0
 10
138.4508873443
 20
179.3577676567
 30
0.0
 10
138.428041278
 20
179.3413177796
 30
0.0
 10
138.4136866222
 20
179.3269680725
 30
0.0
  0
SPLINE
  5
2CE
100
AcDbEntity
  8
0
100
AcDbSpline
 62
7
  6
BYLAYER
 70
0
 71
3
 72
11
 73
7
 74
0
 42
0.0000001
 43
0.0000001
 44
0.0000000001
 40
0.0
 40
0.0
 40
0.0
 40
0.0
 40
0.2539863983
 40
0.5056567321
 40
0.7540113633
 40
1.0
 40
1.0
 40
1.0
 40
1.0
 10
138.4830177867
 20
179.3610350028
 30
0.0
 10
138.4830271771
 20
179.4909281062
 30
0.0
 10
138.4333597515
 20
179.7522308728
 30
0.0
 10
138.2196824182
 20
180.0844876769
 30
0.0
 10
137.8986148718
 20
180.308347014
 30
0.0
 10
137.6429049972
 20
180.3610346587
 30
0.0
 10
137.5171020891
 20
180.3610350028
 30
0.0
  0
SPLINE
  5
2CF
100
AcDbEntity
  8
0
100
AcDbSpline
 62
7
  6
BYLAYER
 70
0
 71
3
 72
9
 73
5
 74
0
 42
0.0000001
 43
0.0000001
 44
0.0000000001
 40
0.0
 40
0.0
 40
0.0
 40
0.0
 40
0.1798456109
 40
1.0
 40
1.0
 40
1.0
 40
1.0
 10
137.517110256
 20
180.3610350028
 30
0.0
 10
137.5110984747
 20
180.3610387909
 30
0.0
 10
137.4776853238
 20
180.3513037611
 30
0.0
 10
137.4600365505
 20
180.3174069087
 30
0.0
 10
137.447763596
 20
180.2928917271
 30
0.0
  0
SPLINE
  5
2D0
100
AcDbEntity
  8
0
100
AcDbSpline
 62
7
  6
BYLAYER
 70
0
 71
3
 72
11
 73
7
 74
0
 42
0.0000001
 43
0.0000001
 44
0.0000000001
 40
0.0
 40
0.0
 40
0.0
 40
0.0
 40
0.2459816648
 40
0.4943385493
 40
0.7460111889
 40
1.0
 40
1.0
 40
1.0
 40
1.0
 10
72.0158595874
 20
180.3610350028
 30
0.0
 10
71.8900612138
 20
180.3610486422
 30
0.0
 10
71.6343568249
 20
180.3083365872
 30
0.0
 10
71.3132928429
 20
180.0844889192
 30
0.0
 10
71.0996157539
 20
179.7522285934
 30
0.0
 10
71.0499485738
 20
179.4909259436
 30
0.0
 10
71.0499581341
 20
179.3610326059
 30
0.0
  0
SPLINE
  5
2D1
100
AcDbEntity
  8
0
100
AcDbSpline
 62
7
  6
BYLAYER
 70
0
 71
3
 72
11
 73
7
 74
0
 42
0.0000001
 43
0.0000001
 44
0.0000000001
 40
0.0
 40
0.0
 40
0.0
 40
0.0
 40
0.243963945
 40
0.5056573311
 40
0.7637735134
 40
1.0
 40
1.0
 40
1.0
 40
1.0
 10
70.9112394475
 20
177.3610350028
 30
0.0
 10
70.9112394931
 20
177.2362718104
 30
0.0
 10
70.863680167
 20
176.9753052904
 30
0.0
 10
70.6495611024
 20
176.6361882949
 30
0.0
 10
70.3215148094
 20
176.4114258605
 30
0.0
 10
70.0661206122
 20
176.3610348051
 30
0.0
 10
69.945314357
 20
176.3610347411
 30
0.0
  0
SPLINE
  5
2D2
100
AcDbEntity
  8
0
100
AcDbSpline
 62
7
  6
BYLAYER
 70
0
 71
3
 72
9
 73
5
 74
0
 42
0.0000001
 43
0.0000001
 44
0.0000000001
 40
0.0
 40
0.0
 40
0.0
 40
0.0
 40
0.2892191849
 40
1.0
 40
1.0
 40
1.0
 40
1.0
 10
71.1192907886
 20
177.2588148892
 30
0.0
 10
71.1032710771
 20
177.2748329966
 30
0.0
 10
71.0452570789
 20
177.3268205493
 30
0.0
 10
70.9669165967
 20
177.36104663
 30
0.0
 10
70.9112420699
 20
177.3610353933
 30
0.0
  0
SPLINE
  5
2D3
100
AcDbEntity
  8
0
100
AcDbSpline
 62
7
  6
BYLAYER
 70
0
 71
3
 72
9
 73
5
 74
0
 42
0.0000001
 43
0.0000001
 44
0.0000000001
 40
0.0
 40
0.0
 40
0.0
 40
0.0
 40
0.2827410676
 40
1.0
 40
1.0
 40
1.0
 40
1.0
 10
73.0511423895
 20
174.3610349261
 30
0.0
 10
72.8691926717
 20
174.6342232382
 30
0.0
 10
72.2263202193
 20
175.6008688193
 30
0.0
 10
71.5808280035
 20
176.5657686414
 30
0.0
 10
71.1192901816
 20
177.258816153
 30
0.0
  0
SPLINE
  5
2D4
100
AcDbEntity
  8
0
100
AcDbSpline
 62
7
  6
BYLAYER
 70
0
 71
3
 72
9
 73
5
 74
0
 42
0.0000001
 43
0.0000001
 44
0.0000000001
 40
0.0
 40
0.0
 40
0.0
 40
0.0
 40
0.499989798
 40
1.0
 40
1.0
 40
1.0
 40
1.0
 10
71.119336345
 20
177.2588248585
 30
0.0
 10
71.1031402576
 20
177.0166771553
 30
0.0
 10
70.8799572185
 20
176.5322519487
 30
0.0
 10
70.3955263992
 20
176.3090997953
 30
0.0
 10
70.1533689545
 20
176.2929009502
 30
0.0
  0
SPLINE
  5
2D5
100
AcDbEntity
  8
0
100
AcDbSpline
 62
7
  6
BYLAYER
 70
0
 71
3
 72
9
 73
5
 74
0
 42
0.0000001
 43
0.0000001
 44
0.0000000001
 40
0.0
 40
0.0
 40
0.0
 40
0.0
 40
0.2686590703
 40
1.0
 40
1.0
 40
1.0
 40
1.0
 10
70.1533636573
 20
176.2928776456
 30
0.0
 10
70.1369191292
 20
176.303839793
 30
0.0
 10
70.073555708
 20
176.3411238106
 30
0.0
 10
69.99911199
 20
176.3610426967
 30
0.0
 10
69.9453123237
 20
176.3610347411
 30
0.0
  0
SPLINE
  5
2D6
100
AcDbEntity
  8
0
100
AcDbSpline
 62
7
  6
BYLAYER
 70
0
 71
3
 72
13
 73
9
 74
0
 42
0.0000001
 43
0.0000001
 44
0.0000000001
 40
0.0
 40
0.0
 40
0.0
 40
0.0
 40
0.2738524499
 40
0.5423053548
 40
0.6718360502
 40
0.7953022928
 40
0.9080592799
 40
1.0
 40
1.0
 40
1.0
 40
1.0
 10
95.9852905671
 20
133.8610350028
 30
0.0
 10
95.7796467528
 20
133.7134981237
 30
0.0
 10
95.3724633763
 20
133.4213080837
 30
0.0
 10
94.8715755426
 20
133.0541715587
 30
0.0
 10
94.4898349532
 20
132.7601790877
 30
0.0
 10
94.227104487
 20
132.5468373668
 30
0.0
 10
94.0029290283
 20
132.3438075369
 30
0.0
 10
93.8730757414
 20
132.2025716083
 30
0.0
 10
93.8305900287
 20
132.1289841952
 30
0.0
  0
LINE
  5
2D7
100
AcDbEntity
  8
0
100
AcDbLine
 62
7
  6
BYLAYER
 10
154.7664884179
 20
59.7659061943
 11
154.8510776567
 21
59.7658958303
  0
LINE
  5
2D8
100
AcDbEntity
  8
0
100
AcDbLine
 62
7
  6
BYLAYER
 10
156.2119980418
 20
59.7627390501
 11
156.3827600095
 21
59.7619413966
  0
LINE
  5
2D9
100
AcDbEntity
  8
0
100
AcDbLine
 62
7
  6
BYLAYER
 10
158.8952539541
 20
59.7384802637
 11
158.9268222155
 21
59.7380179169
  0
LINE
  5
2DA
100
AcDbEntity
  8
0
100
AcDbLine
 62
7
  6
BYLAYER
 10
158.9268222155
 20
59.7380179169
 11
158.9896335027
 21
59.7370812085
  0
SPLINE
  5
2DB
100
AcDbEntity
  8
0
100
AcDbSpline
 62
7
  6
BYLAYER
 70
0
 71
3
 72
9
 73
5
 74
0
 42
0.0000001
 43
0.0000001
 44
0.0000000001
 40
0.0
 40
0.0
 40
0.0
 40
0.0
 40
0.647220141
 40
1.0
 40
1.0
 40
1.0
 40
1.0
 10
158.9896335027
 20
59.7370812085
 30
0.0
 10
159.2497460653
 20
59.7331549573
 30
0.0
 10
159.6515895007
 20
59.725592245
 30
0.0
 10
160.0534919918
 20
59.7171695689
 30
0.0
 10
160.1951449832
 20
59.71081317
 30
0.0
  0
SPLINE
  5
2DC
100
AcDbEntity
  8
0
100
AcDbSpline
 62
7
  6
BYLAYER
 70
0
 71
3
 72
11
 73
7
 74
0
 42
0.0000001
 43
0.0000001
 44
0.0000000001
 40
0.0
 40
0.0
 40
0.0
 40
0.0
 40
0.094057333
 40
0.2009765496
 40
0.5057865495
 40
1.0
 40
1.0
 40
1.0
 40
1.0
 10
160.1951449832
 20
59.71081317
 30
0.0
 10
160.218887349
 20
59.7097477782
 30
0.0
 10
160.3114885699
 20
59.7037649135
 30
0.0
 10
160.0923248761
 20
59.6984995501
 30
0.0
 10
159.9343892751
 20
59.6986057034
 30
0.0
 10
159.7044668983
 20
59.697613948
 30
0.0
 10
159.5795898347
 20
59.6975749112
 30
0.0
  0
SPLINE
  5
2DD
100
AcDbEntity
  8
0
100
AcDbSpline
 62
7
  6
BYLAYER
 70
0
 71
3
 72
9
 73
5
 74
0
 42
0.0000001
 43
0.0000001
 44
0.0000000001
 40
0.0
 40
0.0
 40
0.0
 40
0.0
 40
0.2575460362
 40
1.0
 40
1.0
 40
1.0
 40
1.0
 10
43.9164884195
 20
62.922126614
 30
0.0
 10
43.9164838439
 20
62.8631387686
 30
0.0
 10
43.9267541539
 20
62.634338549
 30
0.0
 10
43.9779516205
 20
62.4064190957
 30
0.0
 10
44.0421190491
 20
62.2489401513
 30
0.0
  0
SPLINE
  5
2DE
100
AcDbEntity
  8
0
100
AcDbSpline
 62
7
  6
BYLAYER
 70
0
 71
3
 72
21
 73
17
 74
0
 42
0.0000001
 43
0.0000001
 44
0.0000000001
 40
0.0
 40
0.0
 40
0.0
 40
0.0
 40
0.1318861164
 40
0.1924985326
 40
0.2471428917
 40
0.2999107984
 40
0.3533088243
 40
0.4071890169
 40
0.4615743591
 40
0.5178034052
 40
0.5777899981
 40
0.6413440229
 40
0.7079826921
 40
0.7779279697
 40
0.8506514935
 40
1.0
 40
1.0
 40
1.0
 40
1.0
 10
44.0421190491
 20
62.2489401513
 30
0.0
 10
44.0912137538
 20
62.1284525076
 30
0.0
 10
44.1856143882
 20
61.960037196
 30
0.0
 10
44.3515557086
 20
61.7794560846
 30
0.0
 10
44.4903672157
 20
61.6861063409
 30
0.0
 10
44.6381056575
 20
61.6260849612
 30
0.0
 10
44.7932955894
 20
61.5924268331
 30
0.0
 10
44.9541193067
 20
61.5916927095
 30
0.0
 10
45.1137011331
 20
61.6299393523
 30
0.0
 10
45.2633269752
 20
61.7096355273
 30
0.0
 10
45.4061493164
 20
61.8152814521
 30
0.0
 10
45.5430888911
 20
61.9445748134
 30
0.0
 10
45.66121406
 20
62.1041305285
 30
0.0
 10
45.7554373045
 20
62.2886609421
 30
0.0
 10
45.8552989162
 20
62.5592695465
 30
0.0
 10
45.900121456
 20
62.7755520117
 30
0.0
 10
45.9164884135
 20
62.9219727542
 30
0.0
  0
ENDSEC
  0
SECTION
  2
OBJECTS
  0
DICTIONARY
  5
C
100
AcDbDictionary
280
0
281
1
  3
ACAD_GROUP
350
D
  3
ACAD_MLINESTYLE
350
17
  3
ACAD_LAYOUT
350
1A
  3
ACAD_PLOTSETTINGS
350
19
  3
ACAD_PLOTSTYLENAME
350
E
  0
DICTIONARY
  5
D
102
{ACAD_REACTORS
330
C
102
}
100
AcDbDictionary
280
0
281
1
  0
ACDBDICTIONARYWDFLT
  5
E
102
{ACAD_REACTORS
330
C
102
}
100
AcDbDictionary
281
1
  3
Normal
350
F
100
AcDbDictionaryWithDefault
340
F
  0
DICTIONARY
  5
17
102
{ACAD_REACTORS
330
C
102
}
100
AcDbDictionary
280
0
281
1
  3
Standard
350
18
  0
DICTIONARY
  5
19
102
{ACAD_REACTORS
330
C
102
}
100
AcDbDictionary
281
1
  0
DICTIONARY
  5
1A
102
{ACAD_REACTORS
330
C
102
}
100
AcDbDictionary
281
1
  3
Model
350
2DF
  3
Layout1
350
2E0
  0
ACDBPLACEHOLDER
  5
F
102
{ACAD_REACTORS
330
E
102
}
  0
MLINESTYLE
  5
18
102
{ACAD_REACTORS
330
17
102
}
100
AcDbMlineStyle
  2
STANDARD
 70
0
  3

 62
256
 51
90.0
 52
90.0
 71
2
 49
0.5
 62
256
  6
BYLAYER
 49
-0.5
 62
256
  6
BYLAYER
  0
LAYOUT
  5
2DF
102
{ACAD_REACTORS
330
1A
102
}
100
AcDbPlotSettings
  1

  2
none_device
  4

  6

 40
0.0
 41
0.0
 42
0.0
 43
0.0
 44
210.0
 45
297.0
 46
0.0
 47
0.0
 48
0.0
 49
0.0
140
0.0
141
0.0
142
1.0
143
1.0
 70
1024
 72
1
 73
0
 74
0
  7

 75
0
147
1.0
148
0.0
149
0.0
100
AcDbLayout
  1
Model
 70
0
 71
0
 10
0.0
 20
0.0
 11
210.0
 21
297.0
 12
0.0
 22
0.0
 32
0.0
 14
0.0
 24
0.0
 34
0.0
 15
0.0
 25
0.0
 35
0.0
146
0.0
 13
0.0
 23
0.0
 33
0.0
 16
1.0
 26
0.0
 36
0.0
 17
0.0
 27
1.0
 37
0.0
 76
0
330
210
345
0
346
0
  0
LAYOUT
  5
2E0
102
{ACAD_REACTORS
330
1A
102
}
100
AcDbPlotSettings
  1

  2
none_device
  4

  6

 40
0.0
 41
0.0
 42
0.0
 43
0.0
 44
210.0
 45
297.0
 46
0.0
 47
0.0
 48
0.0
 49
0.0
140
0.0
141
0.0
142
1.0
143
1.0
 70
0
 72
1
 73
0
 74
0
  7

 75
0
147
1.0
148
0.0
149
0.0
100
AcDbLayout
  1
Layout1
 70
0
 71
1
 10
0.0
 20
0.0
 11
210.0
 21
297.0
 12
0.0
 22
0.0
 32
0.0
 14
0.0
 24
0.0
 34
0.0
 15
0.0
 25
0.0
 35
0.0
146
0.0
 13
0.0
 23
0.0
 33
0.0
 16
1.0
 26
0.0
 36
0.0
 17
0.0
 27
1.0
 37
0.0
 76
0
330
211
345
0
346
0
  0
ENDSEC
  0
EOF
