999
DXF file: C:\Users\SESA654545\Desktop\sachin babu tesys\Gen2D (4)\Gen2D\CAD\SB115110_3D-CAD\drw0001_5.dxf
999
Pro/ENGINEER 2019471 by Parametric Technology Corporation
  0
SECTION
  2
HEADER
  9
$ACADVER
  1
AC1024
  9
$DWGCODEPAGE
  3
ANSI_1252
  9
$EXTMAX
 10
37.2532294624
 20
52.6867102397
 30
0.0
  9
$EXTMIN
 10
0.0
 20
0.0
 30
0.0
  9
$LIMMIN
 10
0.0
 20
0.0
  9
$LIMMAX
 10
37.2532294624
 20
52.6867102397
  9
$VIEWCTR
 10
18.6266147312
 20
26.3433551198
  9
$VIEWSIZE
 40
52.6867102397
  9
$CLAYER
  8
0
  9
$LTSCALE
 40
3.4343929638
  9
$CELTYPE
  6
BYLAYER
  9
$DIMSCALE
 40
1.0
  9
$DIMASZ
 40
0.4434908269
  9
$DIMEXO
 40
1.0
  9
$DIMDLI
 40
2.3728533204
  9
$DIMEXE
 40
1.0
  9
$DIMCEN
 40
0.5619915759
  9
$DIMLFAC
 40
1.0
  9
$DIMBLK
  1
_FILLED
  9
$DIMALT
 70
0
  9
$DIMALTF
 40
0.0393700787
  9
$DIMTXT
 40
0.6208871577
  9
$DIMTOL
 70
1
  9
$DIMLIM
 70
0
  9
$DIMTFAC
 40
1.0
  9
$DIMTP
 40
0.01
  9
$DIMTM
 40
0.01
  9
$DIMGAP
 40
0.625
  9
$DIMDSEP
 70
46
  9
$AUNITS
 70
0
  9
$PDMODE
 70
3
  9
$PDSIZE
 40
0.3125
  9
$HANDSEED
  5
244
  9
$TILEMODE
 70
1
  9
$MEASUREMENT
 70
1
  9
$INSUNITS
 70
4
  0
ENDSEC
  0
SECTION
  2
CLASSES
  0
CLASS
  1
ACDBDICTIONARYWDFLT
  2
AcDbDictionaryWithDefault
  3
AutoCAD 2000
 90
0
 91
1
280
0
281
0
  0
CLASS
  1
ACDBPLACEHOLDER
  2
AcDbPlaceHolder
  3
AutoCAD 2000
 90
0
 91
1
280
0
281
0
  0
CLASS
  1
LAYOUT
  2
AcDbLayout
  3
AutoCAD 2000
 90
0
 91
0
280
0
281
0
  0
ENDSEC
  0
SECTION
  2
TABLES
  0
TABLE
  2
VPORT
  5
8
100
AcDbSymbolTable
 70
2
  0
VPORT
  5
1F4
100
AcDbSymbolTableRecord
100
AcDbViewportTableRecord
  2
*ACTIVE
 70
0
 10
0.0
 20
0.0
 11
1.0
 21
1.0
 12
18.6266147312
 22
26.3433551198
 13
0.0
 23
0.0
 14
1.0
 24
1.0
 15
0.0
 25
0.0
 16
0.0
 26
0.0
 36
1.0
 17
0.0
 27
0.0
 37
0.0
 40
52.6867102397
 41
0.7070707071
 42
50.0
 43
0.0
 44
0.0
 50
0.0
 51
0.0
 71
0
 72
100
 73
1
 74
1
 75
0
 76
0
 77
0
 78
0
  0
ENDTAB
  0
TABLE
  2
LTYPE
  5
5
100
AcDbSymbolTable
 70
6
  0
LTYPE
  5
14
100
AcDbSymbolTableRecord
100
AcDbLinetypeTableRecord
  2
BYBLOCK
 70
0
  3

 72
65
 73
0
 40
0.0
  0
LTYPE
  5
15
100
AcDbSymbolTableRecord
100
AcDbLinetypeTableRecord
  2
BYLAYER
 70
0
  3

 72
65
 73
0
 40
0.0
  0
LTYPE
  5
16
100
AcDbSymbolTableRecord
100
AcDbLinetypeTableRecord
  2
CONTINUOUS
 70
64
  3
Solid line
 72
65
 73
0
 40
0.0
  0
LTYPE
  5
1F5
100
AcDbSymbolTableRecord
100
AcDbLinetypeTableRecord
  2
CENTER
 70
64
  3
____ _ ____ _ ____ _ ____ _ ____ _ ____ _ ____
 72
65
 73
4
 40
0.6
 49
0.375
 74
0
 49
-0.075
 74
0
 49
0.075
 74
0
 49
-0.075
 74
0
  0
LTYPE
  5
1F6
100
AcDbSymbolTableRecord
100
AcDbLinetypeTableRecord
  2
HIDDEN
 70
64
  3
- - - - - - - - - - - - - - - - - - - -
 72
65
 73
2
 40
0.2
 49
0.1
 74
0
 49
-0.1
 74
0
  0
LTYPE
  5
1F7
100
AcDbSymbolTableRecord
100
AcDbLinetypeTableRecord
  2
PHANTOM
 70
64
  3
_____ _ _ _____ _ _ _____ _ _ _____
 72
65
 73
6
 40
0.8
 49
0.45
 74
0
 49
-0.05
 74
0
 49
0.1
 74
0
 49
-0.05
 74
0
 49
0.1
 74
0
 49
-0.05
 74
0
  0
LTYPE
  5
1F8
100
AcDbSymbolTableRecord
100
AcDbLinetypeTableRecord
  2
DOT
 70
64
  3
. . . . . . . . . . . . . . . . . . . .
 72
65
 73
2
 40
0.2
 49
0.1
 74
0
 49
-0.1
 74
0
  0
LTYPE
  5
1F9
100
AcDbSymbolTableRecord
100
AcDbLinetypeTableRecord
  2
DASHED
 70
64
  3
- - - - - - - - - - - - - - - - - - - -
 72
65
 73
2
 40
0.2
 49
0.1
 74
0
 49
-0.1
 74
0
  0
ENDTAB
  0
TABLE
  2
LAYER
  5
2
100
AcDbSymbolTable
 70
36
  0
LAYER
  5
10
100
AcDbSymbolTableRecord
100
AcDbLayerTableRecord
  2
0
 70
0
 62
7
  6
CONTINUOUS
370
-3
390
F
  0
LAYER
  5
1FA
100
AcDbSymbolTableRecord
100
AcDbLayerTableRecord
  2
DEFAULT_1
 70
0
 62
7
  6
CENTER
370
-3
390
F
  0
LAYER
  5
1FB
100
AcDbSymbolTableRecord
100
AcDbLayerTableRecord
  2
DEFAULT_2
 70
0
 62
8
  6
HIDDEN
370
-3
390
F
  0
LAYER
  5
1FC
100
AcDbSymbolTableRecord
100
AcDbLayerTableRecord
  2
DEFAULT_3
 70
0
 62
7
  6
PHANTOM
370
-3
390
F
  0
LAYER
  5
1FD
100
AcDbSymbolTableRecord
100
AcDbLayerTableRecord
  2
00_COMPONENTS
 70
0
 62
7
  6
CONTINUOUS
370
-3
390
F
  0
LAYER
  5
1FE
100
AcDbSymbolTableRecord
100
AcDbLayerTableRecord
  2
01_1_DEFAULT_DATUMS
 70
0
 62
7
  6
CONTINUOUS
370
-3
390
F
  0
LAYER
  5
1FF
100
AcDbSymbolTableRecord
100
AcDbLayerTableRecord
  2
01_PLANES
 70
0
 62
7
  6
CONTINUOUS
370
-3
390
F
  0
LAYER
  5
200
100
AcDbSymbolTableRecord
100
AcDbLayerTableRecord
  2
02_COORD_SYS
 70
0
 62
7
  6
CONTINUOUS
370
-3
390
F
  0
LAYER
  5
201
100
AcDbSymbolTableRecord
100
AcDbLayerTableRecord
  2
03_AXES
 70
0
 62
7
  6
CONTINUOUS
370
-3
390
F
  0
LAYER
  5
202
100
AcDbSymbolTableRecord
100
AcDbLayerTableRecord
  2
04_POINTS
 70
0
 62
7
  6
CONTINUOUS
370
-3
390
F
  0
LAYER
  5
203
100
AcDbSymbolTableRecord
100
AcDbLayerTableRecord
  2
05_CURVES
 70
0
 62
7
  6
CONTINUOUS
370
-3
390
F
  0
LAYER
  5
204
100
AcDbSymbolTableRecord
100
AcDbLayerTableRecord
  2
06_SURFS
 70
0
 62
7
  6
CONTINUOUS
370
-3
390
F
  0
LAYER
  5
205
100
AcDbSymbolTableRecord
100
AcDbLayerTableRecord
  2
07_COSMETICS
 70
0
 62
7
  6
CONTINUOUS
370
-3
390
F
  0
LAYER
  5
206
100
AcDbSymbolTableRecord
100
AcDbLayerTableRecord
  2
10_NOTES
 70
0
 62
7
  6
CONTINUOUS
370
-3
390
F
  0
LAYER
  5
207
100
AcDbSymbolTableRecord
100
AcDbLayerTableRecord
  2
11_NOTES_PUB
 70
0
 62
7
  6
CONTINUOUS
370
-3
390
F
  0
LAYER
  5
208
100
AcDbSymbolTableRecord
100
AcDbLayerTableRecord
  2
13_REF_GTOL
 70
0
 62
7
  6
CONTINUOUS
370
-3
390
F
  0
LAYER
  5
209
100
AcDbSymbolTableRecord
100
AcDbLayerTableRecord
  2
16_MISC
 70
0
 62
7
  6
CONTINUOUS
370
-3
390
F
  0
LAYER
  5
20A
100
AcDbSymbolTableRecord
100
AcDbLayerTableRecord
  2
17_NO_PRINT
 70
0
 62
7
  6
CONTINUOUS
370
-3
390
F
  0
LAYER
  5
20B
100
AcDbSymbolTableRecord
100
AcDbLayerTableRecord
  2
18_DATUM_CAMS_JOINTS
 70
0
 62
7
  6
CONTINUOUS
370
-3
390
F
  0
LAYER
  5
20C
100
AcDbSymbolTableRecord
100
AcDbLayerTableRecord
  2
19_DATUM_FUNCTIONAL
 70
0
 62
7
  6
CONTINUOUS
370
-3
390
F
  0
LAYER
  5
20D
100
AcDbSymbolTableRecord
100
AcDbLayerTableRecord
  2
20_DATUM_KINEMATIC_SCHEME
 70
0
 62
7
  6
CONTINUOUS
370
-3
390
F
  0
ENDTAB
  0
TABLE
  2
STYLE
  5
3
100
AcDbSymbolTable
 70
1
  0
STYLE
  5
11
100
AcDbSymbolTableRecord
100
AcDbTextStyleTableRecord
  2
STANDARD
 70
0
 40
0.0
 41
0.8
 50
0.0
 71
0
 42
0.2
  3
txt
  4

  0
STYLE
  5
20E
100
AcDbSymbolTableRecord
100
AcDbTextStyleTableRecord
  2
TEXTSTYLE_1
 70
0
 40
0.0
 41
0.8
 50
0.0
 71
0
 42
0.2
  3
gdt
  4

  0
ENDTAB
  0
TABLE
  2
VIEW
  5
6
100
AcDbSymbolTable
 70
0
  0
ENDTAB
  0
TABLE
  2
UCS
  5
7
100
AcDbSymbolTable
 70
0
  0
ENDTAB
  0
TABLE
  2
APPID
  5
9
100
AcDbSymbolTable
 70
1
  0
APPID
  5
20F
100
AcDbSymbolTableRecord
100
AcDbRegAppTableRecord
  2
ACAD
 70
0
  0
ENDTAB
  0
TABLE
  2
BLOCK_RECORD
  5
1
100
AcDbSymbolTable
 70
0
  0
BLOCK_RECORD
  5
210
100
AcDbSymbolTableRecord
100
AcDbBlockTableRecord
  2
*Model_Space
  0
BLOCK_RECORD
  5
211
100
AcDbSymbolTableRecord
100
AcDbBlockTableRecord
  2
*Paper_Space
  0
BLOCK_RECORD
  5
212
100
AcDbSymbolTableRecord
100
AcDbBlockTableRecord
  2
_FILLED
  0
ENDTAB
  0
TABLE
  2
DIMSTYLE
  5
A
100
AcDbSymbolTable
 70
1
100
AcDbDimStyleTable
 71
0
  0
DIMSTYLE
105
213
100
AcDbSymbolTableRecord
100
AcDbDimStyleTableRecord
  2
STANDARD
 70
0
  3

  4

 40
1.0
 41
0.4434908269
 42
1.0
 43
0.38
 44
1.0
 45
0.0
 46
0.0
 47
0.01
 48
0.01
140
0.6208871577
141
0.09
142
0.0
143
25.4
144
1.0
145
0.0
146
1.0
147
0.625
 71
1
 72
0
 73
0
 74
0
 75
0
 76
0
 77
1
 78
8
 79
2
170
0
171
1
172
0
173
0
174
0
175
0
176
0
177
0
178
0
270
2
179
2
271
2
272
2
273
2
274
2
275
0
280
0
281
0
282
0
283
1
284
8
285
0
286
0
287
3
288
0
340
11
278
46
341
212
342
212
343
212
344
212
  0
ENDTAB
  0
ENDSEC
  0
SECTION
  2
BLOCKS
  0
BLOCK
  5
20
100
AcDbEntity
  8
0
100
AcDbBlockBegin
  2
*Model_Space
 70
0
 10
0.0
 20
0.0
 30
0.0
  3
*Model_Space
  1

  0
ENDBLK
  5
21
100
AcDbEntity
  8
0
100
AcDbBlockEnd
  0
BLOCK
  5
1C
100
AcDbEntity
  8
0
100
AcDbBlockBegin
  2
*Paper_Space
 70
0
 10
0.0
 20
0.0
 30
0.0
  3
*Paper_Space
  1

  0
ENDBLK
  5
1D
100
AcDbEntity
  8
0
100
AcDbBlockEnd
  0
BLOCK
  5
214
100
AcDbEntity
  8
0
100
AcDbBlockBegin
  2
_FILLED
 70
64
 10
0.0
 20
0.0
  3
_FILLED
  1

  0
SOLID
  5
215
100
AcDbEntity
  8
0
  6
BYBLOCK
 62
0
100
AcDbTrace
 10
0.0
 20
0.0
 11
-1.0
 21
0.25
 12
-1.0
 22
-0.25
 13
-1.0
 23
-0.25
  0
ENDBLK
  5
216
100
AcDbEntity
  8
0
  6
BYBLOCK
 62
0
100
AcDbBlockEnd
  0
ENDSEC
  0
SECTION
  2
ENTITIES
  0
LINE
  5
217
100
AcDbEntity
  8
0
100
AcDbLine
 62
7
  6
CONTINUOUS
 10
4.3425188706
 20
32.2497708136
 11
4.3425188706
 21
32.2397157837
  0
LINE
  5
218
100
AcDbEntity
  8
0
100
AcDbLine
 62
7
  6
CONTINUOUS
 10
4.3425188706
 20
16.1445277031
 11
4.3425188706
 21
32.2382275854
  0
LINE
  5
219
100
AcDbEntity
  8
0
100
AcDbLine
 62
7
  6
CONTINUOUS
 10
4.3425188706
 20
16.1445277031
 11
24.6468422068
 21
16.1445277031
  0
LINE
  5
21A
100
AcDbEntity
  8
0
100
AcDbLine
 62
7
  6
CONTINUOUS
 10
32.4425188706
 20
18.0909886815
 11
33.9425188706
 21
18.0909886815
  0
LINE
  5
21B
100
AcDbEntity
  8
0
100
AcDbLine
 62
7
  6
CONTINUOUS
 10
24.6410265074
 20
20.4577669657
 11
32.4425188706
 21
20.4577669657
  0
LINE
  5
21C
100
AcDbEntity
  8
0
100
AcDbLine
 62
7
  6
CONTINUOUS
 10
16.0425188706
 20
32.2579203632
 11
16.0425188706
 21
32.2607893804
  0
LINE
  5
21D
100
AcDbEntity
  8
0
100
AcDbLine
 62
7
  6
CONTINUOUS
 10
31.6425188706
 20
27.5795423132
 11
24.6468439435
 21
27.5795423132
  0
LINE
  5
21E
100
AcDbEntity
  8
0
100
AcDbLine
 62
7
  6
CONTINUOUS
 10
20.6425188706
 20
32.2382275854
 11
20.6425188706
 21
32.3214786692
  0
LINE
  5
21F
100
AcDbEntity
  8
0
100
AcDbLine
 62
7
  6
CONTINUOUS
 10
33.9425188706
 20
27.8816552812
 11
31.6425188706
 21
27.8816552812
  0
LINE
  5
220
100
AcDbEntity
  8
0
100
AcDbLine
 62
7
  6
CONTINUOUS
 10
22.6484447088
 20
32.3214786711
 11
22.6466586164
 21
16.144527705
  0
LINE
  5
221
100
AcDbEntity
  8
0
100
AcDbLine
 62
7
  6
CONTINUOUS
 10
23.8132695942
 20
32.3107117165
 11
23.8132695942
 21
34.8445277031
  0
LINE
  5
222
100
AcDbEntity
  8
0
100
AcDbLine
 62
7
  6
CONTINUOUS
 10
24.1948605488
 20
34.8445277031
 11
24.1948605488
 21
32.308319136
  0
LINE
  5
223
100
AcDbEntity
  8
0
100
AcDbLine
 62
7
  6
CONTINUOUS
 10
24.6468439435
 20
16.1445277031
 11
24.6468439435
 21
19.2640875372
  0
LINE
  5
224
100
AcDbEntity
  8
0
100
AcDbLine
 62
7
  6
CONTINUOUS
 10
24.6468439435
 20
24.6246355058
 11
24.6468439435
 21
32.304891059
  0
LINE
  5
225
100
AcDbEntity
  8
0
100
AcDbLine
 62
7
  6
CONTINUOUS
 10
20.6425188706
 20
32.2382275854
 11
4.3425188706
 21
32.2382275854
  0
LINE
  5
226
100
AcDbEntity
  8
0
100
AcDbLine
 62
7
  6
CONTINUOUS
 10
7.2425188706
 20
32.2497708136
 11
4.3425188706
 21
32.2497708136
  0
LINE
  5
227
100
AcDbEntity
  8
0
100
AcDbLine
 62
7
  6
CONTINUOUS
 10
15.0425188706
 20
32.2579203632
 11
16.0425188706
 21
32.2579203632
  0
LINE
  5
228
100
AcDbEntity
  8
0
100
AcDbLine
 62
7
  6
CONTINUOUS
 10
7.2425188706
 20
32.2587485641
 11
4.3425188706
 21
32.2587485641
  0
LINE
  5
229
100
AcDbEntity
  8
0
100
AcDbLine
 62
7
  6
CONTINUOUS
 10
16.0425188706
 20
32.2607893804
 11
9.2425188706
 21
32.2610649634
  0
LINE
  5
22A
100
AcDbEntity
  8
0
100
AcDbLine
 62
7
  6
CONTINUOUS
 10
20.6425188706
 20
32.2657115868
 11
16.0425188706
 21
32.2657115868
  0
LINE
  5
22B
100
AcDbEntity
  8
0
100
AcDbLine
 62
7
  6
CONTINUOUS
 10
22.8020452646
 20
32.3214786692
 11
20.6425188706
 21
32.3214786692
  0
LINE
  5
22C
100
AcDbEntity
  8
0
100
AcDbLine
 62
7
  6
CONTINUOUS
 10
24.6468439435
 20
32.3049446916
 11
22.8020445224
 21
32.3216123854
  0
LINE
  5
22D
100
AcDbEntity
  8
0
100
AcDbLine
 62
7
  6
CONTINUOUS
 10
23.7611023149
 20
34.8445277031
 11
31.6425188706
 21
34.8445277031
  0
LINE
  5
22E
100
AcDbEntity
  8
0
100
AcDbLine
 62
7
  6
CONTINUOUS
 10
33.9425188706
 20
36.6711579729
 11
31.6425188706
 21
36.6711579729
  0
LINE
  5
22F
100
AcDbEntity
  8
0
100
AcDbLine
 62
7
  6
CONTINUOUS
 10
31.6425188706
 20
27.5795423132
 11
31.6425188706
 21
36.6711703729
  0
LINE
  5
230
100
AcDbEntity
  8
0
100
AcDbLine
 62
7
  6
CONTINUOUS
 10
32.4425188706
 20
18.0909886815
 11
32.4425188706
 21
20.4577669657
  0
LINE
  5
231
100
AcDbEntity
  8
0
100
AcDbLine
 62
7
  6
CONTINUOUS
 10
33.9425188706
 20
18.0909886815
 11
33.9425188706
 21
36.6711585715
  0
SPLINE
  5
232
100
AcDbEntity
  8
0
100
AcDbSpline
 62
7
  6
CONTINUOUS
 70
0
 71
3
 72
23
 73
19
 74
0
 42
0.0000001
 43
0.0000001
 44
0.0000000001
 40
0.0
 40
0.0
 40
0.0
 40
0.0
 40
0.0325066399
 40
0.0448498238
 40
0.0591235868
 40
0.0753719414
 40
0.0936122454
 40
0.1138458012
 40
0.1360609944
 40
0.1863021425
 40
0.2440244378
 40
0.3088061011
 40
0.3800557875
 40
0.4571398008
 40
0.5393696908
 40
0.6260302654
 40
0.8093893669
 40
1.0
 40
1.0
 40
1.0
 40
1.0
 10
23.4388959603
 20
24.5992761927
 30
0.0
 10
23.409079196
 20
24.5993001334
 30
0.0
 10
23.3739934067
 20
24.5633481252
 30
0.0
 10
23.3458862128
 20
24.5185428267
 30
0.0
 10
23.3275493153
 20
24.4833919249
 30
0.0
 10
23.3095899374
 20
24.4425045165
 30
0.0
 10
23.2917172263
 20
24.3955504083
 30
0.0
 10
23.2740901074
 20
24.3427434823
 30
0.0
 10
23.2499454989
 20
24.2612064794
 30
0.0
 10
23.2211436861
 20
24.1452691542
 30
0.0
 10
23.1894700241
 20
23.989982232
 30
0.0
 10
23.1598733854
 20
23.8147141351
 30
0.0
 10
23.1326666933
 20
23.6211153356
 30
0.0
 10
23.1082352217
 20
23.4110286836
 30
0.0
 10
23.0869097438
 20
23.1864025188
 30
0.0
 10
23.0626667582
 20
22.8641942392
 30
0.0
 10
23.0424875827
 20
22.4420767044
 30
0.0
 10
23.0370048905
 20
22.0990315718
 30
0.0
 10
23.0369876091
 20
21.9241936267
 30
0.0
  0
SPLINE
  5
233
100
AcDbEntity
  8
0
100
AcDbSpline
 62
7
  6
CONTINUOUS
 70
0
 71
3
 72
23
 73
19
 74
0
 42
0.0000001
 43
0.0000001
 44
0.0000000001
 40
0.0
 40
0.0
 40
0.0
 40
0.0
 40
0.0086088679
 40
0.011843901
 40
0.015585831
 40
0.0246577743
 40
0.035912111
 40
0.0493672156
 40
0.0650145724
 40
0.0828347078
 40
0.1248824252
 40
0.1751949426
 40
0.2333531248
 40
0.2988528649
 40
0.4492003764
 40
0.6205701873
 40
0.8066282251
 40
1.0
 40
1.0
 40
1.0
 40
1.0
 10
24.3121229296
 20
24.6197848254
 30
0.0
 10
24.3043683446
 20
24.6197956042
 30
0.0
 10
24.2951027293
 20
24.6108224684
 30
0.0
 10
24.287533212
 20
24.5993787024
 30
0.0
 10
24.2804945506
 20
24.5866338631
 30
0.0
 10
24.2720100654
 20
24.5666937179
 30
0.0
 10
24.2622288393
 20
24.5378414961
 30
0.0
 10
24.2524257716
 20
24.502829247
 30
0.0
 10
24.2426037927
 20
24.4617100504
 30
0.0
 10
24.2287795271
 20
24.3951009032
 30
0.0
 10
24.2121550663
 20
24.2972263216
 30
0.0
 10
24.1935891507
 20
24.162908704
 30
0.0
 10
24.175785809
 20
24.0072037304
 30
0.0
 10
24.152346964
 20
23.7614932914
 30
0.0
 10
24.1274269605
 20
23.4135438907
 30
0.0
 10
24.1053544006
 20
22.9566566784
 30
0.0
 10
24.0915699294
 20
22.4606747827
 30
0.0
 10
24.0883807649
 20
22.1188889191
 30
0.0
 10
24.0883706881
 20
21.9447058172
 30
0.0
  0
SPLINE
  5
234
100
AcDbEntity
  8
0
100
AcDbSpline
 62
7
  6
CONTINUOUS
 70
0
 71
3
 72
33
 73
29
 74
0
 42
0.0000001
 43
0.0000001
 44
0.0000000001
 40
0.0
 40
0.0
 40
0.0
 40
0.0
 40
0.000127657
 40
0.0003825196
 40
0.0013295595
 40
0.0028734395
 40
0.0050154223
 40
0.0077539008
 40
0.0110864596
 40
0.0150103689
 40
0.0195227508
 40
0.030300832
 40
0.0433933045
 40
0.0587699969
 40
0.0764005417
 40
0.0962545039
 40
0.1182994021
 40
0.1424823616
 40
0.1687386387
 40
0.2272115374
 40
0.2931608746
 40
0.3658967701
 40
0.4446972319
 40
0.5288112545
 40
0.6174706943
 40
0.7098470497
 40
0.8050441613
 40
1.0
 40
1.0
 40
1.0
 40
1.0
 10
24.6429223448
 20
24.6246692875
 30
0.0
 10
24.642808424
 20
24.6246631029
 30
0.0
 10
24.6425612192
 20
24.6243429976
 30
0.0
 10
24.6421864908
 20
24.6232702452
 30
0.0
 10
24.6416871429
 20
24.6208075376
 30
0.0
 10
24.641126913
 20
24.616736254
 30
0.0
 10
24.6405057857
 20
24.6110140491
 30
0.0
 10
24.639851736
 20
24.6037082722
 30
0.0
 10
24.6391603424
 20
24.5948004062
 30
0.0
 10
24.6384366418
 20
24.5843079287
 30
0.0
 10
24.6373645822
 20
24.5671689503
 30
0.0
 10
24.6359749165
 20
24.5418407259
 30
0.0
 10
24.6342738852
 20
24.5068060691
 30
0.0
 10
24.632470663
 20
24.4656455857
 30
0.0
 10
24.6305765135
 20
24.4184408041
 30
0.0
 10
24.6286036852
 20
24.3652751931
 30
0.0
 10
24.6265641644
 20
24.3062522592
 30
0.0
 10
24.6244712386
 20
24.2415060981
 30
0.0
 10
24.6215216623
 20
24.1442146783
 30
0.0
 10
24.6178227227
 20
24.0096020163
 30
0.0
 10
24.6135496429
 20
23.8334510161
 30
0.0
 10
24.6094117912
 20
23.6391252454
 30
0.0
 10
24.6055293335
 20
23.4285572194
 30
0.0
 10
24.602015096
 20
23.203749785
 30
0.0
 10
24.5989874033
 20
22.9668012753
 30
0.0
 10
24.5965361786
 20
22.7199404625
 30
0.0
 10
24.5941019785
 20
22.3780778589
 30
0.0
 10
24.5933573554
 20
22.1187639306
 30
0.0
 10
24.5933542452
 20
21.9445295864
 30
0.0
  0
SPLINE
  5
235
100
AcDbEntity
  8
0
100
AcDbSpline
 62
7
  6
CONTINUOUS
 70
0
 71
3
 72
12
 73
8
 74
0
 42
0.0000001
 43
0.0000001
 44
0.0000000001
 40
0.0
 40
0.0
 40
0.0
 40
0.0
 40
0.0704780788
 40
0.1615661141
 40
0.3964553719
 40
0.6843870715
 40
1.0
 40
1.0
 40
1.0
 40
1.0
 10
24.6468430509
 20
19.4576330888
 30
0.0
 10
24.64684425
 20
19.5160576939
 30
0.0
 10
24.6463391729
 20
19.6499917536
 30
0.0
 10
24.6442643523
 20
19.9786368632
 30
0.0
 10
24.6404219919
 20
20.4875381359
 30
0.0
 10
24.6366507104
 20
21.1825699315
 30
0.0
 10
24.6356512353
 20
21.682894181
 30
0.0
 10
24.6356490992
 20
21.9445295864
 30
0.0
  0
SPLINE
  5
236
100
AcDbEntity
  8
0
100
AcDbSpline
 62
7
  6
CONTINUOUS
 70
0
 71
3
 72
25
 73
21
 74
0
 42
0.0000001
 43
0.0000001
 44
0.0000000001
 40
0.0
 40
0.0
 40
0.0
 40
0.0
 40
0.1904363248
 40
0.3735454833
 40
0.4601202296
 40
0.5423022949
 40
0.6193036404
 40
0.6904089938
 40
0.7550668281
 40
0.812761525
 40
0.8630086447
 40
0.9053792482
 40
0.9235535654
 40
0.9397375685
 40
0.9539649434
 40
0.9662938472
 40
0.9768198294
 40
0.9857074886
 40
0.9932599188
 40
1.0
 40
1.0
 40
1.0
 40
1.0
 10
23.0369876091
 20
21.9241936267
 30
0.0
 10
23.0369703243
 20
21.7493215509
 30
0.0
 10
23.0423308644
 20
21.4062823376
 30
0.0
 10
23.0625258079
 20
20.9841640597
 30
0.0
 10
23.0867072385
 20
20.6619452275
 30
0.0
 10
23.107935424
 20
20.4372577704
 30
0.0
 10
23.1322908625
 20
20.2271795963
 30
0.0
 10
23.1594949701
 20
20.033685093
 30
0.0
 10
23.1891191393
 20
19.8584995714
 30
0.0
 10
23.2207549454
 20
19.7031557488
 30
0.0
 10
23.2539806048
 20
19.5691425021
 30
0.0
 10
23.2840091589
 20
19.4718367803
 30
0.0
 10
23.3091214035
 20
19.4059798272
 30
0.0
 10
23.3271542342
 20
19.3651451512
 30
0.0
 10
23.3453104544
 20
19.3303112166
 30
0.0
 10
23.3635504653
 20
19.3014956968
 30
0.0
 10
23.381854044
 20
19.2787053191
 30
0.0
 10
23.4003022028
 20
19.2619741346
 30
0.0
 10
23.4190670232
 20
19.2514241056
 30
0.0
 10
23.4322500693
 20
19.2488335507
 30
0.0
 10
23.4384392181
 20
19.2488042093
 30
0.0
  0
SPLINE
  5
237
100
AcDbEntity
  8
0
100
AcDbSpline
 62
7
  6
CONTINUOUS
 70
0
 71
3
 72
23
 73
19
 74
0
 42
0.0000001
 43
0.0000001
 44
0.0000000001
 40
0.0
 40
0.0
 40
0.0
 40
0.0
 40
0.1933997711
 40
0.3794676055
 40
0.5508640978
 40
0.7011612875
 40
0.7666421815
 40
0.8248501214
 40
0.8752238261
 40
0.9172451945
 40
0.9350222547
 40
0.950623292
 40
0.9640412754
 40
0.9752795623
 40
0.9843609455
 40
0.988113634
 40
0.9913610317
 40
1.0
 40
1.0
 40
1.0
 40
1.0
 10
24.0883706881
 20
21.9447058172
 30
0.0
 10
24.0883606101
 20
21.7704996555
 30
0.0
 10
24.0915072467
 20
21.4286834768
 30
0.0
 10
24.1052543723
 20
20.9326487122
 30
0.0
 10
24.1272537848
 20
20.4757762
 30
0.0
 10
24.1521488693
 20
20.1278672205
 30
0.0
 10
24.1755900278
 20
19.8821777356
 30
0.0
 10
24.1933719998
 20
19.7263890744
 30
0.0
 10
24.2118955036
 20
19.5919904305
 30
0.0
 10
24.2285136529
 20
19.494122629
 30
0.0
 10
24.2423512687
 20
19.4276234338
 30
0.0
 10
24.2521783048
 20
19.3866230408
 30
0.0
 10
24.2619888333
 20
19.3517065627
 30
0.0
 10
24.2717766949
 20
19.3228985831
 30
0.0
 10
24.280257914
 20
19.3029551328
 30
0.0
 10
24.2872912824
 20
19.2901732027
 30
0.0
 10
24.294861332
 20
19.2786778223
 30
0.0
 10
24.3041021689
 20
19.2696046422
 30
0.0
 10
24.3118837617
 20
19.2695884929
 30
0.0
  0
SPLINE
  5
238
100
AcDbEntity
  8
0
100
AcDbSpline
 62
7
  6
CONTINUOUS
 70
0
 71
3
 72
33
 73
29
 74
0
 42
0.0000001
 43
0.0000001
 44
0.0000000001
 40
0.0
 40
0.0
 40
0.0
 40
0.0
 40
0.1949563946
 40
0.2901663652
 40
0.3825575054
 40
0.4712294445
 40
0.5553395485
 40
0.6341161771
 40
0.706808756
 40
0.7727165711
 40
0.8311650764
 40
0.8574143293
 40
0.8815949801
 40
0.90364316
 40
0.9235042923
 40
0.9411457301
 40
0.9565380234
 40
0.9696517887
 40
0.9804575371
 40
0.9849848709
 40
0.9889227161
 40
0.9922668078
 40
0.9950130329
 40
0.9971576027
 40
0.9986975701
 40
0.999633039
 40
0.9998793945
 40
1.0
 40
1.0
 40
1.0
 40
1.0
 10
24.5933542452
 20
21.9445295864
 30
0.0
 10
24.5933511348
 20
21.770276964
 30
0.0
 10
24.5940893164
 20
21.5109245616
 30
0.0
 10
24.5965118864
 20
21.1690017814
 30
0.0
 10
24.5989549706
 20
20.9220798118
 30
0.0
 10
24.6019730361
 20
20.6850861062
 30
0.0
 10
24.6054828052
 20
20.4602692835
 30
0.0
 10
24.6093632218
 20
20.2497432525
 30
0.0
 10
24.6135014653
 20
20.0554947998
 30
0.0
 10
24.6177759228
 20
19.8794235068
 30
0.0
 10
24.6214747742
 20
19.7448623138
 30
0.0
 10
24.6244245336
 20
19.6475911199
 30
0.0
 10
24.6265179459
 20
19.5828437716
 30
0.0
 10
24.6285582961
 20
19.5238075529
 30
0.0
 10
24.63053224
 20
19.470617459
 30
0.0
 10
24.6324277035
 20
19.4233777924
 30
0.0
 10
24.6342323706
 20
19.3821704108
 30
0.0
 10
24.6359351811
 20
19.3470744873
 30
0.0
 10
24.6373258212
 20
19.3216865132
 30
0.0
 10
24.6383993081
 20
19.3044952236
 30
0.0
 10
24.6391241095
 20
19.2939655263
 30
0.0
 10
24.6398175672
 20
19.2850271387
 30
0.0
 10
24.6404712097
 20
19.2777009329
 30
0.0
 10
24.6410981686
 20
19.271972972
 30
0.0
 10
24.6416484174
 20
19.2679116615
 30
0.0
 10
24.6421661037
 20
19.2654732975
 30
0.0
 10
24.6425235294
 20
19.2644220783
 30
0.0
 10
24.6427889986
 20
19.2641246406
 30
0.0
 10
24.642896437
 20
19.2641334337
 30
0.0
  0
SPLINE
  5
239
100
AcDbEntity
  8
0
100
AcDbSpline
 62
7
  6
CONTINUOUS
 70
0
 71
3
 72
12
 73
8
 74
0
 42
0.0000001
 43
0.0000001
 44
0.0000000001
 40
0.0
 40
0.0
 40
0.0
 40
0.0
 40
0.3157818467
 40
0.6037756529
 40
0.8387342216
 40
0.929650936
 40
1.0
 40
1.0
 40
1.0
 40
1.0
 10
24.6356490992
 20
21.9445295864
 30
0.0
 10
24.6356469611
 20
22.20642408
 30
0.0
 10
24.636637876
 20
22.7071675145
 30
0.0
 10
24.6404147378
 20
23.402764494
 30
0.0
 10
24.6442539063
 20
23.9118641548
 30
0.0
 10
24.6463387469
 20
24.2404670765
 30
0.0
 10
24.6468435515
 20
24.3742129681
 30
0.0
 10
24.646842838
 20
24.4325571468
 30
0.0
  0
SPLINE
  5
23A
100
AcDbEntity
  8
0
100
AcDbSpline
 62
7
  6
CONTINUOUS
 70
0
 71
3
 72
25
 73
21
 74
0
 42
0.0000001
 43
0.0000001
 44
0.0000000001
 40
0.0
 40
0.0
 40
0.0
 40
0.0
 40
0.0066992366
 40
0.0141230498
 40
0.0228399773
 40
0.033186933
 40
0.0453487137
 40
0.059425147
 40
0.0754709977
 40
0.0935136236
 40
0.1356132161
 40
0.18562583
 40
0.243208037
 40
0.3079186883
 40
0.3791662887
 40
0.4563102574
 40
0.5386470379
 40
0.6254404228
 40
0.809093176
 40
1.0
 40
1.0
 40
1.0
 40
1.0
 10
23.4384392181
 20
19.2488042093
 30
0.0
 10
23.4445672771
 20
19.2487751574
 30
0.0
 10
23.4575832957
 20
19.2512019035
 30
0.0
 10
23.4759775567
 20
19.2616614265
 30
0.0
 10
23.4937438398
 20
19.2783647175
 30
0.0
 10
23.5110882923
 20
19.3011717913
 30
0.0
 10
23.5281020106
 20
19.3300547369
 30
0.0
 10
23.544787885
 20
19.3649895971
 30
0.0
 10
23.5611269594
 20
19.4059333346
 30
0.0
 10
23.5835720158
 20
19.4719386672
 30
0.0
 10
23.6098263065
 20
19.5693192006
 30
0.0
 10
23.638120933
 20
19.7033382196
 30
0.0
 10
23.6643712877
 20
19.8587899097
 30
0.0
 10
23.6883292219
 20
20.0342246384
 30
0.0
 10
23.7098680268
 20
20.2279832792
 30
0.0
 10
23.7288254521
 20
20.4382016896
 30
0.0
 10
23.7450784983
 20
20.6629045238
 30
0.0
 10
23.7632815756
 20
20.9851100734
 30
0.0
 10
23.7781011402
 20
21.4069224408
 30
0.0
 10
23.7820820512
 20
21.7495615753
 30
0.0
 10
23.7820946456
 20
21.9241936267
 30
0.0
  0
SPLINE
  5
23B
100
AcDbEntity
  8
0
100
AcDbSpline
 62
7
  6
CONTINUOUS
 70
0
 71
3
 72
10
 73
6
 74
0
 42
0.0000001
 43
0.0000001
 44
0.0000000001
 40
0.0
 40
0.0
 40
0.0
 40
0.0
 40
0.5171270751
 40
0.7650235578
 40
1.0
 40
1.0
 40
1.0
 40
1.0
 10
24.3204866591
 20
32.3063847319
 30
0.0
 10
24.31749891
 20
32.7441100729
 30
0.0
 10
24.3069400433
 20
33.3916651883
 30
0.0
 10
24.2781544575
 20
34.2376667591
 30
0.0
 10
24.2584940647
 20
34.6459566151
 30
0.0
 10
24.2470278281
 20
34.8445277031
 30
0.0
  0
SPLINE
  5
23C
100
AcDbEntity
  8
0
100
AcDbSpline
 62
7
  6
CONTINUOUS
 70
0
 71
3
 72
25
 73
21
 74
0
 42
0.0000001
 43
0.0000001
 44
0.0000000001
 40
0.0
 40
0.0
 40
0.0
 40
0.0
 40
0.1909449607
 40
0.3746319447
 40
0.4614303216
 40
0.543764713
 40
0.6209110189
 40
0.6921729794
 40
0.7569070047
 40
0.8145151745
 40
0.8645413125
 40
0.906630887
 40
0.9246603011
 40
0.9406865951
 40
0.9547366162
 40
0.9668662305
 40
0.9771827631
 40
0.9858794369
 40
0.9932975665
 40
1.0
 40
1.0
 40
1.0
 40
1.0
 10
23.7820946456
 20
21.9241936267
 30
0.0
 10
23.782107241
 20
22.0988399775
 30
0.0
 10
23.7781703478
 20
22.4415054216
 30
0.0
 10
23.7634159831
 20
22.8633410278
 30
0.0
 10
23.7452625143
 20
23.1855450652
 30
0.0
 10
23.7290384396
 20
23.410227926
 30
0.0
 10
23.7101098692
 20
23.6204370488
 30
0.0
 10
23.6886052141
 20
23.8142131656
 30
0.0
 10
23.6646845904
 20
23.9896906109
 30
0.0
 10
23.6384768281
 20
24.1451888514
 30
0.0
 10
23.6102215637
 20
24.2792274092
 30
0.0
 10
23.5839826074
 20
24.3765912793
 30
0.0
 10
23.5615442666
 20
24.4425490705
 30
0.0
 10
23.5452122639
 20
24.483431961
 30
0.0
 10
23.52853389
 20
24.5182865956
 30
0.0
 10
23.5115238397
 20
24.5470733906
 30
0.0
 10
23.4941800211
 20
24.5697821429
 30
0.0
 10
23.4764123912
 20
24.5864043584
 30
0.0
 10
23.458023865
 20
24.5968187035
 30
0.0
 10
23.445026288
 20
24.5992712705
 30
0.0
 10
23.4388959603
 20
24.5992761927
 30
0.0
  0
SPLINE
  5
23D
100
AcDbEntity
  8
0
100
AcDbSpline
 62
7
  6
CONTINUOUS
 70
0
 71
3
 72
25
 73
21
 74
0
 42
0.0000001
 43
0.0000001
 44
0.0000000001
 40
0.0
 40
0.0
 40
0.0
 40
0.0
 40
0.1936540826
 40
0.3799871056
 40
0.5515674514
 40
0.7020250721
 40
0.7675338036
 40
0.8256655569
 40
0.8758880165
 40
0.9177430047
 40
0.9354406225
 40
0.9509567188
 40
0.9642780106
 40
0.9754036402
 40
0.9843605142
 40
0.9912280988
 40
0.9939417699
 40
0.9962381242
 40
0.9982089847
 40
1.0
 40
1.0
 40
1.0
 40
1.0
 10
24.4785855842
 20
21.9447058172
 30
0.0
 10
24.4785910997
 20
22.118803593
 30
0.0
 10
24.4768749071
 20
22.4604197055
 30
0.0
 10
24.4692380388
 20
22.9562389571
 30
0.0
 10
24.4563802896
 20
23.4131033846
 30
0.0
 10
24.4408774093
 20
23.7611969443
 30
0.0
 10
24.4252076044
 20
24.0071237529
 30
0.0
 10
24.4127474594
 20
24.1629414139
 30
0.0
 10
24.3991196366
 20
24.2973026918
 30
0.0
 10
24.3862645964
 20
24.3951792312
 30
0.0
 10
24.3750811333
 20
24.4617411437
 30
0.0
 10
24.3669283612
 20
24.5027835554
 30
0.0
 10
24.3585593377
 20
24.5377322616
 30
0.0
 10
24.3499986015
 20
24.5665452309
 30
0.0
 10
24.3412726675
 20
24.5891668827
 30
0.0
 10
24.3333752575
 20
24.6039629876
 30
0.0
 10
24.3266892581
 20
24.6123320515
 30
0.0
 10
24.3219818646
 20
24.6165431246
 30
0.0
 10
24.3171355305
 20
24.6191688264
 30
0.0
 10
24.3137330763
 20
24.6197825873
 30
0.0
 10
24.3121229296
 20
24.6197848254
 30
0.0
  0
SPLINE
  5
23E
100
AcDbEntity
  8
0
100
AcDbSpline
 62
7
  6
CONTINUOUS
 70
0
 71
3
 72
25
 73
21
 74
0
 42
0.0000001
 43
0.0000001
 44
0.0000000001
 40
0.0
 40
0.0
 40
0.0
 40
0.0
 40
0.0017904734
 40
0.003760152
 40
0.0060551177
 40
0.0087674824
 40
0.0156331062
 40
0.0245890052
 40
0.0357143033
 40
0.0490349138
 40
0.0645520102
 40
0.0822552547
 40
0.124143562
 40
0.1743982219
 40
0.2325391613
 40
0.298025689
 40
0.4484597053
 40
0.6200622193
 40
0.8063683035
 40
1.0
 40
1.0
 40
1.0
 40
1.0
 10
24.3118837617
 20
19.2695884929
 30
0.0
 10
24.3134934684
 20
19.2695851522
 30
0.0
 10
24.3168964686
 20
19.2701911355
 30
0.0
 10
24.3217449277
 20
19.272807538
 30
0.0
 10
24.3264546775
 20
19.2770113719
 30
0.0
 10
24.3331447264
 20
19.2853723578
 30
0.0
 10
24.3410473001
 20
19.3001623434
 30
0.0
 10
24.3497789321
 20
19.322779459
 30
0.0
 10
24.3583442418
 20
19.3515902264
 30
0.0
 10
24.3667199715
 20
19.3865384218
 30
0.0
 10
24.3748795669
 20
19.4275862688
 30
0.0
 10
24.386074398
 20
19.494184832
 30
0.0
 10
24.3989321664
 20
19.5921286666
 30
0.0
 10
24.4125738401
 20
19.726560019
 30
0.0
 10
24.4250516641
 20
19.8823983287
 30
0.0
 10
24.4407594932
 20
20.1282972361
 30
0.0
 10
24.456290589
 20
20.4763791765
 30
0.0
 10
24.4691671778
 20
20.9332314244
 30
0.0
 10
24.4768475096
 20
21.4290407122
 30
0.0
 10
24.4785800692
 20
21.7706228541
 30
0.0
 10
24.4785855842
 20
21.9447058172
 30
0.0
  0
SPLINE
  5
23F
100
AcDbEntity
  8
0
100
AcDbSpline
 62
7
  6
CONTINUOUS
 70
0
 71
3
 72
20
 73
16
 74
0
 42
0.0000001
 43
0.0000001
 44
0.0000000001
 40
0.0
 40
0.0
 40
0.0
 40
0.0
 40
0.0017027695
 40
0.0050782618
 40
0.0176050946
 40
0.0380029095
 40
0.0662641068
 40
0.1023413064
 40
0.146175943
 40
0.1977050951
 40
0.2568637945
 40
0.3978196371
 40
0.5687472356
 40
0.7695166332
 40
1.0
 40
1.0
 40
1.0
 40
1.0
 10
24.642896437
 20
19.2641334337
 30
0.0
 10
24.6430060501
 20
19.2641424048
 30
0.0
 10
24.6432363833
 20
19.2644544643
 30
0.0
 10
24.6435581178
 20
19.2654952672
 30
0.0
 10
24.6439474898
 20
19.2678625631
 30
0.0
 10
24.6443297797
 20
19.2717675494
 30
0.0
 10
24.6447062767
 20
19.2772407615
 30
0.0
 10
24.645051378
 20
19.284214362
 30
0.0
 10
24.6453694775
 20
19.292699888
 30
0.0
 10
24.6456564743
 20
19.3026756703
 30
0.0
 10
24.6460191246
 20
19.3189253001
 30
0.0
 10
24.6463688736
 20
19.3428880322
 30
0.0
 10
24.6466495334
 20
19.3759985941
 30
0.0
 10
24.6468121531
 20
19.4148923814
 30
0.0
 10
24.6468427454
 20
19.4427464648
 30
0.0
 10
24.6468430509
 20
19.4576330888
 30
0.0
  0
SPLINE
  5
240
100
AcDbEntity
  8
0
100
AcDbSpline
 62
7
  6
CONTINUOUS
 70
0
 71
3
 72
20
 73
16
 74
0
 42
0.0000001
 43
0.0000001
 44
0.0000000001
 40
0.0
 40
0.0
 40
0.0
 40
0.0
 40
0.2314538323
 40
0.4332251721
 40
0.6048836339
 40
0.7460148943
 40
0.8050274418
 40
0.8562880725
 40
0.8997607581
 40
0.935411595
 40
0.9632112329
 40
0.9831421378
 40
0.9952296599
 40
0.9984142486
 40
1.0
 40
1.0
 40
1.0
 40
1.0
 10
24.646842838
 20
24.4325571468
 30
0.0
 10
24.6468426565
 20
24.4474007713
 30
0.0
 10
24.6468125818
 20
24.4751844412
 30
0.0
 10
24.6466516854
 20
24.5139766501
 30
0.0
 10
24.6463732838
 20
24.5469755249
 30
0.0
 10
24.6460252405
 20
24.5708176204
 30
0.0
 10
24.6456643327
 20
24.5869369891
 30
0.0
 10
24.6453795226
 20
24.5967924863
 30
0.0
 10
24.6450631711
 20
24.6051500166
 30
0.0
 10
24.644722304
 20
24.6119946361
 30
0.0
 10
24.6443446914
 20
24.6173405925
 30
0.0
 10
24.643975107
 20
24.6211336479
 30
0.0
 10
24.6435733148
 20
24.6234060993
 30
0.0
 10
24.6432693465
 20
24.624398031
 30
0.0
 10
24.6430238928
 20
24.6246748004
 30
0.0
 10
24.6429223448
 20
24.6246692875
 30
0.0
  0
ELLIPSE
  5
241
100
AcDbEntity
  8
0
100
AcDbEllipse
 62
7
  6
CONTINUOUS
 10
24.0040650715
 20
31.844558164
 30
0.0
 11
0.0
 21
4.65
 31
0.0
 40
0.0683854757
 41
0.8695705359
 42
1.4702093795
  0
ENDSEC
  0
SECTION
  2
OBJECTS
  0
DICTIONARY
  5
C
100
AcDbDictionary
280
0
281
1
  3
ACAD_GROUP
350
D
  3
ACAD_MLINESTYLE
350
17
  3
ACAD_LAYOUT
350
1A
  3
ACAD_PLOTSETTINGS
350
19
  3
ACAD_PLOTSTYLENAME
350
E
  0
DICTIONARY
  5
D
102
{ACAD_REACTORS
330
C
102
}
100
AcDbDictionary
280
0
281
1
  0
ACDBDICTIONARYWDFLT
  5
E
102
{ACAD_REACTORS
330
C
102
}
100
AcDbDictionary
281
1
  3
Normal
350
F
100
AcDbDictionaryWithDefault
340
F
  0
DICTIONARY
  5
17
102
{ACAD_REACTORS
330
C
102
}
100
AcDbDictionary
280
0
281
1
  3
Standard
350
18
  0
DICTIONARY
  5
19
102
{ACAD_REACTORS
330
C
102
}
100
AcDbDictionary
281
1
  0
DICTIONARY
  5
1A
102
{ACAD_REACTORS
330
C
102
}
100
AcDbDictionary
281
1
  3
Model
350
242
  3
Layout1
350
243
  0
ACDBPLACEHOLDER
  5
F
102
{ACAD_REACTORS
330
E
102
}
  0
MLINESTYLE
  5
18
102
{ACAD_REACTORS
330
17
102
}
100
AcDbMlineStyle
  2
STANDARD
 70
0
  3

 62
256
 51
90.0
 52
90.0
 71
2
 49
0.5
 62
256
  6
BYLAYER
 49
-0.5
 62
256
  6
BYLAYER
  0
LAYOUT
  5
242
102
{ACAD_REACTORS
330
1A
102
}
100
AcDbPlotSettings
  1

  2
none_device
  4

  6

 40
0.0
 41
0.0
 42
0.0
 43
0.0
 44
210.0
 45
297.0
 46
0.0
 47
0.0
 48
0.0
 49
0.0
140
0.0
141
0.0
142
1.0
143
1.0
 70
1024
 72
1
 73
0
 74
0
  7

 75
0
147
1.0
148
0.0
149
0.0
100
AcDbLayout
  1
Model
 70
0
 71
0
 10
0.0
 20
0.0
 11
210.0
 21
297.0
 12
0.0
 22
0.0
 32
0.0
 14
0.0
 24
0.0
 34
0.0
 15
0.0
 25
0.0
 35
0.0
146
0.0
 13
0.0
 23
0.0
 33
0.0
 16
1.0
 26
0.0
 36
0.0
 17
0.0
 27
1.0
 37
0.0
 76
0
330
210
345
0
346
0
  0
LAYOUT
  5
243
102
{ACAD_REACTORS
330
1A
102
}
100
AcDbPlotSettings
  1

  2
none_device
  4

  6

 40
0.0
 41
0.0
 42
0.0
 43
0.0
 44
210.0
 45
297.0
 46
0.0
 47
0.0
 48
0.0
 49
0.0
140
0.0
141
0.0
142
1.0
143
1.0
 70
0
 72
1
 73
0
 74
0
  7

 75
0
147
1.0
148
0.0
149
0.0
100
AcDbLayout
  1
Layout1
 70
0
 71
1
 10
0.0
 20
0.0
 11
210.0
 21
297.0
 12
0.0
 22
0.0
 32
0.0
 14
0.0
 24
0.0
 34
0.0
 15
0.0
 25
0.0
 35
0.0
146
0.0
 13
0.0
 23
0.0
 33
0.0
 16
1.0
 26
0.0
 36
0.0
 17
0.0
 27
1.0
 37
0.0
 76
0
330
211
345
0
346
0
  0
ENDSEC
  0
EOF
