999
DXF file: C:\Users\sesa63760\Dev\_Creo\CAD\MCADID0000748_3D-CAD\drw0001_4.dxf
999
Pro/ENGINEER 2019471 by Parametric Technology Corporation
  0
SECTION
  2
HEADER
  9
$ACADVER
  1
AC1024
  9
$DWGCODEPAGE
  3
ANSI_1252
  9
$EXTMAX
 10
155.9801972317
 20
220.6005646563
 30
0.0
  9
$EXTMIN
 10
0.0
 20
0.0
 30
0.0
  9
$LIMMIN
 10
0.0
 20
0.0
  9
$LIMMAX
 10
155.9801972317
 20
220.6005646563
  9
$VIEWCTR
 10
77.9900986159
 20
110.3002823281
  9
$VIEWSIZE
 40
220.6005646563
  9
$CLAYER
  8
0
  9
$LTSCALE
 40
14.3798886591
  9
$CELTYPE
  6
BYLAYER
  9
$DIMSCALE
 40
1.0
  9
$DIMASZ
 40
1.8569071099
  9
$DIMEXO
 40
1.0
  9
$DIMDLI
 40
9.9351958008
  9
$DIMEXE
 40
1.0
  9
$DIMCEN
 40
2.3530726897
  9
$DIMLFAC
 40
1.0
  9
$DIMBLK
  1
_FILLED
  9
$DIMALT
 70
0
  9
$DIMALTF
 40
0.0393700787
  9
$DIMTXT
 40
2.5996699539
  9
$DIMTOL
 70
1
  9
$DIMLIM
 70
0
  9
$DIMTFAC
 40
1.0
  9
$DIMTP
 40
0.01
  9
$DIMTM
 40
0.01
  9
$DIMGAP
 40
0.625
  9
$DIMDSEP
 70
46
  9
$AUNITS
 70
0
  9
$PDMODE
 70
3
  9
$PDSIZE
 40
0.3125
  9
$HANDSEED
  5
499
  9
$TILEMODE
 70
1
  9
$MEASUREMENT
 70
1
  9
$INSUNITS
 70
4
  0
ENDSEC
  0
SECTION
  2
CLASSES
  0
CLASS
  1
ACDBDICTIONARYWDFLT
  2
AcDbDictionaryWithDefault
  3
AutoCAD 2000
 90
0
 91
1
280
0
281
0
  0
CLASS
  1
ACDBPLACEHOLDER
  2
AcDbPlaceHolder
  3
AutoCAD 2000
 90
0
 91
1
280
0
281
0
  0
CLASS
  1
LAYOUT
  2
AcDbLayout
  3
AutoCAD 2000
 90
0
 91
0
280
0
281
0
  0
ENDSEC
  0
SECTION
  2
TABLES
  0
TABLE
  2
VPORT
  5
8
100
AcDbSymbolTable
 70
2
  0
VPORT
  5
1F4
100
AcDbSymbolTableRecord
100
AcDbViewportTableRecord
  2
*ACTIVE
 70
0
 10
0.0
 20
0.0
 11
1.0
 21
1.0
 12
77.9900986159
 22
110.3002823281
 13
0.0
 23
0.0
 14
1.0
 24
1.0
 15
0.0
 25
0.0
 16
0.0
 26
0.0
 36
1.0
 17
0.0
 27
0.0
 37
0.0
 40
220.6005646563
 41
0.7070707071
 42
50.0
 43
0.0
 44
0.0
 50
0.0
 51
0.0
 71
0
 72
100
 73
1
 74
1
 75
0
 76
0
 77
0
 78
0
  0
ENDTAB
  0
TABLE
  2
LTYPE
  5
5
100
AcDbSymbolTable
 70
6
  0
LTYPE
  5
14
100
AcDbSymbolTableRecord
100
AcDbLinetypeTableRecord
  2
BYBLOCK
 70
0
  3

 72
65
 73
0
 40
0.0
  0
LTYPE
  5
15
100
AcDbSymbolTableRecord
100
AcDbLinetypeTableRecord
  2
BYLAYER
 70
0
  3

 72
65
 73
0
 40
0.0
  0
LTYPE
  5
16
100
AcDbSymbolTableRecord
100
AcDbLinetypeTableRecord
  2
CONTINUOUS
 70
64
  3
Solid line
 72
65
 73
0
 40
0.0
  0
LTYPE
  5
1F5
100
AcDbSymbolTableRecord
100
AcDbLinetypeTableRecord
  2
CENTER
 70
64
  3
____ _ ____ _ ____ _ ____ _ ____ _ ____ _ ____
 72
65
 73
4
 40
0.6
 49
0.375
 74
0
 49
-0.075
 74
0
 49
0.075
 74
0
 49
-0.075
 74
0
  0
LTYPE
  5
1F6
100
AcDbSymbolTableRecord
100
AcDbLinetypeTableRecord
  2
HIDDEN
 70
64
  3
- - - - - - - - - - - - - - - - - - - -
 72
65
 73
2
 40
0.2
 49
0.1
 74
0
 49
-0.1
 74
0
  0
LTYPE
  5
1F7
100
AcDbSymbolTableRecord
100
AcDbLinetypeTableRecord
  2
PHANTOM
 70
64
  3
_____ _ _ _____ _ _ _____ _ _ _____
 72
65
 73
6
 40
0.8
 49
0.45
 74
0
 49
-0.05
 74
0
 49
0.1
 74
0
 49
-0.05
 74
0
 49
0.1
 74
0
 49
-0.05
 74
0
  0
LTYPE
  5
1F8
100
AcDbSymbolTableRecord
100
AcDbLinetypeTableRecord
  2
DOT
 70
64
  3
. . . . . . . . . . . . . . . . . . . .
 72
65
 73
2
 40
0.2
 49
0.1
 74
0
 49
-0.1
 74
0
  0
LTYPE
  5
1F9
100
AcDbSymbolTableRecord
100
AcDbLinetypeTableRecord
  2
DASHED
 70
64
  3
- - - - - - - - - - - - - - - - - - - -
 72
65
 73
2
 40
0.2
 49
0.1
 74
0
 49
-0.1
 74
0
  0
ENDTAB
  0
TABLE
  2
LAYER
  5
2
100
AcDbSymbolTable
 70
36
  0
LAYER
  5
10
100
AcDbSymbolTableRecord
100
AcDbLayerTableRecord
  2
0
 70
0
 62
7
  6
CONTINUOUS
370
-3
390
F
  0
LAYER
  5
1FA
100
AcDbSymbolTableRecord
100
AcDbLayerTableRecord
  2
DEFAULT_1
 70
0
 62
7
  6
CENTER
370
-3
390
F
  0
LAYER
  5
1FB
100
AcDbSymbolTableRecord
100
AcDbLayerTableRecord
  2
DEFAULT_2
 70
0
 62
8
  6
HIDDEN
370
-3
390
F
  0
LAYER
  5
1FC
100
AcDbSymbolTableRecord
100
AcDbLayerTableRecord
  2
DEFAULT_3
 70
0
 62
7
  6
PHANTOM
370
-3
390
F
  0
LAYER
  5
1FD
100
AcDbSymbolTableRecord
100
AcDbLayerTableRecord
  2
00_COMPONENTS
 70
0
 62
7
  6
CONTINUOUS
370
-3
390
F
  0
LAYER
  5
1FE
100
AcDbSymbolTableRecord
100
AcDbLayerTableRecord
  2
01_1_DEFAULT_DATUMS
 70
0
 62
7
  6
CONTINUOUS
370
-3
390
F
  0
LAYER
  5
1FF
100
AcDbSymbolTableRecord
100
AcDbLayerTableRecord
  2
01_PLANES
 70
0
 62
7
  6
CONTINUOUS
370
-3
390
F
  0
LAYER
  5
200
100
AcDbSymbolTableRecord
100
AcDbLayerTableRecord
  2
02_COORD_SYS
 70
0
 62
7
  6
CONTINUOUS
370
-3
390
F
  0
LAYER
  5
201
100
AcDbSymbolTableRecord
100
AcDbLayerTableRecord
  2
03_AXES
 70
0
 62
7
  6
CONTINUOUS
370
-3
390
F
  0
LAYER
  5
202
100
AcDbSymbolTableRecord
100
AcDbLayerTableRecord
  2
04_POINTS
 70
0
 62
7
  6
CONTINUOUS
370
-3
390
F
  0
LAYER
  5
203
100
AcDbSymbolTableRecord
100
AcDbLayerTableRecord
  2
05_CURVES
 70
0
 62
7
  6
CONTINUOUS
370
-3
390
F
  0
LAYER
  5
204
100
AcDbSymbolTableRecord
100
AcDbLayerTableRecord
  2
06_SURFS
 70
0
 62
7
  6
CONTINUOUS
370
-3
390
F
  0
LAYER
  5
205
100
AcDbSymbolTableRecord
100
AcDbLayerTableRecord
  2
07_COSMETICS
 70
0
 62
7
  6
CONTINUOUS
370
-3
390
F
  0
LAYER
  5
206
100
AcDbSymbolTableRecord
100
AcDbLayerTableRecord
  2
10_NOTES
 70
0
 62
7
  6
CONTINUOUS
370
-3
390
F
  0
LAYER
  5
207
100
AcDbSymbolTableRecord
100
AcDbLayerTableRecord
  2
11_NOTES_PUB
 70
0
 62
7
  6
CONTINUOUS
370
-3
390
F
  0
LAYER
  5
208
100
AcDbSymbolTableRecord
100
AcDbLayerTableRecord
  2
13_REF_GTOL
 70
0
 62
7
  6
CONTINUOUS
370
-3
390
F
  0
LAYER
  5
209
100
AcDbSymbolTableRecord
100
AcDbLayerTableRecord
  2
16_MISC
 70
0
 62
7
  6
CONTINUOUS
370
-3
390
F
  0
LAYER
  5
20A
100
AcDbSymbolTableRecord
100
AcDbLayerTableRecord
  2
17_NO_PRINT
 70
0
 62
7
  6
CONTINUOUS
370
-3
390
F
  0
LAYER
  5
20B
100
AcDbSymbolTableRecord
100
AcDbLayerTableRecord
  2
18_DATUM_CAMS_JOINTS
 70
0
 62
7
  6
CONTINUOUS
370
-3
390
F
  0
LAYER
  5
20C
100
AcDbSymbolTableRecord
100
AcDbLayerTableRecord
  2
19_DATUM_FUNCTIONAL
 70
0
 62
7
  6
CONTINUOUS
370
-3
390
F
  0
LAYER
  5
20D
100
AcDbSymbolTableRecord
100
AcDbLayerTableRecord
  2
20_DATUM_KINEMATIC_SCHEME
 70
0
 62
7
  6
CONTINUOUS
370
-3
390
F
  0
ENDTAB
  0
TABLE
  2
STYLE
  5
3
100
AcDbSymbolTable
 70
1
  0
STYLE
  5
11
100
AcDbSymbolTableRecord
100
AcDbTextStyleTableRecord
  2
STANDARD
 70
0
 40
0.0
 41
0.8
 50
0.0
 71
0
 42
0.2
  3
txt
  4

  0
STYLE
  5
20E
100
AcDbSymbolTableRecord
100
AcDbTextStyleTableRecord
  2
TEXTSTYLE_1
 70
0
 40
0.0
 41
0.8
 50
0.0
 71
0
 42
0.2
  3
gdt
  4

  0
ENDTAB
  0
TABLE
  2
VIEW
  5
6
100
AcDbSymbolTable
 70
0
  0
ENDTAB
  0
TABLE
  2
UCS
  5
7
100
AcDbSymbolTable
 70
0
  0
ENDTAB
  0
TABLE
  2
APPID
  5
9
100
AcDbSymbolTable
 70
1
  0
APPID
  5
20F
100
AcDbSymbolTableRecord
100
AcDbRegAppTableRecord
  2
ACAD
 70
0
  0
ENDTAB
  0
TABLE
  2
BLOCK_RECORD
  5
1
100
AcDbSymbolTable
 70
0
  0
BLOCK_RECORD
  5
210
100
AcDbSymbolTableRecord
100
AcDbBlockTableRecord
  2
*Model_Space
  0
BLOCK_RECORD
  5
211
100
AcDbSymbolTableRecord
100
AcDbBlockTableRecord
  2
*Paper_Space
  0
BLOCK_RECORD
  5
212
100
AcDbSymbolTableRecord
100
AcDbBlockTableRecord
  2
_FILLED
  0
ENDTAB
  0
TABLE
  2
DIMSTYLE
  5
A
100
AcDbSymbolTable
 70
1
100
AcDbDimStyleTable
 71
0
  0
DIMSTYLE
105
213
100
AcDbSymbolTableRecord
100
AcDbDimStyleTableRecord
  2
STANDARD
 70
0
  3

  4

 40
1.0
 41
1.8569071099
 42
1.0
 43
0.38
 44
1.0
 45
0.0
 46
0.0
 47
0.01
 48
0.01
140
2.5996699539
141
0.09
142
0.0
143
25.4
144
1.0
145
0.0
146
1.0
147
0.625
 71
1
 72
0
 73
0
 74
0
 75
0
 76
0
 77
1
 78
8
 79
2
170
0
171
1
172
0
173
0
174
0
175
0
176
0
177
0
178
0
270
2
179
2
271
2
272
2
273
2
274
2
275
0
280
0
281
0
282
0
283
1
284
8
285
0
286
0
287
3
288
0
340
11
278
46
341
212
342
212
343
212
344
212
  0
ENDTAB
  0
ENDSEC
  0
SECTION
  2
BLOCKS
  0
BLOCK
  5
20
100
AcDbEntity
  8
0
100
AcDbBlockBegin
  2
*Model_Space
 70
0
 10
0.0
 20
0.0
 30
0.0
  3
*Model_Space
  1

  0
ENDBLK
  5
21
100
AcDbEntity
  8
0
100
AcDbBlockEnd
  0
BLOCK
  5
1C
100
AcDbEntity
  8
0
100
AcDbBlockBegin
  2
*Paper_Space
 70
0
 10
0.0
 20
0.0
 30
0.0
  3
*Paper_Space
  1

  0
ENDBLK
  5
1D
100
AcDbEntity
  8
0
100
AcDbBlockEnd
  0
BLOCK
  5
214
100
AcDbEntity
  8
0
100
AcDbBlockBegin
  2
_FILLED
 70
64
 10
0.0
 20
0.0
  3
_FILLED
  1

  0
SOLID
  5
215
100
AcDbEntity
  8
0
  6
BYBLOCK
 62
0
100
AcDbTrace
 10
0.0
 20
0.0
 11
-1.0
 21
0.25
 12
-1.0
 22
-0.25
 13
-1.0
 23
-0.25
  0
ENDBLK
  5
216
100
AcDbEntity
  8
0
  6
BYBLOCK
 62
0
100
AcDbBlockEnd
  0
ENDSEC
  0
SECTION
  2
ENTITIES
  0
LINE
  5
217
100
AcDbEntity
  8
0
100
AcDbLine
 62
7
  6
CONTINUOUS
 10
17.3721955989
 20
63.1142011692
 11
17.3721955989
 21
163.1142011692
  0
LINE
  5
218
100
AcDbEntity
  8
0
100
AcDbLine
 62
7
  6
CONTINUOUS
 10
22.0721955989
 20
63.1142011692
 11
22.0721955989
 21
59.1324220341
  0
LINE
  5
219
100
AcDbEntity
  8
0
100
AcDbLine
 62
7
  6
CONTINUOUS
 10
26.5921955989
 20
131.9342011692
 11
26.5921955989
 21
115.7342011692
  0
LINE
  5
21A
100
AcDbEntity
  8
0
100
AcDbLine
 62
7
  6
CONTINUOUS
 10
26.6021955989
 20
110.3842011692
 11
26.6021955989
 21
94.4842011692
  0
LINE
  5
21B
100
AcDbEntity
  8
0
100
AcDbLine
 62
7
  6
CONTINUOUS
 10
26.6021955989
 20
88.9842011692
 11
26.6021955989
 21
73.0842011692
  0
LINE
  5
21C
100
AcDbEntity
  8
0
100
AcDbLine
 62
7
  6
CONTINUOUS
 10
26.8221955989
 20
125.8692011692
 11
26.8221955989
 21
121.7992011692
  0
LINE
  5
21D
100
AcDbEntity
  8
0
100
AcDbLine
 62
7
  6
CONTINUOUS
 10
27.4021955989
 20
105.5842011692
 11
27.4021955989
 21
99.2842011692
  0
LINE
  5
21E
100
AcDbEntity
  8
0
100
AcDbLine
 62
7
  6
CONTINUOUS
 10
27.4021955989
 20
84.1842011692
 11
27.4021955989
 21
77.8842011692
  0
LINE
  5
21F
100
AcDbEntity
  8
0
100
AcDbLine
 62
7
  6
CONTINUOUS
 10
28.2821955989
 20
126.9842011692
 11
28.2821955989
 21
125.8692011692
  0
LINE
  5
220
100
AcDbEntity
  8
0
100
AcDbLine
 62
7
  6
CONTINUOUS
 10
28.2821955989
 20
121.7992011692
 11
28.2821955989
 21
120.6842011692
  0
LINE
  5
221
100
AcDbEntity
  8
0
100
AcDbLine
 62
7
  6
CONTINUOUS
 10
29.9421955989
 20
129.8042011692
 11
29.9421955989
 21
126.9842011692
  0
LINE
  5
222
100
AcDbEntity
  8
0
100
AcDbLine
 62
7
  6
CONTINUOUS
 10
29.9421955989
 20
120.6842011692
 11
29.9421955989
 21
117.8642011692
  0
LINE
  5
223
100
AcDbEntity
  8
0
100
AcDbLine
 62
7
  6
CONTINUOUS
 10
30.4921955989
 20
108.3892011692
 11
30.4921955989
 21
105.5842011692
  0
LINE
  5
224
100
AcDbEntity
  8
0
100
AcDbLine
 62
7
  6
CONTINUOUS
 10
30.4921955989
 20
99.2842011692
 11
30.4921955989
 21
96.4792011692
  0
LINE
  5
225
100
AcDbEntity
  8
0
100
AcDbLine
 62
7
  6
CONTINUOUS
 10
30.4921955989
 20
86.9892011692
 11
30.4921955989
 21
84.1842011692
  0
LINE
  5
226
100
AcDbEntity
  8
0
100
AcDbLine
 62
7
  6
CONTINUOUS
 10
30.4921955989
 20
77.8842011692
 11
30.4921955989
 21
75.0792011692
  0
LINE
  5
227
100
AcDbEntity
  8
0
100
AcDbLine
 62
7
  6
CONTINUOUS
 10
134.6763069947
 20
56.1362224523
 11
129.5280842032
 21
56.1362224523
  0
LINE
  5
228
100
AcDbEntity
  8
0
100
AcDbLine
 62
7
  6
CONTINUOUS
 10
30.2163069947
 20
56.1362224523
 11
25.0680842032
 21
56.1362224523
  0
LINE
  5
229
100
AcDbEntity
  8
0
100
AcDbLine
 62
7
  6
CONTINUOUS
 10
31.7621955989
 20
109.1942011692
 11
31.7621955989
 21
108.3892011692
  0
LINE
  5
22A
100
AcDbEntity
  8
0
100
AcDbLine
 62
7
  6
CONTINUOUS
 10
31.7621955989
 20
96.4792011692
 11
31.7621955989
 21
95.6742011692
  0
LINE
  5
22B
100
AcDbEntity
  8
0
100
AcDbLine
 62
7
  6
CONTINUOUS
 10
31.7621955989
 20
87.7942011692
 11
31.7621955989
 21
86.9892011692
  0
LINE
  5
22C
100
AcDbEntity
  8
0
100
AcDbLine
 62
7
  6
CONTINUOUS
 10
31.7621955989
 20
75.0792011692
 11
31.7621955989
 21
74.2742011692
  0
LINE
  5
22D
100
AcDbEntity
  8
0
100
AcDbLine
 62
7
  6
CONTINUOUS
 10
33.2121955989
 20
59.132138397
 11
33.2121955989
 21
63.1142011692
  0
LINE
  5
22E
100
AcDbEntity
  8
0
100
AcDbLine
 62
7
  6
CONTINUOUS
 10
34.5621955989
 20
74.2742011692
 11
34.5621955989
 21
75.0792011692
  0
LINE
  5
22F
100
AcDbEntity
  8
0
100
AcDbLine
 62
7
  6
CONTINUOUS
 10
34.5621955989
 20
86.9892011692
 11
34.5621955989
 21
87.7942011692
  0
LINE
  5
230
100
AcDbEntity
  8
0
100
AcDbLine
 62
7
  6
CONTINUOUS
 10
34.5621955989
 20
95.6742011692
 11
34.5621955989
 21
96.4792011692
  0
LINE
  5
231
100
AcDbEntity
  8
0
100
AcDbLine
 62
7
  6
CONTINUOUS
 10
34.5621955989
 20
108.3892011692
 11
34.5621955989
 21
109.1942011692
  0
LINE
  5
232
100
AcDbEntity
  8
0
100
AcDbLine
 62
7
  6
CONTINUOUS
 10
36.8021955989
 20
117.8642011692
 11
36.8021955989
 21
129.8042011692
  0
LINE
  5
233
100
AcDbEntity
  8
0
100
AcDbLine
 62
7
  6
CONTINUOUS
 10
142.3721955989
 20
63.1142011692
 11
17.3721955989
 21
63.1142011692
  0
LINE
  5
234
100
AcDbEntity
  8
0
100
AcDbLine
 62
7
  6
CONTINUOUS
 10
37.3221955989
 20
75.0792011692
 11
37.3221955989
 21
86.9892011692
  0
LINE
  5
235
100
AcDbEntity
  8
0
100
AcDbLine
 62
7
  6
CONTINUOUS
 10
37.3221955989
 20
96.4792011692
 11
37.3221955989
 21
108.3892011692
  0
LINE
  5
236
100
AcDbEntity
  8
0
100
AcDbLine
 62
7
  6
CONTINUOUS
 10
40.1021955989
 20
73.0842011692
 11
40.1021955989
 21
88.9842011692
  0
LINE
  5
237
100
AcDbEntity
  8
0
100
AcDbLine
 62
7
  6
CONTINUOUS
 10
40.1021955989
 20
94.4842011692
 11
40.1021955989
 21
110.3842011692
  0
LINE
  5
238
100
AcDbEntity
  8
0
100
AcDbLine
 62
7
  6
CONTINUOUS
 10
40.5721955989
 20
115.7342011692
 11
40.5721955989
 21
131.9342011692
  0
LINE
  5
239
100
AcDbEntity
  8
0
100
AcDbLine
 62
7
  6
CONTINUOUS
 10
42.5721955989
 20
112.9892011692
 11
42.5721955989
 21
149.4892011692
  0
LINE
  5
23A
100
AcDbEntity
  8
0
100
AcDbLine
 62
7
  6
CONTINUOUS
 10
42.8185121616
 20
149.4892011692
 11
42.8185121616
 21
112.9892011692
  0
LINE
  5
23B
100
AcDbEntity
  8
0
100
AcDbLine
 62
7
  6
CONTINUOUS
 10
43.558231547
 20
149.4892011692
 11
43.558231547
 21
112.9892011692
  0
LINE
  5
23C
100
AcDbEntity
  8
0
100
AcDbLine
 62
7
  6
CONTINUOUS
 10
45.0221955989
 20
149.3892011692
 11
45.0221955989
 21
148.2892011692
  0
LINE
  5
23D
100
AcDbEntity
  8
0
100
AcDbLine
 62
7
  6
CONTINUOUS
 10
45.0221955989
 20
146.1892011692
 11
45.0221955989
 21
145.0892011692
  0
LINE
  5
23E
100
AcDbEntity
  8
0
100
AcDbLine
 62
7
  6
CONTINUOUS
 10
45.0221955989
 20
142.9892011692
 11
45.0221955989
 21
141.8892011692
  0
LINE
  5
23F
100
AcDbEntity
  8
0
100
AcDbLine
 62
7
  6
CONTINUOUS
 10
45.0221955989
 20
139.7892011692
 11
45.0221955989
 21
138.6892011692
  0
LINE
  5
240
100
AcDbEntity
  8
0
100
AcDbLine
 62
7
  6
CONTINUOUS
 10
45.0221955989
 20
136.5892011692
 11
45.0221955989
 21
135.4892011692
  0
LINE
  5
241
100
AcDbEntity
  8
0
100
AcDbLine
 62
7
  6
CONTINUOUS
 10
45.0221955989
 20
133.3892011692
 11
45.0221955989
 21
132.2892011692
  0
LINE
  5
242
100
AcDbEntity
  8
0
100
AcDbLine
 62
7
  6
CONTINUOUS
 10
45.0221955989
 20
130.1892011692
 11
45.0221955989
 21
129.0892011692
  0
LINE
  5
243
100
AcDbEntity
  8
0
100
AcDbLine
 62
7
  6
CONTINUOUS
 10
45.0221955989
 20
126.9892011692
 11
45.0221955989
 21
125.8892011692
  0
LINE
  5
244
100
AcDbEntity
  8
0
100
AcDbLine
 62
7
  6
CONTINUOUS
 10
45.0221955989
 20
123.7892011692
 11
45.0221955989
 21
122.6892011692
  0
LINE
  5
245
100
AcDbEntity
  8
0
100
AcDbLine
 62
7
  6
CONTINUOUS
 10
45.0221955989
 20
120.5892011692
 11
45.0221955989
 21
119.4892011692
  0
LINE
  5
246
100
AcDbEntity
  8
0
100
AcDbLine
 62
7
  6
CONTINUOUS
 10
45.0221955989
 20
117.3892011692
 11
45.0221955989
 21
116.2892011692
  0
LINE
  5
247
100
AcDbEntity
  8
0
100
AcDbLine
 62
7
  6
CONTINUOUS
 10
45.0221955989
 20
114.1892011692
 11
45.0221955989
 21
113.0892011692
  0
LINE
  5
248
100
AcDbEntity
  8
0
100
AcDbLine
 62
7
  6
CONTINUOUS
 10
47.0221955989
 20
113.0892011692
 11
47.0221955989
 21
114.1892011692
  0
LINE
  5
249
100
AcDbEntity
  8
0
100
AcDbLine
 62
7
  6
CONTINUOUS
 10
47.0221955989
 20
116.2892011692
 11
47.0221955989
 21
117.3892011692
  0
LINE
  5
24A
100
AcDbEntity
  8
0
100
AcDbLine
 62
7
  6
CONTINUOUS
 10
47.0221955989
 20
119.4892011692
 11
47.0221955989
 21
120.5892011692
  0
LINE
  5
24B
100
AcDbEntity
  8
0
100
AcDbLine
 62
7
  6
CONTINUOUS
 10
47.0221955989
 20
122.6892011692
 11
47.0221955989
 21
123.7892011692
  0
LINE
  5
24C
100
AcDbEntity
  8
0
100
AcDbLine
 62
7
  6
CONTINUOUS
 10
47.0221955989
 20
125.8892011692
 11
47.0221955989
 21
126.9892011692
  0
LINE
  5
24D
100
AcDbEntity
  8
0
100
AcDbLine
 62
7
  6
CONTINUOUS
 10
47.0221955989
 20
129.0892011692
 11
47.0221955989
 21
130.1892011692
  0
LINE
  5
24E
100
AcDbEntity
  8
0
100
AcDbLine
 62
7
  6
CONTINUOUS
 10
47.0221955989
 20
132.2892011692
 11
47.0221955989
 21
133.3892011692
  0
LINE
  5
24F
100
AcDbEntity
  8
0
100
AcDbLine
 62
7
  6
CONTINUOUS
 10
47.0221955989
 20
135.4892011692
 11
47.0221955989
 21
136.5892011692
  0
LINE
  5
250
100
AcDbEntity
  8
0
100
AcDbLine
 62
7
  6
CONTINUOUS
 10
47.0221955989
 20
138.6892011692
 11
47.0221955989
 21
139.7892011692
  0
LINE
  5
251
100
AcDbEntity
  8
0
100
AcDbLine
 62
7
  6
CONTINUOUS
 10
47.0221955989
 20
141.8892011692
 11
47.0221955989
 21
142.9892011692
  0
LINE
  5
252
100
AcDbEntity
  8
0
100
AcDbLine
 62
7
  6
CONTINUOUS
 10
47.0221955989
 20
145.0892011692
 11
47.0221955989
 21
146.1892011692
  0
LINE
  5
253
100
AcDbEntity
  8
0
100
AcDbLine
 62
7
  6
CONTINUOUS
 10
47.0221955989
 20
148.2892011692
 11
47.0221955989
 21
149.3892011692
  0
LINE
  5
254
100
AcDbEntity
  8
0
100
AcDbLine
 62
7
  6
CONTINUOUS
 10
47.5721955989
 20
107.9892011692
 11
47.5721955989
 21
108.2355177318
  0
LINE
  5
255
100
AcDbEntity
  8
0
100
AcDbLine
 62
7
  6
CONTINUOUS
 10
47.5721955989
 20
154.2428846065
 11
47.5721955989
 21
154.4892011692
  0
LINE
  5
256
100
AcDbEntity
  8
0
100
AcDbLine
 62
7
  6
CONTINUOUS
 10
58.2721955989
 20
154.3319778313
 11
58.2425219886
 21
154.2428846065
  0
LINE
  5
257
100
AcDbEntity
  8
0
100
AcDbLine
 62
7
  6
CONTINUOUS
 10
69.5195257711
 20
148.3365313413
 11
69.5721955989
 21
148.3892011692
  0
LINE
  5
258
100
AcDbEntity
  8
0
100
AcDbLine
 62
7
  6
CONTINUOUS
 10
67.5721955989
 20
144.3892011692
 11
67.6248655218
 21
144.4418710921
  0
LINE
  5
259
100
AcDbEntity
  8
0
100
AcDbLine
 62
7
  6
CONTINUOUS
 10
105.63330671
 20
72.4142011692
 11
113.8721955989
 21
72.4142011692
  0
LINE
  5
25A
100
AcDbEntity
  8
0
100
AcDbLine
 62
7
  6
CONTINUOUS
 10
26.6021955989
 20
73.0842011692
 11
40.1021955989
 21
73.0842011692
  0
LINE
  5
25B
100
AcDbEntity
  8
0
100
AcDbLine
 62
7
  6
CONTINUOUS
 10
98.5089789352
 20
73.1042011692
 11
113.5089789352
 21
73.1042011692
  0
LINE
  5
25C
100
AcDbEntity
  8
0
100
AcDbLine
 62
7
  6
CONTINUOUS
 10
106.0089789352
 20
73.9042011692
 11
108.6652095521
 21
73.9042011692
  0
LINE
  5
25D
100
AcDbEntity
  8
0
100
AcDbLine
 62
7
  6
CONTINUOUS
 10
108.0839789352
 20
74.0042011692
 11
107.1097105679
 21
74.0042011692
  0
LINE
  5
25E
100
AcDbEntity
  8
0
100
AcDbLine
 62
7
  6
CONTINUOUS
 10
106.0839789352
 20
74.0042011692
 11
107.0582473024
 21
74.0042011692
  0
LINE
  5
25F
100
AcDbEntity
  8
0
100
AcDbLine
 62
7
  6
CONTINUOUS
 10
31.7621955989
 20
74.2742011692
 11
34.5621955989
 21
74.2742011692
  0
LINE
  5
260
100
AcDbEntity
  8
0
100
AcDbLine
 62
7
  6
CONTINUOUS
 10
30.4921955989
 20
75.0792011692
 11
31.7621955989
 21
75.0792011692
  0
LINE
  5
261
100
AcDbEntity
  8
0
100
AcDbLine
 62
7
  6
CONTINUOUS
 10
34.5621955989
 20
75.0792011692
 11
37.3221955989
 21
75.0792011692
  0
LINE
  5
262
100
AcDbEntity
  8
0
100
AcDbLine
 62
7
  6
CONTINUOUS
 10
51.7721955989
 20
94.1142011692
 11
51.7721955989
 21
104.1142011692
  0
LINE
  5
263
100
AcDbEntity
  8
0
100
AcDbLine
 62
7
  6
CONTINUOUS
 10
51.8071163684
 20
104.0792803997
 11
51.8071163684
 21
94.1491219387
  0
LINE
  5
264
100
AcDbEntity
  8
0
100
AcDbLine
 62
7
  6
CONTINUOUS
 10
52.7372748294
 20
103.1491219387
 11
52.7372748294
 21
95.0792803997
  0
LINE
  5
265
100
AcDbEntity
  8
0
100
AcDbLine
 62
7
  6
CONTINUOUS
 10
52.7721955989
 20
103.1142011692
 11
52.7721955989
 21
95.1142011692
  0
LINE
  5
266
100
AcDbEntity
  8
0
100
AcDbLine
 62
7
  6
CONTINUOUS
 10
27.4021955989
 20
77.8842011692
 11
30.4921955989
 21
77.8842011692
  0
LINE
  5
267
100
AcDbEntity
  8
0
100
AcDbLine
 62
7
  6
CONTINUOUS
 10
106.0839789352
 20
77.9042011692
 11
107.0582473024
 21
77.9042011692
  0
LINE
  5
268
100
AcDbEntity
  8
0
100
AcDbLine
 62
7
  6
CONTINUOUS
 10
107.1097105679
 20
77.9042011692
 11
108.0839789352
 21
77.9042011692
  0
LINE
  5
269
100
AcDbEntity
  8
0
100
AcDbLine
 62
7
  6
CONTINUOUS
 10
106.0089789352
 20
78.0042011692
 11
108.6652095521
 21
78.0042011692
  0
LINE
  5
26A
100
AcDbEntity
  8
0
100
AcDbLine
 62
7
  6
CONTINUOUS
 10
106.0089789352
 20
78.9842011692
 11
108.6652095521
 21
78.9842011692
  0
LINE
  5
26B
100
AcDbEntity
  8
0
100
AcDbLine
 62
7
  6
CONTINUOUS
 10
108.0839789352
 20
79.0842011692
 11
107.1097105679
 21
79.0842011692
  0
LINE
  5
26C
100
AcDbEntity
  8
0
100
AcDbLine
 62
7
  6
CONTINUOUS
 10
106.0839789352
 20
79.0842011692
 11
107.0582473024
 21
79.0842011692
  0
LINE
  5
26D
100
AcDbEntity
  8
0
100
AcDbLine
 62
7
  6
CONTINUOUS
 10
53.8028327681
 20
101.5122543546
 11
53.8002625994
 21
101.5547473344
  0
LINE
  5
26E
100
AcDbEntity
  8
0
100
AcDbLine
 62
7
  6
CONTINUOUS
 10
56.0185584298
 20
99.7641479838
 11
56.0211285984
 21
99.721655004
  0
LINE
  5
26F
100
AcDbEntity
  8
0
100
AcDbLine
 62
7
  6
CONTINUOUS
 10
53.8002625994
 20
101.5547473344
 11
53.8002625994
 21
99.721655004
  0
LINE
  5
270
100
AcDbEntity
  8
0
100
AcDbLine
 62
7
  6
CONTINUOUS
 10
56.0185584298
 20
101.5122543546
 11
56.0185584298
 21
99.7641479838
  0
LINE
  5
271
100
AcDbEntity
  8
0
100
AcDbLine
 62
7
  6
CONTINUOUS
 10
56.7721955989
 20
95.1142011692
 11
56.7721955989
 21
103.1142011692
  0
LINE
  5
272
100
AcDbEntity
  8
0
100
AcDbLine
 62
7
  6
CONTINUOUS
 10
56.8071163684
 20
95.0792803997
 11
56.8071163684
 21
103.1491219387
  0
LINE
  5
273
100
AcDbEntity
  8
0
100
AcDbLine
 62
7
  6
CONTINUOUS
 10
57.2861596509
 20
108.9752371172
 11
57.2861596509
 21
153.5031652211
  0
LINE
  5
274
100
AcDbEntity
  8
0
100
AcDbLine
 62
7
  6
CONTINUOUS
 10
57.7372748294
 20
94.1491219387
 11
57.7372748294
 21
104.0792803997
  0
LINE
  5
275
100
AcDbEntity
  8
0
100
AcDbLine
 62
7
  6
CONTINUOUS
 10
57.7721955989
 20
104.1142011692
 11
57.7721955989
 21
94.1142011692
  0
LINE
  5
276
100
AcDbEntity
  8
0
100
AcDbLine
 62
7
  6
CONTINUOUS
 10
58.2425219886
 20
154.2428846065
 11
58.2425219886
 21
108.2355177318
  0
LINE
  5
277
100
AcDbEntity
  8
0
100
AcDbLine
 62
7
  6
CONTINUOUS
 10
58.2721955989
 20
108.146424507
 11
58.2721955989
 21
154.3319778313
  0
LINE
  5
278
100
AcDbEntity
  8
0
100
AcDbLine
 62
7
  6
CONTINUOUS
 10
58.3649722611
 20
108.0319778313
 11
58.368464338
 21
154.3302023142
  0
LINE
  5
279
100
AcDbEntity
  8
0
100
AcDbLine
 62
7
  6
CONTINUOUS
 10
58.4068771845
 20
122.9372186093
 11
58.4068771845
 21
120.6267370534
  0
LINE
  5
27A
100
AcDbEntity
  8
0
100
AcDbLine
 62
7
  6
CONTINUOUS
 10
58.4243375692
 20
120.6057739417
 11
58.4243375692
 21
108.0913431395
  0
LINE
  5
27B
100
AcDbEntity
  8
0
100
AcDbLine
 62
7
  6
CONTINUOUS
 10
58.4243375692
 20
122.958181721
 11
58.4243375692
 21
154.2726125232
  0
LINE
  5
27C
100
AcDbEntity
  8
0
100
AcDbLine
 62
7
  6
CONTINUOUS
 10
53.8002625994
 20
99.721655004
 11
53.8028327681
 21
99.7641479838
  0
LINE
  5
27D
100
AcDbEntity
  8
0
100
AcDbLine
 62
7
  6
CONTINUOUS
 10
56.0211285984
 20
101.5547473344
 11
56.0185584298
 21
101.5122543546
  0
LINE
  5
27E
100
AcDbEntity
  8
0
100
AcDbLine
 62
7
  6
CONTINUOUS
 10
130.2768899041
 20
97.8253209719
 11
133.0647838505
 21
98.5743074053
  0
LINE
  5
27F
100
AcDbEntity
  8
0
100
AcDbLine
 62
7
  6
CONTINUOUS
 10
132.3905575087
 20
96.2760528218
 11
128.3705575087
 21
95.1988970682
  0
LINE
  5
280
100
AcDbEntity
  8
0
100
AcDbLine
 62
7
  6
CONTINUOUS
 10
106.0839789352
 20
82.9842011692
 11
107.0582473024
 21
82.9842011692
  0
LINE
  5
281
100
AcDbEntity
  8
0
100
AcDbLine
 62
7
  6
CONTINUOUS
 10
107.1097105679
 20
82.9842011692
 11
108.0839789352
 21
82.9842011692
  0
LINE
  5
282
100
AcDbEntity
  8
0
100
AcDbLine
 62
7
  6
CONTINUOUS
 10
106.0089789352
 20
83.0842011692
 11
108.6652095521
 21
83.0842011692
  0
LINE
  5
283
100
AcDbEntity
  8
0
100
AcDbLine
 62
7
  6
CONTINUOUS
 10
106.0089789352
 20
84.0642011692
 11
108.6652095521
 21
84.0642011692
  0
LINE
  5
284
100
AcDbEntity
  8
0
100
AcDbLine
 62
7
  6
CONTINUOUS
 10
108.0839789352
 20
84.1642011692
 11
107.1097105679
 21
84.1642011692
  0
LINE
  5
285
100
AcDbEntity
  8
0
100
AcDbLine
 62
7
  6
CONTINUOUS
 10
106.0839789352
 20
84.1642011692
 11
107.0582473024
 21
84.1642011692
  0
LINE
  5
286
100
AcDbEntity
  8
0
100
AcDbLine
 62
7
  6
CONTINUOUS
 10
30.4921955989
 20
84.1842011692
 11
27.4021955989
 21
84.1842011692
  0
LINE
  5
287
100
AcDbEntity
  8
0
100
AcDbLine
 62
7
  6
CONTINUOUS
 10
37.3221955989
 20
86.9892011692
 11
34.5621955989
 21
86.9892011692
  0
LINE
  5
288
100
AcDbEntity
  8
0
100
AcDbLine
 62
7
  6
CONTINUOUS
 10
31.7621955989
 20
86.9892011692
 11
30.4921955989
 21
86.9892011692
  0
LINE
  5
289
100
AcDbEntity
  8
0
100
AcDbLine
 62
7
  6
CONTINUOUS
 10
34.5621955989
 20
87.7942011692
 11
31.7621955989
 21
87.7942011692
  0
LINE
  5
28A
100
AcDbEntity
  8
0
100
AcDbLine
 62
7
  6
CONTINUOUS
 10
106.0839789352
 20
88.0642011692
 11
107.0582473024
 21
88.0642011692
  0
LINE
  5
28B
100
AcDbEntity
  8
0
100
AcDbLine
 62
7
  6
CONTINUOUS
 10
107.1097105679
 20
88.0642011692
 11
108.0839789352
 21
88.0642011692
  0
LINE
  5
28C
100
AcDbEntity
  8
0
100
AcDbLine
 62
7
  6
CONTINUOUS
 10
106.0089789352
 20
88.1642011692
 11
108.6652095521
 21
88.1642011692
  0
LINE
  5
28D
100
AcDbEntity
  8
0
100
AcDbLine
 62
7
  6
CONTINUOUS
 10
128.9556073474
 20
73.5743074053
 11
131.7435012937
 21
72.8253209719
  0
LINE
  5
28E
100
AcDbEntity
  8
0
100
AcDbLine
 62
7
  6
CONTINUOUS
 10
57.7721955989
 20
94.1142011692
 11
57.7407317843
 21
94.1456649838
  0
LINE
  5
28F
100
AcDbEntity
  8
0
100
AcDbLine
 62
7
  6
CONTINUOUS
 10
56.7721955989
 20
95.1142011692
 11
56.8036285396
 21
95.0827682285
  0
LINE
  5
290
100
AcDbEntity
  8
0
100
AcDbLine
 62
7
  6
CONTINUOUS
 10
51.8036594136
 20
104.0827373545
 11
51.7721955989
 21
104.1142011692
  0
LINE
  5
291
100
AcDbEntity
  8
0
100
AcDbLine
 62
7
  6
CONTINUOUS
 10
52.7407626583
 20
103.1456341098
 11
52.7721955989
 21
103.1142011692
  0
LINE
  5
292
100
AcDbEntity
  8
0
100
AcDbLine
 62
7
  6
CONTINUOUS
 10
58.3649722611
 20
108.1411837291
 11
58.368464338
 21
108.146424507
  0
LINE
  5
293
100
AcDbEntity
  8
0
100
AcDbLine
 62
7
  6
CONTINUOUS
 10
131.7675012937
 20
103.4030813664
 11
128.9796073474
 21
102.6540949331
  0
LINE
  5
294
100
AcDbEntity
  8
0
100
AcDbLine
 62
7
  6
CONTINUOUS
 10
40.1021955989
 20
88.9842011692
 11
26.6021955989
 21
88.9842011692
  0
LINE
  5
295
100
AcDbEntity
  8
0
100
AcDbLine
 62
7
  6
CONTINUOUS
 10
106.0089789352
 20
89.1442011692
 11
108.6652095521
 21
89.1442011692
  0
LINE
  5
296
100
AcDbEntity
  8
0
100
AcDbLine
 62
7
  6
CONTINUOUS
 10
108.0839789352
 20
89.2442011692
 11
107.1097105679
 21
89.2442011692
  0
LINE
  5
297
100
AcDbEntity
  8
0
100
AcDbLine
 62
7
  6
CONTINUOUS
 10
106.0839789352
 20
89.2442011692
 11
107.0582473024
 21
89.2442011692
  0
LINE
  5
298
100
AcDbEntity
  8
0
100
AcDbLine
 62
7
  6
CONTINUOUS
 10
106.0839789352
 20
93.1442011692
 11
107.0582473024
 21
93.1442011692
  0
LINE
  5
299
100
AcDbEntity
  8
0
100
AcDbLine
 62
7
  6
CONTINUOUS
 10
107.1097105679
 20
93.1442011692
 11
108.0839789352
 21
93.1442011692
  0
LINE
  5
29A
100
AcDbEntity
  8
0
100
AcDbLine
 62
7
  6
CONTINUOUS
 10
106.0089789352
 20
93.2442011692
 11
108.6652095521
 21
93.2442011692
  0
LINE
  5
29B
100
AcDbEntity
  8
0
100
AcDbLine
 62
7
  6
CONTINUOUS
 10
133.0407838505
 20
77.6540949331
 11
130.2528899041
 21
78.4030813664
  0
LINE
  5
29C
100
AcDbEntity
  8
0
100
AcDbLine
 62
7
  6
CONTINUOUS
 10
58.2425219886
 20
108.2355177318
 11
58.2721955989
 21
108.146424507
  0
LINE
  5
29D
100
AcDbEntity
  8
0
100
AcDbLine
 62
7
  6
CONTINUOUS
 10
66.2649722611
 20
154.3319767494
 11
66.2649722611
 21
154.2761024735
  0
LINE
  5
29E
100
AcDbEntity
  8
0
100
AcDbLine
 62
7
  6
CONTINUOUS
 10
66.2649722611
 20
108.0913431395
 11
66.2649722611
 21
108.0284900076
  0
LINE
  5
29F
100
AcDbEntity
  8
0
100
AcDbLine
 62
7
  6
CONTINUOUS
 10
66.4221955989
 20
108.0319778313
 11
66.4221955989
 21
107.9892011692
  0
LINE
  5
2A0
100
AcDbEntity
  8
0
100
AcDbLine
 62
7
  6
CONTINUOUS
 10
67.5721955989
 20
148.3892011692
 11
67.5721955989
 21
144.3892011692
  0
LINE
  5
2A1
100
AcDbEntity
  8
0
100
AcDbLine
 62
7
  6
CONTINUOUS
 10
67.6420158586
 20
147.3366836474
 11
67.6420158586
 21
145.4417186845
  0
LINE
  5
2A2
100
AcDbEntity
  8
0
100
AcDbLine
 62
7
  6
CONTINUOUS
 10
69.5023753392
 20
145.4417186845
 11
69.5023753392
 21
147.3366836463
  0
LINE
  5
2A3
100
AcDbEntity
  8
0
100
AcDbLine
 62
7
  6
CONTINUOUS
 10
69.5721955989
 20
144.3892011692
 11
69.5721955989
 21
148.3892011692
  0
LINE
  5
2A4
100
AcDbEntity
  8
0
100
AcDbLine
 62
7
  6
CONTINUOUS
 10
69.6852991824
 20
148.7040420215
 11
69.6852991824
 21
143.9599059352
  0
LINE
  5
2A5
100
AcDbEntity
  8
0
100
AcDbLine
 62
7
  6
CONTINUOUS
 10
69.7149722612
 20
143.9319778313
 11
69.7149722612
 21
148.690394512
  0
LINE
  5
2A6
100
AcDbEntity
  8
0
100
AcDbLine
 62
7
  6
CONTINUOUS
 10
66.4221955989
 20
154.4892011692
 11
66.4221018869
 21
154.3319696683
  0
LINE
  5
2A7
100
AcDbEntity
  8
0
100
AcDbLine
 62
7
  6
CONTINUOUS
 10
58.3649722611
 20
108.0284900076
 11
58.4243375692
 21
108.0913431395
  0
LINE
  5
2A8
100
AcDbEntity
  8
0
100
AcDbLine
 62
7
  6
CONTINUOUS
 10
57.7721955989
 20
104.1142011692
 11
57.7407317843
 21
104.0827373545
  0
LINE
  5
2A9
100
AcDbEntity
  8
0
100
AcDbLine
 62
7
  6
CONTINUOUS
 10
56.8036285396
 20
103.1456341098
 11
56.7721955989
 21
103.1142011692
  0
LINE
  5
2AA
100
AcDbEntity
  8
0
100
AcDbLine
 62
7
  6
CONTINUOUS
 10
57.7721955989
 20
94.1142011692
 11
51.7721955989
 21
94.1142011692
  0
LINE
  5
2AB
100
AcDbEntity
  8
0
100
AcDbLine
 62
7
  6
CONTINUOUS
 10
51.8071163684
 20
94.1491219387
 11
57.7372748294
 21
94.1491219387
  0
LINE
  5
2AC
100
AcDbEntity
  8
0
100
AcDbLine
 62
7
  6
CONTINUOUS
 10
106.0089789352
 20
94.2242011692
 11
108.6652095521
 21
94.2242011692
  0
LINE
  5
2AD
100
AcDbEntity
  8
0
100
AcDbLine
 62
7
  6
CONTINUOUS
 10
108.0839789352
 20
94.3242011692
 11
107.1097105679
 21
94.3242011692
  0
LINE
  5
2AE
100
AcDbEntity
  8
0
100
AcDbLine
 62
7
  6
CONTINUOUS
 10
106.0839789352
 20
94.3242011692
 11
107.0582473024
 21
94.3242011692
  0
LINE
  5
2AF
100
AcDbEntity
  8
0
100
AcDbLine
 62
7
  6
CONTINUOUS
 10
26.6021955989
 20
94.4842011692
 11
40.1021955989
 21
94.4842011692
  0
LINE
  5
2B0
100
AcDbEntity
  8
0
100
AcDbLine
 62
7
  6
CONTINUOUS
 10
52.7372748294
 20
95.0792803997
 11
56.8071163684
 21
95.0792803997
  0
LINE
  5
2B1
100
AcDbEntity
  8
0
100
AcDbLine
 62
7
  6
CONTINUOUS
 10
52.7721955989
 20
95.1142011692
 11
56.7721955989
 21
95.1142011692
  0
LINE
  5
2B2
100
AcDbEntity
  8
0
100
AcDbLine
 62
7
  6
CONTINUOUS
 10
31.7621955989
 20
95.6742011692
 11
34.5621955989
 21
95.6742011692
  0
LINE
  5
2B3
100
AcDbEntity
  8
0
100
AcDbLine
 62
7
  6
CONTINUOUS
 10
30.4921955989
 20
96.4792011692
 11
31.7621955989
 21
96.4792011692
  0
LINE
  5
2B4
100
AcDbEntity
  8
0
100
AcDbLine
 62
7
  6
CONTINUOUS
 10
34.5621955989
 20
96.4792011692
 11
37.3221955989
 21
96.4792011692
  0
LINE
  5
2B5
100
AcDbEntity
  8
0
100
AcDbLine
 62
7
  6
CONTINUOUS
 10
106.0839789352
 20
98.2242011692
 11
107.0582473024
 21
98.2242011692
  0
LINE
  5
2B6
100
AcDbEntity
  8
0
100
AcDbLine
 62
7
  6
CONTINUOUS
 10
107.1097105679
 20
98.2242011692
 11
108.0839789352
 21
98.2242011692
  0
LINE
  5
2B7
100
AcDbEntity
  8
0
100
AcDbLine
 62
7
  6
CONTINUOUS
 10
108.6652095521
 20
98.3242011692
 11
106.0089789352
 21
98.3242011692
  0
LINE
  5
2B8
100
AcDbEntity
  8
0
100
AcDbLine
 62
7
  6
CONTINUOUS
 10
98.5089789352
 20
99.1242011692
 11
113.5089789352
 21
99.1242011692
  0
LINE
  5
2B9
100
AcDbEntity
  8
0
100
AcDbLine
 62
7
  6
CONTINUOUS
 10
27.4021955989
 20
99.2842011692
 11
30.4921955989
 21
99.2842011692
  0
LINE
  5
2BA
100
AcDbEntity
  8
0
100
AcDbLine
 62
7
  6
CONTINUOUS
 10
128.3705575087
 20
81.0295052702
 11
132.3905575087
 21
79.9523495166
  0
LINE
  5
2BB
100
AcDbEntity
  8
0
100
AcDbLine
 62
7
  6
CONTINUOUS
 10
71.2056069529
 20
149.3319778313
 11
71.2056069529
 21
122.958181721
  0
LINE
  5
2BC
100
AcDbEntity
  8
0
100
AcDbLine
 62
7
  6
CONTINUOUS
 10
71.2056069529
 20
113.0319778313
 11
71.2056069529
 21
120.6057739417
  0
LINE
  5
2BD
100
AcDbEntity
  8
0
100
AcDbLine
 62
7
  6
CONTINUOUS
 10
71.2230673377
 20
120.6267370534
 11
71.2230673377
 21
122.9372186093
  0
LINE
  5
2BE
100
AcDbEntity
  8
0
100
AcDbLine
 62
7
  6
CONTINUOUS
 10
71.2649711792
 20
113.0319778313
 11
71.2649711792
 21
149.3319778313
  0
LINE
  5
2BF
100
AcDbEntity
  8
0
100
AcDbLine
 62
7
  6
CONTINUOUS
 10
71.4221955989
 20
149.4892011692
 11
71.4221955989
 21
112.9892011692
  0
LINE
  5
2C0
100
AcDbEntity
  8
0
100
AcDbLine
 62
7
  6
CONTINUOUS
 10
51.7721955989
 20
94.1142011692
 11
51.8036594136
 21
94.1456649838
  0
LINE
  5
2C1
100
AcDbEntity
  8
0
100
AcDbLine
 62
7
  6
CONTINUOUS
 10
52.7407626583
 20
95.0827682285
 11
52.7721955989
 21
95.1142011692
  0
LINE
  5
2C2
100
AcDbEntity
  8
0
100
AcDbLine
 62
7
  6
CONTINUOUS
 10
53.8002625994
 20
99.721655004
 11
56.0211285984
 21
99.721655004
  0
LINE
  5
2C3
100
AcDbEntity
  8
0
100
AcDbLine
 62
7
  6
CONTINUOUS
 10
56.0185584298
 20
99.7641479838
 11
53.8028327681
 21
99.7641479838
  0
LINE
  5
2C4
100
AcDbEntity
  8
0
100
AcDbLine
 62
7
  6
CONTINUOUS
 10
105.63330671
 20
99.8142011692
 11
113.8721955989
 21
99.8142011692
  0
LINE
  5
2C5
100
AcDbEntity
  8
0
100
AcDbLine
 62
7
  6
CONTINUOUS
 10
53.8028327681
 20
101.5122543546
 11
56.0185584298
 21
101.5122543546
  0
LINE
  5
2C6
100
AcDbEntity
  8
0
100
AcDbLine
 62
7
  6
CONTINUOUS
 10
56.0211285984
 20
101.5547473344
 11
53.8002625994
 21
101.5547473344
  0
LINE
  5
2C7
100
AcDbEntity
  8
0
100
AcDbLine
 62
7
  6
CONTINUOUS
 10
56.7721955989
 20
103.1142011692
 11
52.7721955989
 21
103.1142011692
  0
LINE
  5
2C8
100
AcDbEntity
  8
0
100
AcDbLine
 62
7
  6
CONTINUOUS
 10
56.8071163684
 20
103.1491219387
 11
52.7372748294
 21
103.1491219387
  0
LINE
  5
2C9
100
AcDbEntity
  8
0
100
AcDbLine
 62
7
  6
CONTINUOUS
 10
57.7372748294
 20
104.0792803997
 11
51.8071163684
 21
104.0792803997
  0
LINE
  5
2CA
100
AcDbEntity
  8
0
100
AcDbLine
 62
7
  6
CONTINUOUS
 10
51.7721955989
 20
104.1142011692
 11
57.7721955989
 21
104.1142011692
  0
LINE
  5
2CB
100
AcDbEntity
  8
0
100
AcDbLine
 62
7
  6
CONTINUOUS
 10
30.4921955989
 20
105.5842011692
 11
27.4021955989
 21
105.5842011692
  0
LINE
  5
2CC
100
AcDbEntity
  8
0
100
AcDbLine
 62
7
  6
CONTINUOUS
 10
66.4221955989
 20
107.9892011692
 11
47.5721955989
 21
107.9892011692
  0
LINE
  5
2CD
100
AcDbEntity
  8
0
100
AcDbLine
 62
7
  6
CONTINUOUS
 10
66.2649722611
 20
108.0319778313
 11
58.3649722611
 21
108.0319778313
  0
LINE
  5
2CE
100
AcDbEntity
  8
0
100
AcDbLine
 62
7
  6
CONTINUOUS
 10
66.2649722611
 20
108.0913431395
 11
58.4243375692
 21
108.0913431395
  0
LINE
  5
2CF
100
AcDbEntity
  8
0
100
AcDbLine
 62
7
  6
CONTINUOUS
 10
58.2721955989
 20
108.146424507
 11
58.368464338
 21
108.146424507
  0
LINE
  5
2D0
100
AcDbEntity
  8
0
100
AcDbLine
 62
7
  6
CONTINUOUS
 10
47.5721955989
 20
108.2355177318
 11
58.2425219886
 21
108.2355177318
  0
LINE
  5
2D1
100
AcDbEntity
  8
0
100
AcDbLine
 62
7
  6
CONTINUOUS
 10
37.3221955989
 20
108.3892011692
 11
34.5621955989
 21
108.3892011692
  0
LINE
  5
2D2
100
AcDbEntity
  8
0
100
AcDbLine
 62
7
  6
CONTINUOUS
 10
31.7621955989
 20
108.3892011692
 11
30.4921955989
 21
108.3892011692
  0
LINE
  5
2D3
100
AcDbEntity
  8
0
100
AcDbLine
 62
7
  6
CONTINUOUS
 10
47.5721955989
 20
108.9752371172
 11
57.2861596509
 21
108.9752371172
  0
LINE
  5
2D4
100
AcDbEntity
  8
0
100
AcDbLine
 62
7
  6
CONTINUOUS
 10
34.5621955989
 20
109.1942011692
 11
31.7621955989
 21
109.1942011692
  0
LINE
  5
2D5
100
AcDbEntity
  8
0
100
AcDbLine
 62
7
  6
CONTINUOUS
 10
71.2056069529
 20
122.958181721
 11
71.2195756897
 21
122.9319921861
  0
LINE
  5
2D6
100
AcDbEntity
  8
0
100
AcDbLine
 62
7
  6
CONTINUOUS
 10
40.1021955989
 20
110.3842011692
 11
26.6021955989
 21
110.3842011692
  0
LINE
  5
2D7
100
AcDbEntity
  8
0
100
AcDbLine
 62
7
  6
CONTINUOUS
 10
131.5981955989
 20
112.7642011692
 11
124.5981955989
 21
112.7642011692
  0
LINE
  5
2D8
100
AcDbEntity
  8
0
100
AcDbLine
 62
7
  6
CONTINUOUS
 10
42.8185121616
 20
112.9892011692
 11
42.5721955989
 21
112.9892011692
  0
LINE
  5
2D9
100
AcDbEntity
  8
0
100
AcDbLine
 62
7
  6
CONTINUOUS
 10
71.2649711792
 20
113.0319778313
 11
71.2090969033
 21
113.0319778313
  0
LINE
  5
2DA
100
AcDbEntity
  8
0
100
AcDbLine
 62
7
  6
CONTINUOUS
 10
133.3981955989
 20
113.0642011692
 11
120.9981955989
 21
113.0642011692
  0
LINE
  5
2DB
100
AcDbEntity
  8
0
100
AcDbLine
 62
7
  6
CONTINUOUS
 10
45.0221955989
 20
113.0892011692
 11
47.0221955989
 21
113.0892011692
  0
LINE
  5
2DC
100
AcDbEntity
  8
0
100
AcDbLine
 62
7
  6
CONTINUOUS
 10
124.7981955989
 20
113.7642011692
 11
127.5981955989
 21
113.7642011692
  0
LINE
  5
2DD
100
AcDbEntity
  8
0
100
AcDbLine
 62
7
  6
CONTINUOUS
 10
127.5231955989
 20
113.9142011692
 11
126.6752931894
 21
113.9142011692
  0
LINE
  5
2DE
100
AcDbEntity
  8
0
100
AcDbLine
 62
7
  6
CONTINUOUS
 10
126.3710980085
 20
113.9142011692
 11
125.5231955989
 21
113.9142011692
  0
LINE
  5
2DF
100
AcDbEntity
  8
0
100
AcDbLine
 62
7
  6
CONTINUOUS
 10
47.0221955989
 20
114.1892011692
 11
45.0221955989
 21
114.1892011692
  0
LINE
  5
2E0
100
AcDbEntity
  8
0
100
AcDbLine
 62
7
  6
CONTINUOUS
 10
26.5921955989
 20
115.7342011692
 11
40.5721955989
 21
115.7342011692
  0
LINE
  5
2E1
100
AcDbEntity
  8
0
100
AcDbLine
 62
7
  6
CONTINUOUS
 10
71.4221955989
 20
112.9892011692
 11
71.2649672282
 21
112.9892168893
  0
LINE
  5
2E2
100
AcDbEntity
  8
0
100
AcDbLine
 62
7
  6
CONTINUOUS
 10
45.0221955989
 20
116.2892011692
 11
47.0221955989
 21
116.2892011692
  0
LINE
  5
2E3
100
AcDbEntity
  8
0
100
AcDbLine
 62
7
  6
CONTINUOUS
 10
125.5231955989
 20
116.7142011692
 11
126.3710980085
 21
116.7142011692
  0
LINE
  5
2E4
100
AcDbEntity
  8
0
100
AcDbLine
 62
7
  6
CONTINUOUS
 10
126.6752931894
 20
116.7142011692
 11
127.5231955989
 21
116.7142011692
  0
LINE
  5
2E5
100
AcDbEntity
  8
0
100
AcDbLine
 62
7
  6
CONTINUOUS
 10
127.5981955989
 20
116.8642011692
 11
124.7981955989
 21
116.8642011692
  0
LINE
  5
2E6
100
AcDbEntity
  8
0
100
AcDbLine
 62
7
  6
CONTINUOUS
 10
47.0221955989
 20
117.3892011692
 11
45.0221955989
 21
117.3892011692
  0
LINE
  5
2E7
100
AcDbEntity
  8
0
100
AcDbLine
 62
7
  6
CONTINUOUS
 10
124.7981955989
 20
117.5742011692
 11
127.5981955989
 21
117.5742011692
  0
LINE
  5
2E8
100
AcDbEntity
  8
0
100
AcDbLine
 62
7
  6
CONTINUOUS
 10
127.5231955989
 20
117.7242011692
 11
126.6752931894
 21
117.7242011692
  0
LINE
  5
2E9
100
AcDbEntity
  8
0
100
AcDbLine
 62
7
  6
CONTINUOUS
 10
126.3710980085
 20
117.7242011692
 11
125.5231955989
 21
117.7242011692
  0
LINE
  5
2EA
100
AcDbEntity
  8
0
100
AcDbLine
 62
7
  6
CONTINUOUS
 10
29.9421955989
 20
117.8642011692
 11
36.8021955989
 21
117.8642011692
  0
LINE
  5
2EB
100
AcDbEntity
  8
0
100
AcDbLine
 62
7
  6
CONTINUOUS
 10
139.9721955989
 20
118.4892011692
 11
136.0721955989
 21
118.4892011692
  0
LINE
  5
2EC
100
AcDbEntity
  8
0
100
AcDbLine
 62
7
  6
CONTINUOUS
 10
136.0721955989
 20
118.6621468408
 11
139.9721955989
 21
118.6621468408
  0
LINE
  5
2ED
100
AcDbEntity
  8
0
100
AcDbLine
 62
7
  6
CONTINUOUS
 10
136.0721955989
 20
119.2752371172
 11
139.9721955989
 21
119.2752371172
  0
LINE
  5
2EE
100
AcDbEntity
  8
0
100
AcDbLine
 62
7
  6
CONTINUOUS
 10
45.0221955989
 20
119.4892011692
 11
47.0221955989
 21
119.4892011692
  0
LINE
  5
2EF
100
AcDbEntity
  8
0
100
AcDbLine
 62
7
  6
CONTINUOUS
 10
125.5231955989
 20
120.5242011692
 11
126.3710980085
 21
120.5242011692
  0
LINE
  5
2F0
100
AcDbEntity
  8
0
100
AcDbLine
 62
7
  6
CONTINUOUS
 10
126.6752931894
 20
120.5242011692
 11
127.5231955989
 21
120.5242011692
  0
LINE
  5
2F1
100
AcDbEntity
  8
0
100
AcDbLine
 62
7
  6
CONTINUOUS
 10
47.0221955989
 20
120.5892011692
 11
45.0221955989
 21
120.5892011692
  0
LINE
  5
2F2
100
AcDbEntity
  8
0
100
AcDbLine
 62
7
  6
CONTINUOUS
 10
58.4243375692
 20
120.6057739417
 11
71.2056069529
 21
120.6057739417
  0
LINE
  5
2F3
100
AcDbEntity
  8
0
100
AcDbLine
 62
7
  6
CONTINUOUS
 10
58.4103688324
 20
120.6319634766
 11
71.2195756897
 21
120.6319634766
  0
LINE
  5
2F4
100
AcDbEntity
  8
0
100
AcDbLine
 62
7
  6
CONTINUOUS
 10
127.5981955989
 20
120.6742011692
 11
124.7981955989
 21
120.6742011692
  0
LINE
  5
2F5
100
AcDbEntity
  8
0
100
AcDbLine
 62
7
  6
CONTINUOUS
 10
28.2821955989
 20
120.6842011692
 11
29.9421955989
 21
120.6842011692
  0
LINE
  5
2F6
100
AcDbEntity
  8
0
100
AcDbLine
 62
7
  6
CONTINUOUS
 10
142.3721955989
 20
120.8892011683
 11
142.2091829209
 21
120.8892011692
  0
LINE
  5
2F7
100
AcDbEntity
  8
0
100
AcDbLine
 62
7
  6
CONTINUOUS
 10
133.8451412706
 20
120.8892011692
 11
133.6721955989
 21
120.8892011692
  0
LINE
  5
2F8
100
AcDbEntity
  8
0
100
AcDbLine
 62
7
  6
CONTINUOUS
 10
124.7981955989
 20
121.3842011692
 11
127.5981955989
 21
121.3842011692
  0
LINE
  5
2F9
100
AcDbEntity
  8
0
100
AcDbLine
 62
7
  6
CONTINUOUS
 10
127.5231955989
 20
121.5342011692
 11
126.6752931894
 21
121.5342011692
  0
LINE
  5
2FA
100
AcDbEntity
  8
0
100
AcDbLine
 62
7
  6
CONTINUOUS
 10
126.3710980085
 20
121.5342011692
 11
125.5231955989
 21
121.5342011692
  0
LINE
  5
2FB
100
AcDbEntity
  8
0
100
AcDbLine
 62
7
  6
CONTINUOUS
 10
136.1221955989
 20
121.6892011692
 11
138.1221955989
 21
121.6892011692
  0
LINE
  5
2FC
100
AcDbEntity
  8
0
100
AcDbLine
 62
7
  6
CONTINUOUS
 10
26.8221955989
 20
121.7992011692
 11
28.2821955989
 21
121.7992011692
  0
LINE
  5
2FD
100
AcDbEntity
  8
0
100
AcDbLine
 62
7
  6
CONTINUOUS
 10
45.0221955989
 20
122.6892011692
 11
47.0221955989
 21
122.6892011692
  0
LINE
  5
2FE
100
AcDbEntity
  8
0
100
AcDbLine
 62
7
  6
CONTINUOUS
 10
138.1221955989
 20
122.7892011692
 11
136.1221955989
 21
122.7892011692
  0
LINE
  5
2FF
100
AcDbEntity
  8
0
100
AcDbLine
 62
7
  6
CONTINUOUS
 10
71.2195756897
 20
122.9319921861
 11
58.4103688324
 21
122.9319921861
  0
LINE
  5
300
100
AcDbEntity
  8
0
100
AcDbLine
 62
7
  6
CONTINUOUS
 10
71.2056069529
 20
122.958181721
 11
58.4243375692
 21
122.958181721
  0
LINE
  5
301
100
AcDbEntity
  8
0
100
AcDbLine
 62
7
  6
CONTINUOUS
 10
47.0221955989
 20
123.7892011692
 11
45.0221955989
 21
123.7892011692
  0
LINE
  5
302
100
AcDbEntity
  8
0
100
AcDbLine
 62
7
  6
CONTINUOUS
 10
125.5231955989
 20
124.3342011692
 11
126.3710980085
 21
124.3342011692
  0
LINE
  5
303
100
AcDbEntity
  8
0
100
AcDbLine
 62
7
  6
CONTINUOUS
 10
126.6752931894
 20
124.3342011692
 11
127.5231955989
 21
124.3342011692
  0
LINE
  5
304
100
AcDbEntity
  8
0
100
AcDbLine
 62
7
  6
CONTINUOUS
 10
127.5981955989
 20
124.4842011692
 11
124.7981955989
 21
124.4842011692
  0
LINE
  5
305
100
AcDbEntity
  8
0
100
AcDbLine
 62
7
  6
CONTINUOUS
 10
136.1221955989
 20
124.8892011692
 11
138.1221955989
 21
124.8892011692
  0
LINE
  5
306
100
AcDbEntity
  8
0
100
AcDbLine
 62
7
  6
CONTINUOUS
 10
124.7981955989
 20
125.1942011692
 11
127.5981955989
 21
125.1942011692
  0
LINE
  5
307
100
AcDbEntity
  8
0
100
AcDbLine
 62
7
  6
CONTINUOUS
 10
127.5231955989
 20
125.3442011692
 11
126.6752931894
 21
125.3442011692
  0
LINE
  5
308
100
AcDbEntity
  8
0
100
AcDbLine
 62
7
  6
CONTINUOUS
 10
126.3710980085
 20
125.3442011692
 11
125.5231955989
 21
125.3442011692
  0
LINE
  5
309
100
AcDbEntity
  8
0
100
AcDbLine
 62
7
  6
CONTINUOUS
 10
28.2821955989
 20
125.8692011692
 11
26.8221955989
 21
125.8692011692
  0
LINE
  5
30A
100
AcDbEntity
  8
0
100
AcDbLine
 62
7
  6
CONTINUOUS
 10
45.0221955989
 20
125.8892011692
 11
47.0221955989
 21
125.8892011692
  0
LINE
  5
30B
100
AcDbEntity
  8
0
100
AcDbLine
 62
7
  6
CONTINUOUS
 10
138.1221955989
 20
125.9892011692
 11
136.1221955989
 21
125.9892011692
  0
LINE
  5
30C
100
AcDbEntity
  8
0
100
AcDbLine
 62
7
  6
CONTINUOUS
 10
69.5195260723
 20
144.4418706958
 11
69.5721955989
 21
144.3892011692
  0
LINE
  5
30D
100
AcDbEntity
  8
0
100
AcDbLine
 62
7
  6
CONTINUOUS
 10
98.5089789352
 20
73.1042011692
 11
98.5089789352
 21
99.1242011692
  0
LINE
  5
30E
100
AcDbEntity
  8
0
100
AcDbLine
 62
7
  6
CONTINUOUS
 10
100.5371955989
 20
153.3622011692
 11
100.5371955989
 21
137.1062011692
  0
LINE
  5
30F
100
AcDbEntity
  8
0
100
AcDbLine
 62
7
  6
CONTINUOUS
 10
101.3971955989
 20
147.2662011692
 11
101.3971955989
 21
143.2022011692
  0
LINE
  5
310
100
AcDbEntity
  8
0
100
AcDbLine
 62
7
  6
CONTINUOUS
 10
101.5089789352
 20
99.1242011692
 11
101.5089789352
 21
73.1042011692
  0
LINE
  5
311
100
AcDbEntity
  8
0
100
AcDbLine
 62
7
  6
CONTINUOUS
 10
101.9089789352
 20
73.1042011692
 11
101.9089789352
 21
99.1242011692
  0
LINE
  5
312
100
AcDbEntity
  8
0
100
AcDbLine
 62
7
  6
CONTINUOUS
 10
102.5401955989
 20
148.3837011692
 11
102.5401955989
 21
147.2662011692
  0
LINE
  5
313
100
AcDbEntity
  8
0
100
AcDbLine
 62
7
  6
CONTINUOUS
 10
102.5401955989
 20
143.2022011692
 11
102.5401955989
 21
142.0847011692
  0
LINE
  5
314
100
AcDbEntity
  8
0
100
AcDbLine
 62
7
  6
CONTINUOUS
 10
29.9421955989
 20
126.9842011692
 11
28.2821955989
 21
126.9842011692
  0
LINE
  5
315
100
AcDbEntity
  8
0
100
AcDbLine
 62
7
  6
CONTINUOUS
 10
47.0221955989
 20
126.9892011692
 11
45.0221955989
 21
126.9892011692
  0
LINE
  5
316
100
AcDbEntity
  8
0
100
AcDbLine
 62
7
  6
CONTINUOUS
 10
136.1221955989
 20
128.0892011692
 11
138.1221955989
 21
128.0892011692
  0
LINE
  5
317
100
AcDbEntity
  8
0
100
AcDbLine
 62
7
  6
CONTINUOUS
 10
125.5231955989
 20
128.1442011692
 11
126.3710980085
 21
128.1442011692
  0
LINE
  5
318
100
AcDbEntity
  8
0
100
AcDbLine
 62
7
  6
CONTINUOUS
 10
126.6752931894
 20
128.1442011692
 11
127.5231955989
 21
128.1442011692
  0
LINE
  5
319
100
AcDbEntity
  8
0
100
AcDbLine
 62
7
  6
CONTINUOUS
 10
127.5981955989
 20
128.2942011692
 11
124.7981955989
 21
128.2942011692
  0
LINE
  5
31A
100
AcDbEntity
  8
0
100
AcDbLine
 62
7
  6
CONTINUOUS
 10
124.7981955989
 20
129.0042011692
 11
127.5981955989
 21
129.0042011692
  0
LINE
  5
31B
100
AcDbEntity
  8
0
100
AcDbLine
 62
7
  6
CONTINUOUS
 10
45.0221955989
 20
129.0892011692
 11
47.0221955989
 21
129.0892011692
  0
LINE
  5
31C
100
AcDbEntity
  8
0
100
AcDbLine
 62
7
  6
CONTINUOUS
 10
127.5231955989
 20
129.1542011692
 11
126.6752931894
 21
129.1542011692
  0
LINE
  5
31D
100
AcDbEntity
  8
0
100
AcDbLine
 62
7
  6
CONTINUOUS
 10
126.3710980085
 20
129.1542011692
 11
125.5231955989
 21
129.1542011692
  0
LINE
  5
31E
100
AcDbEntity
  8
0
100
AcDbLine
 62
7
  6
CONTINUOUS
 10
138.1221955989
 20
129.1892011692
 11
136.1221955989
 21
129.1892011692
  0
LINE
  5
31F
100
AcDbEntity
  8
0
100
AcDbLine
 62
7
  6
CONTINUOUS
 10
36.8021955989
 20
129.8042011692
 11
29.9421955989
 21
129.8042011692
  0
LINE
  5
320
100
AcDbEntity
  8
0
100
AcDbLine
 62
7
  6
CONTINUOUS
 10
47.0221955989
 20
130.1892011692
 11
45.0221955989
 21
130.1892011692
  0
LINE
  5
321
100
AcDbEntity
  8
0
100
AcDbLine
 62
7
  6
CONTINUOUS
 10
136.1221955989
 20
131.2892011692
 11
138.1221955989
 21
131.2892011692
  0
LINE
  5
322
100
AcDbEntity
  8
0
100
AcDbLine
 62
7
  6
CONTINUOUS
 10
40.5721955989
 20
131.9342011692
 11
26.5921955989
 21
131.9342011692
  0
LINE
  5
323
100
AcDbEntity
  8
0
100
AcDbLine
 62
7
  6
CONTINUOUS
 10
125.5231955989
 20
131.9542011692
 11
126.3710980085
 21
131.9542011692
  0
LINE
  5
324
100
AcDbEntity
  8
0
100
AcDbLine
 62
7
  6
CONTINUOUS
 10
126.6752931894
 20
131.9542011692
 11
127.5231955989
 21
131.9542011692
  0
LINE
  5
325
100
AcDbEntity
  8
0
100
AcDbLine
 62
7
  6
CONTINUOUS
 10
127.5981955989
 20
132.1042011692
 11
124.7981955989
 21
132.1042011692
  0
LINE
  5
326
100
AcDbEntity
  8
0
100
AcDbLine
 62
7
  6
CONTINUOUS
 10
45.0221955989
 20
132.2892011692
 11
47.0221955989
 21
132.2892011692
  0
LINE
  5
327
100
AcDbEntity
  8
0
100
AcDbLine
 62
7
  6
CONTINUOUS
 10
67.6248651257
 20
148.3365316424
 11
67.5721955989
 21
148.3892011692
  0
LINE
  5
328
100
AcDbEntity
  8
0
100
AcDbLine
 62
7
  6
CONTINUOUS
 10
104.2161955989
 20
151.1907011692
 11
104.2161955989
 21
148.3837011692
  0
LINE
  5
329
100
AcDbEntity
  8
0
100
AcDbLine
 62
7
  6
CONTINUOUS
 10
104.2161955989
 20
142.0847011692
 11
104.2161955989
 21
139.2777011692
  0
LINE
  5
32A
100
AcDbEntity
  8
0
100
AcDbLine
 62
7
  6
CONTINUOUS
 10
105.63330671
 20
99.8142011692
 11
105.63330671
 21
99.1242011692
  0
LINE
  5
32B
100
AcDbEntity
  8
0
100
AcDbLine
 62
7
  6
CONTINUOUS
 10
105.63330671
 20
73.1042011692
 11
105.63330671
 21
72.4142011692
  0
LINE
  5
32C
100
AcDbEntity
  8
0
100
AcDbLine
 62
7
  6
CONTINUOUS
 10
105.7721955989
 20
99.8142011692
 11
105.7721955989
 21
99.1242011692
  0
LINE
  5
32D
100
AcDbEntity
  8
0
100
AcDbLine
 62
7
  6
CONTINUOUS
 10
105.7721955989
 20
73.1042011692
 11
105.7721955989
 21
72.4142011692
  0
LINE
  5
32E
100
AcDbEntity
  8
0
100
AcDbLine
 62
7
  6
CONTINUOUS
 10
106.0089789352
 20
73.1042011692
 11
106.0089789352
 21
73.9042011692
  0
LINE
  5
32F
100
AcDbEntity
  8
0
100
AcDbLine
 62
7
  6
CONTINUOUS
 10
106.0089789352
 20
78.0042011692
 11
106.0089789352
 21
78.9842011692
  0
LINE
  5
330
100
AcDbEntity
  8
0
100
AcDbLine
 62
7
  6
CONTINUOUS
 10
106.0089789352
 20
83.0842011692
 11
106.0089789352
 21
84.0642011692
  0
LINE
  5
331
100
AcDbEntity
  8
0
100
AcDbLine
 62
7
  6
CONTINUOUS
 10
106.0089789352
 20
88.1642011692
 11
106.0089789352
 21
89.1442011692
  0
LINE
  5
332
100
AcDbEntity
  8
0
100
AcDbLine
 62
7
  6
CONTINUOUS
 10
106.0089789352
 20
93.2442011692
 11
106.0089789352
 21
94.2242011692
  0
LINE
  5
333
100
AcDbEntity
  8
0
100
AcDbLine
 62
7
  6
CONTINUOUS
 10
106.0089789352
 20
98.3242011692
 11
106.0089789352
 21
99.1242011692
  0
LINE
  5
334
100
AcDbEntity
  8
0
100
AcDbLine
 62
7
  6
CONTINUOUS
 10
106.0839789352
 20
98.2242011692
 11
106.0839789352
 21
94.3242011692
  0
LINE
  5
335
100
AcDbEntity
  8
0
100
AcDbLine
 62
7
  6
CONTINUOUS
 10
106.0839789352
 20
93.1442011692
 11
106.0839789352
 21
89.2442011692
  0
LINE
  5
336
100
AcDbEntity
  8
0
100
AcDbLine
 62
7
  6
CONTINUOUS
 10
106.0839789352
 20
88.0642011692
 11
106.0839789352
 21
84.1642011692
  0
LINE
  5
337
100
AcDbEntity
  8
0
100
AcDbLine
 62
7
  6
CONTINUOUS
 10
106.0839789352
 20
82.9842011692
 11
106.0839789352
 21
79.0842011692
  0
LINE
  5
338
100
AcDbEntity
  8
0
100
AcDbLine
 62
7
  6
CONTINUOUS
 10
106.0839789352
 20
77.9042011692
 11
106.0839789352
 21
74.0042011692
  0
LINE
  5
339
100
AcDbEntity
  8
0
100
AcDbLine
 62
7
  6
CONTINUOUS
 10
106.1461955989
 20
151.5842011692
 11
106.1461955989
 21
151.1907011692
  0
LINE
  5
33A
100
AcDbEntity
  8
0
100
AcDbLine
 62
7
  6
CONTINUOUS
 10
106.1461955989
 20
139.2777011692
 11
106.1461955989
 21
138.8842011692
  0
LINE
  5
33B
100
AcDbEntity
  8
0
100
AcDbLine
 62
7
  6
CONTINUOUS
 10
106.6436782833
 20
74.0042011692
 11
106.6436782833
 21
77.9042011692
  0
LINE
  5
33C
100
AcDbEntity
  8
0
100
AcDbLine
 62
7
  6
CONTINUOUS
 10
106.6436782833
 20
79.0842011692
 11
106.6436782833
 21
82.9842011692
  0
LINE
  5
33D
100
AcDbEntity
  8
0
100
AcDbLine
 62
7
  6
CONTINUOUS
 10
106.6436782833
 20
84.1642011692
 11
106.6436782833
 21
88.0642011692
  0
LINE
  5
33E
100
AcDbEntity
  8
0
100
AcDbLine
 62
7
  6
CONTINUOUS
 10
106.6436782833
 20
89.2442011692
 11
106.6436782833
 21
93.1442011692
  0
LINE
  5
33F
100
AcDbEntity
  8
0
100
AcDbLine
 62
7
  6
CONTINUOUS
 10
106.6436782833
 20
94.3242011692
 11
106.6436782833
 21
98.2242011692
  0
LINE
  5
340
100
AcDbEntity
  8
0
100
AcDbLine
 62
7
  6
CONTINUOUS
 10
107.0582473024
 20
74.0042011692
 11
107.0582473024
 21
77.9042011692
  0
LINE
  5
341
100
AcDbEntity
  8
0
100
AcDbLine
 62
7
  6
CONTINUOUS
 10
107.0582473024
 20
79.0842011692
 11
107.0582473024
 21
82.9842011692
  0
LINE
  5
342
100
AcDbEntity
  8
0
100
AcDbLine
 62
7
  6
CONTINUOUS
 10
107.0582473024
 20
84.1642011692
 11
107.0582473024
 21
88.0642011692
  0
LINE
  5
343
100
AcDbEntity
  8
0
100
AcDbLine
 62
7
  6
CONTINUOUS
 10
107.0582473024
 20
89.2442011692
 11
107.0582473024
 21
93.1442011692
  0
LINE
  5
344
100
AcDbEntity
  8
0
100
AcDbLine
 62
7
  6
CONTINUOUS
 10
107.0582473024
 20
94.3242011692
 11
107.0582473024
 21
98.2242011692
  0
LINE
  5
345
100
AcDbEntity
  8
0
100
AcDbLine
 62
7
  6
CONTINUOUS
 10
107.1097105679
 20
98.2242011692
 11
107.1097105679
 21
94.3242011692
  0
LINE
  5
346
100
AcDbEntity
  8
0
100
AcDbLine
 62
7
  6
CONTINUOUS
 10
107.1097105679
 20
93.1442011692
 11
107.1097105679
 21
89.2442011692
  0
LINE
  5
347
100
AcDbEntity
  8
0
100
AcDbLine
 62
7
  6
CONTINUOUS
 10
107.1097105679
 20
88.0642011692
 11
107.1097105679
 21
84.1642011692
  0
LINE
  5
348
100
AcDbEntity
  8
0
100
AcDbLine
 62
7
  6
CONTINUOUS
 10
107.1097105679
 20
82.9842011692
 11
107.1097105679
 21
79.0842011692
  0
LINE
  5
349
100
AcDbEntity
  8
0
100
AcDbLine
 62
7
  6
CONTINUOUS
 10
107.1097105679
 20
77.9042011692
 11
107.1097105679
 21
74.0042011692
  0
LINE
  5
34A
100
AcDbEntity
  8
0
100
AcDbLine
 62
7
  6
CONTINUOUS
 10
107.5242795871
 20
98.2242011692
 11
107.5242795871
 21
94.3242011692
  0
LINE
  5
34B
100
AcDbEntity
  8
0
100
AcDbLine
 62
7
  6
CONTINUOUS
 10
107.5242795871
 20
93.1442011692
 11
107.5242795871
 21
89.2442011692
  0
LINE
  5
34C
100
AcDbEntity
  8
0
100
AcDbLine
 62
7
  6
CONTINUOUS
 10
107.5242795871
 20
88.0642011692
 11
107.5242795871
 21
84.1642011692
  0
LINE
  5
34D
100
AcDbEntity
  8
0
100
AcDbLine
 62
7
  6
CONTINUOUS
 10
107.5242795871
 20
82.9842011692
 11
107.5242795871
 21
79.0842011692
  0
LINE
  5
34E
100
AcDbEntity
  8
0
100
AcDbLine
 62
7
  6
CONTINUOUS
 10
107.5242795871
 20
77.9042011692
 11
107.5242795871
 21
74.0042011692
  0
LINE
  5
34F
100
AcDbEntity
  8
0
100
AcDbLine
 62
7
  6
CONTINUOUS
 10
108.0839789352
 20
98.2242011692
 11
108.0839789352
 21
94.3242011692
  0
LINE
  5
350
100
AcDbEntity
  8
0
100
AcDbLine
 62
7
  6
CONTINUOUS
 10
108.0839789352
 20
93.1442011692
 11
108.0839789352
 21
89.2442011692
  0
LINE
  5
351
100
AcDbEntity
  8
0
100
AcDbLine
 62
7
  6
CONTINUOUS
 10
108.0839789352
 20
88.0642011692
 11
108.0839789352
 21
84.1642011692
  0
LINE
  5
352
100
AcDbEntity
  8
0
100
AcDbLine
 62
7
  6
CONTINUOUS
 10
108.0839789352
 20
82.9842011692
 11
108.0839789352
 21
79.0842011692
  0
LINE
  5
353
100
AcDbEntity
  8
0
100
AcDbLine
 62
7
  6
CONTINUOUS
 10
108.0839789352
 20
77.9042011692
 11
108.0839789352
 21
74.0042011692
  0
LINE
  5
354
100
AcDbEntity
  8
0
100
AcDbLine
 62
7
  6
CONTINUOUS
 10
108.128286831
 20
99.1242011692
 11
108.128286831
 21
98.3242011692
  0
LINE
  5
355
100
AcDbEntity
  8
0
100
AcDbLine
 62
7
  6
CONTINUOUS
 10
108.128286831
 20
73.9042011692
 11
108.128286831
 21
73.1042011692
  0
LINE
  5
356
100
AcDbEntity
  8
0
100
AcDbLine
 62
7
  6
CONTINUOUS
 10
108.128286831
 20
78.0042011692
 11
108.128286831
 21
78.9842011692
  0
LINE
  5
357
100
AcDbEntity
  8
0
100
AcDbLine
 62
7
  6
CONTINUOUS
 10
108.128286831
 20
83.0842011692
 11
108.128286831
 21
84.0642011692
  0
LINE
  5
358
100
AcDbEntity
  8
0
100
AcDbLine
 62
7
  6
CONTINUOUS
 10
108.128286831
 20
88.1642011692
 11
108.128286831
 21
89.1442011692
  0
LINE
  5
359
100
AcDbEntity
  8
0
100
AcDbLine
 62
7
  6
CONTINUOUS
 10
108.128286831
 20
93.2442011692
 11
108.128286831
 21
94.2242011692
  0
LINE
  5
35A
100
AcDbEntity
  8
0
100
AcDbLine
 62
7
  6
CONTINUOUS
 10
142.6581955989
 20
135.3142011692
 11
142.4581955989
 21
135.1142011692
  0
LINE
  5
35B
100
AcDbEntity
  8
0
100
AcDbLine
 62
7
  6
CONTINUOUS
 10
142.4581955989
 20
134.6142011692
 11
142.6581955989
 21
134.8142011692
  0
LINE
  5
35C
100
AcDbEntity
  8
0
100
AcDbLine
 62
7
  6
CONTINUOUS
 10
138.1221955989
 20
132.3892011692
 11
136.1221955989
 21
132.3892011692
  0
LINE
  5
35D
100
AcDbEntity
  8
0
100
AcDbLine
 62
7
  6
CONTINUOUS
 10
124.7981955989
 20
132.8142011692
 11
127.5981955989
 21
132.8142011692
  0
LINE
  5
35E
100
AcDbEntity
  8
0
100
AcDbLine
 62
7
  6
CONTINUOUS
 10
127.5231955989
 20
132.9642011692
 11
126.6752931894
 21
132.9642011692
  0
LINE
  5
35F
100
AcDbEntity
  8
0
100
AcDbLine
 62
7
  6
CONTINUOUS
 10
126.3710980085
 20
132.9642011692
 11
125.5231955989
 21
132.9642011692
  0
LINE
  5
360
100
AcDbEntity
  8
0
100
AcDbLine
 62
7
  6
CONTINUOUS
 10
47.0221955989
 20
133.3892011692
 11
45.0221955989
 21
133.3892011692
  0
LINE
  5
361
100
AcDbEntity
  8
0
100
AcDbLine
 62
7
  6
CONTINUOUS
 10
142.3721955989
 20
134.6142011692
 11
142.4581955989
 21
134.6142011692
  0
LINE
  5
362
100
AcDbEntity
  8
0
100
AcDbLine
 62
7
  6
CONTINUOUS
 10
142.3721955989
 20
135.1142011692
 11
142.4581955989
 21
135.1142011692
  0
LINE
  5
363
100
AcDbEntity
  8
0
100
AcDbLine
 62
7
  6
CONTINUOUS
 10
45.0221955989
 20
135.4892011692
 11
47.0221955989
 21
135.4892011692
  0
LINE
  5
364
100
AcDbEntity
  8
0
100
AcDbLine
 62
7
  6
CONTINUOUS
 10
125.5231955989
 20
135.7642011692
 11
126.3710980085
 21
135.7642011692
  0
LINE
  5
365
100
AcDbEntity
  8
0
100
AcDbLine
 62
7
  6
CONTINUOUS
 10
126.6752931894
 20
135.7642011692
 11
127.5231955989
 21
135.7642011692
  0
LINE
  5
366
100
AcDbEntity
  8
0
100
AcDbLine
 62
7
  6
CONTINUOUS
 10
127.5981955989
 20
135.9142011692
 11
124.7981955989
 21
135.9142011692
  0
LINE
  5
367
100
AcDbEntity
  8
0
100
AcDbLine
 62
7
  6
CONTINUOUS
 10
47.0221955989
 20
136.5892011692
 11
45.0221955989
 21
136.5892011692
  0
LINE
  5
368
100
AcDbEntity
  8
0
100
AcDbLine
 62
7
  6
CONTINUOUS
 10
124.7981955989
 20
136.6242011692
 11
127.5981955989
 21
136.6242011692
  0
LINE
  5
369
100
AcDbEntity
  8
0
100
AcDbLine
 62
7
  6
CONTINUOUS
 10
127.5231955989
 20
136.7742011692
 11
126.6752931894
 21
136.7742011692
  0
LINE
  5
36A
100
AcDbEntity
  8
0
100
AcDbLine
 62
7
  6
CONTINUOUS
 10
126.3710980085
 20
136.7742011692
 11
125.5231955989
 21
136.7742011692
  0
LINE
  5
36B
100
AcDbEntity
  8
0
100
AcDbLine
 62
7
  6
CONTINUOUS
 10
100.5371955989
 20
137.1062011692
 11
113.5601955989
 21
137.1062011692
  0
LINE
  5
36C
100
AcDbEntity
  8
0
100
AcDbLine
 62
7
  6
CONTINUOUS
 10
128.2343016526
 20
99.8652147358
 11
130.2768899041
 21
97.8253209719
  0
LINE
  5
36D
100
AcDbEntity
  8
0
100
AcDbLine
 62
7
  6
CONTINUOUS
 10
108.6652095521
 20
73.1042011692
 11
108.6652095521
 21
73.9042011692
  0
LINE
  5
36E
100
AcDbEntity
  8
0
100
AcDbLine
 62
7
  6
CONTINUOUS
 10
108.6652095521
 20
78.0042011692
 11
108.6652095521
 21
78.9842011692
  0
LINE
  5
36F
100
AcDbEntity
  8
0
100
AcDbLine
 62
7
  6
CONTINUOUS
 10
108.6652095521
 20
83.0842011692
 11
108.6652095521
 21
84.0642011692
  0
LINE
  5
370
100
AcDbEntity
  8
0
100
AcDbLine
 62
7
  6
CONTINUOUS
 10
108.6652095521
 20
88.1642011692
 11
108.6652095521
 21
89.1442011692
  0
LINE
  5
371
100
AcDbEntity
  8
0
100
AcDbLine
 62
7
  6
CONTINUOUS
 10
108.6652095521
 20
93.2442011692
 11
108.6652095521
 21
94.2242011692
  0
LINE
  5
372
100
AcDbEntity
  8
0
100
AcDbLine
 62
7
  6
CONTINUOUS
 10
108.6652095521
 20
98.3242011692
 11
108.6652095521
 21
99.1242011692
  0
LINE
  5
373
100
AcDbEntity
  8
0
100
AcDbLine
 62
7
  6
CONTINUOUS
 10
108.9401955989
 20
138.8842011692
 11
108.9401955989
 21
139.2777011692
  0
LINE
  5
374
100
AcDbEntity
  8
0
100
AcDbLine
 62
7
  6
CONTINUOUS
 10
108.9401955989
 20
151.1907011692
 11
108.9401955989
 21
151.5842011692
  0
LINE
  5
375
100
AcDbEntity
  8
0
100
AcDbLine
 62
7
  6
CONTINUOUS
 10
111.5901955989
 20
139.2777011692
 11
111.5901955989
 21
151.1907011692
  0
LINE
  5
376
100
AcDbEntity
  8
0
100
AcDbLine
 62
7
  6
CONTINUOUS
 10
113.2089789352
 20
99.1242011692
 11
113.2089789352
 21
73.1042011692
  0
LINE
  5
377
100
AcDbEntity
  8
0
100
AcDbLine
 62
7
  6
CONTINUOUS
 10
113.5089789352
 20
73.1042011692
 11
113.5089789352
 21
99.1242011692
  0
LINE
  5
378
100
AcDbEntity
  8
0
100
AcDbLine
 62
7
  6
CONTINUOUS
 10
113.5601955989
 20
137.1062011692
 11
113.5601955989
 21
153.3622011692
  0
LINE
  5
379
100
AcDbEntity
  8
0
100
AcDbLine
 62
7
  6
CONTINUOUS
 10
136.1221955989
 20
137.9892011692
 11
138.1221955989
 21
137.9892011692
  0
LINE
  5
37A
100
AcDbEntity
  8
0
100
AcDbLine
 62
7
  6
CONTINUOUS
 10
45.0221955989
 20
138.6892011692
 11
47.0221955989
 21
138.6892011692
  0
LINE
  5
37B
100
AcDbEntity
  8
0
100
AcDbLine
 62
7
  6
CONTINUOUS
 10
106.1461955989
 20
138.8842011692
 11
108.9401955989
 21
138.8842011692
  0
LINE
  5
37C
100
AcDbEntity
  8
0
100
AcDbLine
 62
7
  6
CONTINUOUS
 10
138.1221955989
 20
139.0892011692
 11
136.1221955989
 21
139.0892011692
  0
LINE
  5
37D
100
AcDbEntity
  8
0
100
AcDbLine
 62
7
  6
CONTINUOUS
 10
104.2161955989
 20
139.2777011692
 11
106.1461955989
 21
139.2777011692
  0
LINE
  5
37E
100
AcDbEntity
  8
0
100
AcDbLine
 62
7
  6
CONTINUOUS
 10
108.9401955989
 20
139.2777011692
 11
111.5901955989
 21
139.2777011692
  0
LINE
  5
37F
100
AcDbEntity
  8
0
100
AcDbLine
 62
7
  6
CONTINUOUS
 10
125.5231955989
 20
139.5742011692
 11
126.3710980085
 21
139.5742011692
  0
LINE
  5
380
100
AcDbEntity
  8
0
100
AcDbLine
 62
7
  6
CONTINUOUS
 10
126.6752931894
 20
139.5742011692
 11
127.5231955989
 21
139.5742011692
  0
LINE
  5
381
100
AcDbEntity
  8
0
100
AcDbLine
 62
7
  6
CONTINUOUS
 10
127.5981955989
 20
139.7242011692
 11
124.7981955989
 21
139.7242011692
  0
LINE
  5
382
100
AcDbEntity
  8
0
100
AcDbLine
 62
7
  6
CONTINUOUS
 10
47.0221955989
 20
139.7892011692
 11
45.0221955989
 21
139.7892011692
  0
LINE
  5
383
100
AcDbEntity
  8
0
100
AcDbLine
 62
7
  6
CONTINUOUS
 10
124.7981955989
 20
140.4342011692
 11
127.5981955989
 21
140.4342011692
  0
LINE
  5
384
100
AcDbEntity
  8
0
100
AcDbLine
 62
7
  6
CONTINUOUS
 10
127.5231955989
 20
140.5842011692
 11
126.6752931894
 21
140.5842011692
  0
LINE
  5
385
100
AcDbEntity
  8
0
100
AcDbLine
 62
7
  6
CONTINUOUS
 10
126.3710980085
 20
140.5842011692
 11
125.5231955989
 21
140.5842011692
  0
LINE
  5
386
100
AcDbEntity
  8
0
100
AcDbLine
 62
7
  6
CONTINUOUS
 10
136.1221955989
 20
141.1892011692
 11
138.1221955989
 21
141.1892011692
  0
LINE
  5
387
100
AcDbEntity
  8
0
100
AcDbLine
 62
7
  6
CONTINUOUS
 10
45.0221955989
 20
141.8892011692
 11
47.0221955989
 21
141.8892011692
  0
LINE
  5
388
100
AcDbEntity
  8
0
100
AcDbLine
 62
7
  6
CONTINUOUS
 10
102.5401955989
 20
142.0847011692
 11
104.2161955989
 21
142.0847011692
  0
LINE
  5
389
100
AcDbEntity
  8
0
100
AcDbLine
 62
7
  6
CONTINUOUS
 10
138.1221955989
 20
142.2892011692
 11
136.1221955989
 21
142.2892011692
  0
LINE
  5
38A
100
AcDbEntity
  8
0
100
AcDbLine
 62
7
  6
CONTINUOUS
 10
47.0221955989
 20
142.9892011692
 11
45.0221955989
 21
142.9892011692
  0
LINE
  5
38B
100
AcDbEntity
  8
0
100
AcDbLine
 62
7
  6
CONTINUOUS
 10
101.3971955989
 20
143.2022011692
 11
102.5401955989
 21
143.2022011692
  0
LINE
  5
38C
100
AcDbEntity
  8
0
100
AcDbLine
 62
7
  6
CONTINUOUS
 10
133.8100895453
 20
101.3631876025
 11
131.7675012937
 21
103.4030813664
  0
LINE
  5
38D
100
AcDbEntity
  8
0
100
AcDbLine
 62
7
  6
CONTINUOUS
 10
113.8721955989
 20
99.8142011692
 11
113.8721955989
 21
72.4142011692
  0
LINE
  5
38E
100
AcDbEntity
  8
0
100
AcDbLine
 62
7
  6
CONTINUOUS
 10
125.5231955989
 20
143.3842011692
 11
126.3710980085
 21
143.3842011692
  0
LINE
  5
38F
100
AcDbEntity
  8
0
100
AcDbLine
 62
7
  6
CONTINUOUS
 10
126.6752931894
 20
143.3842011692
 11
127.5231955989
 21
143.3842011692
  0
LINE
  5
390
100
AcDbEntity
  8
0
100
AcDbLine
 62
7
  6
CONTINUOUS
 10
127.5981955989
 20
143.5342011692
 11
124.7981955989
 21
143.5342011692
  0
LINE
  5
391
100
AcDbEntity
  8
0
100
AcDbLine
 62
7
  6
CONTINUOUS
 10
67.4559335138
 20
143.9319778313
 11
69.7149722611
 21
143.9319778313
  0
LINE
  5
392
100
AcDbEntity
  8
0
100
AcDbLine
 62
7
  6
CONTINUOUS
 10
69.6870441572
 20
143.96165091
 11
67.4429589449
 21
143.96165091
  0
LINE
  5
393
100
AcDbEntity
  8
0
100
AcDbLine
 62
7
  6
CONTINUOUS
 10
124.7981955989
 20
144.2442011692
 11
127.5981955989
 21
144.2442011692
  0
LINE
  5
394
100
AcDbEntity
  8
0
100
AcDbLine
 62
7
  6
CONTINUOUS
 10
67.5721955989
 20
144.3892011692
 11
69.5721955989
 21
144.3892011692
  0
LINE
  5
395
100
AcDbEntity
  8
0
100
AcDbLine
 62
7
  6
CONTINUOUS
 10
136.1221955989
 20
144.3892011692
 11
138.1221955989
 21
144.3892011692
  0
LINE
  5
396
100
AcDbEntity
  8
0
100
AcDbLine
 62
7
  6
CONTINUOUS
 10
127.5231955989
 20
144.3942011692
 11
126.6752931894
 21
144.3942011692
  0
LINE
  5
397
100
AcDbEntity
  8
0
100
AcDbLine
 62
7
  6
CONTINUOUS
 10
126.3710980085
 20
144.3942011692
 11
125.5231955989
 21
144.3942011692
  0
LINE
  5
398
100
AcDbEntity
  8
0
100
AcDbLine
 62
7
  6
CONTINUOUS
 10
67.6248654266
 20
144.4418709968
 11
69.5195257713
 21
144.4418709968
  0
LINE
  5
399
100
AcDbEntity
  8
0
100
AcDbLine
 62
7
  6
CONTINUOUS
 10
45.0221955989
 20
145.0892011692
 11
47.0221955989
 21
145.0892011692
  0
LINE
  5
39A
100
AcDbEntity
  8
0
100
AcDbLine
 62
7
  6
CONTINUOUS
 10
69.5023753392
 20
145.4417186845
 11
67.6420158586
 21
145.4417186845
  0
LINE
  5
39B
100
AcDbEntity
  8
0
100
AcDbLine
 62
7
  6
CONTINUOUS
 10
138.1221955989
 20
145.4892011692
 11
136.1221955989
 21
145.4892011692
  0
LINE
  5
39C
100
AcDbEntity
  8
0
100
AcDbLine
 62
7
  6
CONTINUOUS
 10
47.0221955989
 20
146.1892011692
 11
45.0221955989
 21
146.1892011692
  0
LINE
  5
39D
100
AcDbEntity
  8
0
100
AcDbLine
 62
7
  6
CONTINUOUS
 10
125.5231955989
 20
147.1942011692
 11
126.3710980085
 21
147.1942011692
  0
LINE
  5
39E
100
AcDbEntity
  8
0
100
AcDbLine
 62
7
  6
CONTINUOUS
 10
126.6752931894
 20
147.1942011692
 11
127.5231955989
 21
147.1942011692
  0
LINE
  5
39F
100
AcDbEntity
  8
0
100
AcDbLine
 62
7
  6
CONTINUOUS
 10
102.5401955989
 20
147.2662011692
 11
101.3971955989
 21
147.2662011692
  0
LINE
  5
3A0
100
AcDbEntity
  8
0
100
AcDbLine
 62
7
  6
CONTINUOUS
 10
67.6420158586
 20
147.3366836474
 11
69.5023753392
 21
147.3366836463
  0
LINE
  5
3A1
100
AcDbEntity
  8
0
100
AcDbLine
 62
7
  6
CONTINUOUS
 10
127.5981955989
 20
147.3442011692
 11
124.7981955989
 21
147.3442011692
  0
LINE
  5
3A2
100
AcDbEntity
  8
0
100
AcDbLine
 62
7
  6
CONTINUOUS
 10
136.1221955989
 20
147.5892011692
 11
138.1221955989
 21
147.5892011692
  0
LINE
  5
3A3
100
AcDbEntity
  8
0
100
AcDbLine
 62
7
  6
CONTINUOUS
 10
124.7981955989
 20
148.0542011692
 11
127.5981955989
 21
148.0542011692
  0
LINE
  5
3A4
100
AcDbEntity
  8
0
100
AcDbLine
 62
7
  6
CONTINUOUS
 10
127.5231955989
 20
148.2042011692
 11
126.6752931894
 21
148.2042011692
  0
LINE
  5
3A5
100
AcDbEntity
  8
0
100
AcDbLine
 62
7
  6
CONTINUOUS
 10
126.3710980085
 20
148.2042011692
 11
125.5231955989
 21
148.2042011692
  0
LINE
  5
3A6
100
AcDbEntity
  8
0
100
AcDbLine
 62
7
  6
CONTINUOUS
 10
45.0221955989
 20
148.2892011692
 11
47.0221955989
 21
148.2892011692
  0
LINE
  5
3A7
100
AcDbEntity
  8
0
100
AcDbLine
 62
7
  6
CONTINUOUS
 10
69.5195257711
 20
148.3365313413
 11
67.6248654268
 21
148.3365313413
  0
LINE
  5
3A8
100
AcDbEntity
  8
0
100
AcDbLine
 62
7
  6
CONTINUOUS
 10
104.2161955989
 20
148.3837011692
 11
102.5401955989
 21
148.3837011692
  0
LINE
  5
3A9
100
AcDbEntity
  8
0
100
AcDbLine
 62
7
  6
CONTINUOUS
 10
69.5721955989
 20
148.3892011692
 11
67.5721955989
 21
148.3892011692
  0
LINE
  5
3AA
100
AcDbEntity
  8
0
100
AcDbLine
 62
7
  6
CONTINUOUS
 10
138.1221955989
 20
148.6892011692
 11
136.1221955989
 21
148.6892011692
  0
LINE
  5
3AB
100
AcDbEntity
  8
0
100
AcDbLine
 62
7
  6
CONTINUOUS
 10
128.2103016526
 20
76.3631876025
 11
128.9556073474
 21
73.5743074053
  0
LINE
  5
3AC
100
AcDbEntity
  8
0
100
AcDbLine
 62
7
  6
CONTINUOUS
 10
120.9981955989
 20
155.7642011692
 11
120.9981955989
 21
113.0642011692
  0
LINE
  5
3AD
100
AcDbEntity
  8
0
100
AcDbLine
 62
7
  6
CONTINUOUS
 10
121.2981955989
 20
113.0642011692
 11
121.2981955989
 21
155.7642011692
  0
LINE
  5
3AE
100
AcDbEntity
  8
0
100
AcDbLine
 62
7
  6
CONTINUOUS
 10
124.5981955989
 20
156.0642011692
 11
124.5981955989
 21
155.7642011692
  0
LINE
  5
3AF
100
AcDbEntity
  8
0
100
AcDbLine
 62
7
  6
CONTINUOUS
 10
124.5981955989
 20
113.0642011692
 11
124.5981955989
 21
112.7642011692
  0
LINE
  5
3B0
100
AcDbEntity
  8
0
100
AcDbLine
 62
7
  6
CONTINUOUS
 10
71.4221955989
 20
149.4892011692
 11
71.2649640981
 21
149.4891074572
  0
LINE
  5
3B1
100
AcDbEntity
  8
0
100
AcDbLine
 62
7
  6
CONTINUOUS
 10
71.2056069529
 20
149.3319778313
 11
71.2649711792
 21
149.3319778313
  0
LINE
  5
3B2
100
AcDbEntity
  8
0
100
AcDbLine
 62
7
  6
CONTINUOUS
 10
47.0221955989
 20
149.3892011692
 11
45.0221955989
 21
149.3892011692
  0
LINE
  5
3B3
100
AcDbEntity
  8
0
100
AcDbLine
 62
7
  6
CONTINUOUS
 10
42.5721955989
 20
149.4892011692
 11
42.8185121616
 21
149.4892011692
  0
LINE
  5
3B4
100
AcDbEntity
  8
0
100
AcDbLine
 62
7
  6
CONTINUOUS
 10
125.5231955989
 20
151.0042011692
 11
126.3710980085
 21
151.0042011692
  0
LINE
  5
3B5
100
AcDbEntity
  8
0
100
AcDbLine
 62
7
  6
CONTINUOUS
 10
126.6752931894
 20
151.0042011692
 11
127.5231955989
 21
151.0042011692
  0
LINE
  5
3B6
100
AcDbEntity
  8
0
100
AcDbLine
 62
7
  6
CONTINUOUS
 10
127.5981955989
 20
151.1542011692
 11
124.7981955989
 21
151.1542011692
  0
LINE
  5
3B7
100
AcDbEntity
  8
0
100
AcDbLine
 62
7
  6
CONTINUOUS
 10
111.5901955989
 20
151.1907011692
 11
108.9401955989
 21
151.1907011692
  0
LINE
  5
3B8
100
AcDbEntity
  8
0
100
AcDbLine
 62
7
  6
CONTINUOUS
 10
106.1461955989
 20
151.1907011692
 11
104.2161955989
 21
151.1907011692
  0
LINE
  5
3B9
100
AcDbEntity
  8
0
100
AcDbLine
 62
7
  6
CONTINUOUS
 10
108.9401955989
 20
151.5842011692
 11
106.1461955989
 21
151.5842011692
  0
LINE
  5
3BA
100
AcDbEntity
  8
0
100
AcDbLine
 62
7
  6
CONTINUOUS
 10
124.7981955989
 20
151.8642011692
 11
127.5981955989
 21
151.8642011692
  0
LINE
  5
3BB
100
AcDbEntity
  8
0
100
AcDbLine
 62
7
  6
CONTINUOUS
 10
127.5231955989
 20
152.0142011692
 11
126.6752931894
 21
152.0142011692
  0
LINE
  5
3BC
100
AcDbEntity
  8
0
100
AcDbLine
 62
7
  6
CONTINUOUS
 10
126.3710980085
 20
152.0142011692
 11
125.5231955989
 21
152.0142011692
  0
LINE
  5
3BD
100
AcDbEntity
  8
0
100
AcDbLine
 62
7
  6
CONTINUOUS
 10
142.3721955989
 20
152.0892011692
 11
142.2091829209
 21
152.0892011632
  0
LINE
  5
3BE
100
AcDbEntity
  8
0
100
AcDbLine
 62
7
  6
CONTINUOUS
 10
133.6721955989
 20
152.0892011702
 11
133.8451412706
 21
152.0892011702
  0
LINE
  5
3BF
100
AcDbEntity
  8
0
100
AcDbLine
 62
7
  6
CONTINUOUS
 10
113.5601955989
 20
153.3622011692
 11
100.5371955989
 21
153.3622011692
  0
LINE
  5
3C0
100
AcDbEntity
  8
0
100
AcDbLine
 62
7
  6
CONTINUOUS
 10
57.2861596509
 20
153.5031652211
 11
47.5721955989
 21
153.5031652211
  0
LINE
  5
3C1
100
AcDbEntity
  8
0
100
AcDbLine
 62
7
  6
CONTINUOUS
 10
139.9721955989
 20
153.7031652211
 11
136.0721955989
 21
153.7031652211
  0
LINE
  5
3C2
100
AcDbEntity
  8
0
100
AcDbLine
 62
7
  6
CONTINUOUS
 10
142.4581955989
 20
154.1142011692
 11
142.3721955989
 21
154.1142011692
  0
LINE
  5
3C3
100
AcDbEntity
  8
0
100
AcDbLine
 62
7
  6
CONTINUOUS
 10
58.2425219886
 20
154.2428846065
 11
47.5721955989
 21
154.2428846065
  0
LINE
  5
3C4
100
AcDbEntity
  8
0
100
AcDbLine
 62
7
  6
CONTINUOUS
 10
58.4243375692
 20
154.2726125232
 11
66.2649722611
 21
154.2726125232
  0
LINE
  5
3C5
100
AcDbEntity
  8
0
100
AcDbLine
 62
7
  6
CONTINUOUS
 10
133.7860895453
 20
74.8652147358
 11
133.0407838505
 21
77.6540949331
  0
LINE
  5
3C6
100
AcDbEntity
  8
0
100
AcDbLine
 62
7
  6
CONTINUOUS
 10
124.7981955989
 20
113.7642011692
 11
124.7981955989
 21
113.0642011692
  0
LINE
  5
3C7
100
AcDbEntity
  8
0
100
AcDbLine
 62
7
  6
CONTINUOUS
 10
124.7981955989
 20
116.8642011692
 11
124.7981955989
 21
117.5742011692
  0
LINE
  5
3C8
100
AcDbEntity
  8
0
100
AcDbLine
 62
7
  6
CONTINUOUS
 10
124.7981955989
 20
120.6742011692
 11
124.7981955989
 21
121.3842011692
  0
LINE
  5
3C9
100
AcDbEntity
  8
0
100
AcDbLine
 62
7
  6
CONTINUOUS
 10
124.7981955989
 20
124.4842011692
 11
124.7981955989
 21
125.1942011692
  0
LINE
  5
3CA
100
AcDbEntity
  8
0
100
AcDbLine
 62
7
  6
CONTINUOUS
 10
124.7981955989
 20
128.2942011692
 11
124.7981955989
 21
129.0042011692
  0
LINE
  5
3CB
100
AcDbEntity
  8
0
100
AcDbLine
 62
7
  6
CONTINUOUS
 10
124.7981955989
 20
132.1042011692
 11
124.7981955989
 21
132.8142011692
  0
LINE
  5
3CC
100
AcDbEntity
  8
0
100
AcDbLine
 62
7
  6
CONTINUOUS
 10
124.7981955989
 20
135.9142011692
 11
124.7981955989
 21
136.6242011692
  0
LINE
  5
3CD
100
AcDbEntity
  8
0
100
AcDbLine
 62
7
  6
CONTINUOUS
 10
124.7981955989
 20
139.7242011692
 11
124.7981955989
 21
140.4342011692
  0
LINE
  5
3CE
100
AcDbEntity
  8
0
100
AcDbLine
 62
7
  6
CONTINUOUS
 10
124.7981955989
 20
143.5342011692
 11
124.7981955989
 21
144.2442011692
  0
LINE
  5
3CF
100
AcDbEntity
  8
0
100
AcDbLine
 62
7
  6
CONTINUOUS
 10
124.7981955989
 20
147.3442011692
 11
124.7981955989
 21
148.0542011692
  0
LINE
  5
3D0
100
AcDbEntity
  8
0
100
AcDbLine
 62
7
  6
CONTINUOUS
 10
124.7981955989
 20
151.1542011692
 11
124.7981955989
 21
151.8642011692
  0
LINE
  5
3D1
100
AcDbEntity
  8
0
100
AcDbLine
 62
7
  6
CONTINUOUS
 10
124.7981955989
 20
154.9642011692
 11
124.7981955989
 21
155.7642011692
  0
LINE
  5
3D2
100
AcDbEntity
  8
0
100
AcDbLine
 62
7
  6
CONTINUOUS
 10
125.4976570862
 20
113.7642011692
 11
125.4976570862
 21
113.0642011692
  0
LINE
  5
3D3
100
AcDbEntity
  8
0
100
AcDbLine
 62
7
  6
CONTINUOUS
 10
125.4976570862
 20
116.8642011692
 11
125.4976570862
 21
117.5742011692
  0
LINE
  5
3D4
100
AcDbEntity
  8
0
100
AcDbLine
 62
7
  6
CONTINUOUS
 10
125.4976570862
 20
120.6742011692
 11
125.4976570862
 21
121.3842011692
  0
LINE
  5
3D5
100
AcDbEntity
  8
0
100
AcDbLine
 62
7
  6
CONTINUOUS
 10
125.4976570862
 20
124.4842011692
 11
125.4976570862
 21
125.1942011692
  0
LINE
  5
3D6
100
AcDbEntity
  8
0
100
AcDbLine
 62
7
  6
CONTINUOUS
 10
125.4976570862
 20
128.2942011692
 11
125.4976570862
 21
129.0042011692
  0
LINE
  5
3D7
100
AcDbEntity
  8
0
100
AcDbLine
 62
7
  6
CONTINUOUS
 10
125.4976570862
 20
132.1042011692
 11
125.4976570862
 21
132.8142011692
  0
LINE
  5
3D8
100
AcDbEntity
  8
0
100
AcDbLine
 62
7
  6
CONTINUOUS
 10
125.4976570862
 20
135.9142011692
 11
125.4976570862
 21
136.6242011692
  0
LINE
  5
3D9
100
AcDbEntity
  8
0
100
AcDbLine
 62
7
  6
CONTINUOUS
 10
125.4976570862
 20
139.7242011692
 11
125.4976570862
 21
140.4342011692
  0
LINE
  5
3DA
100
AcDbEntity
  8
0
100
AcDbLine
 62
7
  6
CONTINUOUS
 10
125.4976570862
 20
143.5342011692
 11
125.4976570862
 21
144.2442011692
  0
LINE
  5
3DB
100
AcDbEntity
  8
0
100
AcDbLine
 62
7
  6
CONTINUOUS
 10
125.4976570862
 20
147.3442011692
 11
125.4976570862
 21
148.0542011692
  0
LINE
  5
3DC
100
AcDbEntity
  8
0
100
AcDbLine
 62
7
  6
CONTINUOUS
 10
125.4976570862
 20
151.1542011692
 11
125.4976570862
 21
151.8642011692
  0
LINE
  5
3DD
100
AcDbEntity
  8
0
100
AcDbLine
 62
7
  6
CONTINUOUS
 10
125.4976570862
 20
154.9642011692
 11
125.4976570862
 21
155.7642011692
  0
LINE
  5
3DE
100
AcDbEntity
  8
0
100
AcDbLine
 62
7
  6
CONTINUOUS
 10
125.5231955989
 20
154.8142011692
 11
125.5231955989
 21
152.0142011692
  0
LINE
  5
3DF
100
AcDbEntity
  8
0
100
AcDbLine
 62
7
  6
CONTINUOUS
 10
125.5231955989
 20
151.0042011692
 11
125.5231955989
 21
148.2042011692
  0
LINE
  5
3E0
100
AcDbEntity
  8
0
100
AcDbLine
 62
7
  6
CONTINUOUS
 10
125.5231955989
 20
147.1942011692
 11
125.5231955989
 21
144.3942011692
  0
LINE
  5
3E1
100
AcDbEntity
  8
0
100
AcDbLine
 62
7
  6
CONTINUOUS
 10
125.5231955989
 20
143.3842011692
 11
125.5231955989
 21
140.5842011692
  0
LINE
  5
3E2
100
AcDbEntity
  8
0
100
AcDbLine
 62
7
  6
CONTINUOUS
 10
125.5231955989
 20
139.5742011692
 11
125.5231955989
 21
136.7742011692
  0
LINE
  5
3E3
100
AcDbEntity
  8
0
100
AcDbLine
 62
7
  6
CONTINUOUS
 10
125.5231955989
 20
135.7642011692
 11
125.5231955989
 21
132.9642011692
  0
LINE
  5
3E4
100
AcDbEntity
  8
0
100
AcDbLine
 62
7
  6
CONTINUOUS
 10
125.5231955989
 20
131.9542011692
 11
125.5231955989
 21
129.1542011692
  0
LINE
  5
3E5
100
AcDbEntity
  8
0
100
AcDbLine
 62
7
  6
CONTINUOUS
 10
125.5231955989
 20
128.1442011692
 11
125.5231955989
 21
125.3442011692
  0
LINE
  5
3E6
100
AcDbEntity
  8
0
100
AcDbLine
 62
7
  6
CONTINUOUS
 10
125.5231955989
 20
124.3342011692
 11
125.5231955989
 21
121.5342011692
  0
LINE
  5
3E7
100
AcDbEntity
  8
0
100
AcDbLine
 62
7
  6
CONTINUOUS
 10
125.5231955989
 20
120.5242011692
 11
125.5231955989
 21
117.7242011692
  0
LINE
  5
3E8
100
AcDbEntity
  8
0
100
AcDbLine
 62
7
  6
CONTINUOUS
 10
125.5231955989
 20
116.7142011692
 11
125.5231955989
 21
113.9142011692
  0
LINE
  5
3E9
100
AcDbEntity
  8
0
100
AcDbLine
 62
7
  6
CONTINUOUS
 10
126.0385560145
 20
113.9142011692
 11
126.0385560145
 21
116.7142011692
  0
LINE
  5
3EA
100
AcDbEntity
  8
0
100
AcDbLine
 62
7
  6
CONTINUOUS
 10
126.0385560145
 20
117.7242011692
 11
126.0385560145
 21
120.5242011692
  0
LINE
  5
3EB
100
AcDbEntity
  8
0
100
AcDbLine
 62
7
  6
CONTINUOUS
 10
126.0385560145
 20
121.5342011692
 11
126.0385560145
 21
124.3342011692
  0
LINE
  5
3EC
100
AcDbEntity
  8
0
100
AcDbLine
 62
7
  6
CONTINUOUS
 10
126.0385560145
 20
125.3442011692
 11
126.0385560145
 21
128.1442011692
  0
LINE
  5
3ED
100
AcDbEntity
  8
0
100
AcDbLine
 62
7
  6
CONTINUOUS
 10
126.0385560145
 20
129.1542011692
 11
126.0385560145
 21
131.9542011692
  0
LINE
  5
3EE
100
AcDbEntity
  8
0
100
AcDbLine
 62
7
  6
CONTINUOUS
 10
126.0385560145
 20
132.9642011692
 11
126.0385560145
 21
135.7642011692
  0
LINE
  5
3EF
100
AcDbEntity
  8
0
100
AcDbLine
 62
7
  6
CONTINUOUS
 10
126.0385560145
 20
136.7742011692
 11
126.0385560145
 21
139.5742011692
  0
LINE
  5
3F0
100
AcDbEntity
  8
0
100
AcDbLine
 62
7
  6
CONTINUOUS
 10
126.0385560145
 20
140.5842011692
 11
126.0385560145
 21
143.3842011692
  0
LINE
  5
3F1
100
AcDbEntity
  8
0
100
AcDbLine
 62
7
  6
CONTINUOUS
 10
126.0385560145
 20
144.3942011692
 11
126.0385560145
 21
147.1942011692
  0
LINE
  5
3F2
100
AcDbEntity
  8
0
100
AcDbLine
 62
7
  6
CONTINUOUS
 10
126.0385560145
 20
148.2042011692
 11
126.0385560145
 21
151.0042011692
  0
LINE
  5
3F3
100
AcDbEntity
  8
0
100
AcDbLine
 62
7
  6
CONTINUOUS
 10
126.0385560145
 20
152.0142011692
 11
126.0385560145
 21
154.8142011692
  0
LINE
  5
3F4
100
AcDbEntity
  8
0
100
AcDbLine
 62
7
  6
CONTINUOUS
 10
126.3710980085
 20
113.9142011692
 11
126.3710980085
 21
116.7142011692
  0
LINE
  5
3F5
100
AcDbEntity
  8
0
100
AcDbLine
 62
7
  6
CONTINUOUS
 10
126.3710980085
 20
117.7242011692
 11
126.3710980085
 21
120.5242011692
  0
LINE
  5
3F6
100
AcDbEntity
  8
0
100
AcDbLine
 62
7
  6
CONTINUOUS
 10
126.3710980085
 20
121.5342011692
 11
126.3710980085
 21
124.3342011692
  0
LINE
  5
3F7
100
AcDbEntity
  8
0
100
AcDbLine
 62
7
  6
CONTINUOUS
 10
126.3710980085
 20
125.3442011692
 11
126.3710980085
 21
128.1442011692
  0
LINE
  5
3F8
100
AcDbEntity
  8
0
100
AcDbLine
 62
7
  6
CONTINUOUS
 10
126.3710980085
 20
129.1542011692
 11
126.3710980085
 21
131.9542011692
  0
LINE
  5
3F9
100
AcDbEntity
  8
0
100
AcDbLine
 62
7
  6
CONTINUOUS
 10
126.3710980085
 20
132.9642011692
 11
126.3710980085
 21
135.7642011692
  0
LINE
  5
3FA
100
AcDbEntity
  8
0
100
AcDbLine
 62
7
  6
CONTINUOUS
 10
126.3710980085
 20
136.7742011692
 11
126.3710980085
 21
139.5742011692
  0
LINE
  5
3FB
100
AcDbEntity
  8
0
100
AcDbLine
 62
7
  6
CONTINUOUS
 10
126.3710980085
 20
140.5842011692
 11
126.3710980085
 21
143.3842011692
  0
LINE
  5
3FC
100
AcDbEntity
  8
0
100
AcDbLine
 62
7
  6
CONTINUOUS
 10
126.3710980085
 20
144.3942011692
 11
126.3710980085
 21
147.1942011692
  0
LINE
  5
3FD
100
AcDbEntity
  8
0
100
AcDbLine
 62
7
  6
CONTINUOUS
 10
126.3710980085
 20
148.2042011692
 11
126.3710980085
 21
151.0042011692
  0
LINE
  5
3FE
100
AcDbEntity
  8
0
100
AcDbLine
 62
7
  6
CONTINUOUS
 10
126.3710980085
 20
152.0142011692
 11
126.3710980085
 21
154.8142011692
  0
LINE
  5
3FF
100
AcDbEntity
  8
0
100
AcDbLine
 62
7
  6
CONTINUOUS
 10
126.5321955989
 20
59.1321110566
 11
126.5321955989
 21
63.1142011692
  0
LINE
  5
400
100
AcDbEntity
  8
0
100
AcDbLine
 62
7
  6
CONTINUOUS
 10
126.6752931894
 20
154.8142011692
 11
126.6752931894
 21
152.0142011692
  0
LINE
  5
401
100
AcDbEntity
  8
0
100
AcDbLine
 62
7
  6
CONTINUOUS
 10
126.6752931894
 20
151.0042011692
 11
126.6752931894
 21
148.2042011692
  0
LINE
  5
402
100
AcDbEntity
  8
0
100
AcDbLine
 62
7
  6
CONTINUOUS
 10
126.6752931894
 20
147.1942011692
 11
126.6752931894
 21
144.3942011692
  0
LINE
  5
403
100
AcDbEntity
  8
0
100
AcDbLine
 62
7
  6
CONTINUOUS
 10
126.6752931894
 20
143.3842011692
 11
126.6752931894
 21
140.5842011692
  0
LINE
  5
404
100
AcDbEntity
  8
0
100
AcDbLine
 62
7
  6
CONTINUOUS
 10
126.6752931894
 20
139.5742011692
 11
126.6752931894
 21
136.7742011692
  0
LINE
  5
405
100
AcDbEntity
  8
0
100
AcDbLine
 62
7
  6
CONTINUOUS
 10
126.6752931894
 20
135.7642011692
 11
126.6752931894
 21
132.9642011692
  0
LINE
  5
406
100
AcDbEntity
  8
0
100
AcDbLine
 62
7
  6
CONTINUOUS
 10
126.6752931894
 20
131.9542011692
 11
126.6752931894
 21
129.1542011692
  0
LINE
  5
407
100
AcDbEntity
  8
0
100
AcDbLine
 62
7
  6
CONTINUOUS
 10
126.6752931894
 20
128.1442011692
 11
126.6752931894
 21
125.3442011692
  0
LINE
  5
408
100
AcDbEntity
  8
0
100
AcDbLine
 62
7
  6
CONTINUOUS
 10
126.6752931894
 20
124.3342011692
 11
126.6752931894
 21
121.5342011692
  0
LINE
  5
409
100
AcDbEntity
  8
0
100
AcDbLine
 62
7
  6
CONTINUOUS
 10
126.6752931894
 20
120.5242011692
 11
126.6752931894
 21
117.7242011692
  0
LINE
  5
40A
100
AcDbEntity
  8
0
100
AcDbLine
 62
7
  6
CONTINUOUS
 10
126.6752931894
 20
116.7142011692
 11
126.6752931894
 21
113.9142011692
  0
LINE
  5
40B
100
AcDbEntity
  8
0
100
AcDbLine
 62
7
  6
CONTINUOUS
 10
126.8881955989
 20
93.2670454156
 11
126.8881955989
 21
82.9613569227
  0
LINE
  5
40C
100
AcDbEntity
  8
0
100
AcDbLine
 62
7
  6
CONTINUOUS
 10
127.0078351833
 20
154.8142011692
 11
127.0078351833
 21
152.0142011692
  0
LINE
  5
40D
100
AcDbEntity
  8
0
100
AcDbLine
 62
7
  6
CONTINUOUS
 10
127.0078351833
 20
151.0042011692
 11
127.0078351833
 21
148.2042011692
  0
LINE
  5
40E
100
AcDbEntity
  8
0
100
AcDbLine
 62
7
  6
CONTINUOUS
 10
127.0078351833
 20
147.1942011692
 11
127.0078351833
 21
144.3942011692
  0
LINE
  5
40F
100
AcDbEntity
  8
0
100
AcDbLine
 62
7
  6
CONTINUOUS
 10
127.0078351833
 20
143.3842011692
 11
127.0078351833
 21
140.5842011692
  0
LINE
  5
410
100
AcDbEntity
  8
0
100
AcDbLine
 62
7
  6
CONTINUOUS
 10
127.0078351833
 20
139.5742011692
 11
127.0078351833
 21
136.7742011692
  0
LINE
  5
411
100
AcDbEntity
  8
0
100
AcDbLine
 62
7
  6
CONTINUOUS
 10
127.0078351833
 20
135.7642011692
 11
127.0078351833
 21
132.9642011692
  0
LINE
  5
412
100
AcDbEntity
  8
0
100
AcDbLine
 62
7
  6
CONTINUOUS
 10
127.0078351833
 20
131.9542011692
 11
127.0078351833
 21
129.1542011692
  0
LINE
  5
413
100
AcDbEntity
  8
0
100
AcDbLine
 62
7
  6
CONTINUOUS
 10
127.0078351833
 20
128.1442011692
 11
127.0078351833
 21
125.3442011692
  0
LINE
  5
414
100
AcDbEntity
  8
0
100
AcDbLine
 62
7
  6
CONTINUOUS
 10
127.0078351833
 20
124.3342011692
 11
127.0078351833
 21
121.5342011692
  0
LINE
  5
415
100
AcDbEntity
  8
0
100
AcDbLine
 62
7
  6
CONTINUOUS
 10
127.0078351833
 20
120.5242011692
 11
127.0078351833
 21
117.7242011692
  0
LINE
  5
416
100
AcDbEntity
  8
0
100
AcDbLine
 62
7
  6
CONTINUOUS
 10
127.0078351833
 20
116.7142011692
 11
127.0078351833
 21
113.9142011692
  0
LINE
  5
417
100
AcDbEntity
  8
0
100
AcDbLine
 62
7
  6
CONTINUOUS
 10
127.5231955989
 20
113.9142011692
 11
127.5231955989
 21
116.7142011692
  0
LINE
  5
418
100
AcDbEntity
  8
0
100
AcDbLine
 62
7
  6
CONTINUOUS
 10
127.5231955989
 20
117.7242011692
 11
127.5231955989
 21
120.5242011692
  0
LINE
  5
419
100
AcDbEntity
  8
0
100
AcDbLine
 62
7
  6
CONTINUOUS
 10
127.5231955989
 20
121.5342011692
 11
127.5231955989
 21
124.3342011692
  0
LINE
  5
41A
100
AcDbEntity
  8
0
100
AcDbLine
 62
7
  6
CONTINUOUS
 10
127.5231955989
 20
125.3442011692
 11
127.5231955989
 21
128.1442011692
  0
LINE
  5
41B
100
AcDbEntity
  8
0
100
AcDbLine
 62
7
  6
CONTINUOUS
 10
127.5231955989
 20
129.1542011692
 11
127.5231955989
 21
131.9542011692
  0
LINE
  5
41C
100
AcDbEntity
  8
0
100
AcDbLine
 62
7
  6
CONTINUOUS
 10
127.5231955989
 20
132.9642011692
 11
127.5231955989
 21
135.7642011692
  0
LINE
  5
41D
100
AcDbEntity
  8
0
100
AcDbLine
 62
7
  6
CONTINUOUS
 10
127.5231955989
 20
136.7742011692
 11
127.5231955989
 21
139.5742011692
  0
LINE
  5
41E
100
AcDbEntity
  8
0
100
AcDbLine
 62
7
  6
CONTINUOUS
 10
127.5231955989
 20
140.5842011692
 11
127.5231955989
 21
143.3842011692
  0
LINE
  5
41F
100
AcDbEntity
  8
0
100
AcDbLine
 62
7
  6
CONTINUOUS
 10
127.5231955989
 20
144.3942011692
 11
127.5231955989
 21
147.1942011692
  0
LINE
  5
420
100
AcDbEntity
  8
0
100
AcDbLine
 62
7
  6
CONTINUOUS
 10
127.5231955989
 20
148.2042011692
 11
127.5231955989
 21
151.0042011692
  0
LINE
  5
421
100
AcDbEntity
  8
0
100
AcDbLine
 62
7
  6
CONTINUOUS
 10
127.5231955989
 20
152.0142011692
 11
127.5231955989
 21
154.8142011692
  0
LINE
  5
422
100
AcDbEntity
  8
0
100
AcDbLine
 62
7
  6
CONTINUOUS
 10
127.5981955989
 20
155.7642011692
 11
127.5981955989
 21
154.9642011692
  0
LINE
  5
423
100
AcDbEntity
  8
0
100
AcDbLine
 62
7
  6
CONTINUOUS
 10
127.5981955989
 20
151.8642011692
 11
127.5981955989
 21
151.1542011692
  0
LINE
  5
424
100
AcDbEntity
  8
0
100
AcDbLine
 62
7
  6
CONTINUOUS
 10
127.5981955989
 20
148.0542011692
 11
127.5981955989
 21
147.3442011692
  0
LINE
  5
425
100
AcDbEntity
  8
0
100
AcDbLine
 62
7
  6
CONTINUOUS
 10
127.5981955989
 20
136.6242011692
 11
127.5981955989
 21
135.9142011692
  0
LINE
  5
426
100
AcDbEntity
  8
0
100
AcDbLine
 62
7
  6
CONTINUOUS
 10
127.5981955989
 20
132.8142011692
 11
127.5981955989
 21
132.1042011692
  0
LINE
  5
427
100
AcDbEntity
  8
0
100
AcDbLine
 62
7
  6
CONTINUOUS
 10
127.5981955989
 20
129.0042011692
 11
127.5981955989
 21
128.2942011692
  0
LINE
  5
428
100
AcDbEntity
  8
0
100
AcDbLine
 62
7
  6
CONTINUOUS
 10
127.5981955989
 20
125.1942011692
 11
127.5981955989
 21
124.4842011692
  0
LINE
  5
429
100
AcDbEntity
  8
0
100
AcDbLine
 62
7
  6
CONTINUOUS
 10
127.5981955989
 20
121.3842011692
 11
127.5981955989
 21
120.6742011692
  0
LINE
  5
42A
100
AcDbEntity
  8
0
100
AcDbLine
 62
7
  6
CONTINUOUS
 10
127.5981955989
 20
113.0642011692
 11
127.5981955989
 21
113.7642011692
  0
LINE
  5
42B
100
AcDbEntity
  8
0
100
AcDbLine
 62
7
  6
CONTINUOUS
 10
127.5981955989
 20
116.8642011692
 11
127.5981955989
 21
117.5742011692
  0
LINE
  5
42C
100
AcDbEntity
  8
0
100
AcDbLine
 62
7
  6
CONTINUOUS
 10
127.5981955989
 20
139.7242011692
 11
127.5981955989
 21
140.4342011692
  0
LINE
  5
42D
100
AcDbEntity
  8
0
100
AcDbLine
 62
7
  6
CONTINUOUS
 10
127.5981955989
 20
143.5342011692
 11
127.5981955989
 21
144.2442011692
  0
LINE
  5
42E
100
AcDbEntity
  8
0
100
AcDbLine
 62
7
  6
CONTINUOUS
 10
128.9796073474
 20
102.6540949331
 11
128.2343016526
 21
99.8652147358
  0
LINE
  5
42F
100
AcDbEntity
  8
0
100
AcDbLine
 62
7
  6
CONTINUOUS
 10
139.9721955989
 20
154.3162554975
 11
136.0721955989
 21
154.3162554975
  0
LINE
  5
430
100
AcDbEntity
  8
0
100
AcDbLine
 62
7
  6
CONTINUOUS
 10
66.2649722611
 20
154.3319767494
 11
58.3684632555
 21
154.3319767501
  0
LINE
  5
431
100
AcDbEntity
  8
0
100
AcDbLine
 62
7
  6
CONTINUOUS
 10
47.5721955989
 20
154.4892011692
 11
66.4221955989
 21
154.4892011692
  0
LINE
  5
432
100
AcDbEntity
  8
0
100
AcDbLine
 62
7
  6
CONTINUOUS
 10
136.0721955989
 20
154.4892011692
 11
139.9721955577
 21
154.4892011692
  0
LINE
  5
433
100
AcDbEntity
  8
0
100
AcDbLine
 62
7
  6
CONTINUOUS
 10
142.4581955989
 20
154.6142011692
 11
142.3721955989
 21
154.6142011692
  0
LINE
  5
434
100
AcDbEntity
  8
0
100
AcDbLine
 62
7
  6
CONTINUOUS
 10
125.5231955989
 20
154.8142011692
 11
126.3710980085
 21
154.8142011692
  0
LINE
  5
435
100
AcDbEntity
  8
0
100
AcDbLine
 62
7
  6
CONTINUOUS
 10
126.6752931894
 20
154.8142011692
 11
127.5231955989
 21
154.8142011692
  0
LINE
  5
436
100
AcDbEntity
  8
0
100
AcDbLine
 62
7
  6
CONTINUOUS
 10
127.5981955989
 20
154.9642011692
 11
124.7981955989
 21
154.9642011692
  0
LINE
  5
437
100
AcDbEntity
  8
0
100
AcDbLine
 62
7
  6
CONTINUOUS
 10
120.9981955989
 20
155.7642011692
 11
133.3981955989
 21
155.7642011692
  0
LINE
  5
438
100
AcDbEntity
  8
0
100
AcDbLine
 62
7
  6
CONTINUOUS
 10
124.5981955989
 20
156.0642011692
 11
131.5981955989
 21
156.0642011692
  0
LINE
  5
439
100
AcDbEntity
  8
0
100
AcDbLine
 62
7
  6
CONTINUOUS
 10
130.8981955989
 20
155.7642011692
 11
130.8981955989
 21
113.0642011692
  0
LINE
  5
43A
100
AcDbEntity
  8
0
100
AcDbLine
 62
7
  6
CONTINUOUS
 10
131.2981955989
 20
113.0642011692
 11
131.2981955989
 21
155.7642011692
  0
LINE
  5
43B
100
AcDbEntity
  8
0
100
AcDbLine
 62
7
  6
CONTINUOUS
 10
131.4981955989
 20
156.0642011692
 11
131.4981955989
 21
155.7642011692
  0
LINE
  5
43C
100
AcDbEntity
  8
0
100
AcDbLine
 62
7
  6
CONTINUOUS
 10
131.4981955989
 20
113.0642011692
 11
131.4981955989
 21
112.7642011692
  0
LINE
  5
43D
100
AcDbEntity
  8
0
100
AcDbLine
 62
7
  6
CONTINUOUS
 10
131.5981955989
 20
112.7642011692
 11
131.5981955989
 21
113.0642011692
  0
LINE
  5
43E
100
AcDbEntity
  8
0
100
AcDbLine
 62
7
  6
CONTINUOUS
 10
131.5981955989
 20
155.7642011692
 11
131.5981955989
 21
156.0642011692
  0
LINE
  5
43F
100
AcDbEntity
  8
0
100
AcDbLine
 62
7
  6
CONTINUOUS
 10
133.0981955989
 20
155.7642011692
 11
133.0981955989
 21
113.0642011692
  0
LINE
  5
440
100
AcDbEntity
  8
0
100
AcDbLine
 62
7
  6
CONTINUOUS
 10
133.3981955989
 20
113.0642011692
 11
133.3981955989
 21
155.7642011692
  0
LINE
  5
441
100
AcDbEntity
  8
0
100
AcDbLine
 62
7
  6
CONTINUOUS
 10
133.6721955989
 20
120.8892011692
 11
133.6721955989
 21
152.0892011692
  0
LINE
  5
442
100
AcDbEntity
  8
0
100
AcDbLine
 62
7
  6
CONTINUOUS
 10
133.8451412706
 20
152.0892011692
 11
133.8451412706
 21
120.8892011692
  0
LINE
  5
443
100
AcDbEntity
  8
0
100
AcDbLine
 62
7
  6
CONTINUOUS
 10
134.458231547
 20
152.0892011692
 11
134.458231547
 21
120.8892011692
  0
LINE
  5
444
100
AcDbEntity
  8
0
100
AcDbLine
 62
7
  6
CONTINUOUS
 10
134.9081955989
 20
81.8842011692
 11
134.9081955989
 21
94.3442011692
  0
LINE
  5
445
100
AcDbEntity
  8
0
100
AcDbLine
 62
7
  6
CONTINUOUS
 10
133.0647838505
 20
98.5743074053
 11
133.8100895453
 21
101.3631876025
  0
LINE
  5
446
100
AcDbEntity
  8
0
100
AcDbLine
 62
7
  6
CONTINUOUS
 10
17.3721955989
 20
163.1142011692
 11
142.3721955989
 21
163.1142011692
  0
LINE
  5
447
100
AcDbEntity
  8
0
100
AcDbLine
 62
7
  6
CONTINUOUS
 10
136.0721955969
 20
118.4892011692
 11
136.0721955969
 21
118.6621468408
  0
LINE
  5
448
100
AcDbEntity
  8
0
100
AcDbLine
 62
7
  6
CONTINUOUS
 10
136.0721955989
 20
154.3162554975
 11
136.0721955989
 21
154.4892011692
  0
LINE
  5
449
100
AcDbEntity
  8
0
100
AcDbLine
 62
7
  6
CONTINUOUS
 10
136.1221955989
 20
148.6892011692
 11
136.1221955989
 21
147.5892011692
  0
LINE
  5
44A
100
AcDbEntity
  8
0
100
AcDbLine
 62
7
  6
CONTINUOUS
 10
136.1221955989
 20
145.4892011692
 11
136.1221955989
 21
144.3892011692
  0
LINE
  5
44B
100
AcDbEntity
  8
0
100
AcDbLine
 62
7
  6
CONTINUOUS
 10
136.1221955989
 20
142.2892011692
 11
136.1221955989
 21
141.1892011692
  0
LINE
  5
44C
100
AcDbEntity
  8
0
100
AcDbLine
 62
7
  6
CONTINUOUS
 10
136.1221955989
 20
139.0892011692
 11
136.1221955989
 21
137.9892011692
  0
LINE
  5
44D
100
AcDbEntity
  8
0
100
AcDbLine
 62
7
  6
CONTINUOUS
 10
136.1221955989
 20
132.3892011692
 11
136.1221955989
 21
131.2892011692
  0
LINE
  5
44E
100
AcDbEntity
  8
0
100
AcDbLine
 62
7
  6
CONTINUOUS
 10
136.1221955989
 20
129.1892011692
 11
136.1221955989
 21
128.0892011692
  0
LINE
  5
44F
100
AcDbEntity
  8
0
100
AcDbLine
 62
7
  6
CONTINUOUS
 10
136.1221955989
 20
125.9892011692
 11
136.1221955989
 21
124.8892011692
  0
LINE
  5
450
100
AcDbEntity
  8
0
100
AcDbLine
 62
7
  6
CONTINUOUS
 10
136.1221955989
 20
122.7892011692
 11
136.1221955989
 21
121.6892011692
  0
LINE
  5
451
100
AcDbEntity
  8
0
100
AcDbLine
 62
7
  6
CONTINUOUS
 10
137.6721955989
 20
59.1322370632
 11
137.6721955989
 21
63.1142011692
  0
LINE
  5
452
100
AcDbEntity
  8
0
100
AcDbLine
 62
7
  6
CONTINUOUS
 10
138.1221955989
 20
121.6892011692
 11
138.1221955989
 21
122.7892011692
  0
LINE
  5
453
100
AcDbEntity
  8
0
100
AcDbLine
 62
7
  6
CONTINUOUS
 10
138.1221955989
 20
124.8892011692
 11
138.1221955989
 21
125.9892011692
  0
LINE
  5
454
100
AcDbEntity
  8
0
100
AcDbLine
 62
7
  6
CONTINUOUS
 10
138.1221955989
 20
128.0892011692
 11
138.1221955989
 21
129.1892011692
  0
LINE
  5
455
100
AcDbEntity
  8
0
100
AcDbLine
 62
7
  6
CONTINUOUS
 10
138.1221955989
 20
131.2892011692
 11
138.1221955989
 21
132.3892011692
  0
LINE
  5
456
100
AcDbEntity
  8
0
100
AcDbLine
 62
7
  6
CONTINUOUS
 10
138.1221955989
 20
137.9892011692
 11
138.1221955989
 21
139.0892011692
  0
LINE
  5
457
100
AcDbEntity
  8
0
100
AcDbLine
 62
7
  6
CONTINUOUS
 10
138.1221955989
 20
141.1892011692
 11
138.1221955989
 21
142.2892011692
  0
LINE
  5
458
100
AcDbEntity
  8
0
100
AcDbLine
 62
7
  6
CONTINUOUS
 10
138.1221955989
 20
144.3892011692
 11
138.1221955989
 21
145.4892011692
  0
LINE
  5
459
100
AcDbEntity
  8
0
100
AcDbLine
 62
7
  6
CONTINUOUS
 10
138.1221955989
 20
147.5892011692
 11
138.1221955989
 21
148.6892011692
  0
LINE
  5
45A
100
AcDbEntity
  8
0
100
AcDbLine
 62
7
  6
CONTINUOUS
 10
139.9721956008
 20
154.4892011692
 11
139.9721956008
 21
154.3162554975
  0
LINE
  5
45B
100
AcDbEntity
  8
0
100
AcDbLine
 62
7
  6
CONTINUOUS
 10
139.9721955989
 20
118.6621468408
 11
139.9721955989
 21
118.4892011692
  0
LINE
  5
45C
100
AcDbEntity
  8
0
100
AcDbLine
 62
7
  6
CONTINUOUS
 10
130.2528899041
 20
78.4030813664
 11
128.2103016526
 21
76.3631876025
  0
LINE
  5
45D
100
AcDbEntity
  8
0
100
AcDbLine
 62
7
  6
CONTINUOUS
 10
141.5861596509
 20
120.8892011692
 11
141.5861596509
 21
152.0892011692
  0
LINE
  5
45E
100
AcDbEntity
  8
0
100
AcDbLine
 62
7
  6
CONTINUOUS
 10
142.1992499273
 20
120.8892011692
 11
142.1992499273
 21
152.0892011691
  0
LINE
  5
45F
100
AcDbEntity
  8
0
100
AcDbLine
 62
7
  6
CONTINUOUS
 10
142.3721955989
 20
163.1142011692
 11
142.3721955989
 21
63.1142011692
  0
LINE
  5
460
100
AcDbEntity
  8
0
100
AcDbLine
 62
7
  6
CONTINUOUS
 10
142.4581955989
 20
134.6142011692
 11
142.4581955989
 21
154.6142011692
  0
LINE
  5
461
100
AcDbEntity
  8
0
100
AcDbLine
 62
7
  6
CONTINUOUS
 10
142.6581955989
 20
134.8142011692
 11
142.6581955989
 21
154.4142011692
  0
LINE
  5
462
100
AcDbEntity
  8
0
100
AcDbLine
 62
7
  6
CONTINUOUS
 10
131.7435012937
 20
72.8253209719
 11
133.7860895453
 21
74.8652147358
  0
LINE
  5
463
100
AcDbEntity
  8
0
100
AcDbLine
 62
7
  6
CONTINUOUS
 10
142.6581955989
 20
153.9142011692
 11
142.4581955989
 21
154.1142011692
  0
LINE
  5
464
100
AcDbEntity
  8
0
100
AcDbLine
 62
7
  6
CONTINUOUS
 10
142.6581955989
 20
154.4142011692
 11
142.4581955989
 21
154.6142011692
  0
ARC
  5
465
100
AcDbEntity
  8
0
100
AcDbCircle
 62
7
  6
CONTINUOUS
 10
30.2178177008
 20
59.1306001916
 40
2.9943618551
100
AcDbArc
 50
269.9651554794
 51
0.0294327133
  0
ARC
  5
466
100
AcDbEntity
  8
0
100
AcDbCircle
 62
7
  6
CONTINUOUS
 10
25.0665733378
 20
59.1306003507
 40
2.9943618549
100
AcDbArc
 50
179.9651430891
 51
270.0294203194
  0
ARC
  5
467
100
AcDbEntity
  8
0
100
AcDbCircle
 62
7
  6
CONTINUOUS
 10
27.6421955989
 20
62.1362224523
 40
2.2757442684
100
AcDbArc
 50
153.6112861892
 51
26.3816937417
  0
ARC
  5
468
100
AcDbEntity
  8
0
100
AcDbCircle
 62
7
  6
CONTINUOUS
 10
27.6421955989
 20
62.1362224523
 40
2.2500000083
100
AcDbArc
 50
153.3139669438
 51
26.6916581093
  0
ARC
  5
469
100
AcDbEntity
  8
0
100
AcDbCircle
 62
7
  6
CONTINUOUS
 10
65.9212350279
 20
113.1247184451
 40
5.3340885511
100
AcDbArc
 50
325.3532236867
 51
326.9934934953
  0
ARC
  5
46A
100
AcDbEntity
  8
0
100
AcDbCircle
 62
7
  6
CONTINUOUS
 10
66.2649722611
 20
113.0319778313
 40
5.0000000341
100
AcDbArc
 50
270.0000000001
 51
323.9878199882
  0
ARC
  5
46B
100
AcDbEntity
  8
0
100
AcDbCircle
 62
7
  6
CONTINUOUS
 10
66.4221955989
 20
112.9892011692
 40
5.0
100
AcDbArc
 50
270.0000000001
 51
359.9999999999
  0
ARC
  5
46C
100
AcDbEntity
  8
0
100
AcDbCircle
 62
7
  6
CONTINUOUS
 10
66.4221955989
 20
149.4892011692
 40
5.0
100
AcDbArc
 50
0.0000000001
 51
89.9999999999
  0
ARC
  5
46D
100
AcDbEntity
  8
0
100
AcDbCircle
 62
7
  6
CONTINUOUS
 10
47.5721955989
 20
149.4892011692
 40
5.0
100
AcDbArc
 50
90.0000000005
 51
180.0
  0
ARC
  5
46E
100
AcDbEntity
  8
0
100
AcDbCircle
 62
7
  6
CONTINUOUS
 10
47.5721955989
 20
112.9892011692
 40
5.0
100
AcDbArc
 50
179.9999999996
 51
269.9999999999
  0
ARC
  5
46F
100
AcDbEntity
  8
0
100
AcDbCircle
 62
7
  6
CONTINUOUS
 10
66.2649722611
 20
149.3319778313
 40
4.9965079231
100
AcDbArc
 50
1.801053289
 51
88.198946711
  0
ARC
  5
470
100
AcDbEntity
  8
0
100
AcDbCircle
 62
7
  6
CONTINUOUS
 10
66.2649722611
 20
113.0319778313
 40
4.9965079231
100
AcDbArc
 50
325.7380554021
 51
359.5098275184
  0
ARC
  5
471
100
AcDbEntity
  8
0
100
AcDbCircle
 62
7
  6
CONTINUOUS
 10
66.2649722611
 20
113.0319778313
 40
4.9406346919
100
AcDbArc
 50
269.9999999998
 51
360.0
  0
ARC
  5
472
100
AcDbEntity
  8
0
100
AcDbCircle
 62
7
  6
CONTINUOUS
 10
66.2649722611
 20
149.3319778313
 40
4.9406346919
100
AcDbArc
 50
0.0
 51
90.0000000003
  0
ARC
  5
473
100
AcDbEntity
  8
0
100
AcDbCircle
 62
7
  6
CONTINUOUS
 10
66.4221955989
 20
149.4892011692
 40
4.8427766622
100
AcDbArc
 50
359.9988905935
 51
90.0011094065
  0
ARC
  5
474
100
AcDbEntity
  8
0
100
AcDbCircle
 62
7
  6
CONTINUOUS
 10
47.5721955989
 20
149.4892011692
 40
4.7536834374
100
AcDbArc
 50
90.0000000005
 51
179.9999999995
  0
ARC
  5
475
100
AcDbEntity
  8
0
100
AcDbCircle
 62
7
  6
CONTINUOUS
 10
47.5721955989
 20
112.9892011692
 40
4.7536834374
100
AcDbArc
 50
180.0000000001
 51
269.9999999999
  0
ARC
  5
476
100
AcDbEntity
  8
0
100
AcDbCircle
 62
7
  6
CONTINUOUS
 10
47.5721955989
 20
149.4892011692
 40
4.0139640519
100
AcDbArc
 50
90.0000000001
 51
179.9999999999
  0
ARC
  5
477
100
AcDbEntity
  8
0
100
AcDbCircle
 62
7
  6
CONTINUOUS
 10
47.5721955989
 20
112.9892011692
 40
4.0139640519
100
AcDbArc
 50
180.0000000001
 51
270.0
  0
ARC
  5
478
100
AcDbEntity
  8
0
100
AcDbCircle
 62
7
  6
CONTINUOUS
 10
134.6777254239
 20
59.1306926273
 40
2.9944741707
100
AcDbArc
 50
269.9704483033
 51
0.0295510209
  0
ARC
  5
479
100
AcDbEntity
  8
0
100
AcDbCircle
 62
7
  6
CONTINUOUS
 10
129.5265733378
 20
59.1306003507
 40
2.9943618549
100
AcDbArc
 50
179.9651430829
 51
270.029420325
  0
ARC
  5
47A
100
AcDbEntity
  8
0
100
AcDbCircle
 62
7
  6
CONTINUOUS
 10
132.1021955989
 20
62.1362224523
 40
2.2757442684
100
AcDbArc
 50
153.6112861892
 51
26.3816937417
  0
ARC
  5
47B
100
AcDbEntity
  8
0
100
AcDbCircle
 62
7
  6
CONTINUOUS
 10
132.1021955989
 20
62.1362224523
 40
2.2500000083
100
AcDbArc
 50
153.3139669439
 51
26.6916581093
  0
ARC
  5
47C
100
AcDbEntity
  8
0
100
AcDbCircle
 62
7
  6
CONTINUOUS
 10
132.9081955989
 20
81.8842011692
 40
2.0
100
AcDbArc
 50
255.0
 51
360.0
  0
ARC
  5
47D
100
AcDbEntity
  8
0
100
AcDbCircle
 62
7
  6
CONTINUOUS
 10
132.9081955989
 20
94.3442011692
 40
2.0
100
AcDbArc
 50
0.0
 51
105.0
  0
ARC
  5
47E
100
AcDbEntity
  8
0
100
AcDbCircle
 62
7
  6
CONTINUOUS
 10
128.8881955989
 20
93.2670454156
 40
2.0
100
AcDbArc
 50
105.0
 51
180.0
  0
ARC
  5
47F
100
AcDbEntity
  8
0
100
AcDbCircle
 62
7
  6
CONTINUOUS
 10
128.8881955989
 20
82.9613569227
 40
2.0
100
AcDbArc
 50
180.0
 51
255.0
  0
ARC
  5
480
100
AcDbEntity
  8
0
100
AcDbCircle
 62
7
  6
CONTINUOUS
 10
139.9721955989
 20
120.8892011692
 40
2.4
100
AcDbArc
 50
269.9999999991
 51
360.0
  0
ARC
  5
481
100
AcDbEntity
  8
0
100
AcDbCircle
 62
7
  6
CONTINUOUS
 10
136.0721955989
 20
152.0892011692
 40
2.4
100
AcDbArc
 50
90.0000000001
 51
179.9999999999
  0
ARC
  5
482
100
AcDbEntity
  8
0
100
AcDbCircle
 62
7
  6
CONTINUOUS
 10
136.0721955989
 20
120.8892011692
 40
2.4
100
AcDbArc
 50
180.0000000001
 51
269.9999999999
  0
ARC
  5
483
100
AcDbEntity
  8
0
100
AcDbCircle
 62
7
  6
CONTINUOUS
 10
139.9721955989
 20
152.0892011692
 40
2.3999999934
100
AcDbArc
 50
359.999999016
 51
90.000000984
  0
ARC
  5
484
100
AcDbEntity
  8
0
100
AcDbCircle
 62
7
  6
CONTINUOUS
 10
136.0721955989
 20
120.8892011692
 40
2.2270543284
100
AcDbArc
 50
179.9999999996
 51
270.0000000004
  0
ARC
  5
485
100
AcDbEntity
  8
0
100
AcDbCircle
 62
7
  6
CONTINUOUS
 10
139.9721955989
 20
120.8892011692
 40
2.2270543284
100
AcDbArc
 50
269.9999999993
 51
360.0
  0
ARC
  5
486
100
AcDbEntity
  8
0
100
AcDbCircle
 62
7
  6
CONTINUOUS
 10
139.9721955989
 20
152.0892011692
 40
2.2270543284
100
AcDbArc
 50
0.0
 51
90.0000000007
  0
ARC
  5
487
100
AcDbEntity
  8
0
100
AcDbCircle
 62
7
  6
CONTINUOUS
 10
136.0721955989
 20
152.0892011692
 40
2.2270543284
100
AcDbArc
 50
89.9999999996
 51
180.0000000004
  0
ARC
  5
488
100
AcDbEntity
  8
0
100
AcDbCircle
 62
7
  6
CONTINUOUS
 10
136.0721955989
 20
120.8892011692
 40
1.6139640519
100
AcDbArc
 50
180.0000000001
 51
270.0000000002
  0
ARC
  5
489
100
AcDbEntity
  8
0
100
AcDbCircle
 62
7
  6
CONTINUOUS
 10
136.0721955989
 20
152.0892011692
 40
1.6139640519
100
AcDbArc
 50
90.0000000002
 51
179.9999999999
  0
ARC
  5
48A
100
AcDbEntity
  8
0
100
AcDbCircle
 62
7
  6
CONTINUOUS
 10
139.9721955989
 20
152.0892011692
 40
1.6139640519
100
AcDbArc
 50
0.0000000001
 51
89.9999999999
  0
ARC
  5
48B
100
AcDbEntity
  8
0
100
AcDbCircle
 62
7
  6
CONTINUOUS
 10
139.9721955989
 20
120.8892011692
 40
1.6139640519
100
AcDbArc
 50
269.9999999998
 51
359.9999999999
  0
SPLINE
  5
48C
100
AcDbEntity
  8
0
100
AcDbSpline
 62
7
  6
CONTINUOUS
 70
0
 71
3
 72
8
 73
4
 74
0
 42
0.0000001
 43
0.0000001
 44
0.0000000001
 40
0.0
 40
0.0
 40
0.0
 40
0.0
 40
1.0
 40
1.0
 40
1.0
 40
1.0
 10
69.7149724901
 20
148.6903945043
 30
0.0
 10
68.9619854661
 20
148.6902704868
 30
0.0
 10
68.208998396
 20
148.6901195015
 30
0.0
 10
67.4560113888
 20
148.6903208475
 30
0.0
  0
SPLINE
  5
48D
100
AcDbEntity
  8
0
100
AcDbSpline
 62
7
  6
CONTINUOUS
 70
0
 71
3
 72
10
 73
6
 74
0
 42
0.0000001
 43
0.0000001
 44
0.0000000001
 40
0.0
 40
0.0
 40
0.0
 40
0.0
 40
0.2500001538
 40
0.5000001415
 40
1.0
 40
1.0
 40
1.0
 40
1.0
 10
67.4559613763
 20
148.6903164368
 30
0.0
 10
67.4582131954
 20
148.2937945953
 30
0.0
 10
67.457689856
 20
147.5007305018
 30
0.0
 10
67.4558826961
 20
145.9146236722
 30
0.0
 10
67.4578750698
 20
144.7250356305
 30
0.0
 10
67.4559960624
 20
143.931982098
 30
0.0
  0
LINE
  5
48E
100
AcDbEntity
  8
0
100
AcDbLine
 62
7
  6
CONTINUOUS
 10
71.2649690173
 20
149.3319778313
 11
71.2649640981
 21
149.4891074572
  0
LINE
  5
48F
100
AcDbEntity
  8
0
100
AcDbLine
 62
7
  6
CONTINUOUS
 10
66.4221018869
 20
154.3319696683
 11
66.2649722611
 21
154.3319745875
  0
SPLINE
  5
490
100
AcDbEntity
  8
0
100
AcDbSpline
 62
7
  6
CONTINUOUS
 70
0
 71
3
 72
18
 73
14
 74
0
 42
0.0000001
 43
0.0000001
 44
0.0000000001
 40
0.0
 40
0.0
 40
0.0
 40
0.0
 40
0.192511258
 40
0.3785496255
 40
0.5500373637
 40
0.7007224633
 40
0.8250696737
 40
0.8759458953
 40
0.9185854784
 40
0.9525178472
 40
0.9775011706
 40
0.9933611559
 40
1.0
 40
1.0
 40
1.0
 40
1.0
 10
67.6420158586
 20
145.4416458736
 30
0.0
 10
67.6420158586
 20
145.3774580704
 30
0.0
 10
67.6418014707
 20
145.2512403806
 30
0.0
 10
67.6408658105
 20
145.0678477744
 30
0.0
 10
67.6393428671
 20
144.898401764
 30
0.0
 10
67.6372937804
 20
144.7495430913
 30
0.0
 10
67.635154085
 20
144.6408773928
 30
0.0
 10
67.6330932875
 20
144.5682968967
 30
0.0
 10
67.631695882
 20
144.5257567165
 30
0.0
 10
67.6299408346
 20
144.4921198541
 30
0.0
 10
67.6289310117
 20
144.4667838303
 30
0.0
 10
67.6264634312
 20
144.4518708052
 30
0.0
 10
67.6264307363
 20
144.4434363065
 30
0.0
 10
67.6248655218
 20
144.4418710921
 30
0.0
  0
SPLINE
  5
491
100
AcDbEntity
  8
0
100
AcDbSpline
 62
7
  6
CONTINUOUS
 70
0
 71
3
 72
18
 73
14
 74
0
 42
0.0000001
 43
0.0000001
 44
0.0000000001
 40
0.0
 40
0.0
 40
0.0
 40
0.0
 40
0.0066381735
 40
0.0224963295
 40
0.047477282
 40
0.0814073455
 40
0.1240452268
 40
0.1749203865
 40
0.299266799
 40
0.449952271
 40
0.6214415614
 40
0.8074831487
 40
1.0
 40
1.0
 40
1.0
 40
1.0
 10
69.5195260723
 20
144.4418706958
 30
0.0
 10
69.5179611087
 20
144.4434356593
 30
0.0
 10
69.5179279593
 20
144.4518685965
 30
0.0
 10
69.5154607792
 20
144.4667792761
 30
0.0
 10
69.5144507824
 20
144.4921115385
 30
0.0
 10
69.5126958225
 20
144.5257443029
 30
0.0
 10
69.5112984073
 20
144.5682802595
 30
0.0
 10
69.5092376164
 20
144.6408552637
 30
0.0
 10
69.5070979042
 20
144.7495140196
 30
0.0
 10
69.5050487853
 20
144.8983642405
 30
0.0
 10
69.5035257251
 20
145.0678019178
 30
0.0
 10
69.5025898226
 20
145.2511871051
 30
0.0
 10
69.5023753392
 20
145.3774002499
 30
0.0
 10
69.5023753392
 20
145.4415861122
 30
0.0
  0
SPLINE
  5
492
100
AcDbEntity
  8
0
100
AcDbSpline
 62
7
  6
CONTINUOUS
 70
0
 71
3
 72
9
 73
5
 74
0
 42
0.0000001
 43
0.0000001
 44
0.0000000001
 40
0.0
 40
0.0
 40
0.0
 40
0.0
 40
0.4999841902
 40
1.0
 40
1.0
 40
1.0
 40
1.0
 10
58.368464338
 20
154.3302023142
 30
0.0
 10
58.3524154386
 20
154.3302023142
 30
0.0
 10
58.320357716
 20
154.3325669898
 30
0.0
 10
58.2882455133
 20
154.3319778313
 30
0.0
 10
58.2721955989
 20
154.3319778313
 30
0.0
  0
SPLINE
  5
493
100
AcDbEntity
  8
0
100
AcDbSpline
 62
7
  6
CONTINUOUS
 70
0
 71
3
 72
18
 73
14
 74
0
 42
0.0000001
 43
0.0000001
 44
0.0000000001
 40
0.0
 40
0.0
 40
0.0
 40
0.0
 40
0.1925112367
 40
0.3785495894
 40
0.550037319
 40
0.7007224148
 40
0.8250696267
 40
0.8759458524
 40
0.9185854428
 40
0.9525178224
 40
0.9775011572
 40
0.9933611519
 40
1.0
 40
1.0
 40
1.0
 40
1.0
 10
69.5023753392
 20
147.3367563235
 30
0.0
 10
69.5023753392
 20
147.4009441285
 30
0.0
 10
69.5025897269
 20
147.5271618238
 30
0.0
 10
69.5035253865
 20
147.7105544405
 30
0.0
 10
69.5050483295
 20
147.8800004654
 30
0.0
 10
69.5070974159
 20
148.0288591551
 30
0.0
 10
69.5092371112
 20
148.1375248693
 30
0.0
 10
69.5112979086
 20
148.2101053798
 30
0.0
 10
69.5126953139
 20
148.2526455732
 30
0.0
 10
69.5144503614
 20
148.2862824503
 30
0.0
 10
69.5154601838
 20
148.3116184881
 30
0.0
 10
69.5179277653
 20
148.3265315235
 30
0.0
 10
69.5179604587
 20
148.3349660281
 30
0.0
 10
69.5195256739
 20
148.3365312442
 30
0.0
  0
SPLINE
  5
494
100
AcDbEntity
  8
0
100
AcDbSpline
 62
7
  6
CONTINUOUS
 70
0
 71
3
 72
10
 73
6
 74
0
 42
0.0000001
 43
0.0000001
 44
0.0000000001
 40
0.0
 40
0.0
 40
0.0
 40
0.0
 40
0.518203798
 40
0.7638157765
 40
1.0
 40
1.0
 40
1.0
 40
1.0
 10
58.4243375692
 20
154.2726125232
 30
0.0
 10
58.4143713716
 20
154.2825787208
 30
0.0
 10
58.3992132413
 20
154.2967908347
 30
0.0
 10
58.3805571634
 20
154.3166187699
 30
0.0
 10
58.373005597
 20
154.3274344085
 30
0.0
 10
58.3684632555
 20
154.3319767501
 30
0.0
  0
LINE
  5
495
100
AcDbEntity
  8
0
100
AcDbLine
 62
7
  6
CONTINUOUS
 10
71.2649672282
 20
112.9892168893
 11
71.2649690173
 21
113.0319778313
  0
SPLINE
  5
496
100
AcDbEntity
  8
0
100
AcDbSpline
 62
7
  6
CONTINUOUS
 70
0
 71
3
 72
18
 73
14
 74
0
 42
0.0000001
 43
0.0000001
 44
0.0000000001
 40
0.0
 40
0.0
 40
0.0
 40
0.0
 40
0.0066381744
 40
0.0224963311
 40
0.0474772843
 40
0.0814073483
 40
0.1240452301
 40
0.1749203901
 40
0.2992668027
 40
0.4499522744
 40
0.6214415641
 40
0.8074831502
 40
1.0
 40
1.0
 40
1.0
 40
1.0
 10
67.6248651257
 20
148.3365316424
 30
0.0
 10
67.6264300891
 20
148.3349666782
 30
0.0
 10
67.6264632389
 20
148.3265337411
 30
0.0
 10
67.6289304187
 20
148.3116230601
 30
0.0
 10
67.6299404156
 20
148.2862907972
 30
0.0
 10
67.6316953755
 20
148.2526580319
 30
0.0
 10
67.6330927907
 20
148.2101220746
 30
0.0
 10
67.6351535816
 20
148.1375470697
 30
0.0
 10
67.6372932938
 20
148.028888313
 30
0.0
 10
67.6393424127
 20
147.8800380915
 30
0.0
 10
67.6408654728
 20
147.7106004139
 30
0.0
 10
67.6418013753
 20
147.5272152266
 30
0.0
 10
67.6420158586
 20
147.401002082
 30
0.0
 10
67.6420158586
 20
147.3368162197
 30
0.0
  0
ENDSEC
  0
SECTION
  2
OBJECTS
  0
DICTIONARY
  5
C
100
AcDbDictionary
280
0
281
1
  3
ACAD_GROUP
350
D
  3
ACAD_MLINESTYLE
350
17
  3
ACAD_LAYOUT
350
1A
  3
ACAD_PLOTSETTINGS
350
19
  3
ACAD_PLOTSTYLENAME
350
E
  0
DICTIONARY
  5
D
102
{ACAD_REACTORS
330
C
102
}
100
AcDbDictionary
280
0
281
1
  0
ACDBDICTIONARYWDFLT
  5
E
102
{ACAD_REACTORS
330
C
102
}
100
AcDbDictionary
281
1
  3
Normal
350
F
100
AcDbDictionaryWithDefault
340
F
  0
DICTIONARY
  5
17
102
{ACAD_REACTORS
330
C
102
}
100
AcDbDictionary
280
0
281
1
  3
Standard
350
18
  0
DICTIONARY
  5
19
102
{ACAD_REACTORS
330
C
102
}
100
AcDbDictionary
281
1
  0
DICTIONARY
  5
1A
102
{ACAD_REACTORS
330
C
102
}
100
AcDbDictionary
281
1
  3
Model
350
497
  3
Layout1
350
498
  0
ACDBPLACEHOLDER
  5
F
102
{ACAD_REACTORS
330
E
102
}
  0
MLINESTYLE
  5
18
102
{ACAD_REACTORS
330
17
102
}
100
AcDbMlineStyle
  2
STANDARD
 70
0
  3

 62
256
 51
90.0
 52
90.0
 71
2
 49
0.5
 62
256
  6
BYLAYER
 49
-0.5
 62
256
  6
BYLAYER
  0
LAYOUT
  5
497
102
{ACAD_REACTORS
330
1A
102
}
100
AcDbPlotSettings
  1

  2
none_device
  4

  6

 40
0.0
 41
0.0
 42
0.0
 43
0.0
 44
210.0
 45
297.0
 46
0.0
 47
0.0
 48
0.0
 49
0.0
140
0.0
141
0.0
142
1.0
143
1.0
 70
1024
 72
1
 73
0
 74
0
  7

 75
0
147
1.0
148
0.0
149
0.0
100
AcDbLayout
  1
Model
 70
0
 71
0
 10
0.0
 20
0.0
 11
210.0
 21
297.0
 12
0.0
 22
0.0
 32
0.0
 14
0.0
 24
0.0
 34
0.0
 15
0.0
 25
0.0
 35
0.0
146
0.0
 13
0.0
 23
0.0
 33
0.0
 16
1.0
 26
0.0
 36
0.0
 17
0.0
 27
1.0
 37
0.0
 76
0
330
210
345
0
346
0
  0
LAYOUT
  5
498
102
{ACAD_REACTORS
330
1A
102
}
100
AcDbPlotSettings
  1

  2
none_device
  4

  6

 40
0.0
 41
0.0
 42
0.0
 43
0.0
 44
210.0
 45
297.0
 46
0.0
 47
0.0
 48
0.0
 49
0.0
140
0.0
141
0.0
142
1.0
143
1.0
 70
0
 72
1
 73
0
 74
0
  7

 75
0
147
1.0
148
0.0
149
0.0
100
AcDbLayout
  1
Layout1
 70
0
 71
1
 10
0.0
 20
0.0
 11
210.0
 21
297.0
 12
0.0
 22
0.0
 32
0.0
 14
0.0
 24
0.0
 34
0.0
 15
0.0
 25
0.0
 35
0.0
146
0.0
 13
0.0
 23
0.0
 33
0.0
 16
1.0
 26
0.0
 36
0.0
 17
0.0
 27
1.0
 37
0.0
 76
0
330
211
345
0
346
0
  0
ENDSEC
  0
EOF
