999
DXF file: C:\Users\sesa63760\Dev\_Creo\CAD\MCADID0005721_3D-CAD\mcadid0005721_3d-simplified_5.dxf
999
Pro/ENGINEER 2019471 by Parametric Technology Corporation
  0
SECTION
  2
HEADER
  9
$ACADVER
  1
AC1024
  9
$DWGCODEPAGE
  3
ANSI_1252
  9
$EXTMAX
 10
109.0374132002
 20
154.2100558117
 30
0.0
  9
$EXTMIN
 10
0.0
 20
0.0
 30
0.0
  9
$LIMMIN
 10
0.0
 20
0.0
  9
$LIMMAX
 10
109.0374132002
 20
154.2100558117
  9
$VIEWCTR
 10
54.5187066001
 20
77.1050279058
  9
$VIEWSIZE
 40
154.2100558117
  9
$CLAYER
  8
0
  9
$LTSCALE
 40
10.0522110455
  9
$CELTYPE
  6
BYLAYER
  9
$DIMSCALE
 40
1.0
  9
$DIMASZ
 40
1.2980644429
  9
$DIMEXO
 40
1.0
  9
$DIMDLI
 40
6.9451639951
  9
$DIMEXE
 40
1.0
  9
$DIMCEN
 40
1.644907262
  9
$DIMLFAC
 40
1.0
  9
$DIMBLK
  1
_FILLED
  9
$DIMALT
 70
0
  9
$DIMALTF
 40
0.0393700787
  9
$DIMTXT
 40
1.81729022
  9
$DIMTOL
 70
1
  9
$DIMLIM
 70
0
  9
$DIMTFAC
 40
1.0
  9
$DIMTP
 40
0.01
  9
$DIMTM
 40
0.01
  9
$DIMGAP
 40
0.625
  9
$DIMDSEP
 70
46
  9
$AUNITS
 70
0
  9
$PDMODE
 70
3
  9
$PDSIZE
 40
0.3125
  9
$HANDSEED
  5
380
  9
$TILEMODE
 70
1
  9
$MEASUREMENT
 70
1
  9
$INSUNITS
 70
4
  0
ENDSEC
  0
SECTION
  2
CLASSES
  0
CLASS
  1
ACDBDICTIONARYWDFLT
  2
AcDbDictionaryWithDefault
  3
AutoCAD 2000
 90
0
 91
1
280
0
281
0
  0
CLASS
  1
ACDBPLACEHOLDER
  2
AcDbPlaceHolder
  3
AutoCAD 2000
 90
0
 91
1
280
0
281
0
  0
CLASS
  1
LAYOUT
  2
AcDbLayout
  3
AutoCAD 2000
 90
0
 91
0
280
0
281
0
  0
ENDSEC
  0
SECTION
  2
TABLES
  0
TABLE
  2
VPORT
  5
8
100
AcDbSymbolTable
 70
2
  0
VPORT
  5
1F4
100
AcDbSymbolTableRecord
100
AcDbViewportTableRecord
  2
*ACTIVE
 70
0
 10
0.0
 20
0.0
 11
1.0
 21
1.0
 12
54.5187066001
 22
77.1050279058
 13
0.0
 23
0.0
 14
1.0
 24
1.0
 15
0.0
 25
0.0
 16
0.0
 26
0.0
 36
1.0
 17
0.0
 27
0.0
 37
0.0
 40
154.2100558117
 41
0.7070707071
 42
50.0
 43
0.0
 44
0.0
 50
0.0
 51
0.0
 71
0
 72
100
 73
1
 74
1
 75
0
 76
0
 77
0
 78
0
  0
ENDTAB
  0
TABLE
  2
LTYPE
  5
5
100
AcDbSymbolTable
 70
6
  0
LTYPE
  5
14
100
AcDbSymbolTableRecord
100
AcDbLinetypeTableRecord
  2
BYBLOCK
 70
0
  3

 72
65
 73
0
 40
0.0
  0
LTYPE
  5
15
100
AcDbSymbolTableRecord
100
AcDbLinetypeTableRecord
  2
BYLAYER
 70
0
  3

 72
65
 73
0
 40
0.0
  0
LTYPE
  5
16
100
AcDbSymbolTableRecord
100
AcDbLinetypeTableRecord
  2
CONTINUOUS
 70
64
  3
Solid line
 72
65
 73
0
 40
0.0
  0
LTYPE
  5
1F5
100
AcDbSymbolTableRecord
100
AcDbLinetypeTableRecord
  2
CENTER
 70
64
  3
____ _ ____ _ ____ _ ____ _ ____ _ ____ _ ____
 72
65
 73
4
 40
0.6
 49
0.375
 74
0
 49
-0.075
 74
0
 49
0.075
 74
0
 49
-0.075
 74
0
  0
LTYPE
  5
1F6
100
AcDbSymbolTableRecord
100
AcDbLinetypeTableRecord
  2
HIDDEN
 70
64
  3
- - - - - - - - - - - - - - - - - - - -
 72
65
 73
2
 40
0.2
 49
0.1
 74
0
 49
-0.1
 74
0
  0
LTYPE
  5
1F7
100
AcDbSymbolTableRecord
100
AcDbLinetypeTableRecord
  2
PHANTOM
 70
64
  3
_____ _ _ _____ _ _ _____ _ _ _____
 72
65
 73
6
 40
0.8
 49
0.45
 74
0
 49
-0.05
 74
0
 49
0.1
 74
0
 49
-0.05
 74
0
 49
0.1
 74
0
 49
-0.05
 74
0
  0
LTYPE
  5
1F8
100
AcDbSymbolTableRecord
100
AcDbLinetypeTableRecord
  2
DOT
 70
64
  3
. . . . . . . . . . . . . . . . . . . .
 72
65
 73
2
 40
0.2
 49
0.1
 74
0
 49
-0.1
 74
0
  0
LTYPE
  5
1F9
100
AcDbSymbolTableRecord
100
AcDbLinetypeTableRecord
  2
DASHED
 70
64
  3
- - - - - - - - - - - - - - - - - - - -
 72
65
 73
2
 40
0.2
 49
0.1
 74
0
 49
-0.1
 74
0
  0
ENDTAB
  0
TABLE
  2
LAYER
  5
2
100
AcDbSymbolTable
 70
36
  0
LAYER
  5
10
100
AcDbSymbolTableRecord
100
AcDbLayerTableRecord
  2
0
 70
0
 62
7
  6
CONTINUOUS
370
-3
390
F
  0
LAYER
  5
1FA
100
AcDbSymbolTableRecord
100
AcDbLayerTableRecord
  2
DEFAULT_1
 70
0
 62
7
  6
CENTER
370
-3
390
F
  0
LAYER
  5
1FB
100
AcDbSymbolTableRecord
100
AcDbLayerTableRecord
  2
DEFAULT_2
 70
0
 62
7
  6
HIDDEN
370
-3
390
F
  0
LAYER
  5
1FC
100
AcDbSymbolTableRecord
100
AcDbLayerTableRecord
  2
DEFAULT_3
 70
0
 62
7
  6
PHANTOM
370
-3
390
F
  0
LAYER
  5
1FD
100
AcDbSymbolTableRecord
100
AcDbLayerTableRecord
  2
00_COMPONENTS
 70
0
 62
7
  6
CONTINUOUS
370
-3
390
F
  0
LAYER
  5
1FE
100
AcDbSymbolTableRecord
100
AcDbLayerTableRecord
  2
01_1_DEFAULT_DATUMS
 70
0
 62
7
  6
CONTINUOUS
370
-3
390
F
  0
LAYER
  5
1FF
100
AcDbSymbolTableRecord
100
AcDbLayerTableRecord
  2
01_PLANES
 70
0
 62
7
  6
CONTINUOUS
370
-3
390
F
  0
LAYER
  5
200
100
AcDbSymbolTableRecord
100
AcDbLayerTableRecord
  2
02_COORD_SYS
 70
0
 62
7
  6
CONTINUOUS
370
-3
390
F
  0
LAYER
  5
201
100
AcDbSymbolTableRecord
100
AcDbLayerTableRecord
  2
03_AXES
 70
0
 62
7
  6
CONTINUOUS
370
-3
390
F
  0
LAYER
  5
202
100
AcDbSymbolTableRecord
100
AcDbLayerTableRecord
  2
04_POINTS
 70
0
 62
7
  6
CONTINUOUS
370
-3
390
F
  0
LAYER
  5
203
100
AcDbSymbolTableRecord
100
AcDbLayerTableRecord
  2
05_CURVES
 70
0
 62
7
  6
CONTINUOUS
370
-3
390
F
  0
LAYER
  5
204
100
AcDbSymbolTableRecord
100
AcDbLayerTableRecord
  2
06_SURFS
 70
0
 62
7
  6
CONTINUOUS
370
-3
390
F
  0
LAYER
  5
205
100
AcDbSymbolTableRecord
100
AcDbLayerTableRecord
  2
07_COSMETICS
 70
0
 62
7
  6
CONTINUOUS
370
-3
390
F
  0
LAYER
  5
206
100
AcDbSymbolTableRecord
100
AcDbLayerTableRecord
  2
10_NOTES
 70
0
 62
7
  6
CONTINUOUS
370
-3
390
F
  0
LAYER
  5
207
100
AcDbSymbolTableRecord
100
AcDbLayerTableRecord
  2
11_NOTES_PUB
 70
0
 62
7
  6
CONTINUOUS
370
-3
390
F
  0
LAYER
  5
208
100
AcDbSymbolTableRecord
100
AcDbLayerTableRecord
  2
13_REF_GTOL
 70
0
 62
7
  6
CONTINUOUS
370
-3
390
F
  0
LAYER
  5
209
100
AcDbSymbolTableRecord
100
AcDbLayerTableRecord
  2
16_MISC
 70
0
 62
7
  6
CONTINUOUS
370
-3
390
F
  0
LAYER
  5
20A
100
AcDbSymbolTableRecord
100
AcDbLayerTableRecord
  2
17_NO_PRINT
 70
0
 62
7
  6
CONTINUOUS
370
-3
390
F
  0
LAYER
  5
20B
100
AcDbSymbolTableRecord
100
AcDbLayerTableRecord
  2
18_DATUM_CAMS_JOINTS
 70
0
 62
7
  6
CONTINUOUS
370
-3
390
F
  0
LAYER
  5
20C
100
AcDbSymbolTableRecord
100
AcDbLayerTableRecord
  2
19_DATUM_FUNCTIONAL
 70
0
 62
7
  6
CONTINUOUS
370
-3
390
F
  0
LAYER
  5
20D
100
AcDbSymbolTableRecord
100
AcDbLayerTableRecord
  2
20_DATUM_KINEMATIC_SCHEME
 70
0
 62
7
  6
CONTINUOUS
370
-3
390
F
  0
LAYER
  5
20E
100
AcDbSymbolTableRecord
100
AcDbLayerTableRecord
  2
INTFCLR_245
 70
0
 62
7
  6
CONTINUOUS
370
-3
390
F
  0
LAYER
  5
20F
100
AcDbSymbolTableRecord
100
AcDbLayerTableRecord
  2
INTFCLR_257
 70
0
 62
7
  6
CONTINUOUS
370
-3
390
F
  0
LAYER
  5
210
100
AcDbSymbolTableRecord
100
AcDbLayerTableRecord
  2
INTFCLR_261
 70
0
 62
7
  6
CONTINUOUS
370
-3
390
F
  0
LAYER
  5
211
100
AcDbSymbolTableRecord
100
AcDbLayerTableRecord
  2
INTFCLR_265
 70
0
 62
7
  6
CONTINUOUS
370
-3
390
F
  0
LAYER
  5
212
100
AcDbSymbolTableRecord
100
AcDbLayerTableRecord
  2
INTFCLR_277
 70
0
 62
7
  6
CONTINUOUS
370
-3
390
F
  0
LAYER
  5
213
100
AcDbSymbolTableRecord
100
AcDbLayerTableRecord
  2
INTFCLR_281
 70
0
 62
7
  6
CONTINUOUS
370
-3
390
F
  0
LAYER
  5
214
100
AcDbSymbolTableRecord
100
AcDbLayerTableRecord
  2
INTFCLR_285
 70
0
 62
7
  6
CONTINUOUS
370
-3
390
F
  0
LAYER
  5
215
100
AcDbSymbolTableRecord
100
AcDbLayerTableRecord
  2
INTFCLR_297
 70
0
 62
7
  6
CONTINUOUS
370
-3
390
F
  0
LAYER
  5
216
100
AcDbSymbolTableRecord
100
AcDbLayerTableRecord
  2
INTFCLR_301
 70
0
 62
7
  6
CONTINUOUS
370
-3
390
F
  0
LAYER
  5
217
100
AcDbSymbolTableRecord
100
AcDbLayerTableRecord
  2
INTFCLR_305
 70
0
 62
7
  6
CONTINUOUS
370
-3
390
F
  0
LAYER
  5
218
100
AcDbSymbolTableRecord
100
AcDbLayerTableRecord
  2
INTFCLR_317
 70
0
 62
7
  6
CONTINUOUS
370
-3
390
F
  0
LAYER
  5
219
100
AcDbSymbolTableRecord
100
AcDbLayerTableRecord
  2
INTFCLR_321
 70
0
 62
7
  6
CONTINUOUS
370
-3
390
F
  0
LAYER
  5
21A
100
AcDbSymbolTableRecord
100
AcDbLayerTableRecord
  2
INTFCLR_325
 70
0
 62
7
  6
CONTINUOUS
370
-3
390
F
  0
LAYER
  5
21B
100
AcDbSymbolTableRecord
100
AcDbLayerTableRecord
  2
INTFCLR_337
 70
0
 62
7
  6
CONTINUOUS
370
-3
390
F
  0
LAYER
  5
21C
100
AcDbSymbolTableRecord
100
AcDbLayerTableRecord
  2
INTFCLR_341
 70
0
 62
7
  6
CONTINUOUS
370
-3
390
F
  0
LAYER
  5
21D
100
AcDbSymbolTableRecord
100
AcDbLayerTableRecord
  2
INTFCLR_345
 70
0
 62
7
  6
CONTINUOUS
370
-3
390
F
  0
LAYER
  5
21E
100
AcDbSymbolTableRecord
100
AcDbLayerTableRecord
  2
INTFCLR_349
 70
0
 62
7
  6
CONTINUOUS
370
-3
390
F
  0
LAYER
  5
21F
100
AcDbSymbolTableRecord
100
AcDbLayerTableRecord
  2
INTFCLR_353
 70
0
 62
7
  6
CONTINUOUS
370
-3
390
F
  0
LAYER
  5
220
100
AcDbSymbolTableRecord
100
AcDbLayerTableRecord
  2
INTFCLR_365
 70
0
 62
7
  6
CONTINUOUS
370
-3
390
F
  0
LAYER
  5
221
100
AcDbSymbolTableRecord
100
AcDbLayerTableRecord
  2
INTFCLR_377
 70
0
 62
7
  6
CONTINUOUS
370
-3
390
F
  0
LAYER
  5
222
100
AcDbSymbolTableRecord
100
AcDbLayerTableRecord
  2
INTFCLR_381
 70
0
 62
7
  6
CONTINUOUS
370
-3
390
F
  0
LAYER
  5
223
100
AcDbSymbolTableRecord
100
AcDbLayerTableRecord
  2
INTFCLR_385
 70
0
 62
7
  6
CONTINUOUS
370
-3
390
F
  0
LAYER
  5
224
100
AcDbSymbolTableRecord
100
AcDbLayerTableRecord
  2
INTFCLR_389
 70
0
 62
7
  6
CONTINUOUS
370
-3
390
F
  0
LAYER
  5
225
100
AcDbSymbolTableRecord
100
AcDbLayerTableRecord
  2
INTFCLR_393
 70
0
 62
7
  6
CONTINUOUS
370
-3
390
F
  0
LAYER
  5
226
100
AcDbSymbolTableRecord
100
AcDbLayerTableRecord
  2
INTFCLR_405
 70
0
 62
7
  6
CONTINUOUS
370
-3
390
F
  0
LAYER
  5
227
100
AcDbSymbolTableRecord
100
AcDbLayerTableRecord
  2
INTFCLR_409
 70
0
 62
7
  6
CONTINUOUS
370
-3
390
F
  0
LAYER
  5
228
100
AcDbSymbolTableRecord
100
AcDbLayerTableRecord
  2
INTFCLR_413
 70
0
 62
7
  6
CONTINUOUS
370
-3
390
F
  0
LAYER
  5
229
100
AcDbSymbolTableRecord
100
AcDbLayerTableRecord
  2
INTFCLR_425
 70
0
 62
7
  6
CONTINUOUS
370
-3
390
F
  0
LAYER
  5
22A
100
AcDbSymbolTableRecord
100
AcDbLayerTableRecord
  2
INTFCLR_437
 70
0
 62
7
  6
CONTINUOUS
370
-3
390
F
  0
ENDTAB
  0
TABLE
  2
STYLE
  5
3
100
AcDbSymbolTable
 70
1
  0
STYLE
  5
11
100
AcDbSymbolTableRecord
100
AcDbTextStyleTableRecord
  2
STANDARD
 70
0
 40
0.0
 41
1.0
 50
0.0
 71
0
 42
0.2
  3
ARIAL.TTF
  4

  0
STYLE
  5
22B
100
AcDbSymbolTableRecord
100
AcDbTextStyleTableRecord
  2
TEXTSTYLE_1
 70
0
 40
0.0
 41
0.8
 50
0.0
 71
0
 42
0.2
  3
gdt
  4

  0
ENDTAB
  0
TABLE
  2
VIEW
  5
6
100
AcDbSymbolTable
 70
0
  0
ENDTAB
  0
TABLE
  2
UCS
  5
7
100
AcDbSymbolTable
 70
0
  0
ENDTAB
  0
TABLE
  2
APPID
  5
9
100
AcDbSymbolTable
 70
1
  0
APPID
  5
22C
100
AcDbSymbolTableRecord
100
AcDbRegAppTableRecord
  2
ACAD
 70
0
  0
ENDTAB
  0
TABLE
  2
BLOCK_RECORD
  5
1
100
AcDbSymbolTable
 70
0
  0
BLOCK_RECORD
  5
22D
100
AcDbSymbolTableRecord
100
AcDbBlockTableRecord
  2
*Model_Space
  0
BLOCK_RECORD
  5
22E
100
AcDbSymbolTableRecord
100
AcDbBlockTableRecord
  2
*Paper_Space
  0
BLOCK_RECORD
  5
22F
100
AcDbSymbolTableRecord
100
AcDbBlockTableRecord
  2
_FILLED
  0
ENDTAB
  0
TABLE
  2
DIMSTYLE
  5
A
100
AcDbSymbolTable
 70
1
100
AcDbDimStyleTable
 71
0
  0
DIMSTYLE
105
230
100
AcDbSymbolTableRecord
100
AcDbDimStyleTableRecord
  2
STANDARD
 70
0
  3

  4

 40
1.0
 41
1.2980644429
 42
1.0
 43
0.38
 44
1.0
 45
0.0
 46
0.0
 47
0.01
 48
0.01
140
1.81729022
141
0.09
142
0.0
143
25.4
144
1.0
145
0.0
146
1.0
147
0.625
 71
1
 72
0
 73
0
 74
0
 75
0
 76
0
 77
1
 78
8
 79
2
170
0
171
1
172
0
173
0
174
0
175
0
176
0
177
0
178
0
270
2
179
2
271
2
272
2
273
2
274
2
275
0
280
0
281
0
282
0
283
1
284
8
285
0
286
0
287
3
288
0
340
11
278
46
341
22F
342
22F
343
22F
344
22F
  0
ENDTAB
  0
ENDSEC
  0
SECTION
  2
BLOCKS
  0
BLOCK
  5
20
100
AcDbEntity
  8
0
100
AcDbBlockBegin
  2
*Model_Space
 70
0
 10
0.0
 20
0.0
 30
0.0
  3
*Model_Space
  1

  0
ENDBLK
  5
21
100
AcDbEntity
  8
0
100
AcDbBlockEnd
  0
BLOCK
  5
1C
100
AcDbEntity
  8
0
100
AcDbBlockBegin
  2
*Paper_Space
 70
0
 10
0.0
 20
0.0
 30
0.0
  3
*Paper_Space
  1

  0
ENDBLK
  5
1D
100
AcDbEntity
  8
0
100
AcDbBlockEnd
  0
BLOCK
  5
231
100
AcDbEntity
  8
0
100
AcDbBlockBegin
  2
_FILLED
 70
64
 10
0.0
 20
0.0
  3
_FILLED
  1

  0
SOLID
  5
232
100
AcDbEntity
  8
0
  6
BYBLOCK
 62
0
100
AcDbTrace
 10
0.0
 20
0.0
 11
-1.0
 21
0.25
 12
-1.0
 22
-0.25
 13
-1.0
 23
-0.25
  0
ENDBLK
  5
233
100
AcDbEntity
  8
0
  6
BYBLOCK
 62
0
100
AcDbBlockEnd
  0
ENDSEC
  0
SECTION
  2
ENTITIES
  0
LINE
  5
234
100
AcDbEntity
  8
0
100
AcDbLine
 62
7
  6
BYLAYER
 10
73.6939624692
 20
13.1966746423
 11
73.0147651946
 21
13.1197843848
  0
LINE
  5
235
100
AcDbEntity
  8
0
100
AcDbLine
 62
7
  6
BYLAYER
 10
20.7684420949
 20
23.7574947968
 11
21.2880573372
 21
23.4574947968
  0
LINE
  5
236
100
AcDbEntity
  8
0
100
AcDbLine
 62
7
  6
BYLAYER
 10
21.2880573372
 20
127.3574947968
 11
20.7684420949
 21
127.0574947968
  0
LINE
  5
237
100
AcDbEntity
  8
0
100
AcDbLine
 62
7
  6
BYLAYER
 10
24.2488268527
 20
126.3074947968
 11
24.7684420949
 21
126.6074947968
  0
LINE
  5
238
100
AcDbEntity
  8
0
100
AcDbLine
 62
7
  6
BYLAYER
 10
20.8738292749
 20
14.3216546969
 11
56.0742702949
 21
14.3216546969
  0
LINE
  5
239
100
AcDbEntity
  8
0
100
AcDbLine
 62
7
  6
BYLAYER
 10
67.4792164549
 20
16.1503017444
 11
75.6792164549
 21
16.1503017444
  0
LINE
  5
23A
100
AcDbEntity
  8
0
100
AcDbLine
 62
7
  6
BYLAYER
 10
75.7792164549
 20
16.1516546969
 11
75.6792164549
 21
16.1516546969
  0
LINE
  5
23B
100
AcDbEntity
  8
0
100
AcDbLine
 62
7
  6
BYLAYER
 10
75.7792164549
 20
17.1516546969
 11
75.6792164549
 21
17.1516546969
  0
LINE
  5
23C
100
AcDbEntity
  8
0
100
AcDbLine
 62
7
  6
BYLAYER
 10
20.8738292749
 20
17.2699120133
 11
67.4738906992
 21
17.2699120133
  0
LINE
  5
23D
100
AcDbEntity
  8
0
100
AcDbLine
 62
7
  6
BYLAYER
 10
75.7792164549
 20
16.1656230047
 11
81.5780610946
 21
15.9631228877
  0
LINE
  5
23E
100
AcDbEntity
  8
0
100
AcDbLine
 62
7
  6
BYLAYER
 10
73.3779941049
 20
12.551981287
 11
72.76300621
 21
12.5998876422
  0
LINE
  5
23F
100
AcDbEntity
  8
0
100
AcDbLine
 62
7
  6
BYLAYER
 10
20.8738292749
 20
25.0824947968
 11
22.7398546787
 21
24.5824947968
  0
LINE
  5
240
100
AcDbEntity
  8
0
100
AcDbLine
 62
7
  6
BYLAYER
 10
29.4684420949
 20
23.7574947968
 11
30.2926853208
 21
23.4574947968
  0
LINE
  5
241
100
AcDbEntity
  8
0
100
AcDbLine
 62
7
  6
BYLAYER
 10
24.8738292749
 20
24.5824947968
 11
25.3738292749
 21
24.3824947968
  0
LINE
  5
242
100
AcDbEntity
  8
0
100
AcDbLine
 62
7
  6
BYLAYER
 10
24.7684420949
 20
24.2074947968
 11
24.2488268527
 21
24.5074947968
  0
LINE
  5
243
100
AcDbEntity
  8
0
100
AcDbLine
 62
7
  6
BYLAYER
 10
21.2880573372
 20
123.1574947968
 11
20.7684420949
 21
122.8574947968
  0
LINE
  5
244
100
AcDbEntity
  8
0
100
AcDbLine
 62
7
  6
BYLAYER
 10
24.2488268527
 20
122.1074947968
 11
24.7684420949
 21
122.4074947968
  0
LINE
  5
245
100
AcDbEntity
  8
0
100
AcDbLine
 62
7
  6
BYLAYER
 10
25.3738292749
 20
126.4324947968
 11
24.8738292749
 21
126.2324947968
  0
LINE
  5
246
100
AcDbEntity
  8
0
100
AcDbLine
 62
7
  6
BYLAYER
 10
30.2926853208
 20
127.3574947968
 11
29.4684420949
 21
127.0574947968
  0
LINE
  5
247
100
AcDbEntity
  8
0
100
AcDbLine
 62
7
  6
BYLAYER
 10
67.4738906992
 20
21.4475087717
 11
57.1537648659
 21
21.4475087717
  0
LINE
  5
248
100
AcDbEntity
  8
0
100
AcDbLine
 62
7
  6
BYLAYER
 10
57.1592164549
 20
21.4778485153
 11
67.4792164549
 21
21.4778485153
  0
LINE
  5
249
100
AcDbEntity
  8
0
100
AcDbLine
 62
7
  6
BYLAYER
 10
22.7398546787
 20
23.3824947968
 11
24.8738292749
 21
23.3824947968
  0
LINE
  5
24A
100
AcDbEntity
  8
0
100
AcDbLine
 62
7
  6
BYLAYER
 10
48.7441988691
 20
23.4574947968
 11
30.2926853208
 21
23.4574947968
  0
LINE
  5
24B
100
AcDbEntity
  8
0
100
AcDbLine
 62
7
  6
BYLAYER
 10
21.2880573372
 20
23.4574947968
 11
24.2488268527
 21
23.4574947968
  0
LINE
  5
24C
100
AcDbEntity
  8
0
100
AcDbLine
 62
7
  6
BYLAYER
 10
25.3738292749
 20
23.5824947968
 11
28.8738292749
 21
23.5824947968
  0
LINE
  5
24D
100
AcDbEntity
  8
0
100
AcDbLine
 62
7
  6
BYLAYER
 10
29.0205371208
 20
23.6324947968
 11
25.4450096497
 21
23.6324947968
  0
LINE
  5
24E
100
AcDbEntity
  8
0
100
AcDbLine
 62
7
  6
BYLAYER
 10
20.8738292749
 20
31.0824947968
 11
22.7398546787
 21
30.5824947968
  0
LINE
  5
24F
100
AcDbEntity
  8
0
100
AcDbLine
 62
7
  6
BYLAYER
 10
57.1537648659
 20
21.4475087717
 11
50.7290253723
 21
23.169041102
  0
LINE
  5
250
100
AcDbEntity
  8
0
100
AcDbLine
 62
7
  6
BYLAYER
 10
50.7234350816
 20
23.2023109369
 11
57.1592164549
 21
21.4778485153
  0
LINE
  5
251
100
AcDbEntity
  8
0
100
AcDbLine
 62
7
  6
BYLAYER
 10
24.8738292749
 20
30.5824947968
 11
25.3738292749
 21
30.3824947968
  0
LINE
  5
252
100
AcDbEntity
  8
0
100
AcDbLine
 62
7
  6
BYLAYER
 10
52.9925032428
 20
137.0025201804
 11
51.7752930499
 21
136.1502204277
  0
LINE
  5
253
100
AcDbEntity
  8
0
100
AcDbLine
 62
7
  6
BYLAYER
 10
25.3738292749
 20
122.2324947968
 11
24.8738292749
 21
122.0324947968
  0
LINE
  5
254
100
AcDbEntity
  8
0
100
AcDbLine
 62
7
  6
BYLAYER
 10
25.3738292749
 20
118.0324947968
 11
24.8738292749
 21
117.8324947968
  0
LINE
  5
255
100
AcDbEntity
  8
0
100
AcDbLine
 62
7
  6
BYLAYER
 10
30.2926853208
 20
123.1574947968
 11
29.4684420949
 21
122.8574947968
  0
LINE
  5
256
100
AcDbEntity
  8
0
100
AcDbLine
 62
7
  6
BYLAYER
 10
47.7441988691
 20
126.3074947968
 11
48.5684420949
 21
126.6074947968
  0
LINE
  5
257
100
AcDbEntity
  8
0
100
AcDbLine
 62
7
  6
BYLAYER
 10
25.4450096497
 20
24.3324947968
 11
29.0205371208
 21
24.3324947968
  0
LINE
  5
258
100
AcDbEntity
  8
0
100
AcDbLine
 62
7
  6
BYLAYER
 10
28.8738292749
 20
24.3824947968
 11
25.3738292749
 21
24.3824947968
  0
LINE
  5
259
100
AcDbEntity
  8
0
100
AcDbLine
 62
7
  6
BYLAYER
 10
24.2488268527
 20
24.5074947968
 11
21.2880573372
 21
24.5074947968
  0
LINE
  5
25A
100
AcDbEntity
  8
0
100
AcDbLine
 62
7
  6
BYLAYER
 10
30.2926853208
 20
24.5074947968
 11
48.7441988691
 21
24.5074947968
  0
LINE
  5
25B
100
AcDbEntity
  8
0
100
AcDbLine
 62
7
  6
BYLAYER
 10
24.8738292749
 20
24.5824947968
 11
22.7398546787
 21
24.5824947968
  0
LINE
  5
25C
100
AcDbEntity
  8
0
100
AcDbLine
 62
7
  6
BYLAYER
 10
80.0682130665
 20
25.1416546969
 11
81.7792164549
 21
25.1416546969
  0
LINE
  5
25D
100
AcDbEntity
  8
0
100
AcDbLine
 62
7
  6
BYLAYER
 10
49.5684420949
 20
24.2074947968
 11
48.7441988691
 21
24.5074947968
  0
LINE
  5
25E
100
AcDbEntity
  8
0
100
AcDbLine
 62
7
  6
BYLAYER
 10
24.8738292749
 20
36.5824947968
 11
25.3738292749
 21
36.3824947968
  0
LINE
  5
25F
100
AcDbEntity
  8
0
100
AcDbLine
 62
7
  6
BYLAYER
 10
25.3738292749
 20
113.8324947968
 11
24.8738292749
 21
113.6324947968
  0
LINE
  5
260
100
AcDbEntity
  8
0
100
AcDbLine
 62
7
  6
BYLAYER
 10
47.2441988691
 20
122.1074947968
 11
48.0684420949
 21
122.4074947968
  0
LINE
  5
261
100
AcDbEntity
  8
0
100
AcDbLine
 62
7
  6
BYLAYER
 10
22.7398546787
 20
29.3824947968
 11
24.8738292749
 21
29.3824947968
  0
LINE
  5
262
100
AcDbEntity
  8
0
100
AcDbLine
 62
7
  6
BYLAYER
 10
25.3738292749
 20
29.5824947968
 11
28.8738292749
 21
29.5824947968
  0
LINE
  5
263
100
AcDbEntity
  8
0
100
AcDbLine
 62
7
  6
BYLAYER
 10
29.0205371208
 20
29.6277880796
 11
25.4450096497
 21
29.6277880796
  0
LINE
  5
264
100
AcDbEntity
  8
0
100
AcDbLine
 62
7
  6
BYLAYER
 10
25.4450096497
 20
30.3277880796
 11
29.0205371208
 21
30.3277880796
  0
LINE
  5
265
100
AcDbEntity
  8
0
100
AcDbLine
 62
7
  6
BYLAYER
 10
28.8738292749
 20
30.3824947968
 11
25.3738292749
 21
30.3824947968
  0
LINE
  5
266
100
AcDbEntity
  8
0
100
AcDbLine
 62
7
  6
BYLAYER
 10
24.8738292749
 20
30.5824947968
 11
22.7398546787
 21
30.5824947968
  0
LINE
  5
267
100
AcDbEntity
  8
0
100
AcDbLine
 62
7
  6
BYLAYER
 10
20.8738292749
 20
37.0824947968
 11
22.7398546787
 21
36.5824947968
  0
LINE
  5
268
100
AcDbEntity
  8
0
100
AcDbLine
 62
7
  6
BYLAYER
 10
24.8738292749
 20
42.5824947968
 11
25.3738292749
 21
42.3824947968
  0
LINE
  5
269
100
AcDbEntity
  8
0
100
AcDbLine
 62
7
  6
BYLAYER
 10
25.3738292749
 20
109.6324947968
 11
24.8738292749
 21
109.4324947968
  0
LINE
  5
26A
100
AcDbEntity
  8
0
100
AcDbLine
 62
7
  6
BYLAYER
 10
22.7398546787
 20
23.3824947968
 11
20.8738292749
 21
22.8824947968
  0
LINE
  5
26B
100
AcDbEntity
  8
0
100
AcDbLine
 62
7
  6
BYLAYER
 10
22.7398546787
 20
35.3824947968
 11
24.8738292749
 21
35.3824947968
  0
LINE
  5
26C
100
AcDbEntity
  8
0
100
AcDbLine
 62
7
  6
BYLAYER
 10
25.3738292749
 20
35.5824947968
 11
28.8738292749
 21
35.5824947968
  0
LINE
  5
26D
100
AcDbEntity
  8
0
100
AcDbLine
 62
7
  6
BYLAYER
 10
29.0205371208
 20
35.6230813623
 11
25.4450096497
 21
35.6230813623
  0
LINE
  5
26E
100
AcDbEntity
  8
0
100
AcDbLine
 62
7
  6
BYLAYER
 10
25.4450096497
 20
36.3230813623
 11
29.0205371208
 21
36.3230813623
  0
LINE
  5
26F
100
AcDbEntity
  8
0
100
AcDbLine
 62
7
  6
BYLAYER
 10
28.8738292749
 20
36.3824947968
 11
25.3738292749
 21
36.3824947968
  0
LINE
  5
270
100
AcDbEntity
  8
0
100
AcDbLine
 62
7
  6
BYLAYER
 10
24.8738292749
 20
36.5824947968
 11
22.7398546787
 21
36.5824947968
  0
LINE
  5
271
100
AcDbEntity
  8
0
100
AcDbLine
 62
7
  6
BYLAYER
 10
20.8738292749
 20
43.0824947968
 11
22.7398546787
 21
42.5824947968
  0
LINE
  5
272
100
AcDbEntity
  8
0
100
AcDbLine
 62
7
  6
BYLAYER
 10
67.8792164549
 20
16.1516546969
 11
69.2959212251
 21
15.1596673373
  0
LINE
  5
273
100
AcDbEntity
  8
0
100
AcDbLine
 62
7
  6
BYLAYER
 10
20.7684420949
 20
127.0574947968
 11
20.7684420949
 21
126.6074947968
  0
LINE
  5
274
100
AcDbEntity
  8
0
100
AcDbLine
 62
7
  6
BYLAYER
 10
20.7684420949
 20
122.8574947968
 11
20.7684420949
 21
122.4074947968
  0
LINE
  5
275
100
AcDbEntity
  8
0
100
AcDbLine
 62
7
  6
BYLAYER
 10
20.7684420949
 20
24.2074947968
 11
20.7684420949
 21
23.7574947968
  0
LINE
  5
276
100
AcDbEntity
  8
0
100
AcDbLine
 62
7
  6
BYLAYER
 10
20.8738292749
 20
14.3216546969
 11
20.8738292749
 21
23.6966494801
  0
LINE
  5
277
100
AcDbEntity
  8
0
100
AcDbLine
 62
7
  6
BYLAYER
 10
20.8738292749
 20
24.2683401135
 11
20.8738292749
 21
57.8343618058
  0
LINE
  5
278
100
AcDbEntity
  8
0
100
AcDbLine
 62
7
  6
BYLAYER
 10
20.8738292749
 20
95.6270196272
 11
20.8738292749
 21
122.3466494801
  0
LINE
  5
279
100
AcDbEntity
  8
0
100
AcDbLine
 62
7
  6
BYLAYER
 10
20.8738292749
 20
122.9183401135
 11
20.8738292749
 21
126.5466494801
  0
LINE
  5
27A
100
AcDbEntity
  8
0
100
AcDbLine
 62
7
  6
BYLAYER
 10
20.8738292749
 20
127.1183401135
 11
20.8738292749
 21
138.3513796284
  0
LINE
  5
27B
100
AcDbEntity
  8
0
100
AcDbLine
 62
7
  6
BYLAYER
 10
21.8388552755
 20
72.2309024403
 11
21.8388552755
 21
81.2305104959
  0
LINE
  5
27C
100
AcDbEntity
  8
0
100
AcDbLine
 62
7
  6
BYLAYER
 10
25.3738292749
 20
105.4324947968
 11
24.8738292749
 21
105.2324947968
  0
LINE
  5
27D
100
AcDbEntity
  8
0
100
AcDbLine
 62
7
  6
BYLAYER
 10
22.7398546787
 20
29.3824947968
 11
20.8738292749
 21
28.8824947968
  0
LINE
  5
27E
100
AcDbEntity
  8
0
100
AcDbLine
 62
7
  6
BYLAYER
 10
22.7398546787
 20
41.3824947968
 11
24.8738292749
 21
41.3824947968
  0
LINE
  5
27F
100
AcDbEntity
  8
0
100
AcDbLine
 62
7
  6
BYLAYER
 10
25.3738292749
 20
41.5824947968
 11
28.8738292749
 21
41.5824947968
  0
LINE
  5
280
100
AcDbEntity
  8
0
100
AcDbLine
 62
7
  6
BYLAYER
 10
29.0205371208
 20
41.6153635689
 11
25.4450096497
 21
41.6153635689
  0
LINE
  5
281
100
AcDbEntity
  8
0
100
AcDbLine
 62
7
  6
BYLAYER
 10
25.4450096497
 20
42.3153635689
 11
29.0205371208
 21
42.3153635689
  0
LINE
  5
282
100
AcDbEntity
  8
0
100
AcDbLine
 62
7
  6
BYLAYER
 10
28.8738292749
 20
42.3824947968
 11
25.3738292749
 21
42.3824947968
  0
LINE
  5
283
100
AcDbEntity
  8
0
100
AcDbLine
 62
7
  6
BYLAYER
 10
24.8738292749
 20
42.5824947968
 11
22.7398546787
 21
42.5824947968
  0
LINE
  5
284
100
AcDbEntity
  8
0
100
AcDbLine
 62
7
  6
BYLAYER
 10
20.8738292749
 20
49.0824947968
 11
22.7398546787
 21
48.5824947968
  0
LINE
  5
285
100
AcDbEntity
  8
0
100
AcDbLine
 62
7
  6
BYLAYER
 10
24.8738292749
 20
48.5824947968
 11
25.3738292749
 21
48.3824947968
  0
LINE
  5
286
100
AcDbEntity
  8
0
100
AcDbLine
 62
7
  6
BYLAYER
 10
24.7684420949
 20
23.7574947968
 11
24.7684420949
 21
24.2074947968
  0
LINE
  5
287
100
AcDbEntity
  8
0
100
AcDbLine
 62
7
  6
BYLAYER
 10
24.7684420949
 20
122.4074947968
 11
24.7684420949
 21
122.8574947968
  0
LINE
  5
288
100
AcDbEntity
  8
0
100
AcDbLine
 62
7
  6
BYLAYER
 10
24.7684420949
 20
126.6074947968
 11
24.7684420949
 21
127.0574947968
  0
LINE
  5
289
100
AcDbEntity
  8
0
100
AcDbLine
 62
7
  6
BYLAYER
 10
25.4450096497
 20
23.6324947968
 11
25.4450096497
 21
24.3324947968
  0
LINE
  5
28A
100
AcDbEntity
  8
0
100
AcDbLine
 62
7
  6
BYLAYER
 10
25.4450096497
 20
29.6277880796
 11
25.4450096497
 21
30.3277880796
  0
LINE
  5
28B
100
AcDbEntity
  8
0
100
AcDbLine
 62
7
  6
BYLAYER
 10
25.4450096497
 20
35.6230813623
 11
25.4450096497
 21
36.3230813623
  0
LINE
  5
28C
100
AcDbEntity
  8
0
100
AcDbLine
 62
7
  6
BYLAYER
 10
25.4450096497
 20
41.6153635689
 11
25.4450096497
 21
42.3153635689
  0
LINE
  5
28D
100
AcDbEntity
  8
0
100
AcDbLine
 62
7
  6
BYLAYER
 10
25.4450096497
 20
47.6368764204
 11
25.4450096497
 21
48.3368764204
  0
LINE
  5
28E
100
AcDbEntity
  8
0
100
AcDbLine
 62
7
  6
BYLAYER
 10
25.4450096497
 20
105.4740834742
 11
25.4450096497
 21
106.1740834742
  0
LINE
  5
28F
100
AcDbEntity
  8
0
100
AcDbLine
 62
7
  6
BYLAYER
 10
25.4450096497
 20
109.664881035
 11
25.4450096497
 21
110.364881035
  0
LINE
  5
290
100
AcDbEntity
  8
0
100
AcDbLine
 62
7
  6
BYLAYER
 10
25.4450096497
 20
113.8793554181
 11
25.4450096497
 21
114.5793554181
  0
LINE
  5
291
100
AcDbEntity
  8
0
100
AcDbLine
 62
7
  6
BYLAYER
 10
25.4450096497
 20
118.0701529789
 11
25.4450096497
 21
118.7701529789
  0
LINE
  5
292
100
AcDbEntity
  8
0
100
AcDbLine
 62
7
  6
BYLAYER
 10
25.4450096497
 20
122.2846273621
 11
25.4450096497
 21
122.9846273621
  0
LINE
  5
293
100
AcDbEntity
  8
0
100
AcDbLine
 62
7
  6
BYLAYER
 10
25.4450096497
 20
126.4754249229
 11
25.4450096497
 21
127.1754249229
  0
LINE
  5
294
100
AcDbEntity
  8
0
100
AcDbLine
 62
7
  6
BYLAYER
 10
22.7398546787
 20
35.3824947968
 11
20.8738292749
 21
34.8824947968
  0
LINE
  5
295
100
AcDbEntity
  8
0
100
AcDbLine
 62
7
  6
BYLAYER
 10
22.7398546787
 20
47.3824947968
 11
24.8738292749
 21
47.3824947968
  0
LINE
  5
296
100
AcDbEntity
  8
0
100
AcDbLine
 62
7
  6
BYLAYER
 10
25.3738292749
 20
47.5824947968
 11
28.8738292749
 21
47.5824947968
  0
LINE
  5
297
100
AcDbEntity
  8
0
100
AcDbLine
 62
7
  6
BYLAYER
 10
29.0205371208
 20
47.6368764204
 11
25.4450096497
 21
47.6368764204
  0
LINE
  5
298
100
AcDbEntity
  8
0
100
AcDbLine
 62
7
  6
BYLAYER
 10
25.4450096497
 20
48.3368764204
 11
29.0205371208
 21
48.3368764204
  0
LINE
  5
299
100
AcDbEntity
  8
0
100
AcDbLine
 62
7
  6
BYLAYER
 10
28.8738292749
 20
48.3824947968
 11
25.3738292749
 21
48.3824947968
  0
LINE
  5
29A
100
AcDbEntity
  8
0
100
AcDbLine
 62
7
  6
BYLAYER
 10
27.3387666644
 20
59.0306635515
 11
27.3387666644
 21
66.7307793848
  0
LINE
  5
29B
100
AcDbEntity
  8
0
100
AcDbLine
 62
7
  6
BYLAYER
 10
27.3387666644
 20
86.7305982737
 11
27.3387666644
 21
94.4307493848
  0
LINE
  5
29C
100
AcDbEntity
  8
0
100
AcDbLine
 62
7
  6
BYLAYER
 10
28.8738292749
 20
23.5824947968
 11
28.8738292749
 21
23.6324947968
  0
LINE
  5
29D
100
AcDbEntity
  8
0
100
AcDbLine
 62
7
  6
BYLAYER
 10
28.8738292749
 20
24.3324947968
 11
28.8738292749
 21
24.3824947968
  0
LINE
  5
29E
100
AcDbEntity
  8
0
100
AcDbLine
 62
7
  6
BYLAYER
 10
28.8738292749
 20
29.5824947968
 11
28.8738292749
 21
29.6277880796
  0
LINE
  5
29F
100
AcDbEntity
  8
0
100
AcDbLine
 62
7
  6
BYLAYER
 10
28.8738292749
 20
30.3277880796
 11
28.8738292749
 21
30.3824947968
  0
LINE
  5
2A0
100
AcDbEntity
  8
0
100
AcDbLine
 62
7
  6
BYLAYER
 10
28.8738292749
 20
35.5824947968
 11
28.8738292749
 21
35.6230813623
  0
LINE
  5
2A1
100
AcDbEntity
  8
0
100
AcDbLine
 62
7
  6
BYLAYER
 10
28.8738292749
 20
36.3230813623
 11
28.8738292749
 21
36.3824947968
  0
LINE
  5
2A2
100
AcDbEntity
  8
0
100
AcDbLine
 62
7
  6
BYLAYER
 10
28.8738292749
 20
41.5824947968
 11
28.8738292749
 21
41.6153635689
  0
LINE
  5
2A3
100
AcDbEntity
  8
0
100
AcDbLine
 62
7
  6
BYLAYER
 10
28.8738292749
 20
42.3153635689
 11
28.8738292749
 21
42.3824947968
  0
LINE
  5
2A4
100
AcDbEntity
  8
0
100
AcDbLine
 62
7
  6
BYLAYER
 10
28.8738292749
 20
47.5824947968
 11
28.8738292749
 21
47.6368764204
  0
LINE
  5
2A5
100
AcDbEntity
  8
0
100
AcDbLine
 62
7
  6
BYLAYER
 10
28.8738292749
 20
48.3368764204
 11
28.8738292749
 21
48.3824947968
  0
LINE
  5
2A6
100
AcDbEntity
  8
0
100
AcDbLine
 62
7
  6
BYLAYER
 10
28.8738292749
 20
105.4324947968
 11
28.8738292749
 21
105.4740834742
  0
LINE
  5
2A7
100
AcDbEntity
  8
0
100
AcDbLine
 62
7
  6
BYLAYER
 10
28.8738292749
 20
106.1740834742
 11
28.8738292749
 21
106.2324947968
  0
LINE
  5
2A8
100
AcDbEntity
  8
0
100
AcDbLine
 62
7
  6
BYLAYER
 10
28.8738292749
 20
109.6324947968
 11
28.8738292749
 21
109.664881035
  0
LINE
  5
2A9
100
AcDbEntity
  8
0
100
AcDbLine
 62
7
  6
BYLAYER
 10
28.8738292749
 20
110.364881035
 11
28.8738292749
 21
110.4324947968
  0
LINE
  5
2AA
100
AcDbEntity
  8
0
100
AcDbLine
 62
7
  6
BYLAYER
 10
28.8738292749
 20
113.8324947968
 11
28.8738292749
 21
113.8793554181
  0
LINE
  5
2AB
100
AcDbEntity
  8
0
100
AcDbLine
 62
7
  6
BYLAYER
 10
28.8738292749
 20
114.5793554181
 11
28.8738292749
 21
114.6324947968
  0
LINE
  5
2AC
100
AcDbEntity
  8
0
100
AcDbLine
 62
7
  6
BYLAYER
 10
28.8738292749
 20
118.0324947968
 11
28.8738292749
 21
118.0701529789
  0
LINE
  5
2AD
100
AcDbEntity
  8
0
100
AcDbLine
 62
7
  6
BYLAYER
 10
28.8738292749
 20
118.7701529789
 11
28.8738292749
 21
118.8324947968
  0
LINE
  5
2AE
100
AcDbEntity
  8
0
100
AcDbLine
 62
7
  6
BYLAYER
 10
28.8738292749
 20
122.2324947968
 11
28.8738292749
 21
122.2846273621
  0
LINE
  5
2AF
100
AcDbEntity
  8
0
100
AcDbLine
 62
7
  6
BYLAYER
 10
28.8738292749
 20
122.9846273621
 11
28.8738292749
 21
123.0324947968
  0
LINE
  5
2B0
100
AcDbEntity
  8
0
100
AcDbLine
 62
7
  6
BYLAYER
 10
28.8738292749
 20
126.4324947968
 11
28.8738292749
 21
126.4754249229
  0
LINE
  5
2B1
100
AcDbEntity
  8
0
100
AcDbLine
 62
7
  6
BYLAYER
 10
28.8738292749
 20
127.1754249229
 11
28.8738292749
 21
127.2324947968
  0
LINE
  5
2B2
100
AcDbEntity
  8
0
100
AcDbLine
 62
7
  6
BYLAYER
 10
29.0205371208
 20
127.1754249229
 11
29.0205371208
 21
126.4754249229
  0
LINE
  5
2B3
100
AcDbEntity
  8
0
100
AcDbLine
 62
7
  6
BYLAYER
 10
29.0205371208
 20
122.9846273621
 11
29.0205371208
 21
122.2846273621
  0
LINE
  5
2B4
100
AcDbEntity
  8
0
100
AcDbLine
 62
7
  6
BYLAYER
 10
29.0205371208
 20
118.7701529789
 11
29.0205371208
 21
118.0701529789
  0
LINE
  5
2B5
100
AcDbEntity
  8
0
100
AcDbLine
 62
7
  6
BYLAYER
 10
29.0205371208
 20
114.5793554181
 11
29.0205371208
 21
113.8793554181
  0
LINE
  5
2B6
100
AcDbEntity
  8
0
100
AcDbLine
 62
7
  6
BYLAYER
 10
29.0205371208
 20
110.364881035
 11
29.0205371208
 21
109.664881035
  0
LINE
  5
2B7
100
AcDbEntity
  8
0
100
AcDbLine
 62
7
  6
BYLAYER
 10
29.0205371208
 20
106.1740834742
 11
29.0205371208
 21
105.4740834742
  0
LINE
  5
2B8
100
AcDbEntity
  8
0
100
AcDbLine
 62
7
  6
BYLAYER
 10
29.0205371208
 20
48.3368764204
 11
29.0205371208
 21
47.6368764204
  0
LINE
  5
2B9
100
AcDbEntity
  8
0
100
AcDbLine
 62
7
  6
BYLAYER
 10
29.0205371208
 20
42.3153635689
 11
29.0205371208
 21
41.6153635689
  0
LINE
  5
2BA
100
AcDbEntity
  8
0
100
AcDbLine
 62
7
  6
BYLAYER
 10
29.0205371208
 20
36.3230813623
 11
29.0205371208
 21
35.6230813623
  0
LINE
  5
2BB
100
AcDbEntity
  8
0
100
AcDbLine
 62
7
  6
BYLAYER
 10
29.0205371208
 20
30.3277880796
 11
29.0205371208
 21
29.6277880796
  0
LINE
  5
2BC
100
AcDbEntity
  8
0
100
AcDbLine
 62
7
  6
BYLAYER
 10
29.0205371208
 20
24.3324947968
 11
29.0205371208
 21
23.6324947968
  0
LINE
  5
2BD
100
AcDbEntity
  8
0
100
AcDbLine
 62
7
  6
BYLAYER
 10
29.4684420949
 20
127.0574947968
 11
29.4684420949
 21
126.6074947968
  0
LINE
  5
2BE
100
AcDbEntity
  8
0
100
AcDbLine
 62
7
  6
BYLAYER
 10
29.4684420949
 20
23.7574947968
 11
29.4684420949
 21
24.2074947968
  0
LINE
  5
2BF
100
AcDbEntity
  8
0
100
AcDbLine
 62
7
  6
BYLAYER
 10
29.4684420949
 20
122.4074947968
 11
29.4684420949
 21
122.8574947968
  0
LINE
  5
2C0
100
AcDbEntity
  8
0
100
AcDbLine
 62
7
  6
BYLAYER
 10
27.3387666644
 20
86.7305982737
 11
21.8388552755
 21
81.2305104959
  0
LINE
  5
2C1
100
AcDbEntity
  8
0
100
AcDbLine
 62
7
  6
BYLAYER
 10
22.7398546787
 20
41.3824947968
 11
20.8738292749
 21
40.8824947968
  0
LINE
  5
2C2
100
AcDbEntity
  8
0
100
AcDbLine
 62
7
  6
BYLAYER
 10
24.8738292749
 20
48.5824947968
 11
22.7398546787
 21
48.5824947968
  0
LINE
  5
2C3
100
AcDbEntity
  8
0
100
AcDbLine
 62
7
  6
BYLAYER
 10
80.0682130665
 20
50.5416546969
 11
81.7792164549
 21
50.5416546969
  0
LINE
  5
2C4
100
AcDbEntity
  8
0
100
AcDbLine
 62
7
  6
BYLAYER
 10
21.8388552755
 20
72.2309024403
 11
27.3387666644
 21
66.7307793848
  0
LINE
  5
2C5
100
AcDbEntity
  8
0
100
AcDbLine
 62
7
  6
BYLAYER
 10
22.7398546787
 20
47.3824947968
 11
20.8738292749
 21
46.8824947968
  0
LINE
  5
2C6
100
AcDbEntity
  8
0
100
AcDbLine
 62
7
  6
BYLAYER
 10
49.3873124319
 20
57.9843528976
 11
45.1101602403
 21
57.9470295984
  0
LINE
  5
2C7
100
AcDbEntity
  8
0
100
AcDbLine
 62
7
  6
BYLAYER
 10
25.3388694421
 20
59.0306635515
 11
27.3387666644
 21
59.0306635515
  0
LINE
  5
2C8
100
AcDbEntity
  8
0
100
AcDbLine
 62
7
  6
BYLAYER
 10
45.0206098684
 20
59.1824947968
 11
45.9684420949
 21
59.1824947968
  0
LINE
  5
2C9
100
AcDbEntity
  8
0
100
AcDbLine
 62
7
  6
BYLAYER
 10
80.0682130665
 20
60.6416546969
 11
81.7792164549
 21
60.6416546969
  0
LINE
  5
2CA
100
AcDbEntity
  8
0
100
AcDbLine
 62
7
  6
BYLAYER
 10
45.9684420949
 20
61.1824948003
 11
44.8774059186
 21
61.1824948003
  0
LINE
  5
2CB
100
AcDbEntity
  8
0
100
AcDbLine
 62
7
  6
BYLAYER
 10
44.6134320881
 20
65.788394605
 11
44.6002724153
 21
66.1508757886
  0
LINE
  5
2CC
100
AcDbEntity
  8
0
100
AcDbLine
 62
7
  6
BYLAYER
 10
44.5165881003
 20
68.1509097153
 11
44.5097506992
 21
68.3474093272
  0
LINE
  5
2CD
100
AcDbEntity
  8
0
100
AcDbLine
 62
7
  6
BYLAYER
 10
45.9684420949
 20
59.1824947968
 11
45.9684420949
 21
61.1824948003
  0
LINE
  5
2CE
100
AcDbEntity
  8
0
100
AcDbLine
 62
7
  6
BYLAYER
 10
45.9684420949
 20
66.1508757886
 11
45.9684420949
 21
68.1508757921
  0
LINE
  5
2CF
100
AcDbEntity
  8
0
100
AcDbLine
 62
7
  6
BYLAYER
 10
45.9684420949
 20
87.2193401935
 11
45.9684420949
 21
89.2193401971
  0
LINE
  5
2D0
100
AcDbEntity
  8
0
100
AcDbLine
 62
7
  6
BYLAYER
 10
45.9684420949
 20
94.1877211854
 11
45.9684420949
 21
96.1877211889
  0
LINE
  5
2D1
100
AcDbEntity
  8
0
100
AcDbLine
 62
7
  6
BYLAYER
 10
45.0698912548
 20
93.792529605
 11
45.1034057325
 21
94.1877211854
  0
LINE
  5
2D2
100
AcDbEntity
  8
0
100
AcDbLine
 62
7
  6
BYLAYER
 10
25.3388694421
 20
59.0306635515
 11
20.8738292749
 21
57.8343618058
  0
LINE
  5
2D3
100
AcDbEntity
  8
0
100
AcDbLine
 62
7
  6
BYLAYER
 10
44.6499913074
 20
64.9430140676
 11
49.3873553275
 21
64.9843532719
  0
LINE
  5
2D4
100
AcDbEntity
  8
0
100
AcDbLine
 62
7
  6
BYLAYER
 10
44.6002724153
 20
66.1508757886
 11
45.9684420949
 21
66.1508757886
  0
LINE
  5
2D5
100
AcDbEntity
  8
0
100
AcDbLine
 62
7
  6
BYLAYER
 10
48.0684420949
 20
122.8574947968
 11
48.0684420949
 21
122.4074947968
  0
LINE
  5
2D6
100
AcDbEntity
  8
0
100
AcDbLine
 62
7
  6
BYLAYER
 10
48.5684420949
 20
126.6074947968
 11
48.5684420949
 21
127.0574947968
  0
LINE
  5
2D7
100
AcDbEntity
  8
0
100
AcDbLine
 62
7
  6
BYLAYER
 10
49.4110922596
 20
136.5474947968
 11
49.4110922596
 21
142.0355777213
  0
LINE
  5
2D8
100
AcDbEntity
  8
0
100
AcDbLine
 62
7
  6
BYLAYER
 10
49.5684420949
 20
24.2074947968
 11
49.5684420949
 21
23.7574947968
  0
LINE
  5
2D9
100
AcDbEntity
  8
0
100
AcDbLine
 62
7
  6
BYLAYER
 10
50.5380228281
 20
142.0355777213
 11
50.5380228281
 21
136.5474947968
  0
LINE
  5
2DA
100
AcDbEntity
  8
0
100
AcDbLine
 62
7
  6
BYLAYER
 10
51.1737581992
 20
136.5474947968
 11
51.1737581992
 21
136.1502204277
  0
LINE
  5
2DB
100
AcDbEntity
  8
0
100
AcDbLine
 62
7
  6
BYLAYER
 10
51.1737581992
 20
130.8474607161
 11
51.1737581992
 21
135.3824947968
  0
LINE
  5
2DC
100
AcDbEntity
  8
0
100
AcDbLine
 62
7
  6
BYLAYER
 10
51.1792164549
 20
136.1502204277
 11
51.1792164549
 21
135.3824947968
  0
LINE
  5
2DD
100
AcDbEntity
  8
0
100
AcDbLine
 62
7
  6
BYLAYER
 10
51.1792164549
 20
130.8474607161
 11
51.1792164549
 21
130.7516546969
  0
LINE
  5
2DE
100
AcDbEntity
  8
0
100
AcDbLine
 62
7
  6
BYLAYER
 10
51.3700533016
 20
95.0190362439
 11
51.3700533016
 21
94.9842707467
  0
LINE
  5
2DF
100
AcDbEntity
  8
0
100
AcDbLine
 62
7
  6
BYLAYER
 10
51.3700532579
 20
67.0016553473
 11
51.3700532579
 21
66.9842765517
  0
LINE
  5
2E0
100
AcDbEntity
  8
0
100
AcDbLine
 62
7
  6
BYLAYER
 10
51.3700533178
 20
60.0190405502
 11
51.3700533178
 21
59.9842701801
  0
LINE
  5
2E1
100
AcDbEntity
  8
0
100
AcDbLine
 62
7
  6
BYLAYER
 10
51.3700534695
 20
88.0190512376
 11
51.3700534694
 21
87.9842488108
  0
LINE
  5
2E2
100
AcDbEntity
  8
0
100
AcDbLine
 62
7
  6
BYLAYER
 10
53.0617311302
 20
138.9915941646
 11
52.9925032428
 21
137.0025201804
  0
LINE
  5
2E3
100
AcDbEntity
  8
0
100
AcDbLine
 62
7
  6
BYLAYER
 10
45.9684420949
 20
68.1508757921
 11
44.5192946446
 21
68.1508757922
  0
LINE
  5
2E4
100
AcDbEntity
  8
0
100
AcDbLine
 62
7
  6
BYLAYER
 10
49.3699009273
 20
69.0016546969
 11
44.5004112503
 21
69.0016546969
  0
LINE
  5
2E5
100
AcDbEntity
  8
0
100
AcDbLine
 62
7
  6
BYLAYER
 10
57.4948909943
 20
136.1502204277
 11
57.3810653295
 21
139.4097609952
  0
LINE
  5
2E6
100
AcDbEntity
  8
0
100
AcDbLine
 62
7
  6
BYLAYER
 10
58.1825776902
 20
139.3190237468
 11
58.2932347405
 21
136.1502204277
  0
LINE
  5
2E7
100
AcDbEntity
  8
0
100
AcDbLine
 62
7
  6
BYLAYER
 10
80.0682130665
 20
86.0416546969
 11
81.7792164549
 21
86.0416546969
  0
LINE
  5
2E8
100
AcDbEntity
  8
0
100
AcDbLine
 62
7
  6
BYLAYER
 10
44.6476562961
 20
87.2193401936
 11
45.9684420949
 21
87.2193401935
  0
LINE
  5
2E9
100
AcDbEntity
  8
0
100
AcDbLine
 62
7
  6
BYLAYER
 10
20.8738292749
 20
95.6270196272
 11
25.3388694421
 21
94.4307493848
  0
LINE
  5
2EA
100
AcDbEntity
  8
0
100
AcDbLine
 62
7
  6
BYLAYER
 10
69.2959212251
 20
15.1596673373
 11
69.3545845656
 21
13.4741367137
  0
LINE
  5
2EB
100
AcDbEntity
  8
0
100
AcDbLine
 62
7
  6
BYLAYER
 10
67.4738906992
 20
16.1503017444
 11
67.4738906992
 21
14.9155640824
  0
LINE
  5
2EC
100
AcDbEntity
  8
0
100
AcDbLine
 62
7
  6
BYLAYER
 10
67.4738906992
 20
17.2699120133
 11
67.4738906992
 21
21.4475087717
  0
LINE
  5
2ED
100
AcDbEntity
  8
0
100
AcDbLine
 62
7
  6
BYLAYER
 10
67.4792164549
 20
21.4778485153
 11
67.4792164549
 21
21.4475087717
  0
LINE
  5
2EE
100
AcDbEntity
  8
0
100
AcDbLine
 62
7
  6
BYLAYER
 10
67.4792164549
 20
17.2699120133
 11
67.4792164549
 21
16.1503017444
  0
LINE
  5
2EF
100
AcDbEntity
  8
0
100
AcDbLine
 62
7
  6
BYLAYER
 10
45.9684420949
 20
89.2193401971
 11
44.7555985974
 21
89.2193401971
  0
LINE
  5
2F0
100
AcDbEntity
  8
0
100
AcDbLine
 62
7
  6
BYLAYER
 10
49.3873553275
 20
90.0189561218
 11
44.8127517176
 21
90.0588750457
  0
LINE
  5
2F1
100
AcDbEntity
  8
0
100
AcDbLine
 62
7
  6
BYLAYER
 10
75.6792164549
 20
16.1503017444
 11
75.6792164549
 21
136.1502204277
  0
LINE
  5
2F2
100
AcDbEntity
  8
0
100
AcDbLine
 62
7
  6
BYLAYER
 10
75.7792164549
 20
16.1656230047
 11
75.7792164549
 21
136.150610102
  0
LINE
  5
2F3
100
AcDbEntity
  8
0
100
AcDbLine
 62
7
  6
BYLAYER
 10
73.0147651946
 20
13.1197843848
 11
73.1206404389
 21
16.1516546969
  0
LINE
  5
2F4
100
AcDbEntity
  8
0
100
AcDbLine
 62
7
  6
BYLAYER
 10
73.6939624692
 20
13.1966746423
 11
73.7971526466
 21
16.1516546969
  0
LINE
  5
2F5
100
AcDbEntity
  8
0
100
AcDbLine
 62
7
  6
BYLAYER
 10
25.3738292749
 20
47.5824947968
 11
24.8738292749
 21
47.3824947968
  0
LINE
  5
2F6
100
AcDbEntity
  8
0
100
AcDbLine
 62
7
  6
BYLAYER
 10
45.1034057325
 20
94.1877211854
 11
45.9684420949
 21
94.1877211854
  0
LINE
  5
2F7
100
AcDbEntity
  8
0
100
AcDbLine
 62
7
  6
BYLAYER
 10
27.3387666644
 20
94.4307493848
 11
25.3388694421
 21
94.4307493848
  0
LINE
  5
2F8
100
AcDbEntity
  8
0
100
AcDbLine
 62
7
  6
BYLAYER
 10
80.0682130665
 20
94.9363766684
 11
91.2890541585
 21
94.9363766684
  0
LINE
  5
2F9
100
AcDbEntity
  8
0
100
AcDbLine
 62
7
  6
BYLAYER
 10
45.9684420949
 20
96.1877211889
 11
45.2737481997
 21
96.1877211892
  0
LINE
  5
2FA
100
AcDbEntity
  8
0
100
AcDbLine
 62
7
  6
BYLAYER
 10
45.3659892651
 20
97.0540473793
 11
49.3873410753
 21
97.0189562462
  0
LINE
  5
2FB
100
AcDbEntity
  8
0
100
AcDbLine
 62
7
  6
BYLAYER
 10
20.8738292749
 20
106.9324947968
 11
22.7398546787
 21
106.4324947968
  0
LINE
  5
2FC
100
AcDbEntity
  8
0
100
AcDbLine
 62
7
  6
BYLAYER
 10
24.8738292749
 20
106.4324947968
 11
25.3738292749
 21
106.2324947968
  0
LINE
  5
2FD
100
AcDbEntity
  8
0
100
AcDbLine
 62
7
  6
BYLAYER
 10
24.8738292749
 20
110.6324947968
 11
25.3738292749
 21
110.4324947968
  0
LINE
  5
2FE
100
AcDbEntity
  8
0
100
AcDbLine
 62
7
  6
BYLAYER
 10
78.2792164549
 20
16.0783210809
 11
78.2792164549
 21
136.150610102
  0
LINE
  5
2FF
100
AcDbEntity
  8
0
100
AcDbLine
 62
7
  6
BYLAYER
 10
80.0682130665
 20
94.9363766684
 11
80.0682130665
 21
16.0158479426
  0
LINE
  5
300
100
AcDbEntity
  8
0
100
AcDbLine
 62
7
  6
BYLAYER
 10
25.3738292749
 20
41.5824947968
 11
24.8738292749
 21
41.3824947968
  0
LINE
  5
301
100
AcDbEntity
  8
0
100
AcDbLine
 62
7
  6
BYLAYER
 10
20.8738292749
 20
111.1324947968
 11
22.7398546787
 21
110.6324947968
  0
LINE
  5
302
100
AcDbEntity
  8
0
100
AcDbLine
 62
7
  6
BYLAYER
 10
24.8738292749
 20
114.8324947968
 11
25.3738292749
 21
114.6324947968
  0
LINE
  5
303
100
AcDbEntity
  8
0
100
AcDbLine
 62
7
  6
BYLAYER
 10
20.7684420949
 20
122.4074947968
 11
21.2880573372
 21
122.1074947968
  0
LINE
  5
304
100
AcDbEntity
  8
0
100
AcDbLine
 62
7
  6
BYLAYER
 10
24.7684420949
 20
122.8574947968
 11
24.2488268527
 21
123.1574947968
  0
LINE
  5
305
100
AcDbEntity
  8
0
100
AcDbLine
 62
7
  6
BYLAYER
 10
20.7684420949
 20
126.6074947968
 11
21.2880573372
 21
126.3074947968
  0
LINE
  5
306
100
AcDbEntity
  8
0
100
AcDbLine
 62
7
  6
BYLAYER
 10
81.5775779888
 20
15.9631397581
 11
81.5775779888
 21
25.1416546969
  0
LINE
  5
307
100
AcDbEntity
  8
0
100
AcDbLine
 62
7
  6
BYLAYER
 10
81.5775779888
 20
50.5416546969
 11
81.5775779888
 21
60.6416546969
  0
LINE
  5
308
100
AcDbEntity
  8
0
100
AcDbLine
 62
7
  6
BYLAYER
 10
81.5775779888
 20
86.0416546969
 11
81.5775779888
 21
94.9363766684
  0
LINE
  5
309
100
AcDbEntity
  8
0
100
AcDbLine
 62
7
  6
BYLAYER
 10
81.7792164549
 20
25.1416546969
 11
81.7792164549
 21
50.5416546969
  0
LINE
  5
30A
100
AcDbEntity
  8
0
100
AcDbLine
 62
7
  6
BYLAYER
 10
81.7792164549
 20
60.6416546969
 11
81.7792164549
 21
86.0416546969
  0
LINE
  5
30B
100
AcDbEntity
  8
0
100
AcDbLine
 62
7
  6
BYLAYER
 10
21.2880573372
 20
24.5074947968
 11
20.7684420949
 21
24.2074947968
  0
LINE
  5
30C
100
AcDbEntity
  8
0
100
AcDbLine
 62
7
  6
BYLAYER
 10
25.3738292749
 20
35.5824947968
 11
24.8738292749
 21
35.3824947968
  0
LINE
  5
30D
100
AcDbEntity
  8
0
100
AcDbLine
 62
7
  6
BYLAYER
 10
22.7398546787
 20
105.2324947968
 11
24.8738292749
 21
105.2324947968
  0
LINE
  5
30E
100
AcDbEntity
  8
0
100
AcDbLine
 62
7
  6
BYLAYER
 10
25.3738292749
 20
105.4324947968
 11
28.8738292749
 21
105.4324947968
  0
LINE
  5
30F
100
AcDbEntity
  8
0
100
AcDbLine
 62
7
  6
BYLAYER
 10
29.0205371208
 20
105.4740834742
 11
25.4450096497
 21
105.4740834742
  0
LINE
  5
310
100
AcDbEntity
  8
0
100
AcDbLine
 62
7
  6
BYLAYER
 10
25.4450096497
 20
106.1740834742
 11
29.0205371208
 21
106.1740834742
  0
LINE
  5
311
100
AcDbEntity
  8
0
100
AcDbLine
 62
7
  6
BYLAYER
 10
28.8738292749
 20
106.2324947968
 11
25.3738292749
 21
106.2324947968
  0
LINE
  5
312
100
AcDbEntity
  8
0
100
AcDbLine
 62
7
  6
BYLAYER
 10
24.8738292749
 20
106.4324947968
 11
22.7398546787
 21
106.4324947968
  0
LINE
  5
313
100
AcDbEntity
  8
0
100
AcDbLine
 62
7
  6
BYLAYER
 10
20.8738292749
 20
115.3324947968
 11
22.7398546787
 21
114.8324947968
  0
LINE
  5
314
100
AcDbEntity
  8
0
100
AcDbLine
 62
7
  6
BYLAYER
 10
24.8738292749
 20
119.0324947968
 11
25.3738292749
 21
118.8324947968
  0
LINE
  5
315
100
AcDbEntity
  8
0
100
AcDbLine
 62
7
  6
BYLAYER
 10
24.7684420949
 20
127.0574947968
 11
24.2488268527
 21
127.3574947968
  0
LINE
  5
316
100
AcDbEntity
  8
0
100
AcDbLine
 62
7
  6
BYLAYER
 10
57.8097073047
 20
140.079818456
 11
58.1825776902
 21
139.3190237468
  0
LINE
  5
317
100
AcDbEntity
  8
0
100
AcDbLine
 62
7
  6
BYLAYER
 10
57.3810653295
 20
139.4097609952
 11
57.0839676443
 21
140.0232847547
  0
LINE
  5
318
100
AcDbEntity
  8
0
100
AcDbLine
 62
7
  6
BYLAYER
 10
89.7792164549
 20
94.9363766684
 11
89.7792164549
 21
136.150610102
  0
LINE
  5
319
100
AcDbEntity
  8
0
100
AcDbLine
 62
7
  6
BYLAYER
 10
24.2488268527
 20
23.4574947968
 11
24.7684420949
 21
23.7574947968
  0
LINE
  5
31A
100
AcDbEntity
  8
0
100
AcDbLine
 62
7
  6
BYLAYER
 10
25.3738292749
 20
29.5824947968
 11
24.8738292749
 21
29.3824947968
  0
LINE
  5
31B
100
AcDbEntity
  8
0
100
AcDbLine
 62
7
  6
BYLAYER
 10
22.7398546787
 20
109.4324947968
 11
24.8738292749
 21
109.4324947968
  0
LINE
  5
31C
100
AcDbEntity
  8
0
100
AcDbLine
 62
7
  6
BYLAYER
 10
25.3738292749
 20
109.6324947968
 11
28.8738292749
 21
109.6324947968
  0
LINE
  5
31D
100
AcDbEntity
  8
0
100
AcDbLine
 62
7
  6
BYLAYER
 10
29.0205371208
 20
109.664881035
 11
25.4450096497
 21
109.664881035
  0
LINE
  5
31E
100
AcDbEntity
  8
0
100
AcDbLine
 62
7
  6
BYLAYER
 10
25.4450096497
 20
110.364881035
 11
29.0205371208
 21
110.364881035
  0
LINE
  5
31F
100
AcDbEntity
  8
0
100
AcDbLine
 62
7
  6
BYLAYER
 10
28.8738292749
 20
110.4324947968
 11
25.3738292749
 21
110.4324947968
  0
LINE
  5
320
100
AcDbEntity
  8
0
100
AcDbLine
 62
7
  6
BYLAYER
 10
24.8738292749
 20
110.6324947968
 11
22.7398546787
 21
110.6324947968
  0
LINE
  5
321
100
AcDbEntity
  8
0
100
AcDbLine
 62
7
  6
BYLAYER
 10
20.8738292749
 20
119.5324947968
 11
22.7398546787
 21
119.0324947968
  0
LINE
  5
322
100
AcDbEntity
  8
0
100
AcDbLine
 62
7
  6
BYLAYER
 10
29.4684420949
 20
122.4074947968
 11
30.2926853208
 21
122.1074947968
  0
LINE
  5
323
100
AcDbEntity
  8
0
100
AcDbLine
 62
7
  6
BYLAYER
 10
24.8738292749
 20
123.2324947968
 11
25.3738292749
 21
123.0324947968
  0
LINE
  5
324
100
AcDbEntity
  8
0
100
AcDbLine
 62
7
  6
BYLAYER
 10
24.8738292749
 20
127.4324947968
 11
25.3738292749
 21
127.2324947968
  0
LINE
  5
325
100
AcDbEntity
  8
0
100
AcDbLine
 62
7
  6
BYLAYER
 10
91.2885813772
 20
136.150610102
 11
91.2885813772
 21
94.9363766684
  0
LINE
  5
326
100
AcDbEntity
  8
0
100
AcDbLine
 62
7
  6
BYLAYER
 10
25.3738292749
 20
23.5824947968
 11
24.8738292749
 21
23.3824947968
  0
LINE
  5
327
100
AcDbEntity
  8
0
100
AcDbLine
 62
7
  6
BYLAYER
 10
22.7398546787
 20
105.2324947968
 11
20.8738292749
 21
104.7324947968
  0
LINE
  5
328
100
AcDbEntity
  8
0
100
AcDbLine
 62
7
  6
BYLAYER
 10
22.7398546787
 20
109.4324947968
 11
20.8738292749
 21
108.9324947968
  0
LINE
  5
329
100
AcDbEntity
  8
0
100
AcDbLine
 62
7
  6
BYLAYER
 10
22.7398546787
 20
113.6324947968
 11
24.8738292749
 21
113.6324947968
  0
LINE
  5
32A
100
AcDbEntity
  8
0
100
AcDbLine
 62
7
  6
BYLAYER
 10
25.3738292749
 20
113.8324947968
 11
28.8738292749
 21
113.8324947968
  0
LINE
  5
32B
100
AcDbEntity
  8
0
100
AcDbLine
 62
7
  6
BYLAYER
 10
29.0205371208
 20
113.8793554181
 11
25.4450096497
 21
113.8793554181
  0
LINE
  5
32C
100
AcDbEntity
  8
0
100
AcDbLine
 62
7
  6
BYLAYER
 10
25.4450096497
 20
114.5793554181
 11
29.0205371208
 21
114.5793554181
  0
LINE
  5
32D
100
AcDbEntity
  8
0
100
AcDbLine
 62
7
  6
BYLAYER
 10
28.8738292749
 20
114.6324947968
 11
25.3738292749
 21
114.6324947968
  0
LINE
  5
32E
100
AcDbEntity
  8
0
100
AcDbLine
 62
7
  6
BYLAYER
 10
24.8738292749
 20
114.8324947968
 11
22.7398546787
 21
114.8324947968
  0
LINE
  5
32F
100
AcDbEntity
  8
0
100
AcDbLine
 62
7
  6
BYLAYER
 10
20.8738292749
 20
123.7324947968
 11
22.7398546787
 21
123.2324947968
  0
LINE
  5
330
100
AcDbEntity
  8
0
100
AcDbLine
 62
7
  6
BYLAYER
 10
20.8738292749
 20
127.9324947968
 11
22.7398546787
 21
127.4324947968
  0
LINE
  5
331
100
AcDbEntity
  8
0
100
AcDbLine
 62
7
  6
BYLAYER
 10
29.4684420949
 20
126.6074947968
 11
30.2926853208
 21
126.3074947968
  0
LINE
  5
332
100
AcDbEntity
  8
0
100
AcDbLine
 62
7
  6
BYLAYER
 10
72.76300621
 20
12.5998876422
 11
73.0147651946
 21
13.1197843848
  0
LINE
  5
333
100
AcDbEntity
  8
0
100
AcDbLine
 62
7
  6
BYLAYER
 10
73.3779941049
 20
12.551981287
 11
73.6939624692
 21
13.1966746423
  0
LINE
  5
334
100
AcDbEntity
  8
0
100
AcDbLine
 62
7
  6
BYLAYER
 10
30.2926853208
 20
24.5074947968
 11
29.4684420949
 21
24.2074947968
  0
LINE
  5
335
100
AcDbEntity
  8
0
100
AcDbLine
 62
7
  6
BYLAYER
 10
22.7398546787
 20
113.6324947968
 11
20.8738292749
 21
113.1324947968
  0
LINE
  5
336
100
AcDbEntity
  8
0
100
AcDbLine
 62
7
  6
BYLAYER
 10
22.7398546787
 20
117.8324947968
 11
24.8738292749
 21
117.8324947968
  0
LINE
  5
337
100
AcDbEntity
  8
0
100
AcDbLine
 62
7
  6
BYLAYER
 10
25.3738292749
 20
118.0324947968
 11
28.8738292749
 21
118.0324947968
  0
LINE
  5
338
100
AcDbEntity
  8
0
100
AcDbLine
 62
7
  6
BYLAYER
 10
29.0205371208
 20
118.0701529789
 11
25.4450096497
 21
118.0701529789
  0
LINE
  5
339
100
AcDbEntity
  8
0
100
AcDbLine
 62
7
  6
BYLAYER
 10
25.4450096497
 20
118.7701529789
 11
29.0205371208
 21
118.7701529789
  0
LINE
  5
33A
100
AcDbEntity
  8
0
100
AcDbLine
 62
7
  6
BYLAYER
 10
28.8738292749
 20
118.8324947968
 11
25.3738292749
 21
118.8324947968
  0
LINE
  5
33B
100
AcDbEntity
  8
0
100
AcDbLine
 62
7
  6
BYLAYER
 10
24.8738292749
 20
119.0324947968
 11
22.7398546787
 21
119.0324947968
  0
LINE
  5
33C
100
AcDbEntity
  8
0
100
AcDbLine
 62
7
  6
BYLAYER
 10
22.7398546787
 20
122.0324947968
 11
24.8738292749
 21
122.0324947968
  0
LINE
  5
33D
100
AcDbEntity
  8
0
100
AcDbLine
 62
7
  6
BYLAYER
 10
47.2441988691
 20
122.1074947968
 11
30.2926853208
 21
122.1074947968
  0
LINE
  5
33E
100
AcDbEntity
  8
0
100
AcDbLine
 62
7
  6
BYLAYER
 10
21.2880573372
 20
122.1074947968
 11
24.2488268527
 21
122.1074947968
  0
LINE
  5
33F
100
AcDbEntity
  8
0
100
AcDbLine
 62
7
  6
BYLAYER
 10
48.0684420949
 20
122.8574947968
 11
47.2441988691
 21
123.1574947968
  0
LINE
  5
340
100
AcDbEntity
  8
0
100
AcDbLine
 62
7
  6
BYLAYER
 10
48.5684420949
 20
127.0574947968
 11
47.7441988691
 21
127.3574947968
  0
LINE
  5
341
100
AcDbEntity
  8
0
100
AcDbLine
 62
7
  6
BYLAYER
 10
48.7441988691
 20
23.4574947968
 11
49.5684420949
 21
23.7574947968
  0
LINE
  5
342
100
AcDbEntity
  8
0
100
AcDbLine
 62
7
  6
BYLAYER
 10
22.7398546787
 20
117.8324947968
 11
20.8738292749
 21
117.3324947968
  0
LINE
  5
343
100
AcDbEntity
  8
0
100
AcDbLine
 62
7
  6
BYLAYER
 10
25.3738292749
 20
122.2324947968
 11
28.8738292749
 21
122.2324947968
  0
LINE
  5
344
100
AcDbEntity
  8
0
100
AcDbLine
 62
7
  6
BYLAYER
 10
29.0205371208
 20
122.2846273621
 11
25.4450096497
 21
122.2846273621
  0
LINE
  5
345
100
AcDbEntity
  8
0
100
AcDbLine
 62
7
  6
BYLAYER
 10
25.4450096497
 20
122.9846273621
 11
29.0205371208
 21
122.9846273621
  0
LINE
  5
346
100
AcDbEntity
  8
0
100
AcDbLine
 62
7
  6
BYLAYER
 10
28.8738292749
 20
123.0324947968
 11
25.3738292749
 21
123.0324947968
  0
LINE
  5
347
100
AcDbEntity
  8
0
100
AcDbLine
 62
7
  6
BYLAYER
 10
24.2488268527
 20
123.1574947968
 11
21.2880573372
 21
123.1574947968
  0
LINE
  5
348
100
AcDbEntity
  8
0
100
AcDbLine
 62
7
  6
BYLAYER
 10
30.2926853208
 20
123.1574947968
 11
47.2441988691
 21
123.1574947968
  0
LINE
  5
349
100
AcDbEntity
  8
0
100
AcDbLine
 62
7
  6
BYLAYER
 10
24.8738292749
 20
123.2324947968
 11
22.7398546787
 21
123.2324947968
  0
LINE
  5
34A
100
AcDbEntity
  8
0
100
AcDbLine
 62
7
  6
BYLAYER
 10
22.7398546787
 20
126.2324947968
 11
24.8738292749
 21
126.2324947968
  0
LINE
  5
34B
100
AcDbEntity
  8
0
100
AcDbLine
 62
7
  6
BYLAYER
 10
21.2880573372
 20
126.3074947968
 11
24.2488268527
 21
126.3074947968
  0
LINE
  5
34C
100
AcDbEntity
  8
0
100
AcDbLine
 62
7
  6
BYLAYER
 10
30.2926853208
 20
126.3074947968
 11
47.7441988691
 21
126.3074947968
  0
LINE
  5
34D
100
AcDbEntity
  8
0
100
AcDbLine
 62
7
  6
BYLAYER
 10
25.3738292749
 20
126.4324947968
 11
28.8738292749
 21
126.4324947968
  0
LINE
  5
34E
100
AcDbEntity
  8
0
100
AcDbLine
 62
7
  6
BYLAYER
 10
29.0205371208
 20
126.4754249229
 11
25.4450096497
 21
126.4754249229
  0
LINE
  5
34F
100
AcDbEntity
  8
0
100
AcDbLine
 62
7
  6
BYLAYER
 10
22.7398546787
 20
122.0324947968
 11
20.8738292749
 21
121.5324947968
  0
LINE
  5
350
100
AcDbEntity
  8
0
100
AcDbLine
 62
7
  6
BYLAYER
 10
25.4450096497
 20
127.1754249229
 11
29.0205371208
 21
127.1754249229
  0
LINE
  5
351
100
AcDbEntity
  8
0
100
AcDbLine
 62
7
  6
BYLAYER
 10
28.8738292749
 20
127.2324947968
 11
25.3738292749
 21
127.2324947968
  0
LINE
  5
352
100
AcDbEntity
  8
0
100
AcDbLine
 62
7
  6
BYLAYER
 10
47.7441988691
 20
127.3574947968
 11
30.2926853208
 21
127.3574947968
  0
LINE
  5
353
100
AcDbEntity
  8
0
100
AcDbLine
 62
7
  6
BYLAYER
 10
24.2488268527
 20
127.3574947968
 11
21.2880573372
 21
127.3574947968
  0
LINE
  5
354
100
AcDbEntity
  8
0
100
AcDbLine
 62
7
  6
BYLAYER
 10
24.8738292749
 20
127.4324947968
 11
22.7398546787
 21
127.4324947968
  0
LINE
  5
355
100
AcDbEntity
  8
0
100
AcDbLine
 62
7
  6
BYLAYER
 10
51.1792164549
 20
130.7516546969
 11
51.1606399012
 21
130.7516546969
  0
LINE
  5
356
100
AcDbEntity
  8
0
100
AcDbLine
 62
7
  6
BYLAYER
 10
51.1551668104
 20
130.8474607161
 11
51.1737581992
 21
130.8474607161
  0
LINE
  5
357
100
AcDbEntity
  8
0
100
AcDbLine
 62
7
  6
BYLAYER
 10
22.7398546787
 20
126.2324947968
 11
20.8738292749
 21
125.7324947968
  0
LINE
  5
358
100
AcDbEntity
  8
0
100
AcDbLine
 62
7
  6
BYLAYER
 10
20.8738292749
 20
135.3824947968
 11
51.1737581992
 21
135.3824947968
  0
LINE
  5
359
100
AcDbEntity
  8
0
100
AcDbLine
 62
7
  6
BYLAYER
 10
75.6792164549
 20
136.1502204277
 11
51.1792164549
 21
136.1502204277
  0
LINE
  5
35A
100
AcDbEntity
  8
0
100
AcDbLine
 62
7
  6
BYLAYER
 10
75.7792164549
 20
136.150610102
 11
91.2890541585
 21
136.150610102
  0
LINE
  5
35B
100
AcDbEntity
  8
0
100
AcDbLine
 62
7
  6
BYLAYER
 10
49.4110922596
 20
136.5474947968
 11
51.1737581992
 21
136.5474947968
  0
LINE
  5
35C
100
AcDbEntity
  8
0
100
AcDbLine
 62
7
  6
BYLAYER
 10
57.8097073047
 20
140.079818456
 11
57.0839676443
 21
140.0232847547
  0
LINE
  5
35D
100
AcDbEntity
  8
0
100
AcDbLine
 62
7
  6
BYLAYER
 10
40.1509545088
 20
138.3513796284
 11
20.8738292749
 21
138.3513796284
  0
LINE
  5
35E
100
AcDbEntity
  8
0
100
AcDbLine
 62
7
  6
BYLAYER
 10
58.1825776902
 20
139.3190237468
 11
57.3810653295
 21
139.4097609952
  0
LINE
  5
35F
100
AcDbEntity
  8
0
100
AcDbLine
 62
7
  6
BYLAYER
 10
47.8701137434
 20
142.0355777213
 11
50.5377137016
 21
142.0355777213
  0
ARC
  5
360
100
AcDbEntity
  8
0
100
AcDbCircle
 62
7
  6
BYLAYER
 10
300.715506488
 20
77.6366156801
 40
256.375998983
100
AcDbArc
 50
182.6488241552
 51
182.837880719
  0
ARC
  5
361
100
AcDbEntity
  8
0
100
AcDbCircle
 62
7
  6
BYLAYER
 10
298.5971711109
 20
73.7370402909
 40
254.319295931
100
AcDbArc
 50
175.4769879451
 51
175.6681925709
  0
ARC
  5
362
100
AcDbEntity
  8
0
100
AcDbCircle
 62
7
  6
BYLAYER
 10
268.3792164549
 20
76.0516546969
 40
224.0
100
AcDbArc
 50
165.8656498611
 51
174.6200062896
  0
ARC
  5
363
100
AcDbEntity
  8
0
100
AcDbCircle
 62
7
  6
BYLAYER
 10
268.0727146035
 20
76.1506708398
 40
223.6990729455
100
AcDbArc
 50
177.274277799
 51
181.9990454221
  0
ARC
  5
364
100
AcDbEntity
  8
0
100
AcDbCircle
 62
7
  6
BYLAYER
 10
267.3821296137
 20
76.3165640368
 40
222.9967339498
100
AcDbArc
 50
165.8455666127
 51
174.8327374891
  0
ARC
  5
365
100
AcDbEntity
  8
0
100
AcDbCircle
 62
7
  6
BYLAYER
 10
267.3168643987
 20
75.9789163216
 40
222.9327228983
100
AcDbArc
 50
184.4215119857
 51
193.7028593624
  0
ARC
  5
366
100
AcDbEntity
  8
0
100
AcDbCircle
 62
7
  6
BYLAYER
 10
265.7410074415
 20
75.8906352561
 40
221.3579485311
100
AcDbArc
 50
182.8347105289
 51
183.1929465971
  0
ARC
  5
367
100
AcDbEntity
  8
0
100
AcDbCircle
 62
7
  6
BYLAYER
 10
246.6515446756
 20
77.6018594999
 40
202.230153037
100
AcDbArc
 50
175.6484186468
 51
176.4683906351
  0
ARC
  5
368
100
AcDbEntity
  8
0
100
AcDbCircle
 62
7
  6
BYLAYER
 10
230.7086764343
 20
73.9233092796
 40
186.2704017482
100
AcDbArc
 50
183.2469621422
 51
183.6517122277
  0
ARC
  5
369
100
AcDbEntity
  8
0
100
AcDbCircle
 62
7
  6
BYLAYER
 10
212.8608307451
 20
72.7929455837
 40
168.3867993587
100
AcDbArc
 50
183.6546667795
 51
183.953804112
  0
ARC
  5
36A
100
AcDbEntity
  8
0
100
AcDbCircle
 62
7
  6
BYLAYER
 10
212.8237189277
 20
79.7479184489
 40
168.3343820296
100
AcDbArc
 50
176.4882058513
 51
176.7745274896
  0
SPLINE
  5
36B
100
AcDbEntity
  8
0
100
AcDbSpline
 62
7
  6
BYLAYER
 70
0
 71
3
 72
9
 73
5
 74
0
 42
0.0000001
 43
0.0000001
 44
0.0000000001
 40
0.0
 40
0.0
 40
0.0
 40
0.0
 40
0.5066947355
 40
1.0
 40
1.0
 40
1.0
 40
1.0
 10
69.3545845656
 20
13.4741367137
 30
0.0
 10
69.9059983725
 20
13.2484606384
 30
0.0
 10
71.0247561426
 20
12.8732263304
 30
0.0
 10
72.1862108216
 20
12.661375007
 30
0.0
 10
72.76300621
 20
12.5998876422
 30
0.0
  0
SPLINE
  5
36C
100
AcDbEntity
  8
0
100
AcDbSpline
 62
7
  6
BYLAYER
 70
0
 71
3
 72
9
 73
5
 74
0
 42
0.0000001
 43
0.0000001
 44
0.0000000001
 40
0.0
 40
0.0
 40
0.0
 40
0.0
 40
0.5000000102
 40
1.0
 40
1.0
 40
1.0
 40
1.0
 10
49.3873467421
 20
92.984353197
 30
0.0
 10
48.658983747
 20
92.9779973535
 30
0.0
 10
47.202252408
 20
92.9658915934
 30
0.0
 10
45.7455390787
 20
92.951764844
 30
0.0
 10
45.0171761134
 20
92.9454090007
 30
0.0
  0
SPLINE
  5
36D
100
AcDbEntity
  8
0
100
AcDbSpline
 62
7
  6
BYLAYER
 70
0
 71
3
 72
13
 73
9
 74
0
 42
0.0000001
 43
0.0000001
 44
0.0000000001
 40
0.0
 40
0.0
 40
0.0
 40
0.0
 40
0.1252437528
 40
0.2506194046
 40
0.4999561056
 40
0.7493604802
 40
0.874764088
 40
1.0
 40
1.0
 40
1.0
 40
1.0
 10
51.3700533016
 20
94.9842707467
 30
0.0
 10
51.3700508579
 20
94.8543201038
 30
0.0
 10
51.3454231606
 20
94.5934948786
 30
0.0
 10
51.1960300001
 20
94.0936491919
 30
0.0
 10
50.8256166016
 20
93.5413574911
 30
0.0
 10
50.2765457065
 20
93.1660672002
 30
0.0
 10
49.7778987462
 20
93.0124228084
 30
0.0
 10
49.517284324
 20
92.9854845977
 30
0.0
 10
49.3873467421
 20
92.984353197
 30
0.0
  0
SPLINE
  5
36E
100
AcDbEntity
  8
0
100
AcDbSpline
 62
7
  6
BYLAYER
 70
0
 71
3
 72
16
 73
12
 74
0
 42
0.0000001
 43
0.0000001
 44
0.0000000001
 40
0.0
 40
0.0
 40
0.0
 40
0.0
 40
0.1249434503
 40
0.2498951585
 40
0.3749893572
 40
0.4998914453
 40
0.6248162354
 40
0.7498221478
 40
0.8123600149
 40
0.8749665753
 40
1.0
 40
1.0
 40
1.0
 40
1.0
 10
49.3873410753
 20
97.0189562462
 30
0.0
 10
49.5173040722
 20
97.0178246241
 30
0.0
 10
49.7779857966
 20
96.9926945139
 30
0.0
 10
50.1526286239
 20
96.8745794025
 30
0.0
 10
50.4963730988
 20
96.6855790376
 30
0.0
 10
50.7997976134
 20
96.4365523328
 30
0.0
 10
51.0461149133
 20
96.131131135
 30
0.0
 10
51.2013259413
 20
95.8432336337
 30
0.0
 10
51.2899210054
 20
95.598102877
 30
0.0
 10
51.3520928508
 20
95.3450234057
 30
0.0
 10
51.3700508558
 20
95.14909776
 30
0.0
 10
51.3700533016
 20
95.0190362439
 30
0.0
  0
SPLINE
  5
36F
100
AcDbEntity
  8
0
100
AcDbSpline
 62
7
  6
BYLAYER
 70
0
 71
3
 72
10
 73
6
 74
0
 42
0.0000001
 43
0.0000001
 44
0.0000000001
 40
0.0
 40
0.0
 40
0.0
 40
0.0
 40
0.2500000002
 40
0.4999999996
 40
1.0
 40
1.0
 40
1.0
 40
1.0
 10
44.8166516703
 20
62.0595273766
 30
0.0
 10
45.1975431979
 20
62.0562036397
 30
0.0
 10
45.9593173971
 20
62.0485749454
 30
0.0
 10
47.4828877187
 20
62.0357460404
 30
0.0
 10
48.6255607519
 20
62.0256036961
 30
0.0
 10
49.387343807
 20
62.0189562223
 30
0.0
  0
SPLINE
  5
370
100
AcDbEntity
  8
0
100
AcDbSpline
 62
7
  6
BYLAYER
 70
0
 71
3
 72
13
 73
9
 74
0
 42
0.0000001
 43
0.0000001
 44
0.0000000001
 40
0.0
 40
0.0
 40
0.0
 40
0.0
 40
0.1252277216
 40
0.250610152
 40
0.5000098895
 40
0.7494009215
 40
0.8747737803
 40
1.0
 40
1.0
 40
1.0
 40
1.0
 10
51.3700532579
 20
66.9842765517
 30
0.0
 10
51.3700508144
 20
66.8543408158
 30
0.0
 10
51.3454949345
 20
66.5935165959
 30
0.0
 10
51.1960842064
 20
66.0936014938
 30
0.0
 10
50.8255477498
 20
65.5412895342
 30
0.0
 10
50.2764529342
 20
65.1660550646
 30
0.0
 10
49.7778847395
 20
65.0122754886
 30
0.0
 10
49.51729108
 20
64.9854846568
 30
0.0
 10
49.3873618276
 20
64.9843533286
 30
0.0
  0
SPLINE
  5
371
100
AcDbEntity
  8
0
100
AcDbSpline
 62
7
  6
BYLAYER
 70
0
 71
3
 72
17
 73
13
 74
0
 42
0.0000001
 43
0.0000001
 44
0.0000000001
 40
0.0
 40
0.0
 40
0.0
 40
0.0
 40
0.1249915183
 40
0.1875724234
 40
0.2501059596
 40
0.3751328236
 40
0.5000646236
 40
0.6249509271
 40
0.7499757021
 40
0.812498865
 40
0.875043206
 40
1.0
 40
1.0
 40
1.0
 40
1.0
 10
49.3699145875
 20
69.0016546968
 30
0.0
 10
49.5006789898
 20
69.0016571863
 30
0.0
 10
49.6976830336
 20
68.9836734597
 30
0.0
 10
49.9520604974
 20
68.9207819492
 30
0.0
 10
50.1983940738
 20
68.8311322432
 30
0.0
 10
50.4875520092
 20
68.6742217128
 30
0.0
 10
50.7938654853
 20
68.4253504013
 30
0.0
 10
51.0427893982
 20
68.1190287638
 30
0.0
 10
51.1992936412
 20
67.8297488889
 30
0.0
 10
51.2892605303
 20
67.5836012098
 30
0.0
 10
51.352379459
 20
67.3293475778
 30
0.0
 10
51.3700507688
 20
67.1323834215
 30
0.0
 10
51.3700532579
 20
67.0016553473
 30
0.0
  0
SPLINE
  5
372
100
AcDbEntity
  8
0
100
AcDbSpline
 62
7
  6
BYLAYER
 70
0
 71
3
 72
9
 73
5
 74
0
 42
0.0000001
 43
0.0000001
 44
0.0000000001
 40
0.0
 40
0.0
 40
0.0
 40
0.0
 40
0.5000000033
 40
1.0
 40
1.0
 40
1.0
 40
1.0
 10
49.3873095806
 20
85.9843528727
 30
0.0
 10
48.5890356979
 20
85.9773869726
 30
0.0
 10
46.9924845733
 20
85.9638375511
 30
0.0
 10
45.3959447191
 20
85.9490121668
 30
0.0
 10
44.5976708471
 20
85.9420462668
 30
0.0
  0
SPLINE
  5
373
100
AcDbEntity
  8
0
100
AcDbSpline
 62
7
  6
BYLAYER
 70
0
 71
3
 72
15
 73
11
 74
0
 42
0.0000001
 43
0.0000001
 44
0.0000000001
 40
0.0
 40
0.0
 40
0.0
 40
0.0
 40
0.1250240065
 40
0.2500103833
 40
0.3751033061
 40
0.5000863891
 40
0.6250957019
 40
0.7500753175
 40
0.8750004993
 40
1.0
 40
1.0
 40
1.0
 40
1.0
 10
51.3700534694
 20
87.9842488108
 30
0.0
 10
51.3700510242
 20
87.8542196517
 30
0.0
 10
51.3476587124
 20
87.5931377957
 30
0.0
 10
51.2314394599
 20
87.2178821064
 30
0.0
 10
51.0463947687
 20
86.8719689153
 30
0.0
 10
50.7995062837
 20
86.5666902721
 30
0.0
 10
50.4965788926
 20
86.3169642141
 30
0.0
 10
50.1519744191
 20
86.1298823671
 30
0.0
 10
49.7781539609
 20
86.0099140038
 30
0.0
 10
49.5173083249
 20
85.985484806
 30
0.0
 10
49.3873095806
 20
85.9843528727
 30
0.0
  0
SPLINE
  5
374
100
AcDbEntity
  8
0
100
AcDbSpline
 62
7
  6
BYLAYER
 70
0
 71
3
 72
16
 73
12
 74
0
 42
0.0000001
 43
0.0000001
 44
0.0000000001
 40
0.0
 40
0.0
 40
0.0
 40
0.0
 40
0.1249615546
 40
0.2499232508
 40
0.3750056479
 40
0.4999052714
 40
0.6248320961
 40
0.7498636972
 40
0.8124020633
 40
0.8749892703
 40
1.0
 40
1.0
 40
1.0
 40
1.0
 10
49.3873583031
 20
90.0189560958
 30
0.0
 10
49.5173393965
 20
90.0178243162
 30
0.0
 10
49.7780242163
 20
89.9925472356
 30
0.0
 10
50.1527502069
 20
89.8746607857
 30
0.0
 10
50.4964312831
 20
89.6855258433
 30
0.0
 10
50.7998359756
 20
89.4365189735
 30
0.0
 10
51.0461640703
 20
89.1310605766
 30
0.0
 10
51.2012959185
 20
88.8430993827
 30
0.0
 10
51.2900064962
 20
88.5980091216
 30
0.0
 10
51.3522513171
 20
88.3449852341
 30
0.0
 10
51.3700510241
 20
88.1490884106
 30
0.0
 10
51.3700534695
 20
88.0190512376
 30
0.0
  0
SPLINE
  5
375
100
AcDbEntity
  8
0
100
AcDbSpline
 62
7
  6
BYLAYER
 70
0
 71
3
 72
9
 73
5
 74
0
 42
0.0000001
 43
0.0000001
 44
0.0000000001
 40
0.0
 40
0.0
 40
0.0
 40
0.0
 40
0.4933052645
 40
1.0
 40
1.0
 40
1.0
 40
1.0
 10
57.0839676443
 20
140.0232847547
 30
0.0
 10
56.4032984918
 20
139.9507242708
 30
0.0
 10
55.0326800922
 20
139.7007211265
 30
0.0
 10
53.7124477903
 20
139.2579117289
 30
0.0
 10
53.0617311302
 20
138.9915941646
 30
0.0
  0
SPLINE
  5
376
100
AcDbEntity
  8
0
100
AcDbSpline
 62
7
  6
BYLAYER
 70
0
 71
3
 72
11
 73
7
 74
0
 42
0.0000001
 43
0.0000001
 44
0.0000000001
 40
0.0
 40
0.0
 40
0.0
 40
0.0
 40
0.2499871714
 40
0.4999753295
 40
0.7499278589
 40
1.0
 40
1.0
 40
1.0
 40
1.0
 10
49.3873124319
 20
57.9843528976
 30
0.0
 10
49.6458754772
 20
57.9866046162
 30
0.0
 10
50.1665218053
 20
58.0973633599
 30
0.0
 10
50.8278137913
 20
58.5388802206
 30
0.0
 10
51.2637944679
 20
59.2039523437
 30
0.0
 10
51.3700481114
 20
59.7256094425
 30
0.0
 10
51.3700533178
 20
59.9842701801
 30
0.0
  0
SPLINE
  5
377
100
AcDbEntity
  8
0
100
AcDbSpline
 62
7
  6
BYLAYER
 70
0
 71
3
 72
11
 73
7
 74
0
 42
0.0000001
 43
0.0000001
 44
0.0000000001
 40
0.0
 40
0.0
 40
0.0
 40
0.0
 40
0.2499712822
 40
0.4999090357
 40
0.7499084541
 40
1.0
 40
1.0
 40
1.0
 40
1.0
 10
51.3700533178
 20
60.0190405502
 30
0.0
 10
51.370048112
 20
60.2775937196
 30
0.0
 10
51.2638241478
 20
60.7991154175
 30
0.0
 10
50.828033743
 20
61.4641412086
 30
0.0
 10
50.1667971415
 20
61.9059346363
 30
0.0
 10
49.6460115605
 20
62.0167035903
 30
0.0
 10
49.387343807
 20
62.0189562223
 30
0.0
  0
SPLINE
  5
378
100
AcDbEntity
  8
0
100
AcDbSpline
 62
7
  6
BYLAYER
 70
0
 71
3
 72
8
 73
4
 74
0
 42
0.0000001
 43
0.0000001
 44
0.0000000001
 40
0.0
 40
0.0
 40
0.0
 40
0.0
 40
1.0
 40
1.0
 40
1.0
 40
1.0
 10
56.0742702949
 20
14.3216546969
 30
0.0
 10
60.5998855884
 20
15.0879688502
 30
0.0
 10
64.3997590566
 20
15.2859386454
 30
0.0
 10
67.4738906992
 20
14.9155640824
 30
0.0
  0
SPLINE
  5
379
100
AcDbEntity
  8
0
100
AcDbSpline
 62
7
  6
BYLAYER
 70
0
 71
3
 72
10
 73
6
 74
0
 42
0.0000001
 43
0.0000001
 44
0.0000000001
 40
0.0
 40
0.0
 40
0.0
 40
0.0
 40
0.3333316932
 40
0.6666530019
 40
1.0
 40
1.0
 40
1.0
 40
1.0
 10
44.6266965326
 20
86.7886559939
 30
0.0
 10
44.6292543076
 20
86.8364989662
 30
0.0
 10
44.6341013863
 20
86.9321957966
 30
0.0
 10
44.6429825113
 20
87.075669727
 30
0.0
 10
44.6451456286
 20
87.1714925232
 30
0.0
 10
44.6476562961
 20
87.2193401936
 30
0.0
  0
LINE
  5
37A
100
AcDbEntity
  8
0
100
AcDbLine
 62
7
  6
BYLAYER
 10
44.7372992112
 20
63.3729812669
 11
44.7266886747
 21
63.561309324
  0
SPLINE
  5
37B
100
AcDbEntity
  8
0
100
AcDbSpline
 62
7
  6
BYLAYER
 70
0
 71
3
 72
10
 73
6
 74
0
 42
0.0000001
 43
0.0000001
 44
0.0000000001
 40
0.0
 40
0.0
 40
0.0
 40
0.0
 40
0.3333449296
 40
0.6666585403
 40
1.0
 40
1.0
 40
1.0
 40
1.0
 10
45.0471723659
 20
58.7922468272
 30
0.0
 10
45.0440592967
 20
58.8355985256
 30
0.0
 10
45.0380326775
 20
58.9223110696
 30
0.0
 10
45.0277973204
 20
59.0523021526
 30
0.0
 10
45.0237629923
 20
59.1391464469
 30
0.0
 10
45.0206098684
 20
59.1824947968
 30
0.0
  0
SPLINE
  5
37C
100
AcDbEntity
  8
0
100
AcDbSpline
 62
7
  6
BYLAYER
 70
0
 71
3
 72
11
 73
7
 74
0
 42
0.0000001
 43
0.0000001
 44
0.0000000001
 40
0.0
 40
0.0
 40
0.0
 40
0.0
 40
0.2499988617
 40
0.499967135
 40
0.7500027278
 40
1.0
 40
1.0
 40
1.0
 40
1.0
 10
45.275542862
 20
96.1875627089
 30
0.0
 10
45.277047746
 20
96.2052918005
 30
0.0
 10
45.2779529775
 20
96.2408889152
 30
0.0
 10
45.2816635266
 20
96.2941475681
 30
0.0
 10
45.28701901
 20
96.3472611016
 30
0.0
 10
45.289754436
 20
96.3827456261
 30
0.0
 10
45.2912593104
 20
96.400474605
 30
0.0
  0
SPLINE
  5
37D
100
AcDbEntity
  8
0
100
AcDbSpline
 62
7
  6
BYLAYER
 70
0
 71
3
 72
11
 73
7
 74
0
 42
0.0000001
 43
0.0000001
 44
0.0000000001
 40
0.0
 40
0.0
 40
0.0
 40
0.0
 40
0.25
 40
0.5
 40
0.75
 40
1.0
 40
1.0
 40
1.0
 40
1.0
 10
47.8701137434
 20
142.0355777213
 30
0.0
 10
47.5016915439
 20
141.4740873321
 30
0.0
 10
46.5692898496
 20
140.4316291914
 30
0.0
 10
44.6771422664
 20
139.2515226539
 30
0.0
 10
42.4655625041
 20
138.5356838792
 30
0.0
 10
40.9150062221
 20
138.3682595832
 30
0.0
 10
40.1509545088
 20
138.3513796284
 30
0.0
  0
ENDSEC
  0
SECTION
  2
OBJECTS
  0
DICTIONARY
  5
C
100
AcDbDictionary
280
0
281
1
  3
ACAD_GROUP
350
D
  3
ACAD_MLINESTYLE
350
17
  3
ACAD_LAYOUT
350
1A
  3
ACAD_PLOTSETTINGS
350
19
  3
ACAD_PLOTSTYLENAME
350
E
  0
DICTIONARY
  5
D
102
{ACAD_REACTORS
330
C
102
}
100
AcDbDictionary
280
0
281
1
  0
ACDBDICTIONARYWDFLT
  5
E
102
{ACAD_REACTORS
330
C
102
}
100
AcDbDictionary
281
1
  3
Normal
350
F
100
AcDbDictionaryWithDefault
340
F
  0
DICTIONARY
  5
17
102
{ACAD_REACTORS
330
C
102
}
100
AcDbDictionary
280
0
281
1
  3
Standard
350
18
  0
DICTIONARY
  5
19
102
{ACAD_REACTORS
330
C
102
}
100
AcDbDictionary
281
1
  0
DICTIONARY
  5
1A
102
{ACAD_REACTORS
330
C
102
}
100
AcDbDictionary
281
1
  3
Model
350
37E
  3
Layout1
350
37F
  0
ACDBPLACEHOLDER
  5
F
102
{ACAD_REACTORS
330
E
102
}
  0
MLINESTYLE
  5
18
102
{ACAD_REACTORS
330
17
102
}
100
AcDbMlineStyle
  2
STANDARD
 70
0
  3

 62
256
 51
90.0
 52
90.0
 71
2
 49
0.5
 62
256
  6
BYLAYER
 49
-0.5
 62
256
  6
BYLAYER
  0
LAYOUT
  5
37E
102
{ACAD_REACTORS
330
1A
102
}
100
AcDbPlotSettings
  1

  2
none_device
  4

  6

 40
0.0
 41
0.0
 42
0.0
 43
0.0
 44
210.0
 45
297.0
 46
0.0
 47
0.0
 48
0.0
 49
0.0
140
0.0
141
0.0
142
1.0
143
1.0
 70
1024
 72
1
 73
0
 74
0
  7

 75
0
147
1.0
148
0.0
149
0.0
100
AcDbLayout
  1
Model
 70
0
 71
0
 10
0.0
 20
0.0
 11
210.0
 21
297.0
 12
0.0
 22
0.0
 32
0.0
 14
0.0
 24
0.0
 34
0.0
 15
0.0
 25
0.0
 35
0.0
146
0.0
 13
0.0
 23
0.0
 33
0.0
 16
1.0
 26
0.0
 36
0.0
 17
0.0
 27
1.0
 37
0.0
 76
0
330
22D
345
0
346
0
  0
LAYOUT
  5
37F
102
{ACAD_REACTORS
330
1A
102
}
100
AcDbPlotSettings
  1

  2
none_device
  4

  6

 40
0.0
 41
0.0
 42
0.0
 43
0.0
 44
210.0
 45
297.0
 46
0.0
 47
0.0
 48
0.0
 49
0.0
140
0.0
141
0.0
142
1.0
143
1.0
 70
0
 72
1
 73
0
 74
0
  7

 75
0
147
1.0
148
0.0
149
0.0
100
AcDbLayout
  1
Layout1
 70
0
 71
1
 10
0.0
 20
0.0
 11
210.0
 21
297.0
 12
0.0
 22
0.0
 32
0.0
 14
0.0
 24
0.0
 34
0.0
 15
0.0
 25
0.0
 35
0.0
146
0.0
 13
0.0
 23
0.0
 33
0.0
 16
1.0
 26
0.0
 36
0.0
 17
0.0
 27
1.0
 37
0.0
 76
0
330
22E
345
0
346
0
  0
ENDSEC
  0
EOF
