999
DXF file: C:\Users\sesa63760\Dev\_Creo\CAD\MCADID0001632_3D-CAD\drw0001_3.dxf
999
Pro/ENGINEER 2019471 by Parametric Technology Corporation
  0
SECTION
  2
HEADER
  9
$ACADVER
  1
AC1024
  9
$DWGCODEPAGE
  3
ANSI_1252
  9
$EXTMAX
 10
170.6484981102
 20
241.3457330416
 30
0.0
  9
$EXTMIN
 10
0.0
 20
0.0
 30
0.0
  9
$LIMMIN
 10
0.0
 20
0.0
  9
$LIMMAX
 10
170.6484981102
 20
241.3457330416
  9
$VIEWCTR
 10
85.3242490551
 20
120.6728665208
  9
$VIEWSIZE
 40
241.3457330416
  9
$CLAYER
  8
0
  9
$LTSCALE
 40
15.732166302
  9
$CELTYPE
  6
BYLAYER
  9
$DIMSCALE
 40
1.0
  9
$DIMASZ
 40
2.0315297394
  9
$DIMEXO
 40
1.0
  9
$DIMDLI
 40
10.8694967177
  9
$DIMEXE
 40
1.0
  9
$DIMCEN
 40
2.5743544858
  9
$DIMLFAC
 40
1.0
  9
$DIMBLK
  1
_FILLED
  9
$DIMALT
 70
0
  9
$DIMALTF
 40
0.0393700787
  9
$DIMTXT
 40
2.8441416352
  9
$DIMTOL
 70
1
  9
$DIMLIM
 70
0
  9
$DIMTFAC
 40
1.0
  9
$DIMTP
 40
0.01
  9
$DIMTM
 40
0.01
  9
$DIMGAP
 40
0.625
  9
$DIMDSEP
 70
46
  9
$AUNITS
 70
0
  9
$PDMODE
 70
3
  9
$PDSIZE
 40
0.3125
  9
$HANDSEED
  5
292
  9
$TILEMODE
 70
1
  9
$MEASUREMENT
 70
1
  9
$INSUNITS
 70
4
  0
ENDSEC
  0
SECTION
  2
CLASSES
  0
CLASS
  1
ACDBDICTIONARYWDFLT
  2
AcDbDictionaryWithDefault
  3
AutoCAD 2000
 90
0
 91
1
280
0
281
0
  0
CLASS
  1
ACDBPLACEHOLDER
  2
AcDbPlaceHolder
  3
AutoCAD 2000
 90
0
 91
1
280
0
281
0
  0
CLASS
  1
LAYOUT
  2
AcDbLayout
  3
AutoCAD 2000
 90
0
 91
0
280
0
281
0
  0
ENDSEC
  0
SECTION
  2
TABLES
  0
TABLE
  2
VPORT
  5
8
100
AcDbSymbolTable
 70
2
  0
VPORT
  5
1F4
100
AcDbSymbolTableRecord
100
AcDbViewportTableRecord
  2
*ACTIVE
 70
0
 10
0.0
 20
0.0
 11
1.0
 21
1.0
 12
85.3242490551
 22
120.6728665208
 13
0.0
 23
0.0
 14
1.0
 24
1.0
 15
0.0
 25
0.0
 16
0.0
 26
0.0
 36
1.0
 17
0.0
 27
0.0
 37
0.0
 40
241.3457330416
 41
0.7070707071
 42
50.0
 43
0.0
 44
0.0
 50
0.0
 51
0.0
 71
0
 72
100
 73
1
 74
1
 75
0
 76
0
 77
0
 78
0
  0
ENDTAB
  0
TABLE
  2
LTYPE
  5
5
100
AcDbSymbolTable
 70
6
  0
LTYPE
  5
14
100
AcDbSymbolTableRecord
100
AcDbLinetypeTableRecord
  2
BYBLOCK
 70
0
  3

 72
65
 73
0
 40
0.0
  0
LTYPE
  5
15
100
AcDbSymbolTableRecord
100
AcDbLinetypeTableRecord
  2
BYLAYER
 70
0
  3

 72
65
 73
0
 40
0.0
  0
LTYPE
  5
16
100
AcDbSymbolTableRecord
100
AcDbLinetypeTableRecord
  2
CONTINUOUS
 70
64
  3
Solid line
 72
65
 73
0
 40
0.0
  0
LTYPE
  5
1F5
100
AcDbSymbolTableRecord
100
AcDbLinetypeTableRecord
  2
CENTER
 70
64
  3
____ _ ____ _ ____ _ ____ _ ____ _ ____ _ ____
 72
65
 73
4
 40
0.6
 49
0.375
 74
0
 49
-0.075
 74
0
 49
0.075
 74
0
 49
-0.075
 74
0
  0
LTYPE
  5
1F6
100
AcDbSymbolTableRecord
100
AcDbLinetypeTableRecord
  2
HIDDEN
 70
64
  3
- - - - - - - - - - - - - - - - - - - -
 72
65
 73
2
 40
0.2
 49
0.1
 74
0
 49
-0.1
 74
0
  0
LTYPE
  5
1F7
100
AcDbSymbolTableRecord
100
AcDbLinetypeTableRecord
  2
PHANTOM
 70
64
  3
_____ _ _ _____ _ _ _____ _ _ _____
 72
65
 73
6
 40
0.8
 49
0.45
 74
0
 49
-0.05
 74
0
 49
0.1
 74
0
 49
-0.05
 74
0
 49
0.1
 74
0
 49
-0.05
 74
0
  0
LTYPE
  5
1F8
100
AcDbSymbolTableRecord
100
AcDbLinetypeTableRecord
  2
DOT
 70
64
  3
. . . . . . . . . . . . . . . . . . . .
 72
65
 73
2
 40
0.2
 49
0.1
 74
0
 49
-0.1
 74
0
  0
LTYPE
  5
1F9
100
AcDbSymbolTableRecord
100
AcDbLinetypeTableRecord
  2
DASHED
 70
64
  3
- - - - - - - - - - - - - - - - - - - -
 72
65
 73
2
 40
0.2
 49
0.1
 74
0
 49
-0.1
 74
0
  0
ENDTAB
  0
TABLE
  2
LAYER
  5
2
100
AcDbSymbolTable
 70
36
  0
LAYER
  5
10
100
AcDbSymbolTableRecord
100
AcDbLayerTableRecord
  2
0
 70
0
 62
7
  6
CONTINUOUS
370
-3
390
F
  0
LAYER
  5
1FA
100
AcDbSymbolTableRecord
100
AcDbLayerTableRecord
  2
DEFAULT_1
 70
0
 62
7
  6
CENTER
370
-3
390
F
  0
LAYER
  5
1FB
100
AcDbSymbolTableRecord
100
AcDbLayerTableRecord
  2
DEFAULT_2
 70
0
 62
8
  6
HIDDEN
370
-3
390
F
  0
LAYER
  5
1FC
100
AcDbSymbolTableRecord
100
AcDbLayerTableRecord
  2
DEFAULT_3
 70
0
 62
7
  6
PHANTOM
370
-3
390
F
  0
LAYER
  5
1FD
100
AcDbSymbolTableRecord
100
AcDbLayerTableRecord
  2
00_COMPONENTS
 70
0
 62
7
  6
CONTINUOUS
370
-3
390
F
  0
LAYER
  5
1FE
100
AcDbSymbolTableRecord
100
AcDbLayerTableRecord
  2
01_1_DEFAULT_DATUMS
 70
0
 62
7
  6
CONTINUOUS
370
-3
390
F
  0
LAYER
  5
1FF
100
AcDbSymbolTableRecord
100
AcDbLayerTableRecord
  2
01_PLANES
 70
0
 62
7
  6
CONTINUOUS
370
-3
390
F
  0
LAYER
  5
200
100
AcDbSymbolTableRecord
100
AcDbLayerTableRecord
  2
02_COORD_SYS
 70
0
 62
7
  6
CONTINUOUS
370
-3
390
F
  0
LAYER
  5
201
100
AcDbSymbolTableRecord
100
AcDbLayerTableRecord
  2
03_AXES
 70
0
 62
7
  6
CONTINUOUS
370
-3
390
F
  0
LAYER
  5
202
100
AcDbSymbolTableRecord
100
AcDbLayerTableRecord
  2
04_POINTS
 70
0
 62
7
  6
CONTINUOUS
370
-3
390
F
  0
LAYER
  5
203
100
AcDbSymbolTableRecord
100
AcDbLayerTableRecord
  2
05_CURVES
 70
0
 62
7
  6
CONTINUOUS
370
-3
390
F
  0
LAYER
  5
204
100
AcDbSymbolTableRecord
100
AcDbLayerTableRecord
  2
06_SURFS
 70
0
 62
7
  6
CONTINUOUS
370
-3
390
F
  0
LAYER
  5
205
100
AcDbSymbolTableRecord
100
AcDbLayerTableRecord
  2
07_COSMETICS
 70
0
 62
7
  6
CONTINUOUS
370
-3
390
F
  0
LAYER
  5
206
100
AcDbSymbolTableRecord
100
AcDbLayerTableRecord
  2
10_NOTES
 70
0
 62
7
  6
CONTINUOUS
370
-3
390
F
  0
LAYER
  5
207
100
AcDbSymbolTableRecord
100
AcDbLayerTableRecord
  2
11_NOTES_PUB
 70
0
 62
7
  6
CONTINUOUS
370
-3
390
F
  0
LAYER
  5
208
100
AcDbSymbolTableRecord
100
AcDbLayerTableRecord
  2
13_REF_GTOL
 70
0
 62
7
  6
CONTINUOUS
370
-3
390
F
  0
LAYER
  5
209
100
AcDbSymbolTableRecord
100
AcDbLayerTableRecord
  2
16_MISC
 70
0
 62
7
  6
CONTINUOUS
370
-3
390
F
  0
LAYER
  5
20A
100
AcDbSymbolTableRecord
100
AcDbLayerTableRecord
  2
17_NO_PRINT
 70
0
 62
7
  6
CONTINUOUS
370
-3
390
F
  0
LAYER
  5
20B
100
AcDbSymbolTableRecord
100
AcDbLayerTableRecord
  2
18_DATUM_CAMS_JOINTS
 70
0
 62
7
  6
CONTINUOUS
370
-3
390
F
  0
LAYER
  5
20C
100
AcDbSymbolTableRecord
100
AcDbLayerTableRecord
  2
19_DATUM_FUNCTIONAL
 70
0
 62
7
  6
CONTINUOUS
370
-3
390
F
  0
LAYER
  5
20D
100
AcDbSymbolTableRecord
100
AcDbLayerTableRecord
  2
20_DATUM_KINEMATIC_SCHEME
 70
0
 62
7
  6
CONTINUOUS
370
-3
390
F
  0
ENDTAB
  0
TABLE
  2
STYLE
  5
3
100
AcDbSymbolTable
 70
1
  0
STYLE
  5
11
100
AcDbSymbolTableRecord
100
AcDbTextStyleTableRecord
  2
STANDARD
 70
0
 40
0.0
 41
0.8
 50
0.0
 71
0
 42
0.2
  3
txt
  4

  0
STYLE
  5
20E
100
AcDbSymbolTableRecord
100
AcDbTextStyleTableRecord
  2
TEXTSTYLE_1
 70
0
 40
0.0
 41
0.8
 50
0.0
 71
0
 42
0.2
  3
gdt
  4

  0
ENDTAB
  0
TABLE
  2
VIEW
  5
6
100
AcDbSymbolTable
 70
0
  0
ENDTAB
  0
TABLE
  2
UCS
  5
7
100
AcDbSymbolTable
 70
0
  0
ENDTAB
  0
TABLE
  2
APPID
  5
9
100
AcDbSymbolTable
 70
1
  0
APPID
  5
20F
100
AcDbSymbolTableRecord
100
AcDbRegAppTableRecord
  2
ACAD
 70
0
  0
ENDTAB
  0
TABLE
  2
BLOCK_RECORD
  5
1
100
AcDbSymbolTable
 70
0
  0
BLOCK_RECORD
  5
210
100
AcDbSymbolTableRecord
100
AcDbBlockTableRecord
  2
*Model_Space
  0
BLOCK_RECORD
  5
211
100
AcDbSymbolTableRecord
100
AcDbBlockTableRecord
  2
*Paper_Space
  0
BLOCK_RECORD
  5
212
100
AcDbSymbolTableRecord
100
AcDbBlockTableRecord
  2
_FILLED
  0
ENDTAB
  0
TABLE
  2
DIMSTYLE
  5
A
100
AcDbSymbolTable
 70
1
100
AcDbDimStyleTable
 71
0
  0
DIMSTYLE
105
213
100
AcDbSymbolTableRecord
100
AcDbDimStyleTableRecord
  2
STANDARD
 70
0
  3

  4

 40
1.0
 41
2.0315297394
 42
1.0
 43
0.38
 44
1.0
 45
0.0
 46
0.0
 47
0.01
 48
0.01
140
2.8441416352
141
0.09
142
0.0
143
25.4
144
1.0
145
0.0
146
1.0
147
0.625
 71
1
 72
0
 73
0
 74
0
 75
0
 76
0
 77
1
 78
8
 79
2
170
0
171
1
172
0
173
0
174
0
175
0
176
0
177
0
178
0
270
2
179
2
271
2
272
2
273
2
274
2
275
0
280
0
281
0
282
0
283
1
284
8
285
0
286
0
287
3
288
0
340
11
278
46
341
212
342
212
343
212
344
212
  0
ENDTAB
  0
ENDSEC
  0
SECTION
  2
BLOCKS
  0
BLOCK
  5
20
100
AcDbEntity
  8
0
100
AcDbBlockBegin
  2
*Model_Space
 70
0
 10
0.0
 20
0.0
 30
0.0
  3
*Model_Space
  1

  0
ENDBLK
  5
21
100
AcDbEntity
  8
0
100
AcDbBlockEnd
  0
BLOCK
  5
1C
100
AcDbEntity
  8
0
100
AcDbBlockBegin
  2
*Paper_Space
 70
0
 10
0.0
 20
0.0
 30
0.0
  3
*Paper_Space
  1

  0
ENDBLK
  5
1D
100
AcDbEntity
  8
0
100
AcDbBlockEnd
  0
BLOCK
  5
214
100
AcDbEntity
  8
0
100
AcDbBlockBegin
  2
_FILLED
 70
64
 10
0.0
 20
0.0
  3
_FILLED
  1

  0
SOLID
  5
215
100
AcDbEntity
  8
0
  6
BYBLOCK
 62
0
100
AcDbTrace
 10
0.0
 20
0.0
 11
-1.0
 21
0.25
 12
-1.0
 22
-0.25
 13
-1.0
 23
-0.25
  0
ENDBLK
  5
216
100
AcDbEntity
  8
0
  6
BYBLOCK
 62
0
100
AcDbBlockEnd
  0
ENDSEC
  0
SECTION
  2
ENTITIES
  0
LINE
  5
217
100
AcDbEntity
  8
0
100
AcDbLine
 62
7
  6
CONTINUOUS
 10
20.1874875671
 20
95.0639286805
 11
20.1874875671
 21
148.0492100547
  0
LINE
  5
218
100
AcDbEntity
  8
0
100
AcDbLine
 62
7
  6
CONTINUOUS
 10
22.1874875671
 20
148.4027634453
 11
22.1874875671
 21
149.4634236171
  0
LINE
  5
219
100
AcDbEntity
  8
0
100
AcDbLine
 62
7
  6
CONTINUOUS
 10
26.1874875671
 20
146.9885498829
 11
26.1874875671
 21
139.9174820711
  0
LINE
  5
21A
100
AcDbEntity
  8
0
100
AcDbLine
 62
7
  6
CONTINUOUS
 10
30.1874875671
 20
139.9174820711
 11
30.1874875671
 21
146.988549883
  0
LINE
  5
21B
100
AcDbEntity
  8
0
100
AcDbLine
 62
7
  6
CONTINUOUS
 10
39.1874875671
 20
146.9885498829
 11
39.1874875671
 21
139.9174820711
  0
LINE
  5
21C
100
AcDbEntity
  8
0
100
AcDbLine
 62
7
  6
CONTINUOUS
 10
39.6874875671
 20
107.0639286805
 11
39.6874875671
 21
94.5639286805
  0
LINE
  5
21D
100
AcDbEntity
  8
0
100
AcDbLine
 62
7
  6
CONTINUOUS
 10
41.6874875671
 20
95.0639286805
 11
41.6874875671
 21
107.0639286805
  0
LINE
  5
21E
100
AcDbEntity
  8
0
100
AcDbLine
 62
7
  6
CONTINUOUS
 10
41.8874875671
 20
122.5639286805
 11
41.8874875671
 21
111.5639286805
  0
LINE
  5
21F
100
AcDbEntity
  8
0
100
AcDbLine
 62
7
  6
CONTINUOUS
 10
43.1874875671
 20
139.9174820711
 11
43.1874875671
 21
146.988549883
  0
LINE
  5
220
100
AcDbEntity
  8
0
100
AcDbLine
 62
7
  6
CONTINUOUS
 10
43.6874875671
 20
111.5639286805
 11
43.6874875671
 21
122.5639286805
  0
LINE
  5
221
100
AcDbEntity
  8
0
100
AcDbLine
 62
7
  6
CONTINUOUS
 10
59.5874875671
 20
142.3923558052
 11
59.5874875671
 21
143.453015977
  0
LINE
  5
222
100
AcDbEntity
  8
0
100
AcDbLine
 62
7
  6
CONTINUOUS
 10
153.1874875671
 20
93.0639286805
 11
137.1874875671
 21
93.0639286805
  0
LINE
  5
223
100
AcDbEntity
  8
0
100
AcDbLine
 62
7
  6
CONTINUOUS
 10
62.1874875671
 20
93.0639286805
 11
43.6874875671
 21
93.0639286805
  0
LINE
  5
224
100
AcDbEntity
  8
0
100
AcDbLine
 62
7
  6
CONTINUOUS
 10
38.1874875671
 20
93.0639286805
 11
22.1874875671
 21
93.0639286805
  0
LINE
  5
225
100
AcDbEntity
  8
0
100
AcDbLine
 62
7
  6
CONTINUOUS
 10
113.1874875671
 20
93.0639286805
 11
131.6874875671
 21
93.0639286805
  0
LINE
  5
226
100
AcDbEntity
  8
0
100
AcDbLine
 62
7
  6
CONTINUOUS
 10
64.1874875671
 20
95.0639286805
 11
64.1874875671
 21
107.0639286805
  0
LINE
  5
227
100
AcDbEntity
  8
0
100
AcDbLine
 62
7
  6
CONTINUOUS
 10
65.7874875671
 20
142.3923558052
 11
65.7874875671
 21
143.453015977
  0
LINE
  5
228
100
AcDbEntity
  8
0
100
AcDbLine
 62
7
  6
CONTINUOUS
 10
38.1874875671
 20
93.0639286805
 11
39.6874875671
 21
94.5639286805
  0
LINE
  5
229
100
AcDbEntity
  8
0
100
AcDbLine
 62
7
  6
CONTINUOUS
 10
41.6874875671
 20
103.5639286805
 11
64.1874875671
 21
103.5639286805
  0
LINE
  5
22A
100
AcDbEntity
  8
0
100
AcDbLine
 62
7
  6
CONTINUOUS
 10
111.1874875671
 20
103.5639286805
 11
133.6874875671
 21
103.5639286805
  0
LINE
  5
22B
100
AcDbEntity
  8
0
100
AcDbLine
 62
7
  6
CONTINUOUS
 10
133.6874875671
 20
105.5639286805
 11
111.1874875671
 21
105.5639286805
  0
LINE
  5
22C
100
AcDbEntity
  8
0
100
AcDbLine
 62
7
  6
CONTINUOUS
 10
64.1874875671
 20
105.5639286805
 11
41.6874875671
 21
105.5639286805
  0
LINE
  5
22D
100
AcDbEntity
  8
0
100
AcDbLine
 62
7
  6
CONTINUOUS
 10
133.6874875671
 20
106.0639286805
 11
111.1874875671
 21
106.0639286805
  0
LINE
  5
22E
100
AcDbEntity
  8
0
100
AcDbLine
 62
7
  6
CONTINUOUS
 10
64.1874875671
 20
106.0639286805
 11
41.6874875671
 21
106.0639286805
  0
LINE
  5
22F
100
AcDbEntity
  8
0
100
AcDbLine
 62
7
  6
CONTINUOUS
 10
135.6874875671
 20
107.0639286805
 11
133.6874875671
 21
107.0639286805
  0
LINE
  5
230
100
AcDbEntity
  8
0
100
AcDbLine
 62
7
  6
CONTINUOUS
 10
111.1874875671
 20
107.0639286805
 11
64.1874875671
 21
107.0639286805
  0
LINE
  5
231
100
AcDbEntity
  8
0
100
AcDbLine
 62
7
  6
CONTINUOUS
 10
39.6874875671
 20
107.0639286805
 11
41.6874875671
 21
107.0639286805
  0
LINE
  5
232
100
AcDbEntity
  8
0
100
AcDbLine
 62
7
  6
CONTINUOUS
 10
151.1874875671
 20
107.0639286805
 11
153.6874875671
 21
107.0639286805
  0
LINE
  5
233
100
AcDbEntity
  8
0
100
AcDbLine
 62
7
  6
CONTINUOUS
 10
77.6874875671
 20
147.3421032735
 11
77.6874875671
 21
139.5639286805
  0
LINE
  5
234
100
AcDbEntity
  8
0
100
AcDbLine
 62
7
  6
CONTINUOUS
 10
153.6874875671
 20
109.0639286805
 11
151.1874875671
 21
109.0639286805
  0
LINE
  5
235
100
AcDbEntity
  8
0
100
AcDbLine
 62
7
  6
CONTINUOUS
 10
41.8874875671
 20
111.5639286805
 11
43.6874875671
 21
111.5639286805
  0
LINE
  5
236
100
AcDbEntity
  8
0
100
AcDbLine
 62
7
  6
CONTINUOUS
 10
79.4874875671
 20
139.5639286805
 11
79.4874875671
 21
147.3421032735
  0
LINE
  5
237
100
AcDbEntity
  8
0
100
AcDbLine
 62
7
  6
CONTINUOUS
 10
151.6874875671
 20
114.5639286805
 11
153.6874875671
 21
114.5639286805
  0
LINE
  5
238
100
AcDbEntity
  8
0
100
AcDbLine
 62
7
  6
CONTINUOUS
 10
153.6874875671
 20
121.5639286805
 11
151.6874875671
 21
121.5639286805
  0
LINE
  5
239
100
AcDbEntity
  8
0
100
AcDbLine
 62
7
  6
CONTINUOUS
 10
43.6874875671
 20
122.5639286805
 11
41.8874875671
 21
122.5639286805
  0
LINE
  5
23A
100
AcDbEntity
  8
0
100
AcDbLine
 62
7
  6
CONTINUOUS
 10
151.1874875671
 20
125.5639286805
 11
153.6874875671
 21
125.5639286805
  0
LINE
  5
23B
100
AcDbEntity
  8
0
100
AcDbLine
 62
7
  6
CONTINUOUS
 10
131.6874875671
 20
126.0639286805
 11
133.4874875671
 21
126.0639286805
  0
LINE
  5
23C
100
AcDbEntity
  8
0
100
AcDbLine
 62
7
  6
CONTINUOUS
 10
140.1874875671
 20
126.0639286805
 11
141.9874875671
 21
126.0639286805
  0
LINE
  5
23D
100
AcDbEntity
  8
0
100
AcDbLine
 62
7
  6
CONTINUOUS
 10
95.8874875671
 20
147.3421032735
 11
95.8874875671
 21
139.5639286805
  0
LINE
  5
23E
100
AcDbEntity
  8
0
100
AcDbLine
 62
7
  6
CONTINUOUS
 10
97.6874875671
 20
139.5639286805
 11
97.6874875671
 21
147.3421032735
  0
LINE
  5
23F
100
AcDbEntity
  8
0
100
AcDbLine
 62
7
  6
CONTINUOUS
 10
151.1874875671
 20
127.5639286805
 11
153.6874875671
 21
127.5639286805
  0
LINE
  5
240
100
AcDbEntity
  8
0
100
AcDbLine
 62
7
  6
CONTINUOUS
 10
135.6874875671
 20
94.5639286805
 11
137.1874875671
 21
93.0639286805
  0
LINE
  5
241
100
AcDbEntity
  8
0
100
AcDbLine
 62
7
  6
CONTINUOUS
 10
141.9874875671
 20
137.0639286805
 11
140.1874875671
 21
137.0639286805
  0
LINE
  5
242
100
AcDbEntity
  8
0
100
AcDbLine
 62
7
  6
CONTINUOUS
 10
133.4874875671
 20
137.0639286805
 11
131.6874875671
 21
137.0639286805
  0
LINE
  5
243
100
AcDbEntity
  8
0
100
AcDbLine
 62
7
  6
CONTINUOUS
 10
20.1874875671
 20
138.7355015557
 11
155.1874875671
 21
138.7355015557
  0
LINE
  5
244
100
AcDbEntity
  8
0
100
AcDbLine
 62
7
  6
CONTINUOUS
 10
155.1874875671
 20
139.0890549463
 11
20.1874875671
 21
139.0890549463
  0
LINE
  5
245
100
AcDbEntity
  8
0
100
AcDbLine
 62
7
  6
CONTINUOUS
 10
77.6874875671
 20
139.5639286805
 11
79.4874875671
 21
139.5639286805
  0
LINE
  5
246
100
AcDbEntity
  8
0
100
AcDbLine
 62
7
  6
CONTINUOUS
 10
95.8874875671
 20
139.5639286805
 11
97.6874875671
 21
139.5639286805
  0
LINE
  5
247
100
AcDbEntity
  8
0
100
AcDbLine
 62
7
  6
CONTINUOUS
 10
26.1874875671
 20
139.9174820711
 11
30.1874875671
 21
139.9174820711
  0
LINE
  5
248
100
AcDbEntity
  8
0
100
AcDbLine
 62
7
  6
CONTINUOUS
 10
39.1874875671
 20
139.9174820711
 11
43.1874875671
 21
139.9174820711
  0
LINE
  5
249
100
AcDbEntity
  8
0
100
AcDbLine
 62
7
  6
CONTINUOUS
 10
77.6874875671
 20
140.6245888523
 11
79.4874875671
 21
140.6245888523
  0
LINE
  5
24A
100
AcDbEntity
  8
0
100
AcDbLine
 62
7
  6
CONTINUOUS
 10
95.8874875671
 20
140.6245888523
 11
97.6874875671
 21
140.6245888523
  0
LINE
  5
24B
100
AcDbEntity
  8
0
100
AcDbLine
 62
7
  6
CONTINUOUS
 10
26.1874875671
 20
140.9781422429
 11
30.1874875671
 21
140.9781422429
  0
LINE
  5
24C
100
AcDbEntity
  8
0
100
AcDbLine
 62
7
  6
CONTINUOUS
 10
39.1874875671
 20
140.9781422429
 11
43.1874875671
 21
140.9781422429
  0
LINE
  5
24D
100
AcDbEntity
  8
0
100
AcDbLine
 62
7
  6
CONTINUOUS
 10
109.5874875671
 20
142.3923558052
 11
109.5874875671
 21
143.453015977
  0
LINE
  5
24E
100
AcDbEntity
  8
0
100
AcDbLine
 62
7
  6
CONTINUOUS
 10
111.1874875671
 20
95.0639286805
 11
111.1874875671
 21
107.0639286805
  0
LINE
  5
24F
100
AcDbEntity
  8
0
100
AcDbLine
 62
7
  6
CONTINUOUS
 10
115.7874875671
 20
142.3923558052
 11
115.7874875671
 21
143.453015977
  0
LINE
  5
250
100
AcDbEntity
  8
0
100
AcDbLine
 62
7
  6
CONTINUOUS
 10
43.1874875671
 20
146.988549883
 11
39.1874875671
 21
146.988549883
  0
LINE
  5
251
100
AcDbEntity
  8
0
100
AcDbLine
 62
7
  6
CONTINUOUS
 10
30.1874875671
 20
146.988549883
 11
26.1874875671
 21
146.988549883
  0
LINE
  5
252
100
AcDbEntity
  8
0
100
AcDbLine
 62
7
  6
CONTINUOUS
 10
97.6874875671
 20
147.3421032735
 11
95.8874875671
 21
147.3421032735
  0
LINE
  5
253
100
AcDbEntity
  8
0
100
AcDbLine
 62
7
  6
CONTINUOUS
 10
79.4874875671
 20
147.3421032735
 11
77.6874875671
 21
147.3421032735
  0
LINE
  5
254
100
AcDbEntity
  8
0
100
AcDbLine
 62
7
  6
CONTINUOUS
 10
153.1874875672
 20
148.4027634453
 11
22.1874875671
 21
148.4027634453
  0
LINE
  5
255
100
AcDbEntity
  8
0
100
AcDbLine
 62
7
  6
CONTINUOUS
 10
153.1874875671
 20
149.4634236171
 11
22.1874875671
 21
149.4634236171
  0
LINE
  5
256
100
AcDbEntity
  8
0
100
AcDbLine
 62
7
  6
CONTINUOUS
 10
155.1874875671
 20
105.5639286805
 11
153.6874875671
 21
107.0639286805
  0
LINE
  5
257
100
AcDbEntity
  8
0
100
AcDbLine
 62
7
  6
CONTINUOUS
 10
131.6874875671
 20
137.0639286805
 11
131.6874875671
 21
126.0639286805
  0
LINE
  5
258
100
AcDbEntity
  8
0
100
AcDbLine
 62
7
  6
CONTINUOUS
 10
153.6874875671
 20
127.5639286805
 11
155.1874875671
 21
129.0639286805
  0
LINE
  5
259
100
AcDbEntity
  8
0
100
AcDbLine
 62
7
  6
CONTINUOUS
 10
133.4874875671
 20
126.0639286805
 11
133.4874875671
 21
137.0639286805
  0
LINE
  5
25A
100
AcDbEntity
  8
0
100
AcDbLine
 62
7
  6
CONTINUOUS
 10
133.6874875671
 20
95.0639286805
 11
133.6874875671
 21
107.0639286805
  0
LINE
  5
25B
100
AcDbEntity
  8
0
100
AcDbLine
 62
7
  6
CONTINUOUS
 10
135.6874875671
 20
94.5639286805
 11
135.6874875671
 21
107.0639286805
  0
LINE
  5
25C
100
AcDbEntity
  8
0
100
AcDbLine
 62
7
  6
CONTINUOUS
 10
140.1874875671
 20
137.0639286805
 11
140.1874875671
 21
126.0639286805
  0
LINE
  5
25D
100
AcDbEntity
  8
0
100
AcDbLine
 62
7
  6
CONTINUOUS
 10
141.9874875671
 20
126.0639286805
 11
141.9874875671
 21
137.0639286805
  0
LINE
  5
25E
100
AcDbEntity
  8
0
100
AcDbLine
 62
7
  6
CONTINUOUS
 10
151.1874875671
 20
107.0639286805
 11
151.1874875671
 21
109.0639286805
  0
LINE
  5
25F
100
AcDbEntity
  8
0
100
AcDbLine
 62
7
  6
CONTINUOUS
 10
151.1874875671
 20
125.5639286805
 11
151.1874875671
 21
127.5639286805
  0
LINE
  5
260
100
AcDbEntity
  8
0
100
AcDbLine
 62
7
  6
CONTINUOUS
 10
151.6874875671
 20
109.0639286805
 11
151.6874875671
 21
125.5639286805
  0
LINE
  5
261
100
AcDbEntity
  8
0
100
AcDbLine
 62
7
  6
CONTINUOUS
 10
152.1874875671
 20
121.5639286805
 11
152.1874875671
 21
114.5639286805
  0
LINE
  5
262
100
AcDbEntity
  8
0
100
AcDbLine
 62
7
  6
CONTINUOUS
 10
153.1874875671
 20
149.4634236171
 11
153.1874875671
 21
148.4027634453
  0
LINE
  5
263
100
AcDbEntity
  8
0
100
AcDbLine
 62
7
  6
CONTINUOUS
 10
153.6874875671
 20
109.0639286805
 11
153.6874875671
 21
125.5639286805
  0
LINE
  5
264
100
AcDbEntity
  8
0
100
AcDbLine
 62
7
  6
CONTINUOUS
 10
155.1874875671
 20
148.0492100547
 11
155.1874875671
 21
129.0639286805
  0
LINE
  5
265
100
AcDbEntity
  8
0
100
AcDbLine
 62
7
  6
CONTINUOUS
 10
155.1874875671
 20
105.5639286805
 11
155.1874875671
 21
95.0639286805
  0
CIRCLE
  5
266
100
AcDbEntity
  8
0
100
AcDbCircle
 62
7
  6
CONTINUOUS
 10
149.1874875671
 20
99.0639286805
 40
3.55
  0
CIRCLE
  5
267
100
AcDbEntity
  8
0
100
AcDbCircle
 62
7
  6
CONTINUOUS
 10
87.6874875671
 20
131.5639286805
 40
3.55
  0
CIRCLE
  5
268
100
AcDbEntity
  8
0
100
AcDbCircle
 62
7
  6
CONTINUOUS
 10
26.1874875671
 20
99.0639286805
 40
3.55
  0
CIRCLE
  5
269
100
AcDbEntity
  8
0
100
AcDbCircle
 62
7
  6
CONTINUOUS
 10
88.9374875671
 20
117.0639286805
 40
3.1
  0
CIRCLE
  5
26A
100
AcDbEntity
  8
0
100
AcDbCircle
 62
7
  6
CONTINUOUS
 10
116.6874875671
 20
131.5639286805
 40
3.1
  0
CIRCLE
  5
26B
100
AcDbEntity
  8
0
100
AcDbCircle
 62
7
  6
CONTINUOUS
 10
58.6874875671
 20
117.0639286805
 40
3.1
  0
CIRCLE
  5
26C
100
AcDbEntity
  8
0
100
AcDbCircle
 62
7
  6
CONTINUOUS
 10
127.6874875671
 20
98.0639286805
 40
2.8
  0
CIRCLE
  5
26D
100
AcDbEntity
  8
0
100
AcDbCircle
 62
7
  6
CONTINUOUS
 10
117.1874875671
 20
98.0639286805
 40
2.8
  0
CIRCLE
  5
26E
100
AcDbEntity
  8
0
100
AcDbCircle
 62
7
  6
CONTINUOUS
 10
47.6874875671
 20
98.0639286805
 40
2.8
  0
CIRCLE
  5
26F
100
AcDbEntity
  8
0
100
AcDbCircle
 62
7
  6
CONTINUOUS
 10
58.1874875671
 20
98.0639286805
 40
2.8
  0
CIRCLE
  5
270
100
AcDbEntity
  8
0
100
AcDbCircle
 62
7
  6
CONTINUOUS
 10
149.1874875671
 20
99.0639286805
 40
2.05
  0
CIRCLE
  5
271
100
AcDbEntity
  8
0
100
AcDbCircle
 62
7
  6
CONTINUOUS
 10
87.6874875671
 20
131.5639286805
 40
2.05
  0
CIRCLE
  5
272
100
AcDbEntity
  8
0
100
AcDbCircle
 62
7
  6
CONTINUOUS
 10
26.1874875671
 20
99.0639286805
 40
2.05
  0
ARC
  5
273
100
AcDbEntity
  8
0
100
AcDbCircle
 62
7
  6
CONTINUOUS
 10
153.1874875671
 20
95.0639286805
 40
2.0
100
AcDbArc
 50
270.0
 51
360.0
  0
ARC
  5
274
100
AcDbEntity
  8
0
100
AcDbCircle
 62
7
  6
CONTINUOUS
 10
22.1874875671
 20
95.0639286805
 40
2.0
100
AcDbArc
 50
180.0
 51
270.0
  0
ARC
  5
275
100
AcDbEntity
  8
0
100
AcDbCircle
 62
7
  6
CONTINUOUS
 10
131.6874875671
 20
95.0639286805
 40
2.0
100
AcDbArc
 50
270.0
 51
360.0
  0
ARC
  5
276
100
AcDbEntity
  8
0
100
AcDbCircle
 62
7
  6
CONTINUOUS
 10
113.1874875671
 20
95.0639286805
 40
2.0
100
AcDbArc
 50
180.0
 51
270.0
  0
ARC
  5
277
100
AcDbEntity
  8
0
100
AcDbCircle
 62
7
  6
CONTINUOUS
 10
43.6874875671
 20
95.0639286805
 40
2.0
100
AcDbArc
 50
180.0
 51
270.0
  0
ARC
  5
278
100
AcDbEntity
  8
0
100
AcDbCircle
 62
7
  6
CONTINUOUS
 10
62.1874875671
 20
95.0639286805
 40
2.0
100
AcDbArc
 50
270.0
 51
360.0
  0
CIRCLE
  5
279
100
AcDbEntity
  8
0
100
AcDbCircle
 62
7
  6
CONTINUOUS
 10
88.9374875671
 20
117.0639286805
 40
1.6
  0
CIRCLE
  5
27A
100
AcDbEntity
  8
0
100
AcDbCircle
 62
7
  6
CONTINUOUS
 10
116.6874875671
 20
131.5639286805
 40
1.6
  0
CIRCLE
  5
27B
100
AcDbEntity
  8
0
100
AcDbCircle
 62
7
  6
CONTINUOUS
 10
58.6874875671
 20
117.0639286805
 40
1.6
  0
SPLINE
  5
27C
100
AcDbEntity
  8
0
100
AcDbSpline
 62
7
  6
CONTINUOUS
 70
0
 71
3
 72
11
 73
7
 74
0
 42
0.0000001
 43
0.0000001
 44
0.0000000001
 40
0.0
 40
0.0
 40
0.0
 40
0.0
 40
0.2281583607
 40
0.5009916667
 40
0.773355162
 40
1.0
 40
1.0
 40
1.0
 40
1.0
 10
113.9575832635
 20
143.0903309244
 30
0.0
 10
113.7870549468
 20
142.9814974037
 30
0.0
 10
113.3670068259
 20
142.813925773
 30
0.0
 10
112.679624078
 20
142.7311912179
 30
0.0
 10
111.9940417274
 20
142.8175424009
 30
0.0
 10
111.5766299713
 20
142.9869904004
 30
0.0
 10
111.4079914256
 20
143.0962814081
 30
0.0
  0
SPLINE
  5
27D
100
AcDbEntity
  8
0
100
AcDbSpline
 62
7
  6
CONTINUOUS
 70
0
 71
3
 72
13
 73
9
 74
0
 42
0.0000001
 43
0.0000001
 44
0.0000000001
 40
0.0
 40
0.0
 40
0.0
 40
0.0
 40
0.2870738714
 40
0.5535705122
 40
0.6755055605
 40
0.789314473
 40
0.8965741776
 40
1.0
 40
1.0
 40
1.0
 40
1.0
 10
153.1874875672
 20
149.4634236171
 30
0.0
 10
153.4451413763
 20
149.4634236171
 30
0.0
 10
153.9445088402
 20
149.3963214125
 30
0.0
 10
154.5077784322
 20
149.1416659302
 30
0.0
 10
154.853429401
 20
148.8480475733
 30
0.0
 10
155.0426482639
 20
148.6017803532
 30
0.0
 10
155.1604753267
 20
148.3320798438
 30
0.0
 10
155.1874875671
 20
148.1420365352
 30
0.0
 10
155.1874875671
 20
148.0492100547
 30
0.0
  0
SPLINE
  5
27E
100
AcDbEntity
  8
0
100
AcDbSpline
 62
7
  6
CONTINUOUS
 70
0
 71
3
 72
13
 73
9
 74
0
 42
0.0000001
 43
0.0000001
 44
0.0000000001
 40
0.0
 40
0.0
 40
0.0
 40
0.0
 40
0.1034257909
 40
0.2106854388
 40
0.3244943269
 40
0.4464293595
 40
0.7129260147
 40
1.0
 40
1.0
 40
1.0
 40
1.0
 10
20.1874875671
 20
148.0492100547
 30
0.0
 10
20.1874875671
 20
148.142036507
 30
0.0
 10
20.2144997457
 20
148.3320797436
 30
0.0
 10
20.3323267726
 20
148.6017801595
 30
0.0
 10
20.5215455244
 20
148.8480473487
 30
0.0
 10
20.8671964167
 20
149.1416657651
 30
0.0
 10
21.4304660729
 20
149.3963213669
 30
0.0
 10
21.9298336555
 20
149.4634236171
 30
0.0
 10
22.1874875671
 20
149.4634236171
 30
0.0
  0
SPLINE
  5
27F
100
AcDbEntity
  8
0
100
AcDbSpline
 62
7
  6
CONTINUOUS
 70
0
 71
3
 72
11
 73
7
 74
0
 42
0.0000001
 43
0.0000001
 44
0.0000000001
 40
0.0
 40
0.0
 40
0.0
 40
0.0
 40
0.2281583607
 40
0.5009916667
 40
0.773355162
 40
1.0
 40
1.0
 40
1.0
 40
1.0
 10
63.9575832635
 20
143.0903309244
 30
0.0
 10
63.7870549468
 20
142.9814974037
 30
0.0
 10
63.3670068259
 20
142.813925773
 30
0.0
 10
62.679624078
 20
142.7311912179
 30
0.0
 10
61.9940417274
 20
142.8175424009
 30
0.0
 10
61.5766299713
 20
142.9869904004
 30
0.0
 10
61.4079914256
 20
143.0962814081
 30
0.0
  0
SPLINE
  5
280
100
AcDbEntity
  8
0
100
AcDbSpline
 62
7
  6
CONTINUOUS
 70
0
 71
3
 72
19
 73
15
 74
0
 42
0.0000001
 43
0.0000001
 44
0.0000000001
 40
0.0
 40
0.0
 40
0.0
 40
0.0
 40
0.0516895829
 40
0.1053507457
 40
0.1622594208
 40
0.2232187551
 40
0.3564672951
 40
0.4999879647
 40
0.6435089233
 40
0.7767648935
 40
0.8377296576
 40
0.8946443936
 40
0.9483095861
 40
1.0
 40
1.0
 40
1.0
 40
1.0
 10
61.0874875671
 20
142.3923558052
 30
0.0
 10
61.087487567
 20
142.4665824039
 30
0.0
 10
61.1091963759
 20
142.6186049403
 30
0.0
 10
61.2033184187
 20
142.8344303287
 30
0.0
 10
61.3547477234
 20
143.0314758282
 30
0.0
 10
61.6313102386
 20
143.2662519445
 30
0.0
 10
62.0821259564
 20
143.4700440115
 30
0.0
 10
62.6874339356
 20
143.55153767
 30
0.0
 10
63.2927554213
 20
143.4700672205
 30
0.0
 10
63.7435983148
 20
143.2662893449
 30
0.0
 10
64.0201941995
 20
143.0315102331
 30
0.0
 10
64.171645016
 20
142.8344521013
 30
0.0
 10
64.2657751925
 20
142.6186128046
 30
0.0
 10
64.2874875671
 20
142.4665835971
 30
0.0
 10
64.2874875671
 20
142.3923558052
 30
0.0
  0
SPLINE
  5
281
100
AcDbEntity
  8
0
100
AcDbSpline
 62
7
  6
CONTINUOUS
 70
0
 71
3
 72
19
 73
15
 74
0
 42
0.0000001
 43
0.0000001
 44
0.0000000001
 40
0.0
 40
0.0
 40
0.0
 40
0.0
 40
0.0517128511
 40
0.1053430644
 40
0.1622487636
 40
0.223216063
 40
0.3564715866
 40
0.4999915195
 40
0.6435117143
 40
0.7767725198
 40
0.8377441258
 40
0.8946534192
 40
0.9482865794
 40
1.0
 40
1.0
 40
1.0
 40
1.0
 10
59.5874875671
 20
142.3923558052
 30
0.0
 10
59.5874875671
 20
142.2484752266
 30
0.0
 10
59.6293559203
 20
141.9539083484
 30
0.0
 10
59.8119794245
 20
141.5358654564
 30
0.0
 10
60.1052893503
 20
141.1541549595
 30
0.0
 10
60.6409936579
 20
140.6990233435
 30
0.0
 10
61.5146377979
 20
140.3043934953
 30
0.0
 10
62.687415189
 20
140.1463900425
 30
0.0
 10
63.8602132641
 20
140.3043571183
 30
0.0
 10
64.7338930173
 20
140.6989733531
 30
0.0
 10
65.2696443839
 20
141.1541073548
 30
0.0
 10
65.5629788653
 20
141.5358381024
 30
0.0
 10
65.7456161655
 20
141.9538969154
 30
0.0
 10
65.7874875671
 20
142.248473642
 30
0.0
 10
65.7874875671
 20
142.3923558052
 30
0.0
  0
SPLINE
  5
282
100
AcDbEntity
  8
0
100
AcDbSpline
 62
7
  6
CONTINUOUS
 70
0
 71
3
 72
19
 73
15
 74
0
 42
0.0000001
 43
0.0000001
 44
0.0000000001
 40
0.0
 40
0.0
 40
0.0
 40
0.0
 40
0.0516895829
 40
0.1053507457
 40
0.1622594208
 40
0.2232187551
 40
0.3564672951
 40
0.4999879647
 40
0.6435089233
 40
0.7767648935
 40
0.8377296576
 40
0.8946443936
 40
0.9483095861
 40
1.0
 40
1.0
 40
1.0
 40
1.0
 10
111.0874875671
 20
142.3923558052
 30
0.0
 10
111.087487567
 20
142.4665824039
 30
0.0
 10
111.1091963759
 20
142.6186049403
 30
0.0
 10
111.2033184187
 20
142.8344303287
 30
0.0
 10
111.3547477234
 20
143.0314758282
 30
0.0
 10
111.6313102386
 20
143.2662519445
 30
0.0
 10
112.0821259564
 20
143.4700440115
 30
0.0
 10
112.6874339356
 20
143.55153767
 30
0.0
 10
113.2927554213
 20
143.4700672205
 30
0.0
 10
113.7435983148
 20
143.2662893449
 30
0.0
 10
114.0201941995
 20
143.0315102331
 30
0.0
 10
114.171645016
 20
142.8344521013
 30
0.0
 10
114.2657751925
 20
142.6186128046
 30
0.0
 10
114.2874875671
 20
142.4665835971
 30
0.0
 10
114.2874875671
 20
142.3923558052
 30
0.0
  0
SPLINE
  5
283
100
AcDbEntity
  8
0
100
AcDbSpline
 62
7
  6
CONTINUOUS
 70
0
 71
3
 72
19
 73
15
 74
0
 42
0.0000001
 43
0.0000001
 44
0.0000000001
 40
0.0
 40
0.0
 40
0.0
 40
0.0
 40
0.0517128511
 40
0.1053430644
 40
0.1622487636
 40
0.223216063
 40
0.3564715866
 40
0.4999915195
 40
0.6435117143
 40
0.7767725198
 40
0.8377441258
 40
0.8946534192
 40
0.9482865794
 40
1.0
 40
1.0
 40
1.0
 40
1.0
 10
109.5874875671
 20
142.3923558052
 30
0.0
 10
109.5874875671
 20
142.2484752266
 30
0.0
 10
109.6293559203
 20
141.9539083484
 30
0.0
 10
109.8119794245
 20
141.5358654564
 30
0.0
 10
110.1052893503
 20
141.1541549595
 30
0.0
 10
110.6409936579
 20
140.6990233435
 30
0.0
 10
111.5146377979
 20
140.3043934953
 30
0.0
 10
112.687415189
 20
140.1463900425
 30
0.0
 10
113.8602132641
 20
140.3043571183
 30
0.0
 10
114.7338930173
 20
140.6989733531
 30
0.0
 10
115.2696443839
 20
141.1541073548
 30
0.0
 10
115.5629788653
 20
141.5358381024
 30
0.0
 10
115.7456161655
 20
141.9538969154
 30
0.0
 10
115.7874875671
 20
142.248473642
 30
0.0
 10
115.7874875671
 20
142.3923558052
 30
0.0
  0
SPLINE
  5
284
100
AcDbEntity
  8
0
100
AcDbSpline
 62
7
  6
CONTINUOUS
 70
0
 71
3
 72
19
 73
15
 74
0
 42
0.0000001
 43
0.0000001
 44
0.0000000001
 40
0.0
 40
0.0
 40
0.0
 40
0.0
 40
0.0517128511
 40
0.1053430644
 40
0.1622487636
 40
0.223216063
 40
0.3564715866
 40
0.4999915195
 40
0.6435117143
 40
0.7767725198
 40
0.8377441258
 40
0.8946534192
 40
0.9482865794
 40
1.0
 40
1.0
 40
1.0
 40
1.0
 10
59.5874875671
 20
143.453015977
 30
0.0
 10
59.5874875671
 20
143.5968965557
 30
0.0
 10
59.6293559203
 20
143.8914634339
 30
0.0
 10
59.8119794245
 20
144.3095063258
 30
0.0
 10
60.1052893503
 20
144.6912168227
 30
0.0
 10
60.6409936579
 20
145.1463484388
 30
0.0
 10
61.5146377979
 20
145.5409782869
 30
0.0
 10
62.687415189
 20
145.6989817397
 30
0.0
 10
63.8602132641
 20
145.541014664
 30
0.0
 10
64.7338930173
 20
145.1463984292
 30
0.0
 10
65.2696443839
 20
144.6912644274
 30
0.0
 10
65.5629788653
 20
144.3095336799
 30
0.0
 10
65.7456161655
 20
143.8914748669
 30
0.0
 10
65.7874875671
 20
143.5968981403
 30
0.0
 10
65.7874875671
 20
143.453015977
 30
0.0
  0
SPLINE
  5
285
100
AcDbEntity
  8
0
100
AcDbSpline
 62
7
  6
CONTINUOUS
 70
0
 71
3
 72
19
 73
15
 74
0
 42
0.0000001
 43
0.0000001
 44
0.0000000001
 40
0.0
 40
0.0
 40
0.0
 40
0.0
 40
0.0517128511
 40
0.1053430644
 40
0.1622487636
 40
0.223216063
 40
0.3564715866
 40
0.4999915195
 40
0.6435117143
 40
0.7767725198
 40
0.8377441258
 40
0.8946534192
 40
0.9482865794
 40
1.0
 40
1.0
 40
1.0
 40
1.0
 10
109.5874875671
 20
143.453015977
 30
0.0
 10
109.5874875671
 20
143.5968965557
 30
0.0
 10
109.6293559203
 20
143.8914634339
 30
0.0
 10
109.8119794245
 20
144.3095063258
 30
0.0
 10
110.1052893503
 20
144.6912168227
 30
0.0
 10
110.6409936579
 20
145.1463484388
 30
0.0
 10
111.5146377979
 20
145.5409782869
 30
0.0
 10
112.687415189
 20
145.6989817397
 30
0.0
 10
113.8602132641
 20
145.541014664
 30
0.0
 10
114.7338930173
 20
145.1463984292
 30
0.0
 10
115.2696443839
 20
144.6912644274
 30
0.0
 10
115.5629788653
 20
144.3095336799
 30
0.0
 10
115.7456161655
 20
143.8914748669
 30
0.0
 10
115.7874875671
 20
143.5968981403
 30
0.0
 10
115.7874875671
 20
143.453015977
 30
0.0
  0
SPLINE
  5
286
100
AcDbEntity
  8
0
100
AcDbSpline
 62
7
  6
CONTINUOUS
 70
0
 71
3
 72
9
 73
5
 74
0
 42
0.0000001
 43
0.0000001
 44
0.0000000001
 40
0.0
 40
0.0
 40
0.0
 40
0.0
 40
0.4850076596
 40
1.0
 40
1.0
 40
1.0
 40
1.0
 10
155.1874875671
 20
146.9885498829
 30
0.0
 10
155.1874875671
 20
147.1127936213
 30
0.0
 10
155.1378840582
 20
147.3708778074
 30
0.0
 10
155.002470683
 20
147.5942323134
 30
0.0
 10
154.918956517
 20
147.6963575113
 30
0.0
  0
SPLINE
  5
287
100
AcDbEntity
  8
0
100
AcDbSpline
 62
7
  6
CONTINUOUS
 70
0
 71
3
 72
10
 73
6
 74
0
 42
0.0000001
 43
0.0000001
 44
0.0000000001
 40
0.0
 40
0.0
 40
0.0
 40
0.0
 40
0.4672185221
 40
0.7291180345
 40
1.0
 40
1.0
 40
1.0
 40
1.0
 10
154.918956517
 20
147.6963575113
 30
0.0
 10
154.7298429323
 20
147.927614832
 30
0.0
 10
154.3180896411
 20
148.1954061483
 30
0.0
 10
153.7027716321
 20
148.371213056
 30
0.0
 10
153.3606881312
 20
148.4027634453
 30
0.0
 10
153.1874875672
 20
148.4027634453
 30
0.0
  0
SPLINE
  5
288
100
AcDbEntity
  8
0
100
AcDbSpline
 62
7
  6
CONTINUOUS
 70
0
 71
3
 72
19
 73
15
 74
0
 42
0.0000001
 43
0.0000001
 44
0.0000000001
 40
0.0
 40
0.0
 40
0.0
 40
0.0
 40
0.0516895829
 40
0.1053507457
 40
0.1622594208
 40
0.2232187551
 40
0.3564672951
 40
0.4999879647
 40
0.6435089233
 40
0.7767648935
 40
0.8377296576
 40
0.8946443936
 40
0.9483095861
 40
1.0
 40
1.0
 40
1.0
 40
1.0
 10
64.2874875671
 20
142.3923558052
 30
0.0
 10
64.2874875671
 20
142.3181292066
 30
0.0
 10
64.2657787582
 20
142.1661066703
 30
0.0
 10
64.1716567156
 20
141.9502812817
 30
0.0
 10
64.0202274109
 20
141.7532357823
 30
0.0
 10
63.7436648956
 20
141.518459666
 30
0.0
 10
63.2928491779
 20
141.3146675989
 30
0.0
 10
62.6875411987
 20
141.2331739404
 30
0.0
 10
62.082219713
 20
141.31464439
 30
0.0
 10
61.6313768195
 20
141.5184222656
 30
0.0
 10
61.3547809348
 20
141.7532013773
 30
0.0
 10
61.2033301182
 20
141.9502595092
 30
0.0
 10
61.1091999419
 20
142.1660988059
 30
0.0
 10
61.0874875673
 20
142.3181280133
 30
0.0
 10
61.0874875671
 20
142.3923558052
 30
0.0
  0
SPLINE
  5
289
100
AcDbEntity
  8
0
100
AcDbSpline
 62
7
  6
CONTINUOUS
 70
0
 71
3
 72
10
 73
6
 74
0
 42
0.0000001
 43
0.0000001
 44
0.0000000001
 40
0.0
 40
0.0
 40
0.0
 40
0.0
 40
0.2708807358
 40
0.5327796083
 40
1.0
 40
1.0
 40
1.0
 40
1.0
 10
22.1874875671
 20
148.4027634453
 30
0.0
 10
22.0142921796
 20
148.4027634453
 30
0.0
 10
21.6722186542
 20
148.3712149596
 30
0.0
 10
21.0569147036
 20
148.1954175952
 30
0.0
 10
20.6451679423
 20
147.9276417212
 30
0.0
 10
20.4560501548
 20
147.6963960755
 30
0.0
  0
SPLINE
  5
28A
100
AcDbEntity
  8
0
100
AcDbSpline
 62
7
  6
CONTINUOUS
 70
0
 71
3
 72
9
 73
5
 74
0
 42
0.0000001
 43
0.0000001
 44
0.0000000001
 40
0.0
 40
0.0
 40
0.0
 40
0.0
 40
0.5149938733
 40
1.0
 40
1.0
 40
1.0
 40
1.0
 10
20.4560501548
 20
147.6963960755
 30
0.0
 10
20.3725267571
 20
147.5942670147
 30
0.0
 10
20.2370975036
 20
147.3709020519
 30
0.0
 10
20.1874875671
 20
147.112801179
 30
0.0
 10
20.1874875671
 20
146.9885498829
 30
0.0
  0
SPLINE
  5
28B
100
AcDbEntity
  8
0
100
AcDbSpline
 62
7
  6
CONTINUOUS
 70
0
 71
3
 72
19
 73
15
 74
0
 42
0.0000001
 43
0.0000001
 44
0.0000000001
 40
0.0
 40
0.0
 40
0.0
 40
0.0
 40
0.0517128511
 40
0.1053430644
 40
0.1622487636
 40
0.223216063
 40
0.3564715866
 40
0.4999915195
 40
0.6435117143
 40
0.7767725198
 40
0.8377441258
 40
0.8946534192
 40
0.9482865794
 40
1.0
 40
1.0
 40
1.0
 40
1.0
 10
65.7874875671
 20
142.3923558052
 30
0.0
 10
65.7874875671
 20
142.5362363839
 30
0.0
 10
65.745619214
 20
142.8308032621
 30
0.0
 10
65.5629957098
 20
143.2488461541
 30
0.0
 10
65.269685784
 20
143.6305566509
 30
0.0
 10
64.7339814764
 20
144.085688267
 30
0.0
 10
63.8603373364
 20
144.4803181151
 30
0.0
 10
62.6875599453
 20
144.6383215679
 30
0.0
 10
61.5147618702
 20
144.4803544922
 30
0.0
 10
60.6410821169
 20
144.0857382574
 30
0.0
 10
60.1053307504
 20
143.6306042557
 30
0.0
 10
59.811996269
 20
143.2488735081
 30
0.0
 10
59.6293589687
 20
142.8308146951
 30
0.0
 10
59.5874875671
 20
142.5362379685
 30
0.0
 10
59.5874875671
 20
142.3923558052
 30
0.0
  0
SPLINE
  5
28C
100
AcDbEntity
  8
0
100
AcDbSpline
 62
7
  6
CONTINUOUS
 70
0
 71
3
 72
13
 73
9
 74
0
 42
0.0000001
 43
0.0000001
 44
0.0000000001
 40
0.0
 40
0.0
 40
0.0
 40
0.0
 40
0.2331767163
 40
0.3645764681
 40
0.5006497319
 40
0.6366113747
 40
0.7677103757
 40
1.0
 40
1.0
 40
1.0
 40
1.0
 10
111.2827582436
 20
142.9113868588
 30
0.0
 10
111.4320261979
 20
142.7178347156
 30
0.0
 10
111.7679423029
 20
142.4928515658
 30
0.0
 10
112.2726171646
 20
142.3466654078
 30
0.0
 10
112.6967619254
 20
142.3080778518
 30
0.0
 10
113.1202903851
 20
142.3501285613
 30
0.0
 10
113.6222930381
 20
142.5003641064
 30
0.0
 10
113.9551932994
 20
142.7281994718
 30
0.0
 10
114.1011105648
 20
142.9231297112
 30
0.0
  0
SPLINE
  5
28D
100
AcDbEntity
  8
0
100
AcDbSpline
 62
7
  6
CONTINUOUS
 70
0
 71
3
 72
19
 73
15
 74
0
 42
0.0000001
 43
0.0000001
 44
0.0000000001
 40
0.0
 40
0.0
 40
0.0
 40
0.0
 40
0.0516895829
 40
0.1053507457
 40
0.1622594208
 40
0.2232187551
 40
0.3564672951
 40
0.4999879647
 40
0.6435089233
 40
0.7767648935
 40
0.8377296576
 40
0.8946443936
 40
0.9483095861
 40
1.0
 40
1.0
 40
1.0
 40
1.0
 10
114.2874875671
 20
142.3923558052
 30
0.0
 10
114.2874875671
 20
142.3181292066
 30
0.0
 10
114.2657787582
 20
142.1661066703
 30
0.0
 10
114.1716567156
 20
141.9502812817
 30
0.0
 10
114.0202274109
 20
141.7532357823
 30
0.0
 10
113.7436648956
 20
141.518459666
 30
0.0
 10
113.2928491779
 20
141.3146675989
 30
0.0
 10
112.6875411987
 20
141.2331739404
 30
0.0
 10
112.082219713
 20
141.31464439
 30
0.0
 10
111.6313768195
 20
141.5184222656
 30
0.0
 10
111.3547809348
 20
141.7532013773
 30
0.0
 10
111.2033301182
 20
141.9502595092
 30
0.0
 10
111.1091999419
 20
142.1660988059
 30
0.0
 10
111.0874875673
 20
142.3181280133
 30
0.0
 10
111.0874875671
 20
142.3923558052
 30
0.0
  0
SPLINE
  5
28E
100
AcDbEntity
  8
0
100
AcDbSpline
 62
7
  6
CONTINUOUS
 70
0
 71
3
 72
13
 73
9
 74
0
 42
0.0000001
 43
0.0000001
 44
0.0000000001
 40
0.0
 40
0.0
 40
0.0
 40
0.0
 40
0.2331767163
 40
0.3645764681
 40
0.5006497319
 40
0.6366113747
 40
0.7677103757
 40
1.0
 40
1.0
 40
1.0
 40
1.0
 10
61.2827582436
 20
142.9113868588
 30
0.0
 10
61.4320261979
 20
142.7178347156
 30
0.0
 10
61.7679423029
 20
142.4928515658
 30
0.0
 10
62.2726171646
 20
142.3466654078
 30
0.0
 10
62.6967619254
 20
142.3080778518
 30
0.0
 10
63.1202903851
 20
142.3501285613
 30
0.0
 10
63.6222930381
 20
142.5003641064
 30
0.0
 10
63.9551932994
 20
142.7281994718
 30
0.0
 10
64.1011105648
 20
142.9231297112
 30
0.0
  0
SPLINE
  5
28F
100
AcDbEntity
  8
0
100
AcDbSpline
 62
7
  6
CONTINUOUS
 70
0
 71
3
 72
19
 73
15
 74
0
 42
0.0000001
 43
0.0000001
 44
0.0000000001
 40
0.0
 40
0.0
 40
0.0
 40
0.0
 40
0.0517128511
 40
0.1053430644
 40
0.1622487636
 40
0.223216063
 40
0.3564715866
 40
0.4999915195
 40
0.6435117143
 40
0.7767725198
 40
0.8377441258
 40
0.8946534192
 40
0.9482865794
 40
1.0
 40
1.0
 40
1.0
 40
1.0
 10
115.7874875671
 20
142.3923558052
 30
0.0
 10
115.7874875671
 20
142.5362363839
 30
0.0
 10
115.745619214
 20
142.8308032621
 30
0.0
 10
115.5629957098
 20
143.2488461541
 30
0.0
 10
115.269685784
 20
143.6305566509
 30
0.0
 10
114.7339814764
 20
144.085688267
 30
0.0
 10
113.8603373364
 20
144.4803181151
 30
0.0
 10
112.6875599453
 20
144.6383215679
 30
0.0
 10
111.5147618702
 20
144.4803544922
 30
0.0
 10
110.6410821169
 20
144.0857382574
 30
0.0
 10
110.1053307504
 20
143.6306042557
 30
0.0
 10
109.811996269
 20
143.2488735081
 30
0.0
 10
109.6293589687
 20
142.8308146951
 30
0.0
 10
109.5874875671
 20
142.5362379685
 30
0.0
 10
109.5874875671
 20
142.3923558052
 30
0.0
  0
ENDSEC
  0
SECTION
  2
OBJECTS
  0
DICTIONARY
  5
C
100
AcDbDictionary
280
0
281
1
  3
ACAD_GROUP
350
D
  3
ACAD_MLINESTYLE
350
17
  3
ACAD_LAYOUT
350
1A
  3
ACAD_PLOTSETTINGS
350
19
  3
ACAD_PLOTSTYLENAME
350
E
  0
DICTIONARY
  5
D
102
{ACAD_REACTORS
330
C
102
}
100
AcDbDictionary
280
0
281
1
  0
ACDBDICTIONARYWDFLT
  5
E
102
{ACAD_REACTORS
330
C
102
}
100
AcDbDictionary
281
1
  3
Normal
350
F
100
AcDbDictionaryWithDefault
340
F
  0
DICTIONARY
  5
17
102
{ACAD_REACTORS
330
C
102
}
100
AcDbDictionary
280
0
281
1
  3
Standard
350
18
  0
DICTIONARY
  5
19
102
{ACAD_REACTORS
330
C
102
}
100
AcDbDictionary
281
1
  0
DICTIONARY
  5
1A
102
{ACAD_REACTORS
330
C
102
}
100
AcDbDictionary
281
1
  3
Model
350
290
  3
Layout1
350
291
  0
ACDBPLACEHOLDER
  5
F
102
{ACAD_REACTORS
330
E
102
}
  0
MLINESTYLE
  5
18
102
{ACAD_REACTORS
330
17
102
}
100
AcDbMlineStyle
  2
STANDARD
 70
0
  3

 62
256
 51
90.0
 52
90.0
 71
2
 49
0.5
 62
256
  6
BYLAYER
 49
-0.5
 62
256
  6
BYLAYER
  0
LAYOUT
  5
290
102
{ACAD_REACTORS
330
1A
102
}
100
AcDbPlotSettings
  1

  2
none_device
  4

  6

 40
0.0
 41
0.0
 42
0.0
 43
0.0
 44
210.0
 45
297.0
 46
0.0
 47
0.0
 48
0.0
 49
0.0
140
0.0
141
0.0
142
1.0
143
1.0
 70
1024
 72
1
 73
0
 74
0
  7

 75
0
147
1.0
148
0.0
149
0.0
100
AcDbLayout
  1
Model
 70
0
 71
0
 10
0.0
 20
0.0
 11
210.0
 21
297.0
 12
0.0
 22
0.0
 32
0.0
 14
0.0
 24
0.0
 34
0.0
 15
0.0
 25
0.0
 35
0.0
146
0.0
 13
0.0
 23
0.0
 33
0.0
 16
1.0
 26
0.0
 36
0.0
 17
0.0
 27
1.0
 37
0.0
 76
0
330
210
345
0
346
0
  0
LAYOUT
  5
291
102
{ACAD_REACTORS
330
1A
102
}
100
AcDbPlotSettings
  1

  2
none_device
  4

  6

 40
0.0
 41
0.0
 42
0.0
 43
0.0
 44
210.0
 45
297.0
 46
0.0
 47
0.0
 48
0.0
 49
0.0
140
0.0
141
0.0
142
1.0
143
1.0
 70
0
 72
1
 73
0
 74
0
  7

 75
0
147
1.0
148
0.0
149
0.0
100
AcDbLayout
  1
Layout1
 70
0
 71
1
 10
0.0
 20
0.0
 11
210.0
 21
297.0
 12
0.0
 22
0.0
 32
0.0
 14
0.0
 24
0.0
 34
0.0
 15
0.0
 25
0.0
 35
0.0
146
0.0
 13
0.0
 23
0.0
 33
0.0
 16
1.0
 26
0.0
 36
0.0
 17
0.0
 27
1.0
 37
0.0
 76
0
330
211
345
0
346
0
  0
ENDSEC
  0
EOF
