999
DXF file: Y:\001_SCHNEIDER_PARIS\78_2020_429_Grey Project M580\TRAVAIL LUCAS SANTANA G3\CAD3D\2D-Views\BMXCRA31200_2D-Views\BMXCRA31200_2D-FRONT.dxf
999
Pro/ENGINEER 2018260 by Parametric Technology Corporation
  0
SECTION
  2
HEADER
  9
$ACADVER
  1
AC1027
  9
$DWGCODEPAGE
  3
ANSI_1252
  9
$EXTMAX
 10
558.8
 20
431.8
 30
0.0
  9
$EXTMIN
 10
0.0
 20
0.0
 30
0.0
  9
$LIMMIN
 10
0.0
 20
0.0
  9
$LIMMAX
 10
558.8
 20
431.8
  9
$VIEWCTR
 10
279.4
 20
215.9
  9
$VIEWSIZE
 40
431.8
  9
$CLAYER
  8
0
  9
$LTSCALE
 40
30.734
  9
$CELTYPE
  6
BYLAYER
  9
$DIMSCALE
 40
1.0
  9
$DIMASZ
 40
3.5
  9
$DIMEXO
 40
1.0
  9
$DIMDLI
 40
21.2344
  9
$DIMEXE
 40
3.0
  9
$DIMCEN
 40
5.0292
  9
$DIMLFAC
 40
1.0
  9
$DIMBLK
  1
_FILLED
  9
$DIMALT
 70
0
  9
$DIMALTF
 40
0.0393700787
  9
$DIMTXT
 40
4.0
  9
$DIMTOL
 70
1
  9
$DIMLIM
 70
0
  9
$DIMTFAC
 40
1.0
  9
$DIMTP
 40
0.0001
  9
$DIMTM
 40
0.0001
  9
$DIMGAP
 40
0.625
  9
$DIMDSEP
 70
46
  9
$AUNITS
 70
0
  9
$PDMODE
 70
0
  9
$PDSIZE
 40
0.01
  9
$HANDSEED
  5
3E7
  9
$TILEMODE
 70
1
  9
$MEASUREMENT
 70
1
  9
$INSUNITS
 70
4
  0
ENDSEC
  0
SECTION
  2
CLASSES
  0
CLASS
  1
ACDBDICTIONARYWDFLT
  2
AcDbDictionaryWithDefault
  3
AutoCAD 2000
 90
0
 91
1
280
0
281
0
  0
CLASS
  1
ACDBPLACEHOLDER
  2
AcDbPlaceHolder
  3
AutoCAD 2000
 90
0
 91
1
280
0
281
0
  0
CLASS
  1
LAYOUT
  2
AcDbLayout
  3
AutoCAD 2000
 90
0
 91
0
280
0
281
0
  0
ENDSEC
  0
SECTION
  2
TABLES
  0
TABLE
  2
VPORT
  5
8
100
AcDbSymbolTable
 70
2
  0
VPORT
  5
1F4
100
AcDbSymbolTableRecord
100
AcDbViewportTableRecord
  2
*ACTIVE
 70
0
 10
0.0
 20
0.0
 11
1.0
 21
1.0
 12
279.4
 22
215.9
 13
0.0
 23
0.0
 14
1.0
 24
1.0
 15
0.0
 25
0.0
 16
0.0
 26
0.0
 36
1.0
 17
0.0
 27
0.0
 37
0.0
 40
431.8
 41
1.2941176471
 42
50.0
 43
0.0
 44
0.0
 50
0.0
 51
0.0
 71
0
 72
100
 73
1
 74
1
 75
0
 76
0
 77
0
 78
0
  0
ENDTAB
  0
TABLE
  2
LTYPE
  5
5
100
AcDbSymbolTable
 70
6
  0
LTYPE
  5
14
100
AcDbSymbolTableRecord
100
AcDbLinetypeTableRecord
  2
BYBLOCK
 70
0
  3

 72
65
 73
0
 40
0.0
  0
LTYPE
  5
15
100
AcDbSymbolTableRecord
100
AcDbLinetypeTableRecord
  2
BYLAYER
 70
0
  3

 72
65
 73
0
 40
0.0
  0
LTYPE
  5
16
100
AcDbSymbolTableRecord
100
AcDbLinetypeTableRecord
  2
CONTINUOUS
 70
64
  3
Solid line
 72
65
 73
0
 40
0.0
  0
LTYPE
  5
1F5
100
AcDbSymbolTableRecord
100
AcDbLinetypeTableRecord
  2
CENTER
 70
64
  3
____ _ ____ _ ____ _ ____ _ ____ _ ____ _ ____
 72
65
 73
4
 40
0.6
 49
0.375
 74
0
 49
-0.075
 74
0
 49
0.075
 74
0
 49
-0.075
 74
0
  0
LTYPE
  5
1F6
100
AcDbSymbolTableRecord
100
AcDbLinetypeTableRecord
  2
HIDDEN
 70
64
  3
- - - - - - - - - - - - - - - - - - - -
 72
65
 73
2
 40
0.2
 49
0.1
 74
0
 49
-0.1
 74
0
  0
LTYPE
  5
1F7
100
AcDbSymbolTableRecord
100
AcDbLinetypeTableRecord
  2
PHANTOM
 70
64
  3
_____ _ _ _____ _ _ _____ _ _ _____
 72
65
 73
6
 40
0.8
 49
0.45
 74
0
 49
-0.05
 74
0
 49
0.1
 74
0
 49
-0.05
 74
0
 49
0.1
 74
0
 49
-0.05
 74
0
  0
LTYPE
  5
1F8
100
AcDbSymbolTableRecord
100
AcDbLinetypeTableRecord
  2
DOT
 70
64
  3
. . . . . . . . . . . . . . . . . . . .
 72
65
 73
2
 40
0.2
 49
0.1
 74
0
 49
-0.1
 74
0
  0
LTYPE
  5
1F9
100
AcDbSymbolTableRecord
100
AcDbLinetypeTableRecord
  2
DASHED
 70
64
  3
- - - - - - - - - - - - - - - - - - - -
 72
65
 73
2
 40
0.2
 49
0.1
 74
0
 49
-0.1
 74
0
  0
ENDTAB
  0
TABLE
  2
LAYER
  5
2
100
AcDbSymbolTable
 70
36
  0
LAYER
  5
10
100
AcDbSymbolTableRecord
100
AcDbLayerTableRecord
  2
0
 70
0
 62
7
  6
CONTINUOUS
370
-3
390
F
  0
LAYER
  5
1FA
100
AcDbSymbolTableRecord
100
AcDbLayerTableRecord
  2
DEFAULT_1
 70
0
 62
7
  6
CENTER
370
-3
390
F
  0
LAYER
  5
1FB
100
AcDbSymbolTableRecord
100
AcDbLayerTableRecord
  2
DEFAULT_2
 70
0
 62
8
  6
HIDDEN
370
-3
390
F
  0
LAYER
  5
1FC
100
AcDbSymbolTableRecord
100
AcDbLayerTableRecord
  2
DEFAULT_3
 70
0
 62
7
  6
PHANTOM
370
-3
390
F
  0
LAYER
  5
1FD
100
AcDbSymbolTableRecord
100
AcDbLayerTableRecord
  2
01_ALL_DTM_PLN
 70
0
 62
7
  6
CONTINUOUS
370
-3
390
F
  0
LAYER
  5
1FE
100
AcDbSymbolTableRecord
100
AcDbLayerTableRecord
  2
01__ASM_ALL_DTM_PLN
 70
0
 62
7
  6
CONTINUOUS
370
-3
390
F
  0
LAYER
  5
1FF
100
AcDbSymbolTableRecord
100
AcDbLayerTableRecord
  2
01__ASM_DEF_DTM_PLN
 70
0
 62
7
  6
CONTINUOUS
370
-3
390
F
  0
LAYER
  5
200
100
AcDbSymbolTableRecord
100
AcDbLayerTableRecord
  2
01___PRT_ALL_DTM_PLN
 70
0
 62
7
  6
CONTINUOUS
370
-3
390
F
  0
LAYER
  5
201
100
AcDbSymbolTableRecord
100
AcDbLayerTableRecord
  2
01___PRT_DEF_DTM_PLN
 70
0
 62
7
  6
CONTINUOUS
370
-3
390
F
  0
LAYER
  5
202
100
AcDbSymbolTableRecord
100
AcDbLayerTableRecord
  2
02_ALL_AXES
 70
0
 62
7
  6
CONTINUOUS
370
-3
390
F
  0
LAYER
  5
203
100
AcDbSymbolTableRecord
100
AcDbLayerTableRecord
  2
02__ASM_ALL_AXES
 70
0
 62
7
  6
CONTINUOUS
370
-3
390
F
  0
LAYER
  5
204
100
AcDbSymbolTableRecord
100
AcDbLayerTableRecord
  2
02___PRT_ALL_AXES
 70
0
 62
7
  6
CONTINUOUS
370
-3
390
F
  0
LAYER
  5
205
100
AcDbSymbolTableRecord
100
AcDbLayerTableRecord
  2
03_ALL_CURVES
 70
0
 62
7
  6
CONTINUOUS
370
-3
390
F
  0
LAYER
  5
206
100
AcDbSymbolTableRecord
100
AcDbLayerTableRecord
  2
03__ASM_ALL_CURVES
 70
0
 62
7
  6
CONTINUOUS
370
-3
390
F
  0
LAYER
  5
207
100
AcDbSymbolTableRecord
100
AcDbLayerTableRecord
  2
03___PRT_ALL_CURVES
 70
0
 62
7
  6
CONTINUOUS
370
-3
390
F
  0
LAYER
  5
208
100
AcDbSymbolTableRecord
100
AcDbLayerTableRecord
  2
04_ALL_DTM_PNT
 70
0
 62
7
  6
CONTINUOUS
370
-3
390
F
  0
LAYER
  5
209
100
AcDbSymbolTableRecord
100
AcDbLayerTableRecord
  2
04__ASM_ALL_DTM_PNT
 70
0
 62
7
  6
CONTINUOUS
370
-3
390
F
  0
LAYER
  5
20A
100
AcDbSymbolTableRecord
100
AcDbLayerTableRecord
  2
04___PRT_ALL_DTM_PNT
 70
0
 62
7
  6
CONTINUOUS
370
-3
390
F
  0
LAYER
  5
20B
100
AcDbSymbolTableRecord
100
AcDbLayerTableRecord
  2
05_ALL_DTM_CSYS
 70
0
 62
7
  6
CONTINUOUS
370
-3
390
F
  0
LAYER
  5
20C
100
AcDbSymbolTableRecord
100
AcDbLayerTableRecord
  2
05__ASM_ALL_DTM_CSYS
 70
0
 62
7
  6
CONTINUOUS
370
-3
390
F
  0
LAYER
  5
20D
100
AcDbSymbolTableRecord
100
AcDbLayerTableRecord
  2
05__ASM_DEF_DTM_CSYS
 70
0
 62
7
  6
CONTINUOUS
370
-3
390
F
  0
LAYER
  5
20E
100
AcDbSymbolTableRecord
100
AcDbLayerTableRecord
  2
05___PRT_ALL_DTM_CSYS
 70
0
 62
7
  6
CONTINUOUS
370
-3
390
F
  0
LAYER
  5
20F
100
AcDbSymbolTableRecord
100
AcDbLayerTableRecord
  2
05___PRT_DEF_DTM_CSYS
 70
0
 62
7
  6
CONTINUOUS
370
-3
390
F
  0
LAYER
  5
210
100
AcDbSymbolTableRecord
100
AcDbLayerTableRecord
  2
06_ALL_SURFS
 70
0
 62
7
  6
CONTINUOUS
370
-3
390
F
  0
LAYER
  5
211
100
AcDbSymbolTableRecord
100
AcDbLayerTableRecord
  2
06__ASM_ALL_SURFS
 70
0
 62
7
  6
CONTINUOUS
370
-3
390
F
  0
LAYER
  5
212
100
AcDbSymbolTableRecord
100
AcDbLayerTableRecord
  2
06___PRT_ALL_SURFS
 70
0
 62
7
  6
CONTINUOUS
370
-3
390
F
  0
LAYER
  5
213
100
AcDbSymbolTableRecord
100
AcDbLayerTableRecord
  2
07__ASM_ALL_SKELETONS
 70
0
 62
7
  6
CONTINUOUS
370
-3
390
F
  0
ENDTAB
  0
TABLE
  2
STYLE
  5
3
100
AcDbSymbolTable
 70
1
  0
STYLE
  5
11
100
AcDbSymbolTableRecord
100
AcDbTextStyleTableRecord
  2
STANDARD
 70
0
 40
0.0
 41
0.6
 50
0.0
 71
0
 42
0.2
  3
txt
  4

  0
STYLE
  5
214
100
AcDbSymbolTableRecord
100
AcDbTextStyleTableRecord
  2
TEXTSTYLE_1
 70
0
 40
0.0
 41
0.8
 50
0.0
 71
0
 42
0.2
  3
gdt
  4

  0
ENDTAB
  0
TABLE
  2
VIEW
  5
6
100
AcDbSymbolTable
 70
0
  0
ENDTAB
  0
TABLE
  2
UCS
  5
7
100
AcDbSymbolTable
 70
0
  0
ENDTAB
  0
TABLE
  2
APPID
  5
9
100
AcDbSymbolTable
 70
1
  0
APPID
  5
215
100
AcDbSymbolTableRecord
100
AcDbRegAppTableRecord
  2
ACAD
 70
0
  0
ENDTAB
  0
TABLE
  2
BLOCK_RECORD
  5
1
100
AcDbSymbolTable
 70
0
  0
BLOCK_RECORD
  5
216
100
AcDbSymbolTableRecord
100
AcDbBlockTableRecord
  2
*Model_Space
  0
BLOCK_RECORD
  5
217
100
AcDbSymbolTableRecord
100
AcDbBlockTableRecord
  2
*Paper_Space
  0
BLOCK_RECORD
  5
218
100
AcDbSymbolTableRecord
100
AcDbBlockTableRecord
  2
_FILLED
  0
ENDTAB
  0
TABLE
  2
DIMSTYLE
  5
A
100
AcDbSymbolTable
 70
1
100
AcDbDimStyleTable
 71
0
  0
DIMSTYLE
105
219
100
AcDbSymbolTableRecord
100
AcDbDimStyleTableRecord
  2
STANDARD
 70
0
  3

  4

 40
1.0
 41
3.5
 42
1.0
 43
0.38
 44
3.0
 45
0.0
 46
0.0
 47
0.0001
 48
0.0001
140
4.0
141
0.09
142
0.0
143
25.4
144
1.0
145
0.0
146
1.0
147
0.625
 71
1.0
 72
0.0
 73
0
 74
0
 75
0
 76
0
 77
1
 78
8
 79
2
170
0
171
3
172
0
173
0
174
0
175
0
176
0
177
0
178
0
270
2
179
4
271
4
272
4
273
2
274
2
275
0
280
0
281
0
282
0
283
1
284
8
285
0
286
0
287
3
288
0
340
11
278
46
341
218
342
218
343
218
344
218
  0
ENDTAB
  0
ENDSEC
  0
SECTION
  2
BLOCKS
  0
BLOCK
  5
20
100
AcDbEntity
  8
0
100
AcDbBlockBegin
  2
*Model_Space
 70
0
 10
0.0
 20
0.0
 30
0.0
  3
*Model_Space
  1

  0
ENDBLK
  5
21
100
AcDbEntity
  8
0
100
AcDbBlockEnd
  0
BLOCK
  5
1C
100
AcDbEntity
  8
0
100
AcDbBlockBegin
  2
*Paper_Space
 70
0
 10
0.0
 20
0.0
 30
0.0
  3
*Paper_Space
  1

  0
ENDBLK
  5
1D
100
AcDbEntity
  8
0
100
AcDbBlockEnd
  0
BLOCK
  5
21A
100
AcDbEntity
  8
0
100
AcDbBlockBegin
  2
_FILLED
 70
64
 10
0.0
 20
0.0
  3
_FILLED
  1

  0
SOLID
  5
21B
100
AcDbEntity
  8
0
  6
BYBLOCK
 62
0
100
AcDbTrace
 10
0.0
 20
0.0
 11
-1.0
 21
0.2857142857
 12
-1.0
 22
-0.2857142857
 13
-1.0
 23
-0.2857142857
  0
ENDBLK
  5
21C
100
AcDbEntity
  8
0
  6
BYBLOCK
 62
0
100
AcDbBlockEnd
  0
ENDSEC
  0
SECTION
  2
ENTITIES
  0
LINE
  5
21D
100
AcDbEntity
  8
0
100
AcDbLine
 62
7
  6
CONTINUOUS
 10
159.472788592
 20
173.4889418542
 11
191.472788592
 21
173.4889418542
  0
LINE
  5
21E
100
AcDbEntity
  8
0
100
AcDbLine
 62
7
  6
CONTINUOUS
 10
171.4727885919
 20
277.2547523422
 11
165.2374056847
 21
273.6547523422
  0
LINE
  5
21F
100
AcDbEntity
  8
0
100
AcDbLine
 62
7
  6
CONTINUOUS
 10
169.872788592
 20
181.2847523422
 11
184.472788592
 21
181.2847523422
  0
LINE
  5
220
100
AcDbEntity
  8
0
100
AcDbLine
 62
9
  6
CONTINUOUS
 10
181.6126281507
 20
181.6685565008
 11
179.3479490332
 21
181.6685565008
  0
LINE
  5
221
100
AcDbEntity
  8
0
100
AcDbLine
 62
9
  6
CONTINUOUS
 10
175.0086281507
 20
181.6685565008
 11
172.7439490332
 21
181.6685565008
  0
LINE
  5
222
100
AcDbEntity
  8
0
100
AcDbLine
 62
7
  6
CONTINUOUS
 10
170.569208592
 20
181.9407523422
 11
184.472788592
 21
181.9407523422
  0
LINE
  5
223
100
AcDbEntity
  8
0
100
AcDbLine
 62
7
  6
CONTINUOUS
 10
184.472788592
 20
182.1363323422
 11
183.472408592
 21
182.1363323422
  0
LINE
  5
224
100
AcDbEntity
  8
0
100
AcDbLine
 62
7
  6
CONTINUOUS
 10
183.591788592
 20
182.1947523422
 11
183.472408592
 21
182.1947523422
  0
LINE
  5
225
100
AcDbEntity
  8
0
100
AcDbLine
 62
7
  6
CONTINUOUS
 10
183.591788592
 20
182.2582523422
 11
184.472788592
 21
182.2582523422
  0
LINE
  5
226
100
AcDbEntity
  8
0
100
AcDbLine
 62
7
  6
CONTINUOUS
 10
173.744208592
 20
182.6392523422
 11
171.712208592
 21
182.6392523422
  0
LINE
  5
227
100
AcDbEntity
  8
0
100
AcDbLine
 62
7
  6
CONTINUOUS
 10
171.712208592
 20
182.7789523422
 11
173.609588592
 21
182.7789523422
  0
LINE
  5
228
100
AcDbEntity
  8
0
100
AcDbLine
 62
7
  6
CONTINUOUS
 10
173.609588592
 20
182.8551523422
 11
171.856988592
 21
182.8551523422
  0
LINE
  5
229
100
AcDbEntity
  8
0
100
AcDbLine
 62
7
  6
CONTINUOUS
 10
183.591788592
 20
183.3504523422
 11
184.472788592
 21
183.3504523422
  0
LINE
  5
22A
100
AcDbEntity
  8
0
100
AcDbLine
 62
7
  6
CONTINUOUS
 10
170.472788592
 20
183.4047523422
 11
169.872788592
 21
183.4047523422
  0
LINE
  5
22B
100
AcDbEntity
  8
0
100
AcDbLine
 62
7
  6
CONTINUOUS
 10
183.591788592
 20
183.7314523422
 11
184.472788592
 21
183.7314523422
  0
LINE
  5
22C
100
AcDbEntity
  8
0
100
AcDbLine
 62
7
  6
CONTINUOUS
 10
173.744208592
 20
183.8457523422
 11
176.538208592
 21
183.8457523422
  0
LINE
  5
22D
100
AcDbEntity
  8
0
100
AcDbLine
 62
7
  6
CONTINUOUS
 10
178.824208592
 20
183.8457523422
 11
181.618208592
 21
183.8457523422
  0
LINE
  5
22E
100
AcDbEntity
  8
0
100
AcDbLine
 62
7
  6
CONTINUOUS
 10
178.824208592
 20
184.0625103639
 11
176.538208592
 21
184.0625103639
  0
LINE
  5
22F
100
AcDbEntity
  8
0
100
AcDbLine
 62
7
  6
CONTINUOUS
 10
176.538208592
 20
184.1124523422
 11
174.244588592
 21
184.1124523422
  0
LINE
  5
230
100
AcDbEntity
  8
0
100
AcDbLine
 62
7
  6
CONTINUOUS
 10
178.943588592
 20
184.1124523422
 11
181.618208592
 21
184.1124523422
  0
LINE
  5
231
100
AcDbEntity
  8
0
100
AcDbLine
 62
7
  6
CONTINUOUS
 10
183.591788592
 20
184.1124523422
 11
184.472788592
 21
184.1124523422
  0
LINE
  5
232
100
AcDbEntity
  8
0
100
AcDbLine
 62
7
  6
CONTINUOUS
 10
183.472408592
 20
184.4807523422
 11
183.904208592
 21
184.4807523422
  0
LINE
  5
233
100
AcDbEntity
  8
0
100
AcDbLine
 62
7
  6
CONTINUOUS
 10
183.904208592
 20
184.9047523422
 11
184.472788592
 21
184.9047523422
  0
LINE
  5
234
100
AcDbEntity
  8
0
100
AcDbLine
 62
7
  6
CONTINUOUS
 10
176.538208592
 20
184.9825616409
 11
178.824208592
 21
184.9825616409
  0
LINE
  5
235
100
AcDbEntity
  8
0
100
AcDbLine
 62
7
  6
CONTINUOUS
 10
184.472788592
 20
185.2427523422
 11
183.904208592
 21
185.2427523422
  0
LINE
  5
236
100
AcDbEntity
  8
0
100
AcDbLine
 62
7
  6
CONTINUOUS
 10
181.115288592
 20
185.6237523422
 11
181.618208592
 21
185.6237523422
  0
LINE
  5
237
100
AcDbEntity
  8
0
100
AcDbLine
 62
7
  6
CONTINUOUS
 10
174.244588592
 20
185.7507523422
 11
175.209788592
 21
185.7507523422
  0
LINE
  5
238
100
AcDbEntity
  8
0
100
AcDbLine
 62
7
  6
CONTINUOUS
 10
183.904208592
 20
185.7507523422
 11
184.472788592
 21
185.7507523422
  0
LINE
  5
239
100
AcDbEntity
  8
0
100
AcDbLine
 62
7
  6
CONTINUOUS
 10
177.8690452978
 20
186.3349523422
 11
181.115288592
 21
186.3349523422
  0
LINE
  5
23A
100
AcDbEntity
  8
0
100
AcDbLine
 62
7
  6
CONTINUOUS
 10
183.904208592
 20
186.3349523422
 11
184.472788592
 21
186.3349523422
  0
LINE
  5
23B
100
AcDbEntity
  8
0
100
AcDbLine
 62
7
  6
CONTINUOUS
 10
184.472788592
 20
186.6905523422
 11
183.904208592
 21
186.6905523422
  0
LINE
  5
23C
100
AcDbEntity
  8
0
100
AcDbLine
 62
7
  6
CONTINUOUS
 10
181.115288592
 20
186.6905523422
 11
177.8690452978
 21
186.6905523422
  0
LINE
  5
23D
100
AcDbEntity
  8
0
100
AcDbLine
 62
7
  6
CONTINUOUS
 10
171.856988592
 20
186.8429523422
 11
173.609588592
 21
186.8429523422
  0
LINE
  5
23E
100
AcDbEntity
  8
0
100
AcDbLine
 62
7
  6
CONTINUOUS
 10
171.712208592
 20
186.9191523422
 11
174.244588592
 21
186.9191523422
  0
LINE
  5
23F
100
AcDbEntity
  8
0
100
AcDbLine
 62
7
  6
CONTINUOUS
 10
177.8690452978
 20
187.3509523422
 11
181.115288592
 21
187.3509523422
  0
LINE
  5
240
100
AcDbEntity
  8
0
100
AcDbLine
 62
7
  6
CONTINUOUS
 10
183.904208592
 20
187.3509523422
 11
184.472788592
 21
187.3509523422
  0
LINE
  5
241
100
AcDbEntity
  8
0
100
AcDbLine
 62
7
  6
CONTINUOUS
 10
170.569208592
 20
187.6557523422
 11
171.712208592
 21
187.6557523422
  0
LINE
  5
242
100
AcDbEntity
  8
0
100
AcDbLine
 62
7
  6
CONTINUOUS
 10
184.472788592
 20
187.7065523422
 11
183.904208592
 21
187.7065523422
  0
LINE
  5
243
100
AcDbEntity
  8
0
100
AcDbLine
 62
7
  6
CONTINUOUS
 10
181.115288592
 20
187.7065523422
 11
177.8690452978
 21
187.7065523422
  0
LINE
  5
244
100
AcDbEntity
  8
0
100
AcDbLine
 62
7
  6
CONTINUOUS
 10
172.568188592
 20
188.0367523422
 11
171.425188592
 21
188.0367523422
  0
LINE
  5
245
100
AcDbEntity
  8
0
100
AcDbLine
 62
7
  6
CONTINUOUS
 10
184.472788592
 20
188.0547523422
 11
183.904208592
 21
188.0547523422
  0
LINE
  5
246
100
AcDbEntity
  8
0
100
AcDbLine
 62
7
  6
CONTINUOUS
 10
170.472788592
 20
188.0547523422
 11
169.872788592
 21
188.0547523422
  0
LINE
  5
247
100
AcDbEntity
  8
0
100
AcDbLine
 62
7
  6
CONTINUOUS
 10
177.8690452978
 20
188.3669523422
 11
181.115288592
 21
188.3669523422
  0
LINE
  5
248
100
AcDbEntity
  8
0
100
AcDbLine
 62
7
  6
CONTINUOUS
 10
183.904208592
 20
188.3669523422
 11
184.472788592
 21
188.3669523422
  0
LINE
  5
249
100
AcDbEntity
  8
0
100
AcDbLine
 62
7
  6
CONTINUOUS
 10
184.472788592
 20
188.7225523422
 11
183.904208592
 21
188.7225523422
  0
LINE
  5
24A
100
AcDbEntity
  8
0
100
AcDbLine
 62
7
  6
CONTINUOUS
 10
181.115288592
 20
188.7225523422
 11
177.8690452978
 21
188.7225523422
  0
LINE
  5
24B
100
AcDbEntity
  8
0
100
AcDbLine
 62
7
  6
CONTINUOUS
 10
184.472788592
 20
189.0855517708
 11
183.904208592
 21
189.0855517708
  0
LINE
  5
24C
100
AcDbEntity
  8
0
100
AcDbLine
 62
7
  6
CONTINUOUS
 10
170.472788592
 20
189.0855517708
 11
169.872788592
 21
189.0855517708
  0
LINE
  5
24D
100
AcDbEntity
  8
0
100
AcDbLine
 62
7
  6
CONTINUOUS
 10
170.472788592
 20
189.1047523422
 11
170.569208592
 21
189.1047523422
  0
LINE
  5
24E
100
AcDbEntity
  8
0
100
AcDbLine
 62
7
  6
CONTINUOUS
 10
170.472788592
 20
189.3047523422
 11
170.569208592
 21
189.3047523422
  0
LINE
  5
24F
100
AcDbEntity
  8
0
100
AcDbLine
 62
7
  6
CONTINUOUS
 10
177.8690452978
 20
189.3829523422
 11
181.115288592
 21
189.3829523422
  0
LINE
  5
250
100
AcDbEntity
  8
0
100
AcDbLine
 62
7
  6
CONTINUOUS
 10
183.904208592
 20
189.3829523422
 11
184.472788592
 21
189.3829523422
  0
LINE
  5
251
100
AcDbEntity
  8
0
100
AcDbLine
 62
7
  6
CONTINUOUS
 10
174.5593629749
 20
271.0913267252
 11
174.5262796049
 21
271.0582433552
  0
LINE
  5
252
100
AcDbEntity
  8
0
100
AcDbLine
 62
7
  6
CONTINUOUS
 10
184.472788592
 20
189.7385523422
 11
183.904208592
 21
189.7385523422
  0
LINE
  5
253
100
AcDbEntity
  8
0
100
AcDbLine
 62
7
  6
CONTINUOUS
 10
181.115288592
 20
189.7385523422
 11
177.8690452978
 21
189.7385523422
  0
LINE
  5
254
100
AcDbEntity
  8
0
100
AcDbLine
 62
7
  6
CONTINUOUS
 10
177.8690452978
 20
190.3989523422
 11
181.115288592
 21
190.3989523422
  0
LINE
  5
255
100
AcDbEntity
  8
0
100
AcDbLine
 62
7
  6
CONTINUOUS
 10
183.904208592
 20
190.3989523422
 11
184.472788592
 21
190.3989523422
  0
LINE
  5
256
100
AcDbEntity
  8
0
100
AcDbLine
 62
7
  6
CONTINUOUS
 10
184.472788592
 20
190.7545523422
 11
183.904208592
 21
190.7545523422
  0
LINE
  5
257
100
AcDbEntity
  8
0
100
AcDbLine
 62
7
  6
CONTINUOUS
 10
181.115288592
 20
190.7545523422
 11
177.8690452978
 21
190.7545523422
  0
LINE
  5
258
100
AcDbEntity
  8
0
100
AcDbLine
 62
7
  6
CONTINUOUS
 10
177.8690452978
 20
191.4149523422
 11
181.115288592
 21
191.4149523422
  0
LINE
  5
259
100
AcDbEntity
  8
0
100
AcDbLine
 62
7
  6
CONTINUOUS
 10
183.904208592
 20
191.4149523422
 11
184.472788592
 21
191.4149523422
  0
LINE
  5
25A
100
AcDbEntity
  8
0
100
AcDbLine
 62
7
  6
CONTINUOUS
 10
170.569208592
 20
191.6047523422
 11
169.872788592
 21
191.6047523422
  0
LINE
  5
25B
100
AcDbEntity
  8
0
100
AcDbLine
 62
7
  6
CONTINUOUS
 10
184.472788592
 20
191.7705523422
 11
183.904208592
 21
191.7705523422
  0
LINE
  5
25C
100
AcDbEntity
  8
0
100
AcDbLine
 62
7
  6
CONTINUOUS
 10
181.115288592
 20
191.7705523422
 11
177.8690452978
 21
191.7705523422
  0
LINE
  5
25D
100
AcDbEntity
  8
0
100
AcDbLine
 62
7
  6
CONTINUOUS
 10
171.425188592
 20
192.1007523422
 11
172.568188592
 21
192.1007523422
  0
LINE
  5
25E
100
AcDbEntity
  8
0
100
AcDbLine
 62
7
  6
CONTINUOUS
 10
177.8690452978
 20
192.4309523422
 11
181.115288592
 21
192.4309523422
  0
LINE
  5
25F
100
AcDbEntity
  8
0
100
AcDbLine
 62
7
  6
CONTINUOUS
 10
183.904208592
 20
192.4309523422
 11
184.472788592
 21
192.4309523422
  0
LINE
  5
260
100
AcDbEntity
  8
0
100
AcDbLine
 62
7
  6
CONTINUOUS
 10
171.712208592
 20
192.4817523422
 11
170.569208592
 21
192.4817523422
  0
LINE
  5
261
100
AcDbEntity
  8
0
100
AcDbLine
 62
7
  6
CONTINUOUS
 10
184.472788592
 20
192.7865523422
 11
183.904208592
 21
192.7865523422
  0
LINE
  5
262
100
AcDbEntity
  8
0
100
AcDbLine
 62
7
  6
CONTINUOUS
 10
181.115288592
 20
192.7865523422
 11
177.8690452978
 21
192.7865523422
  0
LINE
  5
263
100
AcDbEntity
  8
0
100
AcDbLine
 62
7
  6
CONTINUOUS
 10
171.712208592
 20
193.2183523422
 11
174.244588592
 21
193.2183523422
  0
LINE
  5
264
100
AcDbEntity
  8
0
100
AcDbLine
 62
7
  6
CONTINUOUS
 10
173.609588592
 20
193.2945523422
 11
171.856988592
 21
193.2945523422
  0
LINE
  5
265
100
AcDbEntity
  8
0
100
AcDbLine
 62
7
  6
CONTINUOUS
 10
177.8690452978
 20
193.4469523422
 11
181.115288592
 21
193.4469523422
  0
LINE
  5
266
100
AcDbEntity
  8
0
100
AcDbLine
 62
7
  6
CONTINUOUS
 10
183.904208592
 20
193.4469523422
 11
184.472788592
 21
193.4469523422
  0
LINE
  5
267
100
AcDbEntity
  8
0
100
AcDbLine
 62
7
  6
CONTINUOUS
 10
184.472788592
 20
193.8025523422
 11
183.904208592
 21
193.8025523422
  0
LINE
  5
268
100
AcDbEntity
  8
0
100
AcDbLine
 62
7
  6
CONTINUOUS
 10
181.115288592
 20
193.8025523422
 11
177.8690452978
 21
193.8025523422
  0
LINE
  5
269
100
AcDbEntity
  8
0
100
AcDbLine
 62
7
  6
CONTINUOUS
 10
175.209788592
 20
194.3867523422
 11
174.244588592
 21
194.3867523422
  0
LINE
  5
26A
100
AcDbEntity
  8
0
100
AcDbLine
 62
7
  6
CONTINUOUS
 10
183.904208592
 20
194.3867523422
 11
184.472788592
 21
194.3867523422
  0
LINE
  5
26B
100
AcDbEntity
  8
0
100
AcDbLine
 62
7
  6
CONTINUOUS
 10
181.618208592
 20
194.5137523422
 11
181.115288592
 21
194.5137523422
  0
LINE
  5
26C
100
AcDbEntity
  8
0
100
AcDbLine
 62
7
  6
CONTINUOUS
 10
183.904208592
 20
194.8947523422
 11
184.472788592
 21
194.8947523422
  0
LINE
  5
26D
100
AcDbEntity
  8
0
100
AcDbLine
 62
7
  6
CONTINUOUS
 10
176.538208592
 20
195.1549430436
 11
178.824208592
 21
195.1549430436
  0
LINE
  5
26E
100
AcDbEntity
  8
0
100
AcDbLine
 62
7
  6
CONTINUOUS
 10
183.472408592
 20
195.6567523422
 11
183.904208592
 21
195.6567523422
  0
LINE
  5
26F
100
AcDbEntity
  8
0
100
AcDbLine
 62
7
  6
CONTINUOUS
 10
184.472788592
 20
196.0250523422
 11
183.591788592
 21
196.0250523422
  0
LINE
  5
270
100
AcDbEntity
  8
0
100
AcDbLine
 62
7
  6
CONTINUOUS
 10
181.618208592
 20
196.0250523422
 11
178.943588592
 21
196.0250523422
  0
LINE
  5
271
100
AcDbEntity
  8
0
100
AcDbLine
 62
7
  6
CONTINUOUS
 10
174.244588592
 20
196.0250523422
 11
176.538208592
 21
196.0250523422
  0
LINE
  5
272
100
AcDbEntity
  8
0
100
AcDbLine
 62
7
  6
CONTINUOUS
 10
176.538208592
 20
196.0749943206
 11
178.824208592
 21
196.0749943206
  0
LINE
  5
273
100
AcDbEntity
  8
0
100
AcDbLine
 62
7
  6
CONTINUOUS
 10
181.618208592
 20
196.2917523422
 11
178.824208592
 21
196.2917523422
  0
LINE
  5
274
100
AcDbEntity
  8
0
100
AcDbLine
 62
7
  6
CONTINUOUS
 10
176.538208592
 20
196.2917523422
 11
173.744208592
 21
196.2917523422
  0
LINE
  5
275
100
AcDbEntity
  8
0
100
AcDbLine
 62
7
  6
CONTINUOUS
 10
183.591788592
 20
196.4060523422
 11
184.472788592
 21
196.4060523422
  0
LINE
  5
276
100
AcDbEntity
  8
0
100
AcDbLine
 62
7
  6
CONTINUOUS
 10
183.591788592
 20
196.7870523422
 11
184.472788592
 21
196.7870523422
  0
LINE
  5
277
100
AcDbEntity
  8
0
100
AcDbLine
 62
7
  6
CONTINUOUS
 10
171.856988592
 20
197.2823523422
 11
173.609588592
 21
197.2823523422
  0
LINE
  5
278
100
AcDbEntity
  8
0
100
AcDbLine
 62
7
  6
CONTINUOUS
 10
173.609588592
 20
197.3585523422
 11
171.712208592
 21
197.3585523422
  0
LINE
  5
279
100
AcDbEntity
  8
0
100
AcDbLine
 62
7
  6
CONTINUOUS
 10
173.744208592
 20
197.4982523422
 11
171.712208592
 21
197.4982523422
  0
LINE
  5
27A
100
AcDbEntity
  8
0
100
AcDbLine
 62
7
  6
CONTINUOUS
 10
184.472788592
 20
197.8792523422
 11
183.591788592
 21
197.8792523422
  0
LINE
  5
27B
100
AcDbEntity
  8
0
100
AcDbLine
 62
7
  6
CONTINUOUS
 10
183.591788592
 20
197.9427523422
 11
183.472408592
 21
197.9427523422
  0
LINE
  5
27C
100
AcDbEntity
  8
0
100
AcDbLine
 62
7
  6
CONTINUOUS
 10
184.472788592
 20
198.0011723422
 11
183.472408592
 21
198.0011723422
  0
LINE
  5
27D
100
AcDbEntity
  8
0
100
AcDbLine
 62
7
  6
CONTINUOUS
 10
170.569208592
 20
198.1967523422
 11
184.472788592
 21
198.1967523422
  0
LINE
  5
27E
100
AcDbEntity
  8
0
100
AcDbLine
 62
9
  6
CONTINUOUS
 10
172.7454223661
 20
198.4689481836
 11
175.0071548178
 21
198.4689481836
  0
LINE
  5
27F
100
AcDbEntity
  8
0
100
AcDbLine
 62
9
  6
CONTINUOUS
 10
179.3494223661
 20
198.4689481836
 11
181.6111548178
 21
198.4689481836
  0
LINE
  5
280
100
AcDbEntity
  8
0
100
AcDbLine
 62
7
  6
CONTINUOUS
 10
184.472788592
 20
198.8547523422
 11
169.872788592
 21
198.8547523422
  0
LINE
  5
281
100
AcDbEntity
  8
0
100
AcDbLine
 62
7
  6
CONTINUOUS
 10
169.872788592
 20
200.7347523422
 11
184.472788592
 21
200.7347523422
  0
LINE
  5
282
100
AcDbEntity
  8
0
100
AcDbLine
 62
9
  6
CONTINUOUS
 10
181.6126281507
 20
201.1185565008
 11
179.3479490332
 21
201.1185565008
  0
LINE
  5
283
100
AcDbEntity
  8
0
100
AcDbLine
 62
9
  6
CONTINUOUS
 10
175.0086281507
 20
201.1185565008
 11
172.7439490332
 21
201.1185565008
  0
LINE
  5
284
100
AcDbEntity
  8
0
100
AcDbLine
 62
7
  6
CONTINUOUS
 10
170.569208592
 20
201.3907523422
 11
184.472788592
 21
201.3907523422
  0
LINE
  5
285
100
AcDbEntity
  8
0
100
AcDbLine
 62
7
  6
CONTINUOUS
 10
184.472788592
 20
201.5863323422
 11
183.472408592
 21
201.5863323422
  0
LINE
  5
286
100
AcDbEntity
  8
0
100
AcDbLine
 62
7
  6
CONTINUOUS
 10
183.591788592
 20
201.6447523422
 11
183.472408592
 21
201.6447523422
  0
LINE
  5
287
100
AcDbEntity
  8
0
100
AcDbLine
 62
7
  6
CONTINUOUS
 10
183.591788592
 20
201.7082523422
 11
184.472788592
 21
201.7082523422
  0
LINE
  5
288
100
AcDbEntity
  8
0
100
AcDbLine
 62
7
  6
CONTINUOUS
 10
173.744208592
 20
202.0892523422
 11
171.712208592
 21
202.0892523422
  0
LINE
  5
289
100
AcDbEntity
  8
0
100
AcDbLine
 62
7
  6
CONTINUOUS
 10
171.712208592
 20
202.2289523422
 11
173.609588592
 21
202.2289523422
  0
LINE
  5
28A
100
AcDbEntity
  8
0
100
AcDbLine
 62
7
  6
CONTINUOUS
 10
173.609588592
 20
202.3051523422
 11
171.856988592
 21
202.3051523422
  0
LINE
  5
28B
100
AcDbEntity
  8
0
100
AcDbLine
 62
7
  6
CONTINUOUS
 10
183.591788592
 20
202.8004523422
 11
184.472788592
 21
202.8004523422
  0
LINE
  5
28C
100
AcDbEntity
  8
0
100
AcDbLine
 62
7
  6
CONTINUOUS
 10
183.591788592
 20
203.1814523422
 11
184.472788592
 21
203.1814523422
  0
LINE
  5
28D
100
AcDbEntity
  8
0
100
AcDbLine
 62
7
  6
CONTINUOUS
 10
173.744208592
 20
203.2957523422
 11
176.538208592
 21
203.2957523422
  0
LINE
  5
28E
100
AcDbEntity
  8
0
100
AcDbLine
 62
7
  6
CONTINUOUS
 10
178.824208592
 20
203.2957523422
 11
181.618208592
 21
203.2957523422
  0
LINE
  5
28F
100
AcDbEntity
  8
0
100
AcDbLine
 62
7
  6
CONTINUOUS
 10
178.824208592
 20
203.5125103639
 11
176.538208592
 21
203.5125103639
  0
LINE
  5
290
100
AcDbEntity
  8
0
100
AcDbLine
 62
7
  6
CONTINUOUS
 10
176.538208592
 20
203.5624523422
 11
174.244588592
 21
203.5624523422
  0
LINE
  5
291
100
AcDbEntity
  8
0
100
AcDbLine
 62
7
  6
CONTINUOUS
 10
178.943588592
 20
203.5624523422
 11
181.618208592
 21
203.5624523422
  0
LINE
  5
292
100
AcDbEntity
  8
0
100
AcDbLine
 62
7
  6
CONTINUOUS
 10
183.591788592
 20
203.5624523422
 11
184.472788592
 21
203.5624523422
  0
LINE
  5
293
100
AcDbEntity
  8
0
100
AcDbLine
 62
7
  6
CONTINUOUS
 10
183.472408592
 20
203.9307523422
 11
183.904208592
 21
203.9307523422
  0
LINE
  5
294
100
AcDbEntity
  8
0
100
AcDbLine
 62
7
  6
CONTINUOUS
 10
168.972788592
 20
250.1047523422
 11
167.5882742005
 21
248.4547523422
  0
LINE
  5
295
100
AcDbEntity
  8
0
100
AcDbLine
 62
7
  6
CONTINUOUS
 10
176.538208592
 20
204.4325616409
 11
178.824208592
 21
204.4325616409
  0
LINE
  5
296
100
AcDbEntity
  8
0
100
AcDbLine
 62
7
  6
CONTINUOUS
 10
184.472788592
 20
204.6927523422
 11
183.904208592
 21
204.6927523422
  0
LINE
  5
297
100
AcDbEntity
  8
0
100
AcDbLine
 62
7
  6
CONTINUOUS
 10
181.115288592
 20
205.0737523422
 11
181.618208592
 21
205.0737523422
  0
LINE
  5
298
100
AcDbEntity
  8
0
100
AcDbLine
 62
7
  6
CONTINUOUS
 10
174.244588592
 20
205.2007523422
 11
175.209788592
 21
205.2007523422
  0
LINE
  5
299
100
AcDbEntity
  8
0
100
AcDbLine
 62
7
  6
CONTINUOUS
 10
183.904208592
 20
205.2007523422
 11
184.472788592
 21
205.2007523422
  0
LINE
  5
29A
100
AcDbEntity
  8
0
100
AcDbLine
 62
7
  6
CONTINUOUS
 10
177.8690452978
 20
205.7849523422
 11
181.115288592
 21
205.7849523422
  0
LINE
  5
29B
100
AcDbEntity
  8
0
100
AcDbLine
 62
7
  6
CONTINUOUS
 10
183.904208592
 20
205.7849523422
 11
184.472788592
 21
205.7849523422
  0
LINE
  5
29C
100
AcDbEntity
  8
0
100
AcDbLine
 62
7
  6
CONTINUOUS
 10
184.472788592
 20
206.1405523422
 11
183.904208592
 21
206.1405523422
  0
LINE
  5
29D
100
AcDbEntity
  8
0
100
AcDbLine
 62
7
  6
CONTINUOUS
 10
181.115288592
 20
206.1405523422
 11
177.8690452978
 21
206.1405523422
  0
LINE
  5
29E
100
AcDbEntity
  8
0
100
AcDbLine
 62
7
  6
CONTINUOUS
 10
171.856988592
 20
206.2929523422
 11
173.609588592
 21
206.2929523422
  0
LINE
  5
29F
100
AcDbEntity
  8
0
100
AcDbLine
 62
7
  6
CONTINUOUS
 10
171.712208592
 20
206.3691523422
 11
174.244588592
 21
206.3691523422
  0
LINE
  5
2A0
100
AcDbEntity
  8
0
100
AcDbLine
 62
7
  6
CONTINUOUS
 10
177.8690452978
 20
206.8009523422
 11
181.115288592
 21
206.8009523422
  0
LINE
  5
2A1
100
AcDbEntity
  8
0
100
AcDbLine
 62
7
  6
CONTINUOUS
 10
183.904208592
 20
206.8009523422
 11
184.472788592
 21
206.8009523422
  0
LINE
  5
2A2
100
AcDbEntity
  8
0
100
AcDbLine
 62
7
  6
CONTINUOUS
 10
170.569208592
 20
207.1057523422
 11
171.712208592
 21
207.1057523422
  0
LINE
  5
2A3
100
AcDbEntity
  8
0
100
AcDbLine
 62
7
  6
CONTINUOUS
 10
184.472788592
 20
207.1565523422
 11
183.904208592
 21
207.1565523422
  0
LINE
  5
2A4
100
AcDbEntity
  8
0
100
AcDbLine
 62
7
  6
CONTINUOUS
 10
181.115288592
 20
207.1565523422
 11
177.8690452978
 21
207.1565523422
  0
LINE
  5
2A5
100
AcDbEntity
  8
0
100
AcDbLine
 62
7
  6
CONTINUOUS
 10
172.568188592
 20
207.4867523422
 11
171.425188592
 21
207.4867523422
  0
LINE
  5
2A6
100
AcDbEntity
  8
0
100
AcDbLine
 62
7
  6
CONTINUOUS
 10
159.472788592
 20
173.4889418542
 11
159.4725688659
 21
257.9810734504
  0
LINE
  5
2A7
100
AcDbEntity
  8
0
100
AcDbLine
 62
7
  6
CONTINUOUS
 10
159.472788592
 20
257.9937481625
 11
159.472788592
 21
273.6547523422
  0
LINE
  5
2A8
100
AcDbEntity
  8
0
100
AcDbLine
 62
7
  6
CONTINUOUS
 10
159.772788592
 20
273.5547523422
 11
159.772788592
 21
258.3378055608
  0
LINE
  5
2A9
100
AcDbEntity
  8
0
100
AcDbLine
 62
7
  6
CONTINUOUS
 10
160.4935535849
 20
257.9250638565
 11
160.4935535849
 21
258.2912662655
  0
LINE
  5
2AA
100
AcDbEntity
  8
0
100
AcDbLine
 62
7
  6
CONTINUOUS
 10
160.522788592
 20
257.9346373589
 11
160.522788592
 21
257.9110661368
  0
LINE
  5
2AB
100
AcDbEntity
  8
0
100
AcDbLine
 62
7
  6
CONTINUOUS
 10
161.322788592
 20
258.2377231436
 11
161.322788592
 21
257.8635884188
  0
LINE
  5
2AC
100
AcDbEntity
  8
0
100
AcDbLine
 62
7
  6
CONTINUOUS
 10
182.161007715
 20
257.4565313007
 11
182.1727885919
 21
257.4687192924
  0
LINE
  5
2AD
100
AcDbEntity
  8
0
100
AcDbLine
 62
7
  6
CONTINUOUS
 10
177.8690452978
 20
207.8169523422
 11
181.115288592
 21
207.8169523422
  0
LINE
  5
2AE
100
AcDbEntity
  8
0
100
AcDbLine
 62
7
  6
CONTINUOUS
 10
183.904208592
 20
207.8169523422
 11
184.472788592
 21
207.8169523422
  0
LINE
  5
2AF
100
AcDbEntity
  8
0
100
AcDbLine
 62
7
  6
CONTINUOUS
 10
184.472788592
 20
208.1725523422
 11
183.904208592
 21
208.1725523422
  0
LINE
  5
2B0
100
AcDbEntity
  8
0
100
AcDbLine
 62
7
  6
CONTINUOUS
 10
181.115288592
 20
208.1725523422
 11
177.8690452978
 21
208.1725523422
  0
LINE
  5
2B1
100
AcDbEntity
  8
0
100
AcDbLine
 62
7
  6
CONTINUOUS
 10
177.8690452978
 20
208.8329523422
 11
181.115288592
 21
208.8329523422
  0
LINE
  5
2B2
100
AcDbEntity
  8
0
100
AcDbLine
 62
7
  6
CONTINUOUS
 10
183.904208592
 20
208.8329523422
 11
184.472788592
 21
208.8329523422
  0
LINE
  5
2B3
100
AcDbEntity
  8
0
100
AcDbLine
 62
7
  6
CONTINUOUS
 10
184.472788592
 20
209.1885523422
 11
183.904208592
 21
209.1885523422
  0
LINE
  5
2B4
100
AcDbEntity
  8
0
100
AcDbLine
 62
7
  6
CONTINUOUS
 10
181.115288592
 20
209.1885523422
 11
177.8690452978
 21
209.1885523422
  0
LINE
  5
2B5
100
AcDbEntity
  8
0
100
AcDbLine
 62
7
  6
CONTINUOUS
 10
177.8690452978
 20
209.8489523422
 11
181.115288592
 21
209.8489523422
  0
LINE
  5
2B6
100
AcDbEntity
  8
0
100
AcDbLine
 62
7
  6
CONTINUOUS
 10
183.904208592
 20
209.8489523422
 11
184.472788592
 21
209.8489523422
  0
LINE
  5
2B7
100
AcDbEntity
  8
0
100
AcDbLine
 62
7
  6
CONTINUOUS
 10
184.472788592
 20
210.2045523422
 11
183.904208592
 21
210.2045523422
  0
LINE
  5
2B8
100
AcDbEntity
  8
0
100
AcDbLine
 62
7
  6
CONTINUOUS
 10
181.115288592
 20
210.2045523422
 11
177.8690452978
 21
210.2045523422
  0
LINE
  5
2B9
100
AcDbEntity
  8
0
100
AcDbLine
 62
7
  6
CONTINUOUS
 10
177.8690452978
 20
210.8649523422
 11
181.115288592
 21
210.8649523422
  0
LINE
  5
2BA
100
AcDbEntity
  8
0
100
AcDbLine
 62
7
  6
CONTINUOUS
 10
183.904208592
 20
210.8649523422
 11
184.472788592
 21
210.8649523422
  0
LINE
  5
2BB
100
AcDbEntity
  8
0
100
AcDbLine
 62
7
  6
CONTINUOUS
 10
184.472788592
 20
211.2205523422
 11
183.904208592
 21
211.2205523422
  0
LINE
  5
2BC
100
AcDbEntity
  8
0
100
AcDbLine
 62
7
  6
CONTINUOUS
 10
181.115288592
 20
211.2205523422
 11
177.8690452978
 21
211.2205523422
  0
LINE
  5
2BD
100
AcDbEntity
  8
0
100
AcDbLine
 62
7
  6
CONTINUOUS
 10
161.6665052775
 20
258.2155295987
 11
161.6665052775
 21
257.8401244246
  0
LINE
  5
2BE
100
AcDbEntity
  8
0
100
AcDbLine
 62
7
  6
CONTINUOUS
 10
177.1324226956
 20
275.7630415896
 11
177.472788592
 21
276.876328273
  0
LINE
  5
2BF
100
AcDbEntity
  8
0
100
AcDbLine
 62
7
  6
CONTINUOUS
 10
181.972788592
 20
250.1047523422
 11
180.5882742005
 21
248.4547523422
  0
LINE
  5
2C0
100
AcDbEntity
  8
0
100
AcDbLine
 62
7
  6
CONTINUOUS
 10
171.425188592
 20
211.5507523422
 11
172.568188592
 21
211.5507523422
  0
LINE
  5
2C1
100
AcDbEntity
  8
0
100
AcDbLine
 62
7
  6
CONTINUOUS
 10
177.8690452978
 20
211.8809523422
 11
181.115288592
 21
211.8809523422
  0
LINE
  5
2C2
100
AcDbEntity
  8
0
100
AcDbLine
 62
7
  6
CONTINUOUS
 10
183.904208592
 20
211.8809523422
 11
184.472788592
 21
211.8809523422
  0
LINE
  5
2C3
100
AcDbEntity
  8
0
100
AcDbLine
 62
7
  6
CONTINUOUS
 10
171.712208592
 20
211.9317523422
 11
170.569208592
 21
211.9317523422
  0
LINE
  5
2C4
100
AcDbEntity
  8
0
100
AcDbLine
 62
7
  6
CONTINUOUS
 10
184.472788592
 20
212.2365523422
 11
183.904208592
 21
212.2365523422
  0
LINE
  5
2C5
100
AcDbEntity
  8
0
100
AcDbLine
 62
7
  6
CONTINUOUS
 10
181.115288592
 20
212.2365523422
 11
177.8690452978
 21
212.2365523422
  0
LINE
  5
2C6
100
AcDbEntity
  8
0
100
AcDbLine
 62
7
  6
CONTINUOUS
 10
171.712208592
 20
212.6683523422
 11
174.244588592
 21
212.6683523422
  0
LINE
  5
2C7
100
AcDbEntity
  8
0
100
AcDbLine
 62
7
  6
CONTINUOUS
 10
173.609588592
 20
212.7445523422
 11
171.856988592
 21
212.7445523422
  0
LINE
  5
2C8
100
AcDbEntity
  8
0
100
AcDbLine
 62
7
  6
CONTINUOUS
 10
177.8690452978
 20
212.8969523422
 11
181.115288592
 21
212.8969523422
  0
LINE
  5
2C9
100
AcDbEntity
  8
0
100
AcDbLine
 62
7
  6
CONTINUOUS
 10
183.904208592
 20
212.8969523422
 11
184.472788592
 21
212.8969523422
  0
LINE
  5
2CA
100
AcDbEntity
  8
0
100
AcDbLine
 62
7
  6
CONTINUOUS
 10
184.472788592
 20
213.2525523422
 11
183.904208592
 21
213.2525523422
  0
LINE
  5
2CB
100
AcDbEntity
  8
0
100
AcDbLine
 62
7
  6
CONTINUOUS
 10
181.115288592
 20
213.2525523422
 11
177.8690452978
 21
213.2525523422
  0
LINE
  5
2CC
100
AcDbEntity
  8
0
100
AcDbLine
 62
7
  6
CONTINUOUS
 10
175.209788592
 20
213.8367523422
 11
174.244588592
 21
213.8367523422
  0
LINE
  5
2CD
100
AcDbEntity
  8
0
100
AcDbLine
 62
7
  6
CONTINUOUS
 10
183.904208592
 20
213.8367523422
 11
184.472788592
 21
213.8367523422
  0
LINE
  5
2CE
100
AcDbEntity
  8
0
100
AcDbLine
 62
7
  6
CONTINUOUS
 10
181.618208592
 20
213.9637523422
 11
181.115288592
 21
213.9637523422
  0
LINE
  5
2CF
100
AcDbEntity
  8
0
100
AcDbLine
 62
7
  6
CONTINUOUS
 10
183.904208592
 20
214.3447523422
 11
184.472788592
 21
214.3447523422
  0
LINE
  5
2D0
100
AcDbEntity
  8
0
100
AcDbLine
 62
7
  6
CONTINUOUS
 10
176.538208592
 20
214.6049430436
 11
178.824208592
 21
214.6049430436
  0
LINE
  5
2D1
100
AcDbEntity
  8
0
100
AcDbLine
 62
7
  6
CONTINUOUS
 10
165.722788592
 20
257.5961664572
 11
165.722788592
 21
257.5856997593
  0
LINE
  5
2D2
100
AcDbEntity
  8
0
100
AcDbLine
 62
7
  6
CONTINUOUS
 10
167.022788592
 20
257.6047523422
 11
167.022788592
 21
257.5257312218
  0
LINE
  5
2D3
100
AcDbEntity
  8
0
100
AcDbLine
 62
7
  6
CONTINUOUS
 10
167.222788592
 20
257.5275617421
 11
167.222788592
 21
257.5170991989
  0
LINE
  5
2D4
100
AcDbEntity
  8
0
100
AcDbLine
 62
7
  6
CONTINUOUS
 10
168.422788592
 20
249.4492878663
 11
168.422788592
 21
246.1047523422
  0
LINE
  5
2D5
100
AcDbEntity
  8
0
100
AcDbLine
 62
7
  6
CONTINUOUS
 10
190.4538999487
 20
271.0619963403
 11
190.4520235991
 21
271.0582433552
  0
LINE
  5
2D6
100
AcDbEntity
  8
0
100
AcDbLine
 62
7
  6
CONTINUOUS
 10
183.472408592
 20
215.1067523422
 11
183.904208592
 21
215.1067523422
  0
LINE
  5
2D7
100
AcDbEntity
  8
0
100
AcDbLine
 62
7
  6
CONTINUOUS
 10
184.472788592
 20
215.4750523422
 11
183.591788592
 21
215.4750523422
  0
LINE
  5
2D8
100
AcDbEntity
  8
0
100
AcDbLine
 62
7
  6
CONTINUOUS
 10
181.618208592
 20
215.4750523422
 11
178.943588592
 21
215.4750523422
  0
LINE
  5
2D9
100
AcDbEntity
  8
0
100
AcDbLine
 62
7
  6
CONTINUOUS
 10
174.244588592
 20
215.4750523422
 11
176.538208592
 21
215.4750523422
  0
LINE
  5
2DA
100
AcDbEntity
  8
0
100
AcDbLine
 62
7
  6
CONTINUOUS
 10
176.538208592
 20
215.5249943206
 11
178.824208592
 21
215.5249943206
  0
LINE
  5
2DB
100
AcDbEntity
  8
0
100
AcDbLine
 62
7
  6
CONTINUOUS
 10
181.618208592
 20
215.7417523422
 11
178.824208592
 21
215.7417523422
  0
LINE
  5
2DC
100
AcDbEntity
  8
0
100
AcDbLine
 62
7
  6
CONTINUOUS
 10
176.538208592
 20
215.7417523422
 11
173.744208592
 21
215.7417523422
  0
LINE
  5
2DD
100
AcDbEntity
  8
0
100
AcDbLine
 62
7
  6
CONTINUOUS
 10
183.591788592
 20
215.8560523422
 11
184.472788592
 21
215.8560523422
  0
LINE
  5
2DE
100
AcDbEntity
  8
0
100
AcDbLine
 62
7
  6
CONTINUOUS
 10
183.591788592
 20
216.2370523422
 11
184.472788592
 21
216.2370523422
  0
LINE
  5
2DF
100
AcDbEntity
  8
0
100
AcDbLine
 62
7
  6
CONTINUOUS
 10
171.856988592
 20
216.7323523422
 11
173.609588592
 21
216.7323523422
  0
LINE
  5
2E0
100
AcDbEntity
  8
0
100
AcDbLine
 62
7
  6
CONTINUOUS
 10
173.609588592
 20
216.8085523422
 11
171.712208592
 21
216.8085523422
  0
LINE
  5
2E1
100
AcDbEntity
  8
0
100
AcDbLine
 62
7
  6
CONTINUOUS
 10
173.744208592
 20
216.9482523422
 11
171.712208592
 21
216.9482523422
  0
LINE
  5
2E2
100
AcDbEntity
  8
0
100
AcDbLine
 62
7
  6
CONTINUOUS
 10
184.472788592
 20
217.3292523422
 11
183.591788592
 21
217.3292523422
  0
LINE
  5
2E3
100
AcDbEntity
  8
0
100
AcDbLine
 62
7
  6
CONTINUOUS
 10
183.591788592
 20
217.3927523422
 11
183.472408592
 21
217.3927523422
  0
LINE
  5
2E4
100
AcDbEntity
  8
0
100
AcDbLine
 62
7
  6
CONTINUOUS
 10
184.472788592
 20
217.4511723422
 11
183.472408592
 21
217.4511723422
  0
LINE
  5
2E5
100
AcDbEntity
  8
0
100
AcDbLine
 62
7
  6
CONTINUOUS
 10
170.569208592
 20
217.6467523422
 11
184.472788592
 21
217.6467523422
  0
LINE
  5
2E6
100
AcDbEntity
  8
0
100
AcDbLine
 62
9
  6
CONTINUOUS
 10
172.7454223661
 20
217.9189481836
 11
175.0071548178
 21
217.9189481836
  0
LINE
  5
2E7
100
AcDbEntity
  8
0
100
AcDbLine
 62
9
  6
CONTINUOUS
 10
179.3494223661
 20
217.9189481836
 11
181.6111548178
 21
217.9189481836
  0
LINE
  5
2E8
100
AcDbEntity
  8
0
100
AcDbLine
 62
7
  6
CONTINUOUS
 10
184.472788592
 20
218.3047523422
 11
169.872788592
 21
218.3047523422
  0
LINE
  5
2E9
100
AcDbEntity
  8
0
100
AcDbLine
 62
7
  6
CONTINUOUS
 10
168.7727868882
 20
257.8447983173
 11
168.7727848211
 21
257.4687194472
  0
LINE
  5
2EA
100
AcDbEntity
  8
0
100
AcDbLine
 62
7
  6
CONTINUOUS
 10
169.522788592
 20
246.1047523422
 11
169.522788592
 21
249.4492878663
  0
LINE
  5
2EB
100
AcDbEntity
  8
0
100
AcDbLine
 62
7
  6
CONTINUOUS
 10
169.772788482
 20
257.4372315404
 11
169.7727885395
 21
257.8125469722
  0
LINE
  5
2EC
100
AcDbEntity
  8
0
100
AcDbLine
 62
7
  6
CONTINUOUS
 10
169.872788592
 20
218.3047523422
 11
169.872788592
 21
200.7347523422
  0
LINE
  5
2ED
100
AcDbEntity
  8
0
100
AcDbLine
 62
7
  6
CONTINUOUS
 10
169.872788592
 20
198.8547523422
 11
169.872788592
 21
181.2847523422
  0
LINE
  5
2EE
100
AcDbEntity
  8
0
100
AcDbLine
 62
9
  6
CONTINUOUS
 10
170.2656378347
 20
183.8642523011
 11
170.2656378347
 21
186.1132523834
  0
LINE
  5
2EF
100
AcDbEntity
  8
0
100
AcDbLine
 62
9
  6
CONTINUOUS
 10
170.2656378347
 20
194.0242523011
 11
170.2656378347
 21
196.2732523834
  0
LINE
  5
2F0
100
AcDbEntity
  8
0
100
AcDbLine
 62
9
  6
CONTINUOUS
 10
170.2656378347
 20
203.3142523011
 11
170.2656378347
 21
205.5632523834
  0
LINE
  5
2F1
100
AcDbEntity
  8
0
100
AcDbLine
 62
9
  6
CONTINUOUS
 10
170.2656378347
 20
213.4742523011
 11
170.2656378347
 21
215.7232523834
  0
LINE
  5
2F2
100
AcDbEntity
  8
0
100
AcDbLine
 62
7
  6
CONTINUOUS
 10
170.472788592
 20
181.2847523422
 11
170.472788592
 21
183.803492723
  0
LINE
  5
2F3
100
AcDbEntity
  8
0
100
AcDbLine
 62
7
  6
CONTINUOUS
 10
170.472788592
 20
186.1740117919
 11
170.472788592
 21
189.3047523422
  0
LINE
  5
2F4
100
AcDbEntity
  8
0
100
AcDbLine
 62
7
  6
CONTINUOUS
 10
170.569208592
 20
181.9407523422
 11
170.569208592
 21
198.1967523422
  0
LINE
  5
2F5
100
AcDbEntity
  8
0
100
AcDbLine
 62
7
  6
CONTINUOUS
 10
170.569208592
 20
201.3907523422
 11
170.569208592
 21
217.6467523422
  0
LINE
  5
2F6
100
AcDbEntity
  8
0
100
AcDbLine
 62
7
  6
CONTINUOUS
 10
171.425188592
 20
188.0367523422
 11
171.425188592
 21
192.1007523422
  0
LINE
  5
2F7
100
AcDbEntity
  8
0
100
AcDbLine
 62
7
  6
CONTINUOUS
 10
171.425188592
 20
207.4867523422
 11
171.425188592
 21
211.5507523422
  0
LINE
  5
2F8
100
AcDbEntity
  8
0
100
AcDbLine
 62
7
  6
CONTINUOUS
 10
171.712208592
 20
216.9482523422
 11
171.712208592
 21
211.9317523422
  0
LINE
  5
2F9
100
AcDbEntity
  8
0
100
AcDbLine
 62
7
  6
CONTINUOUS
 10
171.712208592
 20
197.4982523422
 11
171.712208592
 21
192.4817523422
  0
LINE
  5
2FA
100
AcDbEntity
  8
0
100
AcDbLine
 62
7
  6
CONTINUOUS
 10
171.712208592
 20
182.6392523422
 11
171.712208592
 21
187.6557523422
  0
LINE
  5
2FB
100
AcDbEntity
  8
0
100
AcDbLine
 62
7
  6
CONTINUOUS
 10
171.712208592
 20
202.0892523422
 11
171.712208592
 21
207.1057523422
  0
LINE
  5
2FC
100
AcDbEntity
  8
0
100
AcDbLine
 62
7
  6
CONTINUOUS
 10
171.856988592
 20
216.7323523422
 11
171.856988592
 21
212.7445523422
  0
LINE
  5
2FD
100
AcDbEntity
  8
0
100
AcDbLine
 62
7
  6
CONTINUOUS
 10
171.856988592
 20
206.2929523422
 11
171.856988592
 21
202.3051523422
  0
LINE
  5
2FE
100
AcDbEntity
  8
0
100
AcDbLine
 62
7
  6
CONTINUOUS
 10
171.856988592
 20
197.2823523422
 11
171.856988592
 21
193.2945523422
  0
LINE
  5
2FF
100
AcDbEntity
  8
0
100
AcDbLine
 62
7
  6
CONTINUOUS
 10
171.856988592
 20
186.8429523422
 11
171.856988592
 21
182.8551523422
  0
LINE
  5
300
100
AcDbEntity
  8
0
100
AcDbLine
 62
7
  6
CONTINUOUS
 10
171.4413718679
 20
273.6547523422
 11
171.472788592
 21
277.2547523422
  0
LINE
  5
301
100
AcDbEntity
  8
0
100
AcDbLine
 62
7
  6
CONTINUOUS
 10
174.5262796049
 20
271.5127707649
 11
174.522788592
 21
271.9320794847
  0
LINE
  5
302
100
AcDbEntity
  8
0
100
AcDbLine
 62
7
  6
CONTINUOUS
 10
174.5384981504
 20
273.6547523422
 11
174.5593629749
 21
271.0913267252
  0
LINE
  5
303
100
AcDbEntity
  8
0
100
AcDbLine
 62
7
  6
CONTINUOUS
 10
172.568188592
 20
186.9191523422
 11
172.568188592
 21
188.0367523422
  0
LINE
  5
304
100
AcDbEntity
  8
0
100
AcDbLine
 62
7
  6
CONTINUOUS
 10
172.568188592
 20
192.1007523422
 11
172.568188592
 21
193.2183523422
  0
LINE
  5
305
100
AcDbEntity
  8
0
100
AcDbLine
 62
7
  6
CONTINUOUS
 10
172.568188592
 20
206.3691523422
 11
172.568188592
 21
207.4867523422
  0
LINE
  5
306
100
AcDbEntity
  8
0
100
AcDbLine
 62
7
  6
CONTINUOUS
 10
172.568188592
 20
211.5507523422
 11
172.568188592
 21
212.6683523422
  0
LINE
  5
307
100
AcDbEntity
  8
0
100
AcDbLine
 62
7
  6
CONTINUOUS
 10
173.472788592
 20
276.876328273
 11
173.472788592
 21
277.2547523422
  0
LINE
  5
308
100
AcDbEntity
  8
0
100
AcDbLine
 62
7
  6
CONTINUOUS
 10
173.609588592
 20
182.7789523422
 11
173.609588592
 21
186.9191523422
  0
LINE
  5
309
100
AcDbEntity
  8
0
100
AcDbLine
 62
7
  6
CONTINUOUS
 10
173.609588592
 20
193.2183523422
 11
173.609588592
 21
197.3585523422
  0
LINE
  5
30A
100
AcDbEntity
  8
0
100
AcDbLine
 62
7
  6
CONTINUOUS
 10
173.609588592
 20
202.2289523422
 11
173.609588592
 21
206.3691523422
  0
LINE
  5
30B
100
AcDbEntity
  8
0
100
AcDbLine
 62
7
  6
CONTINUOUS
 10
173.609588592
 20
212.6683523422
 11
173.609588592
 21
216.8085523422
  0
LINE
  5
30C
100
AcDbEntity
  8
0
100
AcDbLine
 62
7
  6
CONTINUOUS
 10
173.744208592
 20
203.2957523422
 11
173.744208592
 21
202.0892523422
  0
LINE
  5
30D
100
AcDbEntity
  8
0
100
AcDbLine
 62
7
  6
CONTINUOUS
 10
173.744208592
 20
183.8457523422
 11
173.744208592
 21
182.6392523422
  0
LINE
  5
30E
100
AcDbEntity
  8
0
100
AcDbLine
 62
7
  6
CONTINUOUS
 10
173.744208592
 20
196.2917523422
 11
173.744208592
 21
197.4982523422
  0
LINE
  5
30F
100
AcDbEntity
  8
0
100
AcDbLine
 62
7
  6
CONTINUOUS
 10
173.744208592
 20
215.7417523422
 11
173.744208592
 21
216.9482523422
  0
LINE
  5
310
100
AcDbEntity
  8
0
100
AcDbLine
 62
7
  6
CONTINUOUS
 10
174.072788592
 20
270.9047523422
 11
174.072788592
 21
273.5547523422
  0
LINE
  5
311
100
AcDbEntity
  8
0
100
AcDbLine
 62
7
  6
CONTINUOUS
 10
174.244588592
 20
184.1124523422
 11
174.244588592
 21
186.9191523422
  0
LINE
  5
312
100
AcDbEntity
  8
0
100
AcDbLine
 62
7
  6
CONTINUOUS
 10
174.244588592
 20
193.2183523422
 11
174.244588592
 21
196.0250523422
  0
LINE
  5
313
100
AcDbEntity
  8
0
100
AcDbLine
 62
7
  6
CONTINUOUS
 10
174.244588592
 20
203.5624523422
 11
174.244588592
 21
206.3691523422
  0
LINE
  5
314
100
AcDbEntity
  8
0
100
AcDbLine
 62
7
  6
CONTINUOUS
 10
174.244588592
 20
212.6683523422
 11
174.244588592
 21
215.4750523422
  0
LINE
  5
315
100
AcDbEntity
  8
0
100
AcDbLine
 62
7
  6
CONTINUOUS
 10
174.522788592
 20
273.6547523422
 11
174.522788592
 21
271.9320794847
  0
LINE
  5
316
100
AcDbEntity
  8
0
100
AcDbLine
 62
7
  6
CONTINUOUS
 10
174.5262796049
 20
271.5127707649
 11
174.5262796049
 21
271.0582433552
  0
LINE
  5
317
100
AcDbEntity
  8
0
100
AcDbLine
 62
7
  6
CONTINUOUS
 10
174.872788592
 20
276.106441146
 11
174.872788592
 21
273.6547523422
  0
LINE
  5
318
100
AcDbEntity
  8
0
100
AcDbLine
 62
7
  6
CONTINUOUS
 10
175.209788592
 20
215.4750523422
 11
175.209788592
 21
213.8367523422
  0
LINE
  5
319
100
AcDbEntity
  8
0
100
AcDbLine
 62
7
  6
CONTINUOUS
 10
175.209788592
 20
205.2007523422
 11
175.209788592
 21
203.5624523422
  0
LINE
  5
31A
100
AcDbEntity
  8
0
100
AcDbLine
 62
7
  6
CONTINUOUS
 10
175.209788592
 20
196.0250523422
 11
175.209788592
 21
194.3867523422
  0
LINE
  5
31B
100
AcDbEntity
  8
0
100
AcDbLine
 62
7
  6
CONTINUOUS
 10
175.209788592
 20
185.7507523422
 11
175.209788592
 21
184.1124523422
  0
LINE
  5
31C
100
AcDbEntity
  8
0
100
AcDbLine
 62
7
  6
CONTINUOUS
 10
176.072788592
 20
273.6547523422
 11
176.072788592
 21
276.106441146
  0
LINE
  5
31D
100
AcDbEntity
  8
0
100
AcDbLine
 62
7
  6
CONTINUOUS
 10
176.149588592
 20
215.7417523422
 11
176.149588592
 21
215.4750523422
  0
LINE
  5
31E
100
AcDbEntity
  8
0
100
AcDbLine
 62
7
  6
CONTINUOUS
 10
176.149588592
 20
203.5624523422
 11
176.149588592
 21
203.2957523422
  0
LINE
  5
31F
100
AcDbEntity
  8
0
100
AcDbLine
 62
7
  6
CONTINUOUS
 10
176.149588592
 20
196.2917523422
 11
176.149588592
 21
196.0250523422
  0
LINE
  5
320
100
AcDbEntity
  8
0
100
AcDbLine
 62
7
  6
CONTINUOUS
 10
176.149588592
 20
184.1124523422
 11
176.149588592
 21
183.8457523422
  0
LINE
  5
321
100
AcDbEntity
  8
0
100
AcDbLine
 62
7
  6
CONTINUOUS
 10
176.472788592
 20
257.363917287
 11
176.472788592
 21
257.7300891611
  0
LINE
  5
322
100
AcDbEntity
  8
0
100
AcDbLine
 62
7
  6
CONTINUOUS
 10
176.538208592
 20
215.7417523422
 11
176.538208592
 21
214.6049430436
  0
LINE
  5
323
100
AcDbEntity
  8
0
100
AcDbLine
 62
7
  6
CONTINUOUS
 10
176.538208592
 20
204.4325616409
 11
176.538208592
 21
203.2957523422
  0
LINE
  5
324
100
AcDbEntity
  8
0
100
AcDbLine
 62
7
  6
CONTINUOUS
 10
176.538208592
 20
196.2917523422
 11
176.538208592
 21
195.1549430436
  0
LINE
  5
325
100
AcDbEntity
  8
0
100
AcDbLine
 62
7
  6
CONTINUOUS
 10
176.538208592
 20
184.9825616409
 11
176.538208592
 21
183.8457523422
  0
LINE
  5
326
100
AcDbEntity
  8
0
100
AcDbLine
 62
7
  6
CONTINUOUS
 10
176.606788592
 20
184.9825616409
 11
176.606788592
 21
195.1549430436
  0
LINE
  5
327
100
AcDbEntity
  8
0
100
AcDbLine
 62
7
  6
CONTINUOUS
 10
176.606788592
 20
204.4325616409
 11
176.606788592
 21
214.6049430436
  0
LINE
  5
328
100
AcDbEntity
  8
0
100
AcDbLine
 62
7
  6
CONTINUOUS
 10
177.472788592
 20
277.2547523422
 11
177.472788592
 21
276.876328273
  0
LINE
  5
329
100
AcDbEntity
  8
0
100
AcDbLine
 62
7
  6
CONTINUOUS
 10
177.8690452978
 20
213.2525523422
 11
177.8690452978
 21
212.8969523422
  0
LINE
  5
32A
100
AcDbEntity
  8
0
100
AcDbLine
 62
7
  6
CONTINUOUS
 10
177.8690452978
 20
212.2365523422
 11
177.8690452978
 21
211.8809523422
  0
LINE
  5
32B
100
AcDbEntity
  8
0
100
AcDbLine
 62
7
  6
CONTINUOUS
 10
177.8690452978
 20
211.2205523422
 11
177.8690452978
 21
210.8649523422
  0
LINE
  5
32C
100
AcDbEntity
  8
0
100
AcDbLine
 62
7
  6
CONTINUOUS
 10
177.8690452978
 20
210.2045523422
 11
177.8690452978
 21
209.8489523422
  0
LINE
  5
32D
100
AcDbEntity
  8
0
100
AcDbLine
 62
7
  6
CONTINUOUS
 10
177.8690452978
 20
209.1885523422
 11
177.8690452978
 21
208.8329523422
  0
LINE
  5
32E
100
AcDbEntity
  8
0
100
AcDbLine
 62
7
  6
CONTINUOUS
 10
177.8690452978
 20
208.1725523422
 11
177.8690452978
 21
207.8169523422
  0
LINE
  5
32F
100
AcDbEntity
  8
0
100
AcDbLine
 62
7
  6
CONTINUOUS
 10
177.8690452978
 20
207.1565523422
 11
177.8690452978
 21
206.8009523422
  0
LINE
  5
330
100
AcDbEntity
  8
0
100
AcDbLine
 62
7
  6
CONTINUOUS
 10
177.8690452978
 20
206.1405523422
 11
177.8690452978
 21
205.7849523422
  0
LINE
  5
331
100
AcDbEntity
  8
0
100
AcDbLine
 62
7
  6
CONTINUOUS
 10
177.8690452978
 20
193.8025523422
 11
177.8690452978
 21
193.4469523422
  0
LINE
  5
332
100
AcDbEntity
  8
0
100
AcDbLine
 62
7
  6
CONTINUOUS
 10
177.8690452978
 20
192.7865523422
 11
177.8690452978
 21
192.4309523422
  0
LINE
  5
333
100
AcDbEntity
  8
0
100
AcDbLine
 62
7
  6
CONTINUOUS
 10
177.8690452978
 20
191.7705523422
 11
177.8690452978
 21
191.4149523422
  0
LINE
  5
334
100
AcDbEntity
  8
0
100
AcDbLine
 62
7
  6
CONTINUOUS
 10
177.8690452978
 20
190.7545523422
 11
177.8690452978
 21
190.3989523422
  0
LINE
  5
335
100
AcDbEntity
  8
0
100
AcDbLine
 62
7
  6
CONTINUOUS
 10
177.8690452978
 20
189.7385523422
 11
177.8690452978
 21
189.3829523422
  0
LINE
  5
336
100
AcDbEntity
  8
0
100
AcDbLine
 62
7
  6
CONTINUOUS
 10
177.8690452978
 20
188.7225523422
 11
177.8690452978
 21
188.3669523422
  0
LINE
  5
337
100
AcDbEntity
  8
0
100
AcDbLine
 62
7
  6
CONTINUOUS
 10
177.8690452978
 20
187.7065523422
 11
177.8690452978
 21
187.3509523422
  0
LINE
  5
338
100
AcDbEntity
  8
0
100
AcDbLine
 62
7
  6
CONTINUOUS
 10
177.8690452978
 20
186.6905523422
 11
177.8690452978
 21
186.3349523422
  0
LINE
  5
339
100
AcDbEntity
  8
0
100
AcDbLine
 62
7
  6
CONTINUOUS
 10
178.472788592
 20
257.3851365726
 11
178.472788592
 21
257.7300891618
  0
LINE
  5
33A
100
AcDbEntity
  8
0
100
AcDbLine
 62
7
  6
CONTINUOUS
 10
178.824208592
 20
183.8457523422
 11
178.824208592
 21
184.9825616409
  0
LINE
  5
33B
100
AcDbEntity
  8
0
100
AcDbLine
 62
7
  6
CONTINUOUS
 10
178.824208592
 20
195.1549430436
 11
178.824208592
 21
196.2917523422
  0
LINE
  5
33C
100
AcDbEntity
  8
0
100
AcDbLine
 62
7
  6
CONTINUOUS
 10
178.824208592
 20
203.2957523422
 11
178.824208592
 21
204.4325616409
  0
LINE
  5
33D
100
AcDbEntity
  8
0
100
AcDbLine
 62
7
  6
CONTINUOUS
 10
178.824208592
 20
214.6049430436
 11
178.824208592
 21
215.7417523422
  0
LINE
  5
33E
100
AcDbEntity
  8
0
100
AcDbLine
 62
7
  6
CONTINUOUS
 10
178.943588592
 20
183.8457523422
 11
178.943588592
 21
184.1124523422
  0
LINE
  5
33F
100
AcDbEntity
  8
0
100
AcDbLine
 62
7
  6
CONTINUOUS
 10
178.943588592
 20
196.0250523422
 11
178.943588592
 21
196.2917523422
  0
LINE
  5
340
100
AcDbEntity
  8
0
100
AcDbLine
 62
7
  6
CONTINUOUS
 10
178.943588592
 20
203.2957523422
 11
178.943588592
 21
203.5624523422
  0
LINE
  5
341
100
AcDbEntity
  8
0
100
AcDbLine
 62
7
  6
CONTINUOUS
 10
178.943588592
 20
215.4750523422
 11
178.943588592
 21
215.7417523422
  0
LINE
  5
342
100
AcDbEntity
  8
0
100
AcDbLine
 62
7
  6
CONTINUOUS
 10
179.472788592
 20
277.2547523422
 11
179.504205316
 21
273.6547523422
  0
LINE
  5
343
100
AcDbEntity
  8
0
100
AcDbLine
 62
7
  6
CONTINUOUS
 10
181.115288592
 20
215.4750523422
 11
181.115288592
 21
203.5624523422
  0
LINE
  5
344
100
AcDbEntity
  8
0
100
AcDbLine
 62
7
  6
CONTINUOUS
 10
181.115288592
 20
196.0250523422
 11
181.115288592
 21
184.1124523422
  0
LINE
  5
345
100
AcDbEntity
  8
0
100
AcDbLine
 62
7
  6
CONTINUOUS
 10
181.1727902509
 20
257.8125470238
 11
181.1727920705
 21
257.4372316371
  0
LINE
  5
346
100
AcDbEntity
  8
0
100
AcDbLine
 62
7
  6
CONTINUOUS
 10
181.422788592
 20
249.4492878663
 11
181.422788592
 21
246.1047523422
  0
LINE
  5
347
100
AcDbEntity
  8
0
100
AcDbLine
 62
7
  6
CONTINUOUS
 10
181.618208592
 20
215.7417523422
 11
181.618208592
 21
203.2957523422
  0
LINE
  5
348
100
AcDbEntity
  8
0
100
AcDbLine
 62
7
  6
CONTINUOUS
 10
181.618208592
 20
196.2917523422
 11
181.618208592
 21
183.8457523422
  0
LINE
  5
349
100
AcDbEntity
  8
0
100
AcDbLine
 62
7
  6
CONTINUOUS
 10
182.1727884405
 20
257.4687193129
 11
182.1727885235
 21
257.8447982608
  0
LINE
  5
34A
100
AcDbEntity
  8
0
100
AcDbLine
 62
7
  6
CONTINUOUS
 10
182.522788592
 20
246.1047523422
 11
182.522788592
 21
249.4492878663
  0
LINE
  5
34B
100
AcDbEntity
  8
0
100
AcDbLine
 62
7
  6
CONTINUOUS
 10
183.472408592
 20
217.6467523422
 11
183.472408592
 21
215.1067523422
  0
LINE
  5
34C
100
AcDbEntity
  8
0
100
AcDbLine
 62
7
  6
CONTINUOUS
 10
183.472408592
 20
203.9307523422
 11
183.472408592
 21
201.3907523422
  0
LINE
  5
34D
100
AcDbEntity
  8
0
100
AcDbLine
 62
7
  6
CONTINUOUS
 10
183.472408592
 20
198.1967523422
 11
183.472408592
 21
195.6567523422
  0
LINE
  5
34E
100
AcDbEntity
  8
0
100
AcDbLine
 62
7
  6
CONTINUOUS
 10
183.472408592
 20
184.4807523422
 11
183.472408592
 21
181.9407523422
  0
LINE
  5
34F
100
AcDbEntity
  8
0
100
AcDbLine
 62
7
  6
CONTINUOUS
 10
183.591788592
 20
217.4219425317
 11
183.591788592
 21
215.1067523422
  0
LINE
  5
350
100
AcDbEntity
  8
0
100
AcDbLine
 62
7
  6
CONTINUOUS
 10
183.591788592
 20
203.9307523422
 11
183.591788592
 21
201.6155624444
  0
LINE
  5
351
100
AcDbEntity
  8
0
100
AcDbLine
 62
7
  6
CONTINUOUS
 10
183.591788592
 20
197.9719425317
 11
183.591788592
 21
195.6567523422
  0
LINE
  5
352
100
AcDbEntity
  8
0
100
AcDbLine
 62
7
  6
CONTINUOUS
 10
183.591788592
 20
184.4807523422
 11
183.591788592
 21
182.1655624444
  0
LINE
  5
353
100
AcDbEntity
  8
0
100
AcDbLine
 62
7
  6
CONTINUOUS
 10
183.722788592
 20
257.527561742
 11
183.722788592
 21
257.5170991931
  0
LINE
  5
354
100
AcDbEntity
  8
0
100
AcDbLine
 62
7
  6
CONTINUOUS
 10
183.904208592
 20
215.1067523422
 11
183.904208592
 21
203.9307523422
  0
LINE
  5
355
100
AcDbEntity
  8
0
100
AcDbLine
 62
7
  6
CONTINUOUS
 10
183.904208592
 20
195.6567523422
 11
183.904208592
 21
184.4807523422
  0
LINE
  5
356
100
AcDbEntity
  8
0
100
AcDbLine
 62
7
  6
CONTINUOUS
 10
183.929608592
 20
217.4511723422
 11
183.929608592
 21
217.3292523422
  0
LINE
  5
357
100
AcDbEntity
  8
0
100
AcDbLine
 62
7
  6
CONTINUOUS
 10
183.929608592
 20
201.7082523422
 11
183.929608592
 21
201.5863323422
  0
LINE
  5
358
100
AcDbEntity
  8
0
100
AcDbLine
 62
7
  6
CONTINUOUS
 10
183.929608592
 20
198.0011723422
 11
183.929608592
 21
197.8792523422
  0
LINE
  5
359
100
AcDbEntity
  8
0
100
AcDbLine
 62
7
  6
CONTINUOUS
 10
183.929608592
 20
182.2582523422
 11
183.929608592
 21
182.1363323422
  0
LINE
  5
35A
100
AcDbEntity
  8
0
100
AcDbLine
 62
7
  6
CONTINUOUS
 10
183.972788592
 20
183.3504523422
 11
183.972788592
 21
183.7314523422
  0
LINE
  5
35B
100
AcDbEntity
  8
0
100
AcDbLine
 62
7
  6
CONTINUOUS
 10
183.972788592
 20
196.4060523422
 11
183.972788592
 21
196.7870523422
  0
LINE
  5
35C
100
AcDbEntity
  8
0
100
AcDbLine
 62
7
  6
CONTINUOUS
 10
183.972788592
 20
202.8004523422
 11
183.972788592
 21
203.1814523422
  0
LINE
  5
35D
100
AcDbEntity
  8
0
100
AcDbLine
 62
7
  6
CONTINUOUS
 10
183.972788592
 20
215.8560523422
 11
183.972788592
 21
216.2370523422
  0
LINE
  5
35E
100
AcDbEntity
  8
0
100
AcDbLine
 62
7
  6
CONTINUOUS
 10
183.972788592
 20
257.527890512
 11
183.972788592
 21
257.9028505898
  0
LINE
  5
35F
100
AcDbEntity
  8
0
100
AcDbLine
 62
7
  6
CONTINUOUS
 10
184.072788592
 20
257.5322090869
 11
184.072788592
 21
257.6047523422
  0
LINE
  5
360
100
AcDbEntity
  8
0
100
AcDbLine
 62
7
  6
CONTINUOUS
 10
184.472788592
 20
181.2847523422
 11
184.472788592
 21
198.8547523422
  0
LINE
  5
361
100
AcDbEntity
  8
0
100
AcDbLine
 62
7
  6
CONTINUOUS
 10
184.472788592
 20
200.7347523422
 11
184.472788592
 21
218.3047523422
  0
LINE
  5
362
100
AcDbEntity
  8
0
100
AcDbLine
 62
7
  6
CONTINUOUS
 10
185.222788592
 20
257.5961664572
 11
185.222788592
 21
257.585699747
  0
LINE
  5
363
100
AcDbEntity
  8
0
100
AcDbLine
 62
7
  6
CONTINUOUS
 10
170.3573029834
 20
248.4547523422
 11
168.972788592
 21
250.1047523422
  0
LINE
  5
364
100
AcDbEntity
  8
0
100
AcDbLine
 62
7
  6
CONTINUOUS
 10
188.172788592
 20
270.9047523422
 11
188.172788592
 21
271.0582433552
  0
LINE
  5
365
100
AcDbEntity
  8
0
100
AcDbLine
 62
7
  6
CONTINUOUS
 10
189.2790719065
 20
258.2155296048
 11
189.2790719065
 21
257.8401244256
  0
LINE
  5
366
100
AcDbEntity
  8
0
100
AcDbLine
 62
7
  6
CONTINUOUS
 10
189.622788592
 20
257.8635884188
 11
189.622788592
 21
258.2377231502
  0
LINE
  5
367
100
AcDbEntity
  8
0
100
AcDbLine
 62
7
  6
CONTINUOUS
 10
189.622788592
 20
270.9047523422
 11
189.622788592
 21
271.0582433552
  0
LINE
  5
368
100
AcDbEntity
  8
0
100
AcDbLine
 62
7
  6
CONTINUOUS
 10
190.422788592
 20
257.9110669064
 11
190.422788592
 21
257.9346373589
  0
LINE
  5
369
100
AcDbEntity
  8
0
100
AcDbLine
 62
7
  6
CONTINUOUS
 10
173.472788592
 20
276.876328273
 11
173.8131544883
 21
275.7630415896
  0
LINE
  5
36A
100
AcDbEntity
  8
0
100
AcDbLine
 62
7
  6
CONTINUOUS
 10
190.4538999487
 20
271.0619963403
 11
190.4545544772
 21
270.9047523422
  0
LINE
  5
36B
100
AcDbEntity
  8
0
100
AcDbLine
 62
7
  6
CONTINUOUS
 10
190.4520235991
 20
271.0582433552
 11
190.4520235991
 21
270.9047523422
  0
LINE
  5
36C
100
AcDbEntity
  8
0
100
AcDbLine
 62
7
  6
CONTINUOUS
 10
190.4520235991
 20
258.2912662733
 11
190.4520235991
 21
257.9250638564
  0
LINE
  5
36D
100
AcDbEntity
  8
0
100
AcDbLine
 62
7
  6
CONTINUOUS
 10
190.822788592
 20
188.2297523422
 11
190.822788592
 21
192.1797523422
  0
LINE
  5
36E
100
AcDbEntity
  8
0
100
AcDbLine
 62
7
  6
CONTINUOUS
 10
190.822788592
 20
207.5297523422
 11
190.822788592
 21
211.4797523422
  0
LINE
  5
36F
100
AcDbEntity
  8
0
100
AcDbLine
 62
7
  6
CONTINUOUS
 10
191.172788592
 20
258.3378055632
 11
191.172788592
 21
270.9047523422
  0
LINE
  5
370
100
AcDbEntity
  8
0
100
AcDbLine
 62
7
  6
CONTINUOUS
 10
191.472788592
 20
173.4889418542
 11
191.472788592
 21
257.981079497
  0
LINE
  5
371
100
AcDbEntity
  8
0
100
AcDbLine
 62
7
  6
CONTINUOUS
 10
191.472788592
 20
257.9937481901
 11
191.472788592
 21
273.6547523422
  0
LINE
  5
372
100
AcDbEntity
  8
0
100
AcDbLine
 62
7
  6
CONTINUOUS
 10
168.7845694635
 20
257.4565313054
 11
168.7727885915
 21
257.4687195042
  0
LINE
  5
373
100
AcDbEntity
  8
0
100
AcDbLine
 62
7
  6
CONTINUOUS
 10
168.422788592
 20
246.1047523422
 11
169.522788592
 21
246.1047523422
  0
LINE
  5
374
100
AcDbEntity
  8
0
100
AcDbLine
 62
7
  6
CONTINUOUS
 10
181.422788592
 20
246.1047523422
 11
182.522788592
 21
246.1047523422
  0
LINE
  5
375
100
AcDbEntity
  8
0
100
AcDbLine
 62
7
  6
CONTINUOUS
 10
183.3573029834
 20
248.4547523422
 11
181.972788592
 21
250.1047523422
  0
LINE
  5
376
100
AcDbEntity
  8
0
100
AcDbLine
 62
7
  6
CONTINUOUS
 10
167.5882742005
 20
248.4547523422
 11
168.422788592
 21
248.4547523422
  0
LINE
  5
377
100
AcDbEntity
  8
0
100
AcDbLine
 62
7
  6
CONTINUOUS
 10
169.522788592
 20
248.4547523422
 11
170.3573029834
 21
248.4547523422
  0
LINE
  5
378
100
AcDbEntity
  8
0
100
AcDbLine
 62
7
  6
CONTINUOUS
 10
180.5882742005
 20
248.4547523422
 11
181.422788592
 21
248.4547523422
  0
LINE
  5
379
100
AcDbEntity
  8
0
100
AcDbLine
 62
7
  6
CONTINUOUS
 10
182.522788592
 20
248.4547523422
 11
183.3573029834
 21
248.4547523422
  0
LINE
  5
37A
100
AcDbEntity
  8
0
100
AcDbLine
 62
7
  6
CONTINUOUS
 10
190.4655936288
 20
257.9143339383
 11
190.4232882821
 21
257.9110763833
  0
LINE
  5
37B
100
AcDbEntity
  8
0
100
AcDbLine
 62
7
  6
CONTINUOUS
 10
190.4637896246
 20
257.937762254
 11
190.4227885847
 21
257.9346372636
  0
LINE
  5
37C
100
AcDbEntity
  8
0
100
AcDbLine
 62
7
  6
CONTINUOUS
 10
185.3837093751
 20
257.6047523422
 11
183.972788592
 21
257.6047523422
  0
LINE
  5
37D
100
AcDbEntity
  8
0
100
AcDbLine
 62
7
  6
CONTINUOUS
 10
176.472788592
 20
257.6047523422
 11
169.7727885076
 21
257.6047523422
  0
LINE
  5
37E
100
AcDbEntity
  8
0
100
AcDbLine
 62
7
  6
CONTINUOUS
 10
168.7727855688
 20
257.6047523422
 11
165.5618678255
 21
257.6047523422
  0
LINE
  5
37F
100
AcDbEntity
  8
0
100
AcDbLine
 62
7
  6
CONTINUOUS
 10
160.5223265493
 20
257.9110726384
 11
160.4799809779
 21
257.9143000932
  0
LINE
  5
380
100
AcDbEntity
  8
0
100
AcDbLine
 62
7
  6
CONTINUOUS
 10
160.5227886005
 20
257.9346372636
 11
160.4817875594
 21
257.9377622541
  0
LINE
  5
381
100
AcDbEntity
  8
0
100
AcDbLine
 62
7
  6
CONTINUOUS
 10
191.172788592
 20
270.5547523422
 11
191.472788592
 21
270.5547523422
  0
LINE
  5
382
100
AcDbEntity
  8
0
100
AcDbLine
 62
7
  6
CONTINUOUS
 10
159.772788592
 20
270.554750222
 11
159.472788592
 21
270.5547499603
  0
LINE
  5
383
100
AcDbEntity
  8
0
100
AcDbLine
 62
7
  6
CONTINUOUS
 10
159.772788592
 20
270.9047523422
 11
191.172788592
 21
270.9047523422
  0
LINE
  5
384
100
AcDbEntity
  8
0
100
AcDbLine
 62
7
  6
CONTINUOUS
 10
190.4520235991
 20
271.0582433552
 11
174.5262796049
 21
271.0582433552
  0
LINE
  5
385
100
AcDbEntity
  8
0
100
AcDbLine
 62
7
  6
CONTINUOUS
 10
191.472788592
 20
271.0619963403
 11
190.4538999487
 21
271.0619963403
  0
LINE
  5
386
100
AcDbEntity
  8
0
100
AcDbLine
 62
7
  6
CONTINUOUS
 10
174.5593629749
 20
271.0913267252
 11
191.472788592
 21
271.0913267252
  0
LINE
  5
387
100
AcDbEntity
  8
0
100
AcDbLine
 62
7
  6
CONTINUOUS
 10
159.772788592
 20
271.9320794847
 11
159.472788592
 21
271.9320794847
  0
LINE
  5
388
100
AcDbEntity
  8
0
100
AcDbLine
 62
7
  6
CONTINUOUS
 10
174.522788592
 20
272.1643215667
 11
174.072788592
 21
272.1643215667
  0
LINE
  5
389
100
AcDbEntity
  8
0
100
AcDbLine
 62
7
  6
CONTINUOUS
 10
185.7081714992
 20
273.6547523422
 11
179.4727885919
 21
277.2547523422
  0
LINE
  5
38A
100
AcDbEntity
  8
0
100
AcDbLine
 62
7
  6
CONTINUOUS
 10
159.772788592
 20
273.5547523422
 11
174.072788592
 21
273.5547523422
  0
LINE
  5
38B
100
AcDbEntity
  8
0
100
AcDbLine
 62
7
  6
CONTINUOUS
 10
191.472788592
 20
273.6547523422
 11
174.5384981504
 21
273.6547523422
  0
LINE
  5
38C
100
AcDbEntity
  8
0
100
AcDbLine
 62
7
  6
CONTINUOUS
 10
174.522788592
 20
273.6547523422
 11
159.472788592
 21
273.6547523422
  0
LINE
  5
38D
100
AcDbEntity
  8
0
100
AcDbLine
 62
7
  6
CONTINUOUS
 10
179.472788592
 20
277.2547523422
 11
177.472788592
 21
277.2547523422
  0
LINE
  5
38E
100
AcDbEntity
  8
0
100
AcDbLine
 62
7
  6
CONTINUOUS
 10
173.472788592
 20
277.2547523422
 11
171.472788592
 21
277.2547523422
  0
ARC
  5
38F
100
AcDbEntity
  8
0
100
AcDbCircle
 62
7
  6
CONTINUOUS
 10
175.472788592
 20
272.4047523422
 40
3.75
100
AcDbArc
 50
19.5103191651
 51
160.4896808349
  0
CIRCLE
  5
390
100
AcDbEntity
  8
0
100
AcDbCircle
 62
7
  6
CONTINUOUS
 10
169.112788592
 20
247.9047523422
 40
3.15
  0
CIRCLE
  5
391
100
AcDbEntity
  8
0
100
AcDbCircle
 62
7
  6
CONTINUOUS
 10
168.972788592
 20
248.1047523422
 40
2.5
  0
CIRCLE
  5
392
100
AcDbEntity
  8
0
100
AcDbCircle
 62
7
  6
CONTINUOUS
 10
168.972788592
 20
248.1047523422
 40
2.4432199206
  0
ARC
  5
393
100
AcDbEntity
  8
0
100
AcDbCircle
 62
7
  6
CONTINUOUS
 10
175.472788592
 20
454.3547523422
 40
197.0244352298
100
AcDbArc
 50
265.3419193781
 51
274.6580808075
  0
ARC
  5
394
100
AcDbEntity
  8
0
100
AcDbCircle
 62
7
  6
CONTINUOUS
 10
175.472788592
 20
454.3547523422
 40
197.0104722413
100
AcDbArc
 50
272.4000396764
 51
272.836750119
  0
ARC
  5
395
100
AcDbEntity
  8
0
100
AcDbCircle
 62
7
  6
CONTINUOUS
 10
175.472788592
 20
454.3547523422
 40
197.0104722413
100
AcDbArc
 50
267.1632498809
 51
267.5999603236
  0
ARC
  5
396
100
AcDbEntity
  8
0
100
AcDbCircle
 62
7
  6
CONTINUOUS
 10
175.4728355202
 20
454.3519413499
 40
197.0089698743
100
AcDbArc
 50
271.6613640325
 51
271.9454860907
  0
ARC
  5
397
100
AcDbEntity
  8
0
100
AcDbCircle
 62
7
  6
CONTINUOUS
 10
175.4727412843
 20
454.3519365835
 40
197.0089650942
100
AcDbArc
 50
268.0545139723
 51
268.3386360377
  0
ARC
  5
398
100
AcDbEntity
  8
0
100
AcDbCircle
 62
7
  6
CONTINUOUS
 10
175.472788592
 20
454.3547523422
 40
197.0
100
AcDbArc
 50
267.5999415022
 51
268.0509848581
  0
ARC
  5
399
100
AcDbEntity
  8
0
100
AcDbCircle
 62
7
  6
CONTINUOUS
 10
175.472788592
 20
454.3547523422
 40
197.0
100
AcDbArc
 50
268.341971903
 51
271.6580290773
  0
ARC
  5
39A
100
AcDbEntity
  8
0
100
AcDbCircle
 62
7
  6
CONTINUOUS
 10
175.472788592
 20
454.3547523422
 40
197.0
100
AcDbArc
 50
271.9490139997
 51
272.4000584977
  0
ARC
  5
39B
100
AcDbEntity
  8
0
100
AcDbCircle
 62
7
  6
CONTINUOUS
 10
175.472788592
 20
454.3547523422
 40
197.0
100
AcDbArc
 50
265.6477931889
 51
267.163211693
  0
ARC
  5
39C
100
AcDbEntity
  8
0
100
AcDbCircle
 62
7
  6
CONTINUOUS
 10
175.472788592
 20
454.3547523422
 40
197.0
100
AcDbArc
 50
272.8367883068
 51
274.3522650814
  0
ARC
  5
39D
100
AcDbEntity
  8
0
100
AcDbCircle
 62
7
  6
CONTINUOUS
 10
175.4800845842
 20
454.2626018866
 40
196.9193256902
100
AcDbArc
 50
274.3644139714
 51
274.6582351082
  0
ARC
  5
39E
100
AcDbEntity
  8
0
100
AcDbCircle
 62
7
  6
CONTINUOUS
 10
175.4654891092
 20
454.2625578661
 40
196.9192824089
100
AcDbArc
 50
265.3417649757
 51
265.6355860672
  0
ARC
  5
39F
100
AcDbEntity
  8
0
100
AcDbCircle
 62
7
  6
CONTINUOUS
 10
175.472788592
 20
452.7047523422
 40
195.0
100
AcDbArc
 50
265.3819567296
 51
274.6180432674
  0
ARC
  5
3A0
100
AcDbEntity
  8
0
100
AcDbCircle
 62
7
  6
CONTINUOUS
 10
191.4494586454
 20
200.2133780308
 40
12.0
100
AcDbArc
 50
243.3326507486
 51
267.0065092102
  0
ARC
  5
3A1
100
AcDbEntity
  8
0
100
AcDbCircle
 62
7
  6
CONTINUOUS
 10
191.4494586454
 20
180.1961266536
 40
12.0
100
AcDbArc
 50
92.9934907898
 51
116.6673492362
  0
ARC
  5
3A2
100
AcDbEntity
  8
0
100
AcDbCircle
 62
7
  6
CONTINUOUS
 10
191.4494586454
 20
219.5133780308
 40
12.0
100
AcDbArc
 50
243.3326507486
 51
267.0065092102
  0
ARC
  5
3A3
100
AcDbEntity
  8
0
100
AcDbCircle
 62
7
  6
CONTINUOUS
 10
191.4494586454
 20
199.4961266536
 40
12.0
100
AcDbArc
 50
92.9934907898
 51
116.6673492362
  0
CIRCLE
  5
3A4
100
AcDbEntity
  8
0
100
AcDbCircle
 62
7
  6
CONTINUOUS
 10
182.112788592
 20
247.9047523422
 40
3.15
  0
CIRCLE
  5
3A5
100
AcDbEntity
  8
0
100
AcDbCircle
 62
7
  6
CONTINUOUS
 10
181.972788592
 20
248.1047523422
 40
2.5
  0
CIRCLE
  5
3A6
100
AcDbEntity
  8
0
100
AcDbCircle
 62
7
  6
CONTINUOUS
 10
181.972788592
 20
248.1047523422
 40
2.4432199206
  0
ARC
  5
3A7
100
AcDbEntity
  8
0
100
AcDbCircle
 62
7
  6
CONTINUOUS
 10
186.422788592
 20
190.2047523422
 40
0.8
100
AcDbArc
 50
116.6673491408
 51
243.3326506305
  0
ARC
  5
3A8
100
AcDbEntity
  8
0
100
AcDbCircle
 62
7
  6
CONTINUOUS
 10
186.422788592
 20
209.5047523422
 40
0.8
100
AcDbArc
 50
116.6673491408
 51
243.3326506305
  0
ARC
  5
3A9
100
AcDbEntity
  8
0
100
AcDbCircle
 62
7
  6
CONTINUOUS
 10
183.4800789899
 20
182.3902164989
 40
0.254
100
AcDbArc
 50
270.0
 51
328.373916063
  0
ARC
  5
3AA
100
AcDbEntity
  8
0
100
AcDbCircle
 62
7
  6
CONTINUOUS
 10
183.4800789899
 20
197.7472881856
 40
0.254
100
AcDbArc
 50
31.626362762
 51
90.0
  0
ARC
  5
3AB
100
AcDbEntity
  8
0
100
AcDbCircle
 62
7
  6
CONTINUOUS
 10
183.4800789899
 20
201.8402164989
 40
0.254
100
AcDbArc
 50
270.0
 51
328.373916063
  0
ARC
  5
3AC
100
AcDbEntity
  8
0
100
AcDbCircle
 62
7
  6
CONTINUOUS
 10
183.4800789899
 20
217.1972881856
 40
0.254
100
AcDbArc
 50
31.626362762
 51
90.0
  0
LINE
  5
3AD
100
AcDbEntity
  8
0
100
AcDbLine
 62
7
  6
CONTINUOUS
 10
181.1845695887
 20
257.4257867756
 11
181.1845619486
 21
257.8129265378
  0
LINE
  5
3AE
100
AcDbEntity
  8
0
100
AcDbLine
 62
7
  6
CONTINUOUS
 10
182.1610157367
 20
257.844418557
 11
182.161007715
 21
257.4565313007
  0
LINE
  5
3AF
100
AcDbEntity
  8
0
100
AcDbLine
 62
7
  6
CONTINUOUS
 10
169.7610152348
 20
257.812926538
 11
169.7610076006
 21
257.4257867802
  0
LINE
  5
3B0
100
AcDbEntity
  8
0
100
AcDbLine
 62
7
  6
CONTINUOUS
 10
168.7845694635
 20
257.4565313054
 11
168.7845614475
 21
257.8444185564
  0
SPLINE
  5
3B1
100
AcDbEntity
  8
0
100
AcDbSpline
 62
9
  6
CONTINUOUS
 70
0
 71
3
 72
11
 73
7
 74
0
 42
0.0000001
 43
0.0000001
 44
0.0000000001
 40
0.0
 40
0.0
 40
0.0
 40
0.0
 40
0.2500114806
 40
0.4999995333
 40
0.7499888442
 40
1.0
 40
1.0
 40
1.0
 40
1.0
 10
191.472788592
 20
257.9937561082
 30
0.0
 10
191.3886082026
 20
257.99094791
 30
0.0
 10
191.2202332823
 20
257.9848949088
 30
0.0
 10
190.9683001093
 20
257.9653414967
 30
0.0
 10
190.7164122711
 20
257.945106704
 30
0.0
 10
190.547992962
 20
257.9397672282
 30
0.0
 10
190.4637897364
 20
257.9377616643
 30
0.0
  0
SPLINE
  5
3B2
100
AcDbEntity
  8
0
100
AcDbSpline
 62
9
  6
CONTINUOUS
 70
0
 71
3
 72
11
 73
7
 74
0
 42
0.0000001
 43
0.0000001
 44
0.0000000001
 40
0.0
 40
0.0
 40
0.0
 40
0.0
 40
0.2500111429
 40
0.5000004744
 40
0.7499885122
 40
1.0
 40
1.0
 40
1.0
 40
1.0
 10
160.4817874475
 20
257.9377616643
 30
0.0
 10
160.3975841929
 20
257.9397657636
 30
0.0
 10
160.2291648317
 20
257.9451053514
 30
0.0
 10
159.9772772602
 20
257.9653433912
 30
0.0
 10
159.7253437952
 20
257.9848929389
 30
0.0
 10
159.5569689435
 20
257.9909464313
 30
0.0
 10
159.472788592
 20
257.9937557878
 30
0.0
  0
ELLIPSE
  5
3B3
100
AcDbEntity
  8
0
100
AcDbEllipse
 62
7
  6
CONTINUOUS
 10
179.6344114227
 20
182.6106131658
 30
0.0
 11
0.0
 21
1.46558
 31
0.0
 40
0.255155018
 41
-4.0142572795
 42
-3.5769090801
  0
ELLIPSE
  5
3B4
100
AcDbEntity
  8
0
100
AcDbEllipse
 62
7
  6
CONTINUOUS
 10
181.3261657612
 20
182.6106131658
 30
0.0
 11
0.0
 21
1.46558
 31
0.0
 40
0.255155018
 41
-2.7062762168
 42
-2.2689280277
  0
ELLIPSE
  5
3B5
100
AcDbEntity
  8
0
100
AcDbEllipse
 62
7
  6
CONTINUOUS
 10
179.1990084494
 20
181.1787523422
 30
0.0
 11
-0.0
 21
0.762
 31
0.0
 40
0.255155018
 41
-0.8726646261
 42
-0.0580496281
  0
ELLIPSE
  5
3B6
100
AcDbEntity
  8
0
100
AcDbEllipse
 62
7
  6
CONTINUOUS
 10
181.7615687345
 20
181.1787523422
 30
0.0
 11
0.0
 21
0.762
 31
0.0
 40
0.255155018
 41
0.058049628
 42
0.8726646261
  0
ELLIPSE
  5
3B7
100
AcDbEntity
  8
0
100
AcDbEllipse
 62
7
  6
CONTINUOUS
 10
174.7221657612
 20
182.6106131658
 30
0.0
 11
0.0
 21
1.46558
 31
0.0
 40
0.255155018
 41
-2.7061186779
 42
-2.2689280276
  0
ELLIPSE
  5
3B8
100
AcDbEntity
  8
0
100
AcDbEllipse
 62
7
  6
CONTINUOUS
 10
173.0304114227
 20
182.6106131658
 30
0.0
 11
0.0
 21
1.46558
 31
0.0
 40
0.255155018
 41
-4.0142572795
 42
-3.5769090801
  0
ELLIPSE
  5
3B9
100
AcDbEntity
  8
0
100
AcDbEllipse
 62
7
  6
CONTINUOUS
 10
175.1575687345
 20
181.1787523422
 30
0.0
 11
0.0
 21
0.762
 31
0.0
 40
0.255155018
 41
0.058049628
 42
0.8726646261
  0
ELLIPSE
  5
3BA
100
AcDbEntity
  8
0
100
AcDbEllipse
 62
7
  6
CONTINUOUS
 10
172.5950084494
 20
181.1787523422
 30
0.0
 11
0.0
 21
0.762
 31
0.0
 40
0.255155018
 41
-0.8726646261
 42
-0.0580496281
  0
ELLIPSE
  5
3BB
100
AcDbEntity
  8
0
100
AcDbEllipse
 62
7
  6
CONTINUOUS
 10
171.1473500784
 20
185.8145456985
 30
0.0
 11
1.46558
 21
0.0
 31
0.0
 40
0.255155018
 41
2.2163154385
 42
2.629946757
  0
ELLIPSE
  5
3BC
100
AcDbEntity
  8
0
100
AcDbEllipse
 62
7
  6
CONTINUOUS
 10
171.1473500784
 20
184.1629589859
 30
0.0
 11
1.46558
 21
-0.0
 31
0.0
 40
0.255155018
 41
-2.6286694871
 42
-2.2163154385
  0
ELLIPSE
  5
3BD
100
AcDbEntity
  8
0
100
AcDbEllipse
 62
7
  6
CONTINUOUS
 10
169.807208592
 20
183.7089455325
 30
0.0
 11
0.762
 21
0.0
 31
0.0
 40
0.255155018
 41
0.0924261306
 42
0.9252772151
  0
ELLIPSE
  5
3BE
100
AcDbEntity
  8
0
100
AcDbEllipse
 62
7
  6
CONTINUOUS
 10
169.807208592
 20
186.2685591519
 30
0.0
 11
0.762
 21
0.0
 31
0.0
 40
0.255155018
 41
-0.9252772151
 42
-0.0924261306
  0
ELLIPSE
  5
3BF
100
AcDbEntity
  8
0
100
AcDbEllipse
 62
7
  6
CONTINUOUS
 10
171.1473500784
 20
195.9745456985
 30
0.0
 11
1.46558
 21
-0.0
 31
0.0
 40
0.255155018
 41
2.2163154385
 42
2.6286693878
  0
ELLIPSE
  5
3C0
100
AcDbEntity
  8
0
100
AcDbEllipse
 62
7
  6
CONTINUOUS
 10
171.1473500784
 20
194.3229589859
 30
0.0
 11
1.46558
 21
0.0
 31
0.0
 40
0.255155018
 41
-2.6286694871
 42
-2.2163154385
  0
ELLIPSE
  5
3C1
100
AcDbEntity
  8
0
100
AcDbEllipse
 62
7
  6
CONTINUOUS
 10
169.807208592
 20
193.8689455325
 30
0.0
 11
0.762
 21
0.0
 31
0.0
 40
0.255155018
 41
0.0924261306
 42
0.9252772151
  0
ELLIPSE
  5
3C2
100
AcDbEntity
  8
0
100
AcDbEllipse
 62
7
  6
CONTINUOUS
 10
169.807208592
 20
196.4285591519
 30
0.0
 11
0.762
 21
0.0
 31
0.0
 40
0.255155018
 41
-0.9252772151
 42
-0.0924261306
  0
ELLIPSE
  5
3C3
100
AcDbEntity
  8
0
100
AcDbEllipse
 62
7
  6
CONTINUOUS
 10
172.5964817823
 20
198.9587523422
 30
0.0
 11
-0.0
 21
0.762
 31
0.0
 40
0.255155018
 41
-3.049166523
 42
-2.2689280276
  0
ELLIPSE
  5
3C4
100
AcDbEntity
  8
0
100
AcDbEllipse
 62
7
  6
CONTINUOUS
 10
175.1560954016
 20
198.9587523422
 30
0.0
 11
0.0
 21
0.762
 31
0.0
 40
0.255155018
 41
-4.0142572796
 42
-3.2340187842
  0
ELLIPSE
  5
3C5
100
AcDbEntity
  8
0
100
AcDbEllipse
 62
7
  6
CONTINUOUS
 10
173.0318847555
 20
197.5268915186
 30
0.0
 11
0.0
 21
1.46558
 31
0.0
 40
0.255155018
 41
0.4324958646
 42
0.872664626
  0
ELLIPSE
  5
3C6
100
AcDbEntity
  8
0
100
AcDbEllipse
 62
7
  6
CONTINUOUS
 10
174.7206924284
 20
197.5268915186
 30
0.0
 11
0.0
 21
1.46558
 31
0.0
 40
0.255155018
 41
-0.872664626
 42
-0.4323508224
  0
ELLIPSE
  5
3C7
100
AcDbEntity
  8
0
100
AcDbEllipse
 62
7
  6
CONTINUOUS
 10
181.3246924284
 20
197.5268915186
 30
0.0
 11
0.0
 21
1.46558
 31
0.0
 40
0.255155018
 41
-0.872664626
 42
-0.4323508224
  0
ELLIPSE
  5
3C8
100
AcDbEntity
  8
0
100
AcDbEllipse
 62
7
  6
CONTINUOUS
 10
179.6358847555
 20
197.5268915186
 30
0.0
 11
-0.0
 21
1.46558
 31
0.0
 40
0.255155018
 41
0.4323508319
 42
0.872664626
  0
ELLIPSE
  5
3C9
100
AcDbEntity
  8
0
100
AcDbEllipse
 62
7
  6
CONTINUOUS
 10
181.7600954016
 20
198.9587523422
 30
0.0
 11
0.0
 21
0.762
 31
0.0
 40
0.255155018
 41
-4.0142572796
 42
-3.2340187842
  0
ELLIPSE
  5
3CA
100
AcDbEntity
  8
0
100
AcDbEllipse
 62
7
  6
CONTINUOUS
 10
179.2004817823
 20
198.9587523422
 30
0.0
 11
0.0
 21
0.762
 31
0.0
 40
0.255155018
 41
-3.049166523
 42
-2.2689280276
  0
ELLIPSE
  5
3CB
100
AcDbEntity
  8
0
100
AcDbEllipse
 62
7
  6
CONTINUOUS
 10
179.6344114227
 20
202.0606131658
 30
0.0
 11
0.0
 21
1.46558
 31
0.0
 40
0.255155018
 41
-4.0142572795
 42
-3.5769090801
  0
ELLIPSE
  5
3CC
100
AcDbEntity
  8
0
100
AcDbEllipse
 62
7
  6
CONTINUOUS
 10
181.3261657612
 20
202.0606131658
 30
0.0
 11
-0.0
 21
1.46558
 31
0.0
 40
0.255155018
 41
-2.7062762168
 42
-2.2689280277
  0
ELLIPSE
  5
3CD
100
AcDbEntity
  8
0
100
AcDbEllipse
 62
7
  6
CONTINUOUS
 10
179.1990084494
 20
200.6287523422
 30
0.0
 11
-0.0
 21
0.762
 31
0.0
 40
0.255155018
 41
-0.8726646261
 42
-0.0580496281
  0
ELLIPSE
  5
3CE
100
AcDbEntity
  8
0
100
AcDbEllipse
 62
7
  6
CONTINUOUS
 10
181.7615687345
 20
200.6287523422
 30
0.0
 11
0.0
 21
0.762
 31
0.0
 40
0.255155018
 41
0.058049628
 42
0.8726646261
  0
ELLIPSE
  5
3CF
100
AcDbEntity
  8
0
100
AcDbEllipse
 62
7
  6
CONTINUOUS
 10
174.7221657612
 20
202.0606131658
 30
0.0
 11
-0.0
 21
1.46558
 31
0.0
 40
0.255155018
 41
-2.7061186779
 42
-2.2689280276
  0
ELLIPSE
  5
3D0
100
AcDbEntity
  8
0
100
AcDbEllipse
 62
7
  6
CONTINUOUS
 10
173.0304114227
 20
202.0606131658
 30
0.0
 11
0.0
 21
1.46558
 31
0.0
 40
0.255155018
 41
-4.0142572795
 42
-3.5769090801
  0
ELLIPSE
  5
3D1
100
AcDbEntity
  8
0
100
AcDbEllipse
 62
7
  6
CONTINUOUS
 10
175.1575687345
 20
200.6287523422
 30
0.0
 11
0.0
 21
0.762
 31
0.0
 40
0.255155018
 41
0.058049628
 42
0.8726646261
  0
ELLIPSE
  5
3D2
100
AcDbEntity
  8
0
100
AcDbEllipse
 62
7
  6
CONTINUOUS
 10
172.5950084494
 20
200.6287523422
 30
0.0
 11
0.0
 21
0.762
 31
0.0
 40
0.255155018
 41
-0.8726646261
 42
-0.0580496281
  0
ELLIPSE
  5
3D3
100
AcDbEntity
  8
0
100
AcDbEllipse
 62
7
  6
CONTINUOUS
 10
171.1473500784
 20
205.2645456985
 30
0.0
 11
1.46558
 21
0.0
 31
0.0
 40
0.255155018
 41
2.2163154385
 42
2.629946757
  0
ELLIPSE
  5
3D4
100
AcDbEntity
  8
0
100
AcDbEllipse
 62
7
  6
CONTINUOUS
 10
171.1473500784
 20
203.6129589859
 30
0.0
 11
1.46558
 21
0.0
 31
0.0
 40
0.255155018
 41
-2.6286694871
 42
-2.2163154385
  0
ELLIPSE
  5
3D5
100
AcDbEntity
  8
0
100
AcDbEllipse
 62
7
  6
CONTINUOUS
 10
169.807208592
 20
203.1589455325
 30
0.0
 11
0.762
 21
-0.0
 31
0.0
 40
0.255155018
 41
0.0924261306
 42
0.9252772151
  0
ELLIPSE
  5
3D6
100
AcDbEntity
  8
0
100
AcDbEllipse
 62
7
  6
CONTINUOUS
 10
169.807208592
 20
205.7185591519
 30
0.0
 11
0.762
 21
0.0
 31
0.0
 40
0.255155018
 41
-0.9252772151
 42
-0.0924261306
  0
ELLIPSE
  5
3D7
100
AcDbEntity
  8
0
100
AcDbEllipse
 62
7
  6
CONTINUOUS
 10
171.1473500784
 20
215.4245456985
 30
0.0
 11
1.46558
 21
0.0
 31
0.0
 40
0.255155018
 41
2.2163154385
 42
2.6286693878
  0
ELLIPSE
  5
3D8
100
AcDbEntity
  8
0
100
AcDbEllipse
 62
7
  6
CONTINUOUS
 10
171.1473500784
 20
213.7729589859
 30
0.0
 11
1.46558
 21
0.0
 31
0.0
 40
0.255155018
 41
-2.6286694871
 42
-2.2163154385
  0
ELLIPSE
  5
3D9
100
AcDbEntity
  8
0
100
AcDbEllipse
 62
7
  6
CONTINUOUS
 10
169.807208592
 20
213.3189455325
 30
0.0
 11
0.762
 21
0.0
 31
0.0
 40
0.255155018
 41
0.0924261306
 42
0.9252772151
  0
ELLIPSE
  5
3DA
100
AcDbEntity
  8
0
100
AcDbEllipse
 62
7
  6
CONTINUOUS
 10
169.807208592
 20
215.8785591519
 30
0.0
 11
0.762
 21
0.0
 31
0.0
 40
0.255155018
 41
-0.9252772151
 42
-0.0924261306
  0
ELLIPSE
  5
3DB
100
AcDbEntity
  8
0
100
AcDbEllipse
 62
7
  6
CONTINUOUS
 10
172.5964817823
 20
218.4087523422
 30
0.0
 11
-0.0
 21
0.762
 31
0.0
 40
0.255155018
 41
-3.049166523
 42
-2.2689280276
  0
ELLIPSE
  5
3DC
100
AcDbEntity
  8
0
100
AcDbEllipse
 62
7
  6
CONTINUOUS
 10
175.1560954016
 20
218.4087523422
 30
0.0
 11
0.0
 21
0.762
 31
0.0
 40
0.255155018
 41
-4.0142572796
 42
-3.2340187842
  0
ELLIPSE
  5
3DD
100
AcDbEntity
  8
0
100
AcDbEllipse
 62
7
  6
CONTINUOUS
 10
173.0318847555
 20
216.9768915186
 30
0.0
 11
0.0
 21
1.46558
 31
0.0
 40
0.255155018
 41
0.4324958646
 42
0.872664626
  0
ELLIPSE
  5
3DE
100
AcDbEntity
  8
0
100
AcDbEllipse
 62
7
  6
CONTINUOUS
 10
174.7206924284
 20
216.9768915186
 30
0.0
 11
-0.0
 21
1.46558
 31
0.0
 40
0.255155018
 41
-0.872664626
 42
-0.4323508224
  0
ELLIPSE
  5
3DF
100
AcDbEntity
  8
0
100
AcDbEllipse
 62
7
  6
CONTINUOUS
 10
181.3246924284
 20
216.9768915186
 30
0.0
 11
0.0
 21
1.46558
 31
0.0
 40
0.255155018
 41
-0.872664626
 42
-0.4323508224
  0
ELLIPSE
  5
3E0
100
AcDbEntity
  8
0
100
AcDbEllipse
 62
7
  6
CONTINUOUS
 10
179.6358847555
 20
216.9768915186
 30
0.0
 11
-0.0
 21
1.46558
 31
0.0
 40
0.255155018
 41
0.4323508319
 42
0.872664626
  0
ELLIPSE
  5
3E1
100
AcDbEntity
  8
0
100
AcDbEllipse
 62
7
  6
CONTINUOUS
 10
181.7600954016
 20
218.4087523422
 30
0.0
 11
0.0
 21
0.762
 31
0.0
 40
0.255155018
 41
-4.0142572796
 42
-3.2340187842
  0
ELLIPSE
  5
3E2
100
AcDbEntity
  8
0
100
AcDbEllipse
 62
7
  6
CONTINUOUS
 10
179.2004817823
 20
218.4087523422
 30
0.0
 11
0.0
 21
0.762
 31
0.0
 40
0.255155018
 41
-3.049166523
 42
-2.2689280276
  0
ELLIPSE
  5
3E3
100
AcDbEntity
  8
0
100
AcDbEllipse
 62
7
  6
CONTINUOUS
 10
161.3370053568
 20
257.3547523422
 30
0.0
 11
-0.0
 21
98.0
 31
0.0
 40
0.0087268678
 41
1.5612315395
 42
1.5648472182
  0
ELLIPSE
  5
3E4
100
AcDbEntity
  8
0
100
AcDbEllipse
 62
7
  6
CONTINUOUS
 10
189.6085718271
 20
257.3547523422
 30
0.0
 11
0.0
 21
98.0
 31
0.0
 40
0.0087268678
 41
-1.5648472182
 42
-1.5612315394
  0
ENDSEC
  0
SECTION
  2
OBJECTS
  0
DICTIONARY
  5
C
100
AcDbDictionary
280
0
281
1
  3
ACAD_GROUP
350
D
  3
ACAD_MLINESTYLE
350
17
  3
ACAD_LAYOUT
350
1A
  3
ACAD_PLOTSETTINGS
350
19
  3
ACAD_PLOTSTYLENAME
350
E
  0
DICTIONARY
  5
D
102
{ACAD_REACTORS
330
C
102
}
100
AcDbDictionary
280
0
281
1
  0
ACDBDICTIONARYWDFLT
  5
E
102
{ACAD_REACTORS
330
C
102
}
100
AcDbDictionary
281
1
  3
Normal
350
F
100
AcDbDictionaryWithDefault
340
F
  0
DICTIONARY
  5
17
102
{ACAD_REACTORS
330
C
102
}
100
AcDbDictionary
280
0
281
1
  3
Standard
350
18
  0
DICTIONARY
  5
19
102
{ACAD_REACTORS
330
C
102
}
100
AcDbDictionary
281
1
  0
DICTIONARY
  5
1A
102
{ACAD_REACTORS
330
C
102
}
100
AcDbDictionary
281
1
  3
Model
350
3E5
  3
Layout1
350
3E6
  0
ACDBPLACEHOLDER
  5
F
102
{ACAD_REACTORS
330
E
102
}
  0
MLINESTYLE
  5
18
102
{ACAD_REACTORS
330
17
102
}
100
AcDbMlineStyle
  2
STANDARD
 70
0
  3

 62
256
 51
90.0
 52
90.0
 71
2
 49
0.5
 62
256
  6
BYLAYER
 49
-0.5
 62
256
  6
BYLAYER
  0
LAYOUT
  5
3E5
102
{ACAD_REACTORS
330
1A
102
}
100
AcDbPlotSettings
  1

  2
none_device
  4
ANSI_C_(22.00_x_17.00_Inches)
  6

 40
0.0
 41
0.0
 42
0.0
 43
0.0
 44
558.8
 45
431.8
 46
0.0
 47
0.0
 48
0.0
 49
0.0
140
0.0
141
0.0
142
1.0
143
1.0
 70
1024
 72
1
 73
0
 74
0
  7

 75
0
147
1.0
148
0.0
149
0.0
100
AcDbLayout
  1
Model
 70
0
 71
0
 10
0.0
 20
0.0
 11
558.8
 21
431.8
 12
0.0
 22
0.0
 32
0.0
 14
0.0
 24
0.0
 34
0.0
 15
0.0
 25
0.0
 35
0.0
146
0.0
 13
0.0
 23
0.0
 33
0.0
 16
1.0
 26
0.0
 36
0.0
 17
0.0
 27
1.0
 37
0.0
 76
0
330
216
345
0
346
0
  0
LAYOUT
  5
3E6
102
{ACAD_REACTORS
330
1A
102
}
100
AcDbPlotSettings
  1

  2
none_device
  4
ANSI_C_(22.00_x_17.00_Inches)
  6

 40
0.0
 41
0.0
 42
0.0
 43
0.0
 44
558.8
 45
431.8
 46
0.0
 47
0.0
 48
0.0
 49
0.0
140
0.0
141
0.0
142
1.0
143
1.0
 70
0
 72
1
 73
0
 74
0
  7

 75
0
147
1.0
148
0.0
149
0.0
100
AcDbLayout
  1
Layout1
 70
0
 71
1
 10
0.0
 20
0.0
 11
558.8
 21
431.8
 12
0.0
 22
0.0
 32
0.0
 14
0.0
 24
0.0
 34
0.0
 15
0.0
 25
0.0
 35
0.0
146
0.0
 13
0.0
 23
0.0
 33
0.0
 16
1.0
 26
0.0
 36
0.0
 17
0.0
 27
1.0
 37
0.0
 76
0
330
217
345
0
346
0
  0
ENDSEC
  0
EOF
