  0
SECTION
  2
HEADER
  9
$ACADVER
  1
AC1009
  9
$DWGCODEPAGE
  3
ansi_1250
  9
$INSBASE
 10
0.0
 20
0.0
 30
0.0
  9
$EXTMIN
 10
-20.600393
 20
-30.656134
 30
0.0
  9
$EXTMAX
 10
18.769686
 20
8.713945
 30
0.0
  9
$LIMMIN
 10
0.0
 20
0.0
  9
$LIMMAX
 10
0.0
 20
0.0
  9
$ORTHOMODE
 70
     0
  9
$REGENMODE
 70
     1
  9
$FILLMODE
 70
     1
  9
$QTEXTMODE
 70
     0
  9
$MIRRTEXT
 70
     1
  9
$DRAGMODE
 70
     2
  9
$LTSCALE
 40
1.0
  9
$OSMODE
 70
     0
  9
$ATTMODE
 70
     1
  9
$TEXTSIZE
 40
0.2
  9
$TRACEWID
 40
0.05
  9
$TEXTSTYLE
  7
STANDARD
  9
$CLAYER
  8
0
  9
$CELTYPE
  6
CONTINUOUS
  9
$CECOLOR
 62
   256
  9
$DIMSCALE
 40
1.0
  9
$DIMASZ
 40
0.18
  9
$DIMEXO
 40
0.0625
  9
$DIMDLI
 40
0.38
  9
$DIMRND
 40
0.0
  9
$DIMDLE
 40
0.0
  9
$DIMEXE
 40
0.18
  9
$DIMTP
 40
0.0
  9
$DIMTM
 40
0.0
  9
$DIMTXT
 40
0.18
  9
$DIMCEN
 40
0.09
  9
$DIMTSZ
 40
0.0
  9
$DIMTOL
 70
     0
  9
$DIMLIM
 70
     0
  9
$DIMTIH
 70
     1
  9
$DIMTOH
 70
     1
  9
$DIMSE1
 70
     0
  9
$DIMSE2
 70
     0
  9
$DIMTAD
 70
     0
  9
$DIMZIN
 70
     0
  9
$DIMBLK
  1

  9
$DIMASO
 70
     1
  9
$DIMSHO
 70
     1
  9
$DIMPOST
  1

  9
$DIMAPOST
  1

  9
$DIMALT
 70
     0
  9
$DIMALTD
 70
     2
  9
$DIMALTF
 40
25.4
  9
$DIMLFAC
 40
1.0
  9
$DIMTOFL
 70
     0
  9
$DIMTVP
 40
0.0
  9
$DIMTIX
 70
     0
  9
$DIMSOXD
 70
     0
  9
$DIMSAH
 70
     0
  9
$DIMBLK1
  1

  9
$DIMBLK2
  1

  9
$DIMSTYLE
  2
STANDARD
  9
$DIMCLRD
 70
     0
  9
$DIMCLRE
 70
     0
  9
$DIMCLRT
 70
     0
  9
$DIMTFAC
 40
1.0
  9
$DIMGAP
 40
0.09
  9
$LUNITS
 70
     2
  9
$LUPREC
 70
     4
  9
$AXISMODE
 70
     0
  9
$AXISUNIT
 10
0.0
 20
0.0
  9
$SKETCHINC
 40
0.1
  9
$FILLETRAD
 40
0.0
  9
$AUNITS
 70
     0
  9
$AUPREC
 70
     0
  9
$MENU
  1
acad
  9
$ELEVATION
 40
0.0
  9
$PELEVATION
 40
0.0
  9
$THICKNESS
 40
0.0
  9
$LIMCHECK
 70
     0
  9
$BLIPMODE
 70
     1
  9
$CHAMFERA
 40
0.0
  9
$CHAMFERB
 40
0.0
  9
$SKPOLY
 70
     0
  9
$TDCREATE
 40
0.000000000
  9
$TDUPDATE
 40
0.000000000
  9
$TDINDWG
 40
0.0000000000
  9
$TDUSRTIMER
 40
0.0000000000
  9
$USRTIMER
 70
     1
  9
$ANGBASE
 50
0.0
  9
$ANGDIR
 70
     0
  9
$PDMODE
 70
     0
  9
$PDSIZE
 40
0.0
  9
$PLINEWID
 40
0.0
  9
$COORDS
 70
     0
  9
$SPLFRAME
 70
     0
  9
$SPLINETYPE
 70
     6
  9
$SPLINESEGS
 70
     8
  9
$ATTDIA
 70
     0
  9
$ATTREQ
 70
     1
  9
$HANDLING
 70
     1
  9
$HANDSEED
  5
5EB
  9
$SURFTAB1
 70
     6
  9
$SURFTAB2
 70
     6
  9
$SURFTYPE
 70
     6
  9
$SURFU
 70
     6
  9
$SURFV
 70
     6
  9
$UCSNAME
  2

  9
$UCSORG
 10
0.0
 20
0.0
 30
0.0
  9
$UCSXDIR
 10
1.0
 20
0.0
 30
0.0
  9
$UCSYDIR
 10
0.0
 20
1.0
 30
0.0
  9
$PUCSNAME
  2

  9
$PUCSORG
 10
0.0
 20
0.0
 30
0.0
  9
$PUCSXDIR
 10
1.0
 20
0.0
 30
0.0
  9
$PUCSYDIR
 10
0.0
 20
1.0
 30
0.0
  9
$USERI1
 70
     0
  9
$USERI2
 70
     0
  9
$USERI3
 70
     0
  9
$USERI4
 70
     0
  9
$USERI5
 70
     0
  9
$USERR1
 40
0.0
  9
$USERR2
 40
0.0
  9
$USERR3
 40
0.0
  9
$USERR4
 40
0.0
  9
$USERR5
 40
0.0
  9
$WORLDVIEW
 70
     1
  9
$SHADEDGE
 70
     3
  9
$SHADEDIF
 70
    70
  9
$TILEMODE
 70
     1
  9
$MAXACTVP
 70
    16
  9
$PINSBASE
 10
0.0
 20
0.0
 30
0.0
  9
$PLIMCHECK
 70
     0
  9
$PEXTMIN
 10
1.000000E+20
 20
1.000000E+20
 30
1.000000E+20
  9
$PEXTMAX
 10
-1.000000E+20
 20
-1.000000E+20
 30
-1.000000E+20
  9
$PLIMMIN
 10
0.0
 20
0.0
  9
$PLIMMAX
 10
12.0
 20
9.0
  9
$UNITMODE
 70
     0
  9
$VISRETAIN
 70
     0
  9
$PLINEGEN
 70
     1
  9
$PSLTSCALE
 70
     0
  9
$TREEDEPTH
 70
  3020
  0
ENDSEC
  0
SECTION
  2
TABLES
  0
TABLE
  2
VPORT
 70
     1
  0
VPORT
  2
*ACTIVE
 70
     0
 10
0.0
 20
0.0
 11
1.0
 21
1.0
 12
6.591288
 22
4.579184
 13
0.0
 23
0.0
 14
1.0
 24
1.0
 15
0.0
 25
0.0
 16
0.0
 26
0.0
 36
1.0
 17
0.0
 27
0.0
 37
0.0
 40
9.158369
 41
0.688564
 42
50.0
 43
0.0
 44
0.0
 50
0.0
 51
0.0
 71
     0
 72
   100
 73
     1
 74
     1
 75
     0
 76
     0
 77
     0
 78
     0
  0
ENDTAB
  0
TABLE
  2
LTYPE
 70
     5
  0
LTYPE
  2
CONTINUOUS
 70
    64
  3
Solid line
 72
    65
 73
     0
 40
0.0
  0
LTYPE
  2
CENTER
 70
    64
  3
Center ____ _ ____ _ ____ _ ____ _ ____ _ ____
 72
    65
 73
     4
 40
50.8
 49
31.75
 49
-6.35
 49
6.35
 49
-6.35
  0
LTYPE
  2
HIDDEN
 70
    64
  3
Hidden __ __ __ __ __ __ __ __ __ __ __ __ __ __
 72
    65
 73
     2
 40
9.525
 49
6.35
 49
-3.175
  0
LTYPE
  2
CENTER2
 70
    64
  3
Center (.5x) ___ _ ___ _ ___ _ ___ _ ___ _ ___
 72
    65
 73
     4
 40
28.575
 49
19.05
 49
-3.175
 49
3.175
 49
-3.175
  0
LTYPE
  2
HIDDEN2
 70
    64
  3
Hidden (.5x) _ _ _ _ _ _ _ _ _ _ _ _ _ _ _ _ _
 72
    65
 73
     2
 40
4.7625
 49
3.175
 49
-1.5875
  0
ENDTAB
  0
TABLE
  2
LAYER
 70
     1
  0
LAYER
  2
0
 70
     0
 62
     7
  6
CONTINUOUS
  0
ENDTAB
  0
TABLE
  2
STYLE
 70
     1
  0
STYLE
  2
STANDARD
 70
     0
 40
0.0
 41
1.0
 50
0.0
 71
     0
 42
0.0
  3
txt
  4

  0
ENDTAB
  0
TABLE
  2
VIEW
 70
     0
  0
ENDTAB
  0
TABLE
  2
UCS
 70
     0
  0
ENDTAB
  0
TABLE
  2
APPID
 70
     1
  0
APPID
  2
ACAD
 70
     0
  0
ENDTAB
  0
TABLE
  2
DIMSTYLE
 70
     1
  0
DIMSTYLE
  2
STANDARD
 70
     0
  3

  4

  5

  6

  7

 40
1.0
 41
0.18
 42
0.0625
 43
0.38
 44
0.18
 45
0.0
 46
0.0
 47
0.0
 48
0.0
 71
     0
 72
     0
 73
     1
 74
     1
 75
     0
 76
     0
 77
     0
 78
     0
140
0.18
141
0.09
142
0.0
143
25.4
144
1.0
145
0.0
146
1.0
147
0.09
170
     0
171
     2
172
     0
173
     0
174
     0
175
     0
176
     0
177
     0
178
     0
  0
ENDTAB
  0
ENDSEC
  0
SECTION
  2
BLOCKS
  0
ENDSEC
  0
SECTION
  2
ENTITIES
  0
LINE
  8
0
  6
CONTINUOUS
 62
     7
  5
325
 10
-2.647638
 20
5.767716
 30
0.0
 11
-1.663386
 21
5.767716
 31
0.0
  0
LINE
  8
0
  6
CONTINUOUS
 62
     7
  5
326
 10
-2.647638
 20
5.570866
 30
0.0
 11
-2.647638
 21
5.767716
 31
0.0
  0
LINE
  8
0
  6
CONTINUOUS
 62
     7
  5
327
 10
-2.647638
 20
5.570866
 30
0.0
 11
-1.663386
 21
5.570866
 31
0.0
  0
LINE
  8
0
  6
CONTINUOUS
 62
     7
  5
328
 10
-1.663386
 20
5.570866
 30
0.0
 11
-1.663386
 21
5.767716
 31
0.0
  0
LINE
  8
0
  6
CONTINUOUS
 62
     7
  5
329
 10
-1.490565
 20
4.743126
 30
0.0
 11
-1.490758
 21
4.743126
 31
0.0
  0
LINE
  8
0
  6
CONTINUOUS
 62
     7
  5
32A
 10
-1.490758
 20
4.743126
 30
0.0
 11
-1.491335
 21
4.743125
 31
0.0
  0
LINE
  8
0
  6
CONTINUOUS
 62
     7
  5
32B
 10
-1.491335
 20
4.743125
 30
0.0
 11
-1.492297
 21
4.743125
 31
0.0
  0
LINE
  8
0
  6
CONTINUOUS
 62
     7
  5
32C
 10
-1.492297
 20
4.743125
 30
0.0
 11
-1.493641
 21
4.743124
 31
0.0
  0
LINE
  8
0
  6
CONTINUOUS
 62
     7
  5
32D
 10
-1.493641
 20
4.743124
 30
0.0
 11
-1.495364
 21
4.743124
 31
0.0
  0
LINE
  8
0
  6
CONTINUOUS
 62
     7
  5
32E
 10
-1.495364
 20
4.743124
 30
0.0
 11
-1.497462
 21
4.743123
 31
0.0
  0
LINE
  8
0
  6
CONTINUOUS
 62
     7
  5
32F
 10
-1.497462
 20
4.743123
 30
0.0
 11
-1.499933
 21
4.743122
 31
0.0
  0
LINE
  8
0
  6
CONTINUOUS
 62
     7
  5
330
 10
-1.499933
 20
4.743122
 30
0.0
 11
-1.502769
 21
4.743122
 31
0.0
  0
LINE
  8
0
  6
CONTINUOUS
 62
     7
  5
331
 10
-1.502769
 20
4.743122
 30
0.0
 11
-1.505967
 21
4.743121
 31
0.0
  0
LINE
  8
0
  6
CONTINUOUS
 62
     7
  5
332
 10
-1.505967
 20
4.743121
 30
0.0
 11
-1.509519
 21
4.743121
 31
0.0
  0
LINE
  8
0
  6
CONTINUOUS
 62
     7
  5
333
 10
-1.509519
 20
4.743121
 30
0.0
 11
-1.513419
 21
4.74312
 31
0.0
  0
LINE
  8
0
  6
CONTINUOUS
 62
     7
  5
334
 10
-1.513419
 20
4.74312
 30
0.0
 11
-1.517657
 21
4.74312
 31
0.0
  0
LINE
  8
0
  6
CONTINUOUS
 62
     7
  5
335
 10
-1.517657
 20
4.74312
 30
0.0
 11
-1.522227
 21
4.743119
 31
0.0
  0
LINE
  8
0
  6
CONTINUOUS
 62
     7
  5
336
 10
-1.522227
 20
4.743119
 30
0.0
 11
-1.527118
 21
4.743119
 31
0.0
  0
LINE
  8
0
  6
CONTINUOUS
 62
     7
  5
337
 10
-1.527118
 20
4.743119
 30
0.0
 11
-1.532322
 21
4.743118
 31
0.0
  0
LINE
  8
0
  6
CONTINUOUS
 62
     7
  5
338
 10
-1.532322
 20
4.743118
 30
0.0
 11
-1.537826
 21
4.743118
 31
0.0
  0
LINE
  8
0
  6
CONTINUOUS
 62
     7
  5
339
 10
-1.537826
 20
4.743118
 30
0.0
 11
-1.543621
 21
4.743117
 31
0.0
  0
LINE
  8
0
  6
CONTINUOUS
 62
     7
  5
33A
 10
-1.543621
 20
4.743117
 30
0.0
 11
-1.549694
 21
4.743117
 31
0.0
  0
LINE
  8
0
  6
CONTINUOUS
 62
     7
  5
33B
 10
-1.549694
 20
4.743117
 30
0.0
 11
-1.556034
 21
4.743117
 31
0.0
  0
LINE
  8
0
  6
CONTINUOUS
 62
     7
  5
33C
 10
-1.556034
 20
4.743117
 30
0.0
 11
-1.562628
 21
4.743116
 31
0.0
  0
LINE
  8
0
  6
CONTINUOUS
 62
     7
  5
33D
 10
-1.562628
 20
4.743116
 30
0.0
 11
-1.569461
 21
4.743116
 31
0.0
  0
LINE
  8
0
  6
CONTINUOUS
 62
     7
  5
33E
 10
-1.569461
 20
4.743116
 30
0.0
 11
-1.576522
 21
4.743115
 31
0.0
  0
LINE
  8
0
  6
CONTINUOUS
 62
     7
  5
33F
 10
-1.576522
 20
4.743115
 30
0.0
 11
-1.583794
 21
4.743115
 31
0.0
  0
LINE
  8
0
  6
CONTINUOUS
 62
     7
  5
340
 10
-1.583794
 20
4.743115
 30
0.0
 11
-1.591265
 21
4.743115
 31
0.0
  0
LINE
  8
0
  6
CONTINUOUS
 62
     7
  5
341
 10
-1.591265
 20
4.743115
 30
0.0
 11
-1.598918
 21
4.743115
 31
0.0
  0
LINE
  8
0
  6
CONTINUOUS
 62
     7
  5
342
 10
-1.598918
 20
4.743115
 30
0.0
 11
-1.606738
 21
4.743114
 31
0.0
  0
LINE
  8
0
  6
CONTINUOUS
 62
     7
  5
343
 10
-1.606738
 20
4.743114
 30
0.0
 11
-1.614709
 21
4.743114
 31
0.0
  0
LINE
  8
0
  6
CONTINUOUS
 62
     7
  5
344
 10
-1.614709
 20
4.743114
 30
0.0
 11
-1.622817
 21
4.743114
 31
0.0
  0
LINE
  8
0
  6
CONTINUOUS
 62
     7
  5
345
 10
-1.622817
 20
4.743114
 30
0.0
 11
-1.631043
 21
4.743114
 31
0.0
  0
LINE
  8
0
  6
CONTINUOUS
 62
     7
  5
346
 10
-1.631043
 20
4.743114
 30
0.0
 11
-1.639372
 21
4.743114
 31
0.0
  0
LINE
  8
0
  6
CONTINUOUS
 62
     7
  5
347
 10
-1.639372
 20
4.743114
 30
0.0
 11
-1.647786
 21
4.743113
 31
0.0
  0
LINE
  8
0
  6
CONTINUOUS
 62
     7
  5
348
 10
-1.647786
 20
4.743113
 30
0.0
 11
-1.65627
 21
4.743113
 31
0.0
  0
LINE
  8
0
  6
CONTINUOUS
 62
     7
  5
349
 10
-1.65627
 20
4.743113
 30
0.0
 11
-1.664805
 21
4.743113
 31
0.0
  0
LINE
  8
0
  6
CONTINUOUS
 62
     7
  5
34A
 10
-1.664805
 20
4.743113
 30
0.0
 11
-1.673374
 21
4.743113
 31
0.0
  0
LINE
  8
0
  6
CONTINUOUS
 62
     7
  5
34B
 10
-1.673374
 20
4.743113
 30
0.0
 11
-1.681961
 21
4.743113
 31
0.0
  0
LINE
  8
0
  6
CONTINUOUS
 62
     7
  5
34C
 10
-1.681961
 20
8.377533
 30
0.0
 11
-1.673374
 21
8.377533
 31
0.0
  0
LINE
  8
0
  6
CONTINUOUS
 62
     7
  5
34D
 10
-1.673374
 20
8.377533
 30
0.0
 11
-1.664805
 21
8.377533
 31
0.0
  0
LINE
  8
0
  6
CONTINUOUS
 62
     7
  5
34E
 10
-1.664805
 20
8.377533
 30
0.0
 11
-1.65627
 21
8.377532
 31
0.0
  0
LINE
  8
0
  6
CONTINUOUS
 62
     7
  5
34F
 10
-1.65627
 20
8.377532
 30
0.0
 11
-1.647786
 21
8.377532
 31
0.0
  0
LINE
  8
0
  6
CONTINUOUS
 62
     7
  5
350
 10
-1.647786
 20
8.377532
 30
0.0
 11
-1.639372
 21
8.377532
 31
0.0
  0
LINE
  8
0
  6
CONTINUOUS
 62
     7
  5
351
 10
-1.639372
 20
8.377532
 30
0.0
 11
-1.631043
 21
8.377532
 31
0.0
  0
LINE
  8
0
  6
CONTINUOUS
 62
     7
  5
352
 10
-1.631043
 20
8.377532
 30
0.0
 11
-1.622817
 21
8.377531
 31
0.0
  0
LINE
  8
0
  6
CONTINUOUS
 62
     7
  5
353
 10
-1.622817
 20
8.377531
 30
0.0
 11
-1.614709
 21
8.377531
 31
0.0
  0
LINE
  8
0
  6
CONTINUOUS
 62
     7
  5
354
 10
-1.614709
 20
8.377531
 30
0.0
 11
-1.606738
 21
8.37753
 31
0.0
  0
LINE
  8
0
  6
CONTINUOUS
 62
     7
  5
355
 10
-1.606738
 20
8.37753
 30
0.0
 11
-1.598918
 21
8.37753
 31
0.0
  0
LINE
  8
0
  6
CONTINUOUS
 62
     7
  5
356
 10
-1.598918
 20
8.37753
 30
0.0
 11
-1.591265
 21
8.377529
 31
0.0
  0
LINE
  8
0
  6
CONTINUOUS
 62
     7
  5
357
 10
-1.591265
 20
8.377529
 30
0.0
 11
-1.583794
 21
8.377529
 31
0.0
  0
LINE
  8
0
  6
CONTINUOUS
 62
     7
  5
358
 10
-1.583794
 20
8.377529
 30
0.0
 11
-1.576522
 21
8.377528
 31
0.0
  0
LINE
  8
0
  6
CONTINUOUS
 62
     7
  5
359
 10
-1.576522
 20
8.377528
 30
0.0
 11
-1.569461
 21
8.377527
 31
0.0
  0
LINE
  8
0
  6
CONTINUOUS
 62
     7
  5
35A
 10
-1.569461
 20
8.377527
 30
0.0
 11
-1.562628
 21
8.377526
 31
0.0
  0
LINE
  8
0
  6
CONTINUOUS
 62
     7
  5
35B
 10
-1.562628
 20
8.377526
 30
0.0
 11
-1.556034
 21
8.377526
 31
0.0
  0
LINE
  8
0
  6
CONTINUOUS
 62
     7
  5
35C
 10
-1.556034
 20
8.377526
 30
0.0
 11
-1.549694
 21
8.377525
 31
0.0
  0
LINE
  8
0
  6
CONTINUOUS
 62
     7
  5
35D
 10
-1.549694
 20
8.377525
 30
0.0
 11
-1.543621
 21
8.377524
 31
0.0
  0
LINE
  8
0
  6
CONTINUOUS
 62
     7
  5
35E
 10
-1.543621
 20
8.377524
 30
0.0
 11
-1.537826
 21
8.377523
 31
0.0
  0
LINE
  8
0
  6
CONTINUOUS
 62
     7
  5
35F
 10
-1.537826
 20
8.377523
 30
0.0
 11
-1.532322
 21
8.377522
 31
0.0
  0
LINE
  8
0
  6
CONTINUOUS
 62
     7
  5
360
 10
-1.532322
 20
8.377522
 30
0.0
 11
-1.527118
 21
8.377521
 31
0.0
  0
LINE
  8
0
  6
CONTINUOUS
 62
     7
  5
361
 10
-1.527118
 20
8.377521
 30
0.0
 11
-1.522227
 21
8.37752
 31
0.0
  0
LINE
  8
0
  6
CONTINUOUS
 62
     7
  5
362
 10
-1.522227
 20
8.37752
 30
0.0
 11
-1.517657
 21
8.377519
 31
0.0
  0
LINE
  8
0
  6
CONTINUOUS
 62
     7
  5
363
 10
-1.517657
 20
8.377519
 30
0.0
 11
-1.513419
 21
8.377518
 31
0.0
  0
LINE
  8
0
  6
CONTINUOUS
 62
     7
  5
364
 10
-1.513419
 20
8.377518
 30
0.0
 11
-1.509519
 21
8.377516
 31
0.0
  0
LINE
  8
0
  6
CONTINUOUS
 62
     7
  5
365
 10
-1.509519
 20
8.377516
 30
0.0
 11
-1.505967
 21
8.377515
 31
0.0
  0
LINE
  8
0
  6
CONTINUOUS
 62
     7
  5
366
 10
-1.505967
 20
8.377515
 30
0.0
 11
-1.502769
 21
8.377514
 31
0.0
  0
LINE
  8
0
  6
CONTINUOUS
 62
     7
  5
367
 10
-1.502769
 20
8.377514
 30
0.0
 11
-1.499933
 21
8.377513
 31
0.0
  0
LINE
  8
0
  6
CONTINUOUS
 62
     7
  5
368
 10
-1.499933
 20
8.377513
 30
0.0
 11
-1.497462
 21
8.377512
 31
0.0
  0
LINE
  8
0
  6
CONTINUOUS
 62
     7
  5
369
 10
-1.497462
 20
8.377512
 30
0.0
 11
-1.495364
 21
8.37751
 31
0.0
  0
LINE
  8
0
  6
CONTINUOUS
 62
     7
  5
36A
 10
-1.495364
 20
8.37751
 30
0.0
 11
-1.493641
 21
8.377509
 31
0.0
  0
LINE
  8
0
  6
CONTINUOUS
 62
     7
  5
36B
 10
-1.493641
 20
8.377509
 30
0.0
 11
-1.492297
 21
8.377508
 31
0.0
  0
LINE
  8
0
  6
CONTINUOUS
 62
     7
  5
36C
 10
-1.492297
 20
8.377508
 30
0.0
 11
-1.491335
 21
8.377506
 31
0.0
  0
LINE
  8
0
  6
CONTINUOUS
 62
     7
  5
36D
 10
-1.491335
 20
8.377506
 30
0.0
 11
-1.490758
 21
8.377505
 31
0.0
  0
LINE
  8
0
  6
CONTINUOUS
 62
     7
  5
36E
 10
-1.490758
 20
8.377505
 30
0.0
 11
-1.490565
 21
8.377504
 31
0.0
  0
LINE
  8
0
  6
CONTINUOUS
 62
     7
  5
36F
 10
-1.681961
 20
4.743113
 30
0.0
 11
-2.629063
 21
4.743113
 31
0.0
  0
LINE
  8
0
  6
CONTINUOUS
 62
     7
  5
370
 10
-0.757874
 20
5.767716
 30
0.0
 11
0.226378
 21
5.767716
 31
0.0
  0
LINE
  8
0
  6
CONTINUOUS
 62
     7
  5
371
 10
-0.757874
 20
5.570866
 30
0.0
 11
-0.757874
 21
5.767716
 31
0.0
  0
LINE
  8
0
  6
CONTINUOUS
 62
     7
  5
372
 10
-0.757874
 20
5.570866
 30
0.0
 11
0.226378
 21
5.570866
 31
0.0
  0
LINE
  8
0
  6
CONTINUOUS
 62
     7
  5
373
 10
0.226378
 20
5.570866
 30
0.0
 11
0.226378
 21
5.767716
 31
0.0
  0
LINE
  8
0
  6
CONTINUOUS
 62
     7
  5
374
 10
0.399199
 20
4.743126
 30
0.0
 11
0.399006
 21
4.743126
 31
0.0
  0
LINE
  8
0
  6
CONTINUOUS
 62
     7
  5
375
 10
0.399006
 20
4.743126
 30
0.0
 11
0.398429
 21
4.743125
 31
0.0
  0
LINE
  8
0
  6
CONTINUOUS
 62
     7
  5
376
 10
0.398429
 20
4.743125
 30
0.0
 11
0.397467
 21
4.743125
 31
0.0
  0
LINE
  8
0
  6
CONTINUOUS
 62
     7
  5
377
 10
0.397467
 20
4.743125
 30
0.0
 11
0.396123
 21
4.743124
 31
0.0
  0
LINE
  8
0
  6
CONTINUOUS
 62
     7
  5
378
 10
0.396123
 20
4.743124
 30
0.0
 11
0.3944
 21
4.743124
 31
0.0
  0
LINE
  8
0
  6
CONTINUOUS
 62
     7
  5
379
 10
0.3944
 20
4.743124
 30
0.0
 11
0.392302
 21
4.743123
 31
0.0
  0
LINE
  8
0
  6
CONTINUOUS
 62
     7
  5
37A
 10
0.392302
 20
4.743123
 30
0.0
 11
0.389831
 21
4.743122
 31
0.0
  0
LINE
  8
0
  6
CONTINUOUS
 62
     7
  5
37B
 10
0.389831
 20
4.743122
 30
0.0
 11
0.386995
 21
4.743122
 31
0.0
  0
LINE
  8
0
  6
CONTINUOUS
 62
     7
  5
37C
 10
0.386995
 20
4.743122
 30
0.0
 11
0.383797
 21
4.743121
 31
0.0
  0
LINE
  8
0
  6
CONTINUOUS
 62
     7
  5
37D
 10
0.383797
 20
4.743121
 30
0.0
 11
0.380245
 21
4.743121
 31
0.0
  0
LINE
  8
0
  6
CONTINUOUS
 62
     7
  5
37E
 10
0.380245
 20
4.743121
 30
0.0
 11
0.376345
 21
4.74312
 31
0.0
  0
LINE
  8
0
  6
CONTINUOUS
 62
     7
  5
37F
 10
0.376345
 20
4.74312
 30
0.0
 11
0.372107
 21
4.74312
 31
0.0
  0
LINE
  8
0
  6
CONTINUOUS
 62
     7
  5
380
 10
0.372107
 20
4.74312
 30
0.0
 11
0.367537
 21
4.743119
 31
0.0
  0
LINE
  8
0
  6
CONTINUOUS
 62
     7
  5
381
 10
0.367537
 20
4.743119
 30
0.0
 11
0.362646
 21
4.743119
 31
0.0
  0
LINE
  8
0
  6
CONTINUOUS
 62
     7
  5
382
 10
0.362646
 20
4.743119
 30
0.0
 11
0.357442
 21
4.743118
 31
0.0
  0
LINE
  8
0
  6
CONTINUOUS
 62
     7
  5
383
 10
0.357442
 20
4.743118
 30
0.0
 11
0.351938
 21
4.743118
 31
0.0
  0
LINE
  8
0
  6
CONTINUOUS
 62
     7
  5
384
 10
0.351938
 20
4.743118
 30
0.0
 11
0.346143
 21
4.743117
 31
0.0
  0
LINE
  8
0
  6
CONTINUOUS
 62
     7
  5
385
 10
0.346143
 20
4.743117
 30
0.0
 11
0.34007
 21
4.743117
 31
0.0
  0
LINE
  8
0
  6
CONTINUOUS
 62
     7
  5
386
 10
0.34007
 20
4.743117
 30
0.0
 11
0.33373
 21
4.743117
 31
0.0
  0
LINE
  8
0
  6
CONTINUOUS
 62
     7
  5
387
 10
0.33373
 20
4.743117
 30
0.0
 11
0.327136
 21
4.743116
 31
0.0
  0
LINE
  8
0
  6
CONTINUOUS
 62
     7
  5
388
 10
0.327136
 20
4.743116
 30
0.0
 11
0.320303
 21
4.743116
 31
0.0
  0
LINE
  8
0
  6
CONTINUOUS
 62
     7
  5
389
 10
0.320303
 20
4.743116
 30
0.0
 11
0.313242
 21
4.743115
 31
0.0
  0
LINE
  8
0
  6
CONTINUOUS
 62
     7
  5
38A
 10
0.313242
 20
4.743115
 30
0.0
 11
0.30597
 21
4.743115
 31
0.0
  0
LINE
  8
0
  6
CONTINUOUS
 62
     7
  5
38B
 10
0.30597
 20
4.743115
 30
0.0
 11
0.298499
 21
4.743115
 31
0.0
  0
LINE
  8
0
  6
CONTINUOUS
 62
     7
  5
38C
 10
0.298499
 20
4.743115
 30
0.0
 11
0.290846
 21
4.743115
 31
0.0
  0
LINE
  8
0
  6
CONTINUOUS
 62
     7
  5
38D
 10
0.290846
 20
4.743115
 30
0.0
 11
0.283026
 21
4.743114
 31
0.0
  0
LINE
  8
0
  6
CONTINUOUS
 62
     7
  5
38E
 10
0.283026
 20
4.743114
 30
0.0
 11
0.275055
 21
4.743114
 31
0.0
  0
LINE
  8
0
  6
CONTINUOUS
 62
     7
  5
38F
 10
0.275055
 20
4.743114
 30
0.0
 11
0.266947
 21
4.743114
 31
0.0
  0
LINE
  8
0
  6
CONTINUOUS
 62
     7
  5
390
 10
0.266947
 20
4.743114
 30
0.0
 11
0.258721
 21
4.743114
 31
0.0
  0
LINE
  8
0
  6
CONTINUOUS
 62
     7
  5
391
 10
0.258721
 20
4.743114
 30
0.0
 11
0.250392
 21
4.743114
 31
0.0
  0
LINE
  8
0
  6
CONTINUOUS
 62
     7
  5
392
 10
0.250392
 20
4.743114
 30
0.0
 11
0.241978
 21
4.743113
 31
0.0
  0
LINE
  8
0
  6
CONTINUOUS
 62
     7
  5
393
 10
0.241978
 20
4.743113
 30
0.0
 11
0.233494
 21
4.743113
 31
0.0
  0
LINE
  8
0
  6
CONTINUOUS
 62
     7
  5
394
 10
0.233494
 20
4.743113
 30
0.0
 11
0.224959
 21
4.743113
 31
0.0
  0
LINE
  8
0
  6
CONTINUOUS
 62
     7
  5
395
 10
0.224959
 20
4.743113
 30
0.0
 11
0.21639
 21
4.743113
 31
0.0
  0
LINE
  8
0
  6
CONTINUOUS
 62
     7
  5
396
 10
0.21639
 20
4.743113
 30
0.0
 11
0.207803
 21
4.743113
 31
0.0
  0
LINE
  8
0
  6
CONTINUOUS
 62
     7
  5
397
 10
0.207803
 20
8.377533
 30
0.0
 11
0.21639
 21
8.377533
 31
0.0
  0
LINE
  8
0
  6
CONTINUOUS
 62
     7
  5
398
 10
0.21639
 20
8.377533
 30
0.0
 11
0.224959
 21
8.377533
 31
0.0
  0
LINE
  8
0
  6
CONTINUOUS
 62
     7
  5
399
 10
0.224959
 20
8.377533
 30
0.0
 11
0.233494
 21
8.377532
 31
0.0
  0
LINE
  8
0
  6
CONTINUOUS
 62
     7
  5
39A
 10
0.233494
 20
8.377532
 30
0.0
 11
0.241978
 21
8.377532
 31
0.0
  0
LINE
  8
0
  6
CONTINUOUS
 62
     7
  5
39B
 10
0.241978
 20
8.377532
 30
0.0
 11
0.250392
 21
8.377532
 31
0.0
  0
LINE
  8
0
  6
CONTINUOUS
 62
     7
  5
39C
 10
0.250392
 20
8.377532
 30
0.0
 11
0.258721
 21
8.377532
 31
0.0
  0
LINE
  8
0
  6
CONTINUOUS
 62
     7
  5
39D
 10
0.258721
 20
8.377532
 30
0.0
 11
0.266947
 21
8.377531
 31
0.0
  0
LINE
  8
0
  6
CONTINUOUS
 62
     7
  5
39E
 10
0.266947
 20
8.377531
 30
0.0
 11
0.275055
 21
8.377531
 31
0.0
  0
LINE
  8
0
  6
CONTINUOUS
 62
     7
  5
39F
 10
0.275055
 20
8.377531
 30
0.0
 11
0.283026
 21
8.37753
 31
0.0
  0
LINE
  8
0
  6
CONTINUOUS
 62
     7
  5
3A0
 10
0.283026
 20
8.37753
 30
0.0
 11
0.290846
 21
8.37753
 31
0.0
  0
LINE
  8
0
  6
CONTINUOUS
 62
     7
  5
3A1
 10
0.290846
 20
8.37753
 30
0.0
 11
0.298499
 21
8.377529
 31
0.0
  0
LINE
  8
0
  6
CONTINUOUS
 62
     7
  5
3A2
 10
0.298499
 20
8.377529
 30
0.0
 11
0.30597
 21
8.377529
 31
0.0
  0
LINE
  8
0
  6
CONTINUOUS
 62
     7
  5
3A3
 10
0.30597
 20
8.377529
 30
0.0
 11
0.313242
 21
8.377528
 31
0.0
  0
LINE
  8
0
  6
CONTINUOUS
 62
     7
  5
3A4
 10
0.313242
 20
8.377528
 30
0.0
 11
0.320303
 21
8.377527
 31
0.0
  0
LINE
  8
0
  6
CONTINUOUS
 62
     7
  5
3A5
 10
0.320303
 20
8.377527
 30
0.0
 11
0.327136
 21
8.377526
 31
0.0
  0
LINE
  8
0
  6
CONTINUOUS
 62
     7
  5
3A6
 10
0.327136
 20
8.377526
 30
0.0
 11
0.33373
 21
8.377526
 31
0.0
  0
LINE
  8
0
  6
CONTINUOUS
 62
     7
  5
3A7
 10
0.33373
 20
8.377526
 30
0.0
 11
0.34007
 21
8.377525
 31
0.0
  0
LINE
  8
0
  6
CONTINUOUS
 62
     7
  5
3A8
 10
0.34007
 20
8.377525
 30
0.0
 11
0.346143
 21
8.377524
 31
0.0
  0
LINE
  8
0
  6
CONTINUOUS
 62
     7
  5
3A9
 10
0.346143
 20
8.377524
 30
0.0
 11
0.351938
 21
8.377523
 31
0.0
  0
LINE
  8
0
  6
CONTINUOUS
 62
     7
  5
3AA
 10
0.351938
 20
8.377523
 30
0.0
 11
0.357442
 21
8.377522
 31
0.0
  0
LINE
  8
0
  6
CONTINUOUS
 62
     7
  5
3AB
 10
0.357442
 20
8.377522
 30
0.0
 11
0.362646
 21
8.377521
 31
0.0
  0
LINE
  8
0
  6
CONTINUOUS
 62
     7
  5
3AC
 10
0.362646
 20
8.377521
 30
0.0
 11
0.367537
 21
8.37752
 31
0.0
  0
LINE
  8
0
  6
CONTINUOUS
 62
     7
  5
3AD
 10
0.367537
 20
8.37752
 30
0.0
 11
0.372107
 21
8.377519
 31
0.0
  0
LINE
  8
0
  6
CONTINUOUS
 62
     7
  5
3AE
 10
0.372107
 20
8.377519
 30
0.0
 11
0.376345
 21
8.377518
 31
0.0
  0
LINE
  8
0
  6
CONTINUOUS
 62
     7
  5
3AF
 10
0.376345
 20
8.377518
 30
0.0
 11
0.380245
 21
8.377516
 31
0.0
  0
LINE
  8
0
  6
CONTINUOUS
 62
     7
  5
3B0
 10
0.380245
 20
8.377516
 30
0.0
 11
0.383797
 21
8.377515
 31
0.0
  0
LINE
  8
0
  6
CONTINUOUS
 62
     7
  5
3B1
 10
0.383797
 20
8.377515
 30
0.0
 11
0.386995
 21
8.377514
 31
0.0
  0
LINE
  8
0
  6
CONTINUOUS
 62
     7
  5
3B2
 10
0.386995
 20
8.377514
 30
0.0
 11
0.389831
 21
8.377513
 31
0.0
  0
LINE
  8
0
  6
CONTINUOUS
 62
     7
  5
3B3
 10
0.389831
 20
8.377513
 30
0.0
 11
0.392302
 21
8.377512
 31
0.0
  0
LINE
  8
0
  6
CONTINUOUS
 62
     7
  5
3B4
 10
0.392302
 20
8.377512
 30
0.0
 11
0.3944
 21
8.37751
 31
0.0
  0
LINE
  8
0
  6
CONTINUOUS
 62
     7
  5
3B5
 10
0.3944
 20
8.37751
 30
0.0
 11
0.396123
 21
8.377509
 31
0.0
  0
LINE
  8
0
  6
CONTINUOUS
 62
     7
  5
3B6
 10
0.396123
 20
8.377509
 30
0.0
 11
0.397467
 21
8.377508
 31
0.0
  0
LINE
  8
0
  6
CONTINUOUS
 62
     7
  5
3B7
 10
0.397467
 20
8.377508
 30
0.0
 11
0.398429
 21
8.377506
 31
0.0
  0
LINE
  8
0
  6
CONTINUOUS
 62
     7
  5
3B8
 10
0.398429
 20
8.377506
 30
0.0
 11
0.399006
 21
8.377505
 31
0.0
  0
LINE
  8
0
  6
CONTINUOUS
 62
     7
  5
3B9
 10
0.399006
 20
8.377505
 30
0.0
 11
0.399199
 21
8.377504
 31
0.0
  0
LINE
  8
0
  6
CONTINUOUS
 62
     7
  5
3BA
 10
0.207803
 20
4.743113
 30
0.0
 11
-0.739299
 21
4.743113
 31
0.0
  0
LINE
  8
0
  6
CONTINUOUS
 62
     7
  5
3BB
 10
1.13189
 20
5.570866
 30
0.0
 11
1.13189
 21
5.767716
 31
0.0
  0
LINE
  8
0
  6
CONTINUOUS
 62
     7
  5
3BC
 10
1.13189
 20
5.570866
 30
0.0
 11
2.116142
 21
5.570866
 31
0.0
  0
LINE
  8
0
  6
CONTINUOUS
 62
     7
  5
3BD
 10
1.13189
 20
5.767716
 30
0.0
 11
2.116142
 21
5.767716
 31
0.0
  0
LINE
  8
0
  6
CONTINUOUS
 62
     7
  5
3BE
 10
2.116142
 20
5.570866
 30
0.0
 11
2.116142
 21
5.767716
 31
0.0
  0
LINE
  8
0
  6
CONTINUOUS
 62
     7
  5
3BF
 10
2.288963
 20
4.743126
 30
0.0
 11
2.28877
 21
4.743126
 31
0.0
  0
LINE
  8
0
  6
CONTINUOUS
 62
     7
  5
3C0
 10
2.28877
 20
4.743126
 30
0.0
 11
2.288193
 21
4.743125
 31
0.0
  0
LINE
  8
0
  6
CONTINUOUS
 62
     7
  5
3C1
 10
2.288193
 20
4.743125
 30
0.0
 11
2.287231
 21
4.743125
 31
0.0
  0
LINE
  8
0
  6
CONTINUOUS
 62
     7
  5
3C2
 10
2.287231
 20
4.743125
 30
0.0
 11
2.285887
 21
4.743124
 31
0.0
  0
LINE
  8
0
  6
CONTINUOUS
 62
     7
  5
3C3
 10
2.285887
 20
4.743124
 30
0.0
 11
2.284164
 21
4.743124
 31
0.0
  0
LINE
  8
0
  6
CONTINUOUS
 62
     7
  5
3C4
 10
2.284164
 20
4.743124
 30
0.0
 11
2.282066
 21
4.743123
 31
0.0
  0
LINE
  8
0
  6
CONTINUOUS
 62
     7
  5
3C5
 10
2.282066
 20
4.743123
 30
0.0
 11
2.279595
 21
4.743122
 31
0.0
  0
LINE
  8
0
  6
CONTINUOUS
 62
     7
  5
3C6
 10
2.279595
 20
4.743122
 30
0.0
 11
2.276759
 21
4.743122
 31
0.0
  0
LINE
  8
0
  6
CONTINUOUS
 62
     7
  5
3C7
 10
2.276759
 20
4.743122
 30
0.0
 11
2.273561
 21
4.743121
 31
0.0
  0
LINE
  8
0
  6
CONTINUOUS
 62
     7
  5
3C8
 10
2.273561
 20
4.743121
 30
0.0
 11
2.270009
 21
4.743121
 31
0.0
  0
LINE
  8
0
  6
CONTINUOUS
 62
     7
  5
3C9
 10
2.270009
 20
4.743121
 30
0.0
 11
2.266109
 21
4.74312
 31
0.0
  0
LINE
  8
0
  6
CONTINUOUS
 62
     7
  5
3CA
 10
2.266109
 20
4.74312
 30
0.0
 11
2.261871
 21
4.74312
 31
0.0
  0
LINE
  8
0
  6
CONTINUOUS
 62
     7
  5
3CB
 10
2.261871
 20
4.74312
 30
0.0
 11
2.257301
 21
4.743119
 31
0.0
  0
LINE
  8
0
  6
CONTINUOUS
 62
     7
  5
3CC
 10
2.257301
 20
4.743119
 30
0.0
 11
2.25241
 21
4.743119
 31
0.0
  0
LINE
  8
0
  6
CONTINUOUS
 62
     7
  5
3CD
 10
2.25241
 20
4.743119
 30
0.0
 11
2.247206
 21
4.743118
 31
0.0
  0
LINE
  8
0
  6
CONTINUOUS
 62
     7
  5
3CE
 10
2.247206
 20
4.743118
 30
0.0
 11
2.241702
 21
4.743118
 31
0.0
  0
LINE
  8
0
  6
CONTINUOUS
 62
     7
  5
3CF
 10
2.241702
 20
4.743118
 30
0.0
 11
2.235907
 21
4.743117
 31
0.0
  0
LINE
  8
0
  6
CONTINUOUS
 62
     7
  5
3D0
 10
2.235907
 20
4.743117
 30
0.0
 11
2.229834
 21
4.743117
 31
0.0
  0
LINE
  8
0
  6
CONTINUOUS
 62
     7
  5
3D1
 10
2.229834
 20
4.743117
 30
0.0
 11
2.223494
 21
4.743117
 31
0.0
  0
LINE
  8
0
  6
CONTINUOUS
 62
     7
  5
3D2
 10
2.223494
 20
4.743117
 30
0.0
 11
2.2169
 21
4.743116
 31
0.0
  0
LINE
  8
0
  6
CONTINUOUS
 62
     7
  5
3D3
 10
2.2169
 20
4.743116
 30
0.0
 11
2.210067
 21
4.743116
 31
0.0
  0
LINE
  8
0
  6
CONTINUOUS
 62
     7
  5
3D4
 10
2.210067
 20
4.743116
 30
0.0
 11
2.203006
 21
4.743115
 31
0.0
  0
LINE
  8
0
  6
CONTINUOUS
 62
     7
  5
3D5
 10
2.203006
 20
4.743115
 30
0.0
 11
2.195734
 21
4.743115
 31
0.0
  0
LINE
  8
0
  6
CONTINUOUS
 62
     7
  5
3D6
 10
2.195734
 20
4.743115
 30
0.0
 11
2.188263
 21
4.743115
 31
0.0
  0
LINE
  8
0
  6
CONTINUOUS
 62
     7
  5
3D7
 10
2.188263
 20
4.743115
 30
0.0
 11
2.18061
 21
4.743115
 31
0.0
  0
LINE
  8
0
  6
CONTINUOUS
 62
     7
  5
3D8
 10
2.18061
 20
4.743115
 30
0.0
 11
2.17279
 21
4.743114
 31
0.0
  0
LINE
  8
0
  6
CONTINUOUS
 62
     7
  5
3D9
 10
2.17279
 20
4.743114
 30
0.0
 11
2.164819
 21
4.743114
 31
0.0
  0
LINE
  8
0
  6
CONTINUOUS
 62
     7
  5
3DA
 10
2.164819
 20
4.743114
 30
0.0
 11
2.156711
 21
4.743114
 31
0.0
  0
LINE
  8
0
  6
CONTINUOUS
 62
     7
  5
3DB
 10
2.156711
 20
4.743114
 30
0.0
 11
2.148485
 21
4.743114
 31
0.0
  0
LINE
  8
0
  6
CONTINUOUS
 62
     7
  5
3DC
 10
2.148485
 20
4.743114
 30
0.0
 11
2.140156
 21
4.743114
 31
0.0
  0
LINE
  8
0
  6
CONTINUOUS
 62
     7
  5
3DD
 10
2.140156
 20
4.743114
 30
0.0
 11
2.131742
 21
4.743113
 31
0.0
  0
LINE
  8
0
  6
CONTINUOUS
 62
     7
  5
3DE
 10
2.131742
 20
4.743113
 30
0.0
 11
2.123258
 21
4.743113
 31
0.0
  0
LINE
  8
0
  6
CONTINUOUS
 62
     7
  5
3DF
 10
2.123258
 20
4.743113
 30
0.0
 11
2.114723
 21
4.743113
 31
0.0
  0
LINE
  8
0
  6
CONTINUOUS
 62
     7
  5
3E0
 10
2.114723
 20
4.743113
 30
0.0
 11
2.106154
 21
4.743113
 31
0.0
  0
LINE
  8
0
  6
CONTINUOUS
 62
     7
  5
3E1
 10
2.106154
 20
4.743113
 30
0.0
 11
2.097567
 21
4.743113
 31
0.0
  0
LINE
  8
0
  6
CONTINUOUS
 62
     7
  5
3E2
 10
2.097567
 20
8.377533
 30
0.0
 11
2.106154
 21
8.377533
 31
0.0
  0
LINE
  8
0
  6
CONTINUOUS
 62
     7
  5
3E3
 10
2.106154
 20
8.377533
 30
0.0
 11
2.114723
 21
8.377533
 31
0.0
  0
LINE
  8
0
  6
CONTINUOUS
 62
     7
  5
3E4
 10
2.114723
 20
8.377533
 30
0.0
 11
2.123258
 21
8.377532
 31
0.0
  0
LINE
  8
0
  6
CONTINUOUS
 62
     7
  5
3E5
 10
2.123258
 20
8.377532
 30
0.0
 11
2.131742
 21
8.377532
 31
0.0
  0
LINE
  8
0
  6
CONTINUOUS
 62
     7
  5
3E6
 10
2.131742
 20
8.377532
 30
0.0
 11
2.140156
 21
8.377532
 31
0.0
  0
LINE
  8
0
  6
CONTINUOUS
 62
     7
  5
3E7
 10
2.140156
 20
8.377532
 30
0.0
 11
2.148485
 21
8.377532
 31
0.0
  0
LINE
  8
0
  6
CONTINUOUS
 62
     7
  5
3E8
 10
2.148485
 20
8.377532
 30
0.0
 11
2.156711
 21
8.377531
 31
0.0
  0
LINE
  8
0
  6
CONTINUOUS
 62
     7
  5
3E9
 10
2.156711
 20
8.377531
 30
0.0
 11
2.164819
 21
8.377531
 31
0.0
  0
LINE
  8
0
  6
CONTINUOUS
 62
     7
  5
3EA
 10
2.164819
 20
8.377531
 30
0.0
 11
2.17279
 21
8.37753
 31
0.0
  0
LINE
  8
0
  6
CONTINUOUS
 62
     7
  5
3EB
 10
2.17279
 20
8.37753
 30
0.0
 11
2.18061
 21
8.37753
 31
0.0
  0
LINE
  8
0
  6
CONTINUOUS
 62
     7
  5
3EC
 10
2.18061
 20
8.37753
 30
0.0
 11
2.188263
 21
8.377529
 31
0.0
  0
LINE
  8
0
  6
CONTINUOUS
 62
     7
  5
3ED
 10
2.188263
 20
8.377529
 30
0.0
 11
2.195734
 21
8.377529
 31
0.0
  0
LINE
  8
0
  6
CONTINUOUS
 62
     7
  5
3EE
 10
2.195734
 20
8.377529
 30
0.0
 11
2.203006
 21
8.377528
 31
0.0
  0
LINE
  8
0
  6
CONTINUOUS
 62
     7
  5
3EF
 10
2.203006
 20
8.377528
 30
0.0
 11
2.210067
 21
8.377527
 31
0.0
  0
LINE
  8
0
  6
CONTINUOUS
 62
     7
  5
3F0
 10
2.210067
 20
8.377527
 30
0.0
 11
2.2169
 21
8.377526
 31
0.0
  0
LINE
  8
0
  6
CONTINUOUS
 62
     7
  5
3F1
 10
2.2169
 20
8.377526
 30
0.0
 11
2.223494
 21
8.377526
 31
0.0
  0
LINE
  8
0
  6
CONTINUOUS
 62
     7
  5
3F2
 10
2.223494
 20
8.377526
 30
0.0
 11
2.229834
 21
8.377525
 31
0.0
  0
LINE
  8
0
  6
CONTINUOUS
 62
     7
  5
3F3
 10
2.229834
 20
8.377525
 30
0.0
 11
2.235907
 21
8.377524
 31
0.0
  0
LINE
  8
0
  6
CONTINUOUS
 62
     7
  5
3F4
 10
2.235907
 20
8.377524
 30
0.0
 11
2.241702
 21
8.377523
 31
0.0
  0
LINE
  8
0
  6
CONTINUOUS
 62
     7
  5
3F5
 10
2.241702
 20
8.377523
 30
0.0
 11
2.247206
 21
8.377522
 31
0.0
  0
LINE
  8
0
  6
CONTINUOUS
 62
     7
  5
3F6
 10
2.247206
 20
8.377522
 30
0.0
 11
2.25241
 21
8.377521
 31
0.0
  0
LINE
  8
0
  6
CONTINUOUS
 62
     7
  5
3F7
 10
2.25241
 20
8.377521
 30
0.0
 11
2.257301
 21
8.37752
 31
0.0
  0
LINE
  8
0
  6
CONTINUOUS
 62
     7
  5
3F8
 10
2.257301
 20
8.37752
 30
0.0
 11
2.261871
 21
8.377519
 31
0.0
  0
LINE
  8
0
  6
CONTINUOUS
 62
     7
  5
3F9
 10
2.261871
 20
8.377519
 30
0.0
 11
2.266109
 21
8.377518
 31
0.0
  0
LINE
  8
0
  6
CONTINUOUS
 62
     7
  5
3FA
 10
2.266109
 20
8.377518
 30
0.0
 11
2.270009
 21
8.377516
 31
0.0
  0
LINE
  8
0
  6
CONTINUOUS
 62
     7
  5
3FB
 10
2.270009
 20
8.377516
 30
0.0
 11
2.273561
 21
8.377515
 31
0.0
  0
LINE
  8
0
  6
CONTINUOUS
 62
     7
  5
3FC
 10
2.273561
 20
8.377515
 30
0.0
 11
2.276759
 21
8.377514
 31
0.0
  0
LINE
  8
0
  6
CONTINUOUS
 62
     7
  5
3FD
 10
2.276759
 20
8.377514
 30
0.0
 11
2.279595
 21
8.377513
 31
0.0
  0
LINE
  8
0
  6
CONTINUOUS
 62
     7
  5
3FE
 10
2.279595
 20
8.377513
 30
0.0
 11
2.282066
 21
8.377512
 31
0.0
  0
LINE
  8
0
  6
CONTINUOUS
 62
     7
  5
3FF
 10
2.282066
 20
8.377512
 30
0.0
 11
2.284164
 21
8.37751
 31
0.0
  0
LINE
  8
0
  6
CONTINUOUS
 62
     7
  5
400
 10
2.284164
 20
8.37751
 30
0.0
 11
2.285887
 21
8.377509
 31
0.0
  0
LINE
  8
0
  6
CONTINUOUS
 62
     7
  5
401
 10
2.285887
 20
8.377509
 30
0.0
 11
2.287231
 21
8.377508
 31
0.0
  0
LINE
  8
0
  6
CONTINUOUS
 62
     7
  5
402
 10
2.287231
 20
8.377508
 30
0.0
 11
2.288193
 21
8.377506
 31
0.0
  0
LINE
  8
0
  6
CONTINUOUS
 62
     7
  5
403
 10
2.288193
 20
8.377506
 30
0.0
 11
2.28877
 21
8.377505
 31
0.0
  0
LINE
  8
0
  6
CONTINUOUS
 62
     7
  5
404
 10
2.28877
 20
8.377505
 30
0.0
 11
2.288963
 21
8.377504
 31
0.0
  0
LINE
  8
0
  6
CONTINUOUS
 62
     7
  5
405
 10
2.097567
 20
4.743113
 30
0.0
 11
1.150465
 21
4.743113
 31
0.0
  0
LINE
  8
0
  6
CONTINUOUS
 62
     7
  5
406
 10
1.150465
 20
8.377533
 30
0.0
 11
2.097567
 21
8.377533
 31
0.0
  0
LINE
  8
0
  6
CONTINUOUS
 62
     7
  5
407
 10
2.608268
 20
4.996063
 30
0.0
 11
2.608268
 21
2.940945
 31
0.0
  0
LINE
  8
0
  6
CONTINUOUS
 62
     7
  5
408
 10
2.608268
 20
5.409449
 30
0.0
 11
2.608268
 21
4.996063
 31
0.0
  0
LINE
  8
0
  6
CONTINUOUS
 62
     7
  5
409
 10
2.608268
 20
5.507874
 30
0.0
 11
2.608268
 21
5.409449
 31
0.0
  0
LINE
  8
0
  6
CONTINUOUS
 62
     7
  5
40A
 10
2.608268
 20
5.561024
 30
0.0
 11
2.608268
 21
5.507874
 31
0.0
  0
LINE
  8
0
  6
CONTINUOUS
 62
     7
  5
40B
 10
2.608268
 20
5.561024
 30
0.0
 11
2.608268
 21
5.718
 31
0.0
  0
LINE
  8
0
  6
CONTINUOUS
 62
     7
  5
40C
 10
2.608268
 20
2.940945
 30
0.0
 11
3.703795
 21
2.940945
 31
0.0
  0
LINE
  8
0
  6
CONTINUOUS
 62
     7
  5
40D
 10
3.703795
 20
2.940945
 30
0.0
 11
4.025591
 21
3.902693
 31
0.0
  0
LINE
  8
0
  6
CONTINUOUS
 62
     7
  5
40E
 10
4.025591
 20
4.364202
 30
0.0
 11
4.025591
 21
4.122445
 31
0.0
  0
LINE
  8
0
  6
CONTINUOUS
 62
     7
  5
40F
 10
4.025591
 20
3.902693
 30
0.0
 11
4.025591
 21
4.953874
 31
0.0
  0
LINE
  8
0
  6
CONTINUOUS
 62
     7
  5
410
 10
4.040114
 20
5.718
 30
0.0
 11
4.040114
 21
5.705691
 31
0.0
  0
LINE
  8
0
  6
CONTINUOUS
 62
     7
  5
411
 10
4.104015
 20
5.70422
 30
0.0
 11
4.104015
 21
5.561024
 31
0.0
  0
LINE
  8
0
  6
CONTINUOUS
 62
     7
  5
412
 10
3.237873
 20
5.561024
 30
0.0
 11
3.237873
 21
5.70422
 31
0.0
  0
LINE
  8
0
  6
CONTINUOUS
 62
     7
  5
413
 10
3.237873
 20
5.561024
 30
0.0
 11
3.395354
 21
5.561024
 31
0.0
  0
LINE
  8
0
  6
CONTINUOUS
 62
     7
  5
414
 10
3.395354
 20
5.561024
 30
0.0
 11
3.395354
 21
5.70422
 31
0.0
  0
LINE
  8
0
  6
CONTINUOUS
 62
     7
  5
415
 10
3.395354
 20
5.70422
 30
0.0
 11
3.237873
 21
5.70422
 31
0.0
  0
LINE
  8
0
  6
CONTINUOUS
 62
     7
  5
416
 10
3.946535
 20
5.70422
 30
0.0
 11
3.395354
 21
5.70422
 31
0.0
  0
LINE
  8
0
  6
CONTINUOUS
 62
     7
  5
417
 10
3.946535
 20
5.561024
 30
0.0
 11
3.946535
 21
5.70422
 31
0.0
  0
LINE
  8
0
  6
CONTINUOUS
 62
     7
  5
418
 10
4.104015
 20
5.561024
 30
0.0
 11
4.104015
 21
5.70422
 31
0.0
  0
LINE
  8
0
  6
CONTINUOUS
 62
     7
  5
419
 10
3.946535
 20
5.561024
 30
0.0
 11
4.104015
 21
5.561024
 31
0.0
  0
LINE
  8
0
  6
CONTINUOUS
 62
     7
  5
41A
 10
4.104015
 20
5.70422
 30
0.0
 11
3.946535
 21
5.70422
 31
0.0
  0
LINE
  8
0
  6
CONTINUOUS
 62
     7
  5
41B
 10
3.395354
 20
5.561024
 30
0.0
 11
3.946535
 21
5.561024
 31
0.0
  0
LINE
  8
0
  6
CONTINUOUS
 62
     7
  5
41C
 10
4.104015
 20
5.561024
 30
0.0
 11
4.537402
 21
5.561024
 31
0.0
  0
LINE
  8
0
  6
CONTINUOUS
 62
     7
  5
41D
 10
2.608268
 20
5.561024
 30
0.0
 11
3.237873
 21
5.561024
 31
0.0
  0
LINE
  8
0
  6
CONTINUOUS
 62
     7
  5
41E
 10
4.06778
 20
4.996063
 30
0.0
 11
4.438977
 21
5.36726
 31
0.0
  0
LINE
  8
0
  6
CONTINUOUS
 62
     7
  5
41F
 10
4.025591
 20
4.953874
 30
0.0
 11
4.06778
 21
4.996063
 31
0.0
  0
LINE
  8
0
  6
CONTINUOUS
 62
     7
  5
420
 10
4.438977
 20
5.36726
 30
0.0
 11
4.537402
 21
5.36726
 31
0.0
  0
LINE
  8
0
  6
CONTINUOUS
 62
     7
  5
421
 10
2.608268
 20
4.996063
 30
0.0
 11
4.06778
 21
4.996063
 31
0.0
  0
LINE
  8
0
  6
CONTINUOUS
 62
     7
  5
422
 10
4.537402
 20
5.36726
 30
0.0
 11
4.537402
 21
5.409449
 31
0.0
  0
LINE
  8
0
  6
CONTINUOUS
 62
     7
  5
423
 10
2.608268
 20
5.409449
 30
0.0
 11
4.537402
 21
5.409449
 31
0.0
  0
LINE
  8
0
  6
CONTINUOUS
 62
     7
  5
424
 10
4.537402
 20
5.409449
 30
0.0
 11
4.537402
 21
5.507874
 31
0.0
  0
LINE
  8
0
  6
CONTINUOUS
 62
     7
  5
425
 10
2.608268
 20
5.507874
 30
0.0
 11
4.537402
 21
5.507874
 31
0.0
  0
LINE
  8
0
  6
CONTINUOUS
 62
     7
  5
426
 10
4.537402
 20
5.507874
 30
0.0
 11
4.537402
 21
5.561024
 31
0.0
  0
LINE
  8
0
  6
CONTINUOUS
 62
     7
  5
427
 10
3.041339
 20
0.314961
 30
0.0
 11
3.041339
 21
2.940945
 31
0.0
  0
LINE
  8
0
  6
CONTINUOUS
 62
     7
  5
428
 10
3.041339
 20
0.23622
 30
0.0
 11
3.041339
 21
0.314961
 31
0.0
  0
LINE
  8
0
  6
CONTINUOUS
 62
     7
  5
429
 10
3.041339
 20
0.15748
 30
0.0
 11
3.041339
 21
0.23622
 31
0.0
  0
LINE
  8
0
  6
CONTINUOUS
 62
     7
  5
42A
 10
3.041339
 20
0.098425
 30
0.0
 11
3.041339
 21
0.15748
 31
0.0
  0
LINE
  8
0
  6
CONTINUOUS
 62
     7
  5
42B
 10
3.041339
 20
0.059055
 30
0.0
 11
3.041339
 21
0.098425
 31
0.0
  0
LINE
  8
0
  6
CONTINUOUS
 62
     7
  5
42C
 10
3.041339
 20
0.0
 30
0.0
 11
3.041339
 21
0.059055
 31
0.0
  0
LINE
  8
0
  6
CONTINUOUS
 62
     7
  5
42D
 10
3.041339
 20
0.0
 30
0.0
 11
3.041339
 21
0.059055
 31
0.0
  0
LINE
  8
0
  6
CONTINUOUS
 62
     7
  5
42E
 10
-3.041339
 20
4.743107
 30
0.0
 11
-3.041339
 21
3.334646
 31
0.0
  0
LINE
  8
0
  6
CONTINUOUS
 62
     7
  5
42F
 10
-3.041339
 20
3.334646
 30
0.0
 11
-3.041339
 21
3.019685
 31
0.0
  0
LINE
  8
0
  6
CONTINUOUS
 62
     7
  5
430
 10
-3.041339
 20
3.019685
 30
0.0
 11
-3.041339
 21
0.15748
 31
0.0
  0
LINE
  8
0
  6
CONTINUOUS
 62
     7
  5
431
 10
-3.730316
 20
3.019685
 30
0.0
 11
-3.730316
 21
2.862205
 31
0.0
  0
LINE
  8
0
  6
CONTINUOUS
 62
     7
  5
432
 10
-3.730316
 20
2.862205
 30
0.0
 11
-3.348426
 21
2.862205
 31
0.0
  0
LINE
  8
0
  6
CONTINUOUS
 62
     7
  5
433
 10
-3.041339
 20
3.019685
 30
0.0
 11
-3.848426
 21
3.019685
 31
0.0
  0
LINE
  8
0
  6
CONTINUOUS
 62
     7
  5
434
 10
-3.348426
 20
3.019685
 30
0.0
 11
-3.348426
 21
0.094488
 31
0.0
  0
LINE
  8
0
  6
CONTINUOUS
 62
     7
  5
435
 10
-3.041339
 20
0.094488
 30
0.0
 11
-3.348426
 21
0.094488
 31
0.0
  0
LINE
  8
0
  6
CONTINUOUS
 62
     7
  5
436
 10
-3.114173
 20
5.041339
 30
0.0
 11
-3.848426
 21
5.041339
 31
0.0
  0
LINE
  8
0
  6
CONTINUOUS
 62
     7
  5
437
 10
-3.848426
 20
5.041339
 30
0.0
 11
-3.848426
 21
4.818898
 31
0.0
  0
LINE
  8
0
  6
CONTINUOUS
 62
     7
  5
438
 10
-3.114173
 20
4.818898
 30
0.0
 11
-3.848426
 21
4.818898
 31
0.0
  0
LINE
  8
0
  6
CONTINUOUS
 62
     7
  5
439
 10
-3.848426
 20
4.818898
 30
0.0
 11
-3.848426
 21
3.334646
 31
0.0
  0
LINE
  8
0
  6
CONTINUOUS
 62
     7
  5
43A
 10
-3.848426
 20
3.334646
 30
0.0
 11
-3.848426
 21
3.019685
 31
0.0
  0
LINE
  8
0
  6
CONTINUOUS
 62
     7
  5
43B
 10
-3.114173
 20
4.743135
 30
0.0
 11
-3.114173
 21
5.570867
 31
0.0
  0
LINE
  8
0
  6
CONTINUOUS
 62
     7
  5
43C
 10
-3.114173
 20
5.570867
 30
0.0
 11
-3.114173
 21
6.015749
 31
0.0
  0
LINE
  8
0
  6
CONTINUOUS
 62
     7
  5
43D
 10
-3.114173
 20
6.015749
 30
0.0
 11
-3.114173
 21
8.377492
 31
0.0
  0
LINE
  8
0
  6
CONTINUOUS
 62
     7
  5
43E
 10
2.288963
 20
4.743135
 30
0.0
 11
2.582677
 21
4.743135
 31
0.0
  0
LINE
  8
0
  6
CONTINUOUS
 62
     7
  5
43F
 10
1.150465
 20
4.743113
 30
0.0
 11
1.141878
 21
4.743113
 31
0.0
  0
LINE
  8
0
  6
CONTINUOUS
 62
     7
  5
440
 10
1.141878
 20
4.743113
 30
0.0
 11
1.133309
 21
4.743113
 31
0.0
  0
LINE
  8
0
  6
CONTINUOUS
 62
     7
  5
441
 10
1.133309
 20
4.743113
 30
0.0
 11
1.124774
 21
4.743113
 31
0.0
  0
LINE
  8
0
  6
CONTINUOUS
 62
     7
  5
442
 10
1.124774
 20
4.743113
 30
0.0
 11
1.11629
 21
4.743113
 31
0.0
  0
LINE
  8
0
  6
CONTINUOUS
 62
     7
  5
443
 10
1.11629
 20
4.743113
 30
0.0
 11
1.107876
 21
4.743114
 31
0.0
  0
LINE
  8
0
  6
CONTINUOUS
 62
     7
  5
444
 10
1.107876
 20
4.743114
 30
0.0
 11
1.099547
 21
4.743114
 31
0.0
  0
LINE
  8
0
  6
CONTINUOUS
 62
     7
  5
445
 10
1.099547
 20
4.743114
 30
0.0
 11
1.091321
 21
4.743114
 31
0.0
  0
LINE
  8
0
  6
CONTINUOUS
 62
     7
  5
446
 10
1.091321
 20
4.743114
 30
0.0
 11
1.083213
 21
4.743114
 31
0.0
  0
LINE
  8
0
  6
CONTINUOUS
 62
     7
  5
447
 10
1.083213
 20
4.743114
 30
0.0
 11
1.075242
 21
4.743114
 31
0.0
  0
LINE
  8
0
  6
CONTINUOUS
 62
     7
  5
448
 10
1.075242
 20
4.743114
 30
0.0
 11
1.067422
 21
4.743115
 31
0.0
  0
LINE
  8
0
  6
CONTINUOUS
 62
     7
  5
449
 10
1.067422
 20
4.743115
 30
0.0
 11
1.059769
 21
4.743115
 31
0.0
  0
LINE
  8
0
  6
CONTINUOUS
 62
     7
  5
44A
 10
1.059769
 20
4.743115
 30
0.0
 11
1.052298
 21
4.743115
 31
0.0
  0
LINE
  8
0
  6
CONTINUOUS
 62
     7
  5
44B
 10
1.052298
 20
4.743115
 30
0.0
 11
1.045026
 21
4.743115
 31
0.0
  0
LINE
  8
0
  6
CONTINUOUS
 62
     7
  5
44C
 10
1.045026
 20
4.743115
 30
0.0
 11
1.037965
 21
4.743116
 31
0.0
  0
LINE
  8
0
  6
CONTINUOUS
 62
     7
  5
44D
 10
1.037965
 20
4.743116
 30
0.0
 11
1.031132
 21
4.743116
 31
0.0
  0
LINE
  8
0
  6
CONTINUOUS
 62
     7
  5
44E
 10
1.031132
 20
4.743116
 30
0.0
 11
1.024538
 21
4.743117
 31
0.0
  0
LINE
  8
0
  6
CONTINUOUS
 62
     7
  5
44F
 10
1.024538
 20
4.743117
 30
0.0
 11
1.018198
 21
4.743117
 31
0.0
  0
LINE
  8
0
  6
CONTINUOUS
 62
     7
  5
450
 10
1.018198
 20
4.743117
 30
0.0
 11
1.012125
 21
4.743117
 31
0.0
  0
LINE
  8
0
  6
CONTINUOUS
 62
     7
  5
451
 10
1.012125
 20
4.743117
 30
0.0
 11
1.00633
 21
4.743118
 31
0.0
  0
LINE
  8
0
  6
CONTINUOUS
 62
     7
  5
452
 10
1.00633
 20
4.743118
 30
0.0
 11
1.000826
 21
4.743118
 31
0.0
  0
LINE
  8
0
  6
CONTINUOUS
 62
     7
  5
453
 10
1.000826
 20
4.743118
 30
0.0
 11
0.995622
 21
4.743119
 31
0.0
  0
LINE
  8
0
  6
CONTINUOUS
 62
     7
  5
454
 10
0.995622
 20
4.743119
 30
0.0
 11
0.990731
 21
4.743119
 31
0.0
  0
LINE
  8
0
  6
CONTINUOUS
 62
     7
  5
455
 10
0.990731
 20
4.743119
 30
0.0
 11
0.986161
 21
4.74312
 31
0.0
  0
LINE
  8
0
  6
CONTINUOUS
 62
     7
  5
456
 10
0.986161
 20
4.74312
 30
0.0
 11
0.981923
 21
4.74312
 31
0.0
  0
LINE
  8
0
  6
CONTINUOUS
 62
     7
  5
457
 10
0.981923
 20
4.74312
 30
0.0
 11
0.978023
 21
4.743121
 31
0.0
  0
LINE
  8
0
  6
CONTINUOUS
 62
     7
  5
458
 10
0.978023
 20
4.743121
 30
0.0
 11
0.974471
 21
4.743121
 31
0.0
  0
LINE
  8
0
  6
CONTINUOUS
 62
     7
  5
459
 10
0.974471
 20
4.743121
 30
0.0
 11
0.971273
 21
4.743122
 31
0.0
  0
LINE
  8
0
  6
CONTINUOUS
 62
     7
  5
45A
 10
0.971273
 20
4.743122
 30
0.0
 11
0.968437
 21
4.743122
 31
0.0
  0
LINE
  8
0
  6
CONTINUOUS
 62
     7
  5
45B
 10
0.968437
 20
4.743122
 30
0.0
 11
0.965966
 21
4.743123
 31
0.0
  0
LINE
  8
0
  6
CONTINUOUS
 62
     7
  5
45C
 10
0.965966
 20
4.743123
 30
0.0
 11
0.963868
 21
4.743124
 31
0.0
  0
LINE
  8
0
  6
CONTINUOUS
 62
     7
  5
45D
 10
0.963868
 20
4.743124
 30
0.0
 11
0.962145
 21
4.743124
 31
0.0
  0
LINE
  8
0
  6
CONTINUOUS
 62
     7
  5
45E
 10
0.962145
 20
4.743124
 30
0.0
 11
0.960801
 21
4.743125
 31
0.0
  0
LINE
  8
0
  6
CONTINUOUS
 62
     7
  5
45F
 10
0.960801
 20
4.743125
 30
0.0
 11
0.959839
 21
4.743125
 31
0.0
  0
LINE
  8
0
  6
CONTINUOUS
 62
     7
  5
460
 10
0.959839
 20
4.743125
 30
0.0
 11
0.959262
 21
4.743126
 31
0.0
  0
LINE
  8
0
  6
CONTINUOUS
 62
     7
  5
461
 10
0.959262
 20
4.743126
 30
0.0
 11
0.959069
 21
4.743126
 31
0.0
  0
LINE
  8
0
  6
CONTINUOUS
 62
     7
  5
462
 10
0.399199
 20
4.743135
 30
0.0
 11
0.959069
 21
4.743135
 31
0.0
  0
LINE
  8
0
  6
CONTINUOUS
 62
     7
  5
463
 10
-0.739299
 20
4.743113
 30
0.0
 11
-0.747886
 21
4.743113
 31
0.0
  0
LINE
  8
0
  6
CONTINUOUS
 62
     7
  5
464
 10
-0.747886
 20
4.743113
 30
0.0
 11
-0.756455
 21
4.743113
 31
0.0
  0
LINE
  8
0
  6
CONTINUOUS
 62
     7
  5
465
 10
-0.756455
 20
4.743113
 30
0.0
 11
-0.76499
 21
4.743113
 31
0.0
  0
LINE
  8
0
  6
CONTINUOUS
 62
     7
  5
466
 10
-0.76499
 20
4.743113
 30
0.0
 11
-0.773474
 21
4.743113
 31
0.0
  0
LINE
  8
0
  6
CONTINUOUS
 62
     7
  5
467
 10
-0.773474
 20
4.743113
 30
0.0
 11
-0.781888
 21
4.743114
 31
0.0
  0
LINE
  8
0
  6
CONTINUOUS
 62
     7
  5
468
 10
-0.781888
 20
4.743114
 30
0.0
 11
-0.790217
 21
4.743114
 31
0.0
  0
LINE
  8
0
  6
CONTINUOUS
 62
     7
  5
469
 10
-0.790217
 20
4.743114
 30
0.0
 11
-0.798443
 21
4.743114
 31
0.0
  0
LINE
  8
0
  6
CONTINUOUS
 62
     7
  5
46A
 10
-0.798443
 20
4.743114
 30
0.0
 11
-0.806551
 21
4.743114
 31
0.0
  0
LINE
  8
0
  6
CONTINUOUS
 62
     7
  5
46B
 10
-0.806551
 20
4.743114
 30
0.0
 11
-0.814522
 21
4.743114
 31
0.0
  0
LINE
  8
0
  6
CONTINUOUS
 62
     7
  5
46C
 10
-0.814522
 20
4.743114
 30
0.0
 11
-0.822342
 21
4.743115
 31
0.0
  0
LINE
  8
0
  6
CONTINUOUS
 62
     7
  5
46D
 10
-0.822342
 20
4.743115
 30
0.0
 11
-0.829995
 21
4.743115
 31
0.0
  0
LINE
  8
0
  6
CONTINUOUS
 62
     7
  5
46E
 10
-0.829995
 20
4.743115
 30
0.0
 11
-0.837466
 21
4.743115
 31
0.0
  0
LINE
  8
0
  6
CONTINUOUS
 62
     7
  5
46F
 10
-0.837466
 20
4.743115
 30
0.0
 11
-0.844738
 21
4.743115
 31
0.0
  0
LINE
  8
0
  6
CONTINUOUS
 62
     7
  5
470
 10
-0.844738
 20
4.743115
 30
0.0
 11
-0.851799
 21
4.743116
 31
0.0
  0
LINE
  8
0
  6
CONTINUOUS
 62
     7
  5
471
 10
-0.851799
 20
4.743116
 30
0.0
 11
-0.858632
 21
4.743116
 31
0.0
  0
LINE
  8
0
  6
CONTINUOUS
 62
     7
  5
472
 10
-0.858632
 20
4.743116
 30
0.0
 11
-0.865226
 21
4.743117
 31
0.0
  0
LINE
  8
0
  6
CONTINUOUS
 62
     7
  5
473
 10
-0.865226
 20
4.743117
 30
0.0
 11
-0.871566
 21
4.743117
 31
0.0
  0
LINE
  8
0
  6
CONTINUOUS
 62
     7
  5
474
 10
-0.871566
 20
4.743117
 30
0.0
 11
-0.877639
 21
4.743117
 31
0.0
  0
LINE
  8
0
  6
CONTINUOUS
 62
     7
  5
475
 10
-0.877639
 20
4.743117
 30
0.0
 11
-0.883434
 21
4.743118
 31
0.0
  0
LINE
  8
0
  6
CONTINUOUS
 62
     7
  5
476
 10
-0.883434
 20
4.743118
 30
0.0
 11
-0.888938
 21
4.743118
 31
0.0
  0
LINE
  8
0
  6
CONTINUOUS
 62
     7
  5
477
 10
-0.888938
 20
4.743118
 30
0.0
 11
-0.894142
 21
4.743119
 31
0.0
  0
LINE
  8
0
  6
CONTINUOUS
 62
     7
  5
478
 10
-0.894142
 20
4.743119
 30
0.0
 11
-0.899033
 21
4.743119
 31
0.0
  0
LINE
  8
0
  6
CONTINUOUS
 62
     7
  5
479
 10
-0.899033
 20
4.743119
 30
0.0
 11
-0.903603
 21
4.74312
 31
0.0
  0
LINE
  8
0
  6
CONTINUOUS
 62
     7
  5
47A
 10
-0.903603
 20
4.74312
 30
0.0
 11
-0.907841
 21
4.74312
 31
0.0
  0
LINE
  8
0
  6
CONTINUOUS
 62
     7
  5
47B
 10
-0.907841
 20
4.74312
 30
0.0
 11
-0.911741
 21
4.743121
 31
0.0
  0
LINE
  8
0
  6
CONTINUOUS
 62
     7
  5
47C
 10
-0.911741
 20
4.743121
 30
0.0
 11
-0.915293
 21
4.743121
 31
0.0
  0
LINE
  8
0
  6
CONTINUOUS
 62
     7
  5
47D
 10
-0.915293
 20
4.743121
 30
0.0
 11
-0.918491
 21
4.743122
 31
0.0
  0
LINE
  8
0
  6
CONTINUOUS
 62
     7
  5
47E
 10
-0.918491
 20
4.743122
 30
0.0
 11
-0.921327
 21
4.743122
 31
0.0
  0
LINE
  8
0
  6
CONTINUOUS
 62
     7
  5
47F
 10
-0.921327
 20
4.743122
 30
0.0
 11
-0.923798
 21
4.743123
 31
0.0
  0
LINE
  8
0
  6
CONTINUOUS
 62
     7
  5
480
 10
-0.923798
 20
4.743123
 30
0.0
 11
-0.925896
 21
4.743124
 31
0.0
  0
LINE
  8
0
  6
CONTINUOUS
 62
     7
  5
481
 10
-0.925896
 20
4.743124
 30
0.0
 11
-0.927619
 21
4.743124
 31
0.0
  0
LINE
  8
0
  6
CONTINUOUS
 62
     7
  5
482
 10
-0.927619
 20
4.743124
 30
0.0
 11
-0.928963
 21
4.743125
 31
0.0
  0
LINE
  8
0
  6
CONTINUOUS
 62
     7
  5
483
 10
-0.928963
 20
4.743125
 30
0.0
 11
-0.929925
 21
4.743125
 31
0.0
  0
LINE
  8
0
  6
CONTINUOUS
 62
     7
  5
484
 10
-0.929925
 20
4.743125
 30
0.0
 11
-0.930502
 21
4.743126
 31
0.0
  0
LINE
  8
0
  6
CONTINUOUS
 62
     7
  5
485
 10
-0.930502
 20
4.743126
 30
0.0
 11
-0.930695
 21
4.743126
 31
0.0
  0
LINE
  8
0
  6
CONTINUOUS
 62
     7
  5
486
 10
-1.490565
 20
4.743135
 30
0.0
 11
-0.930695
 21
4.743135
 31
0.0
  0
LINE
  8
0
  6
CONTINUOUS
 62
     7
  5
487
 10
-2.629063
 20
4.743113
 30
0.0
 11
-2.63765
 21
4.743113
 31
0.0
  0
LINE
  8
0
  6
CONTINUOUS
 62
     7
  5
488
 10
-2.63765
 20
4.743113
 30
0.0
 11
-2.646219
 21
4.743113
 31
0.0
  0
LINE
  8
0
  6
CONTINUOUS
 62
     7
  5
489
 10
-2.646219
 20
4.743113
 30
0.0
 11
-2.654754
 21
4.743113
 31
0.0
  0
LINE
  8
0
  6
CONTINUOUS
 62
     7
  5
48A
 10
-2.654754
 20
4.743113
 30
0.0
 11
-2.663238
 21
4.743113
 31
0.0
  0
LINE
  8
0
  6
CONTINUOUS
 62
     7
  5
48B
 10
-2.663238
 20
4.743113
 30
0.0
 11
-2.671652
 21
4.743114
 31
0.0
  0
LINE
  8
0
  6
CONTINUOUS
 62
     7
  5
48C
 10
-2.671652
 20
4.743114
 30
0.0
 11
-2.679981
 21
4.743114
 31
0.0
  0
LINE
  8
0
  6
CONTINUOUS
 62
     7
  5
48D
 10
-2.679981
 20
4.743114
 30
0.0
 11
-2.688207
 21
4.743114
 31
0.0
  0
LINE
  8
0
  6
CONTINUOUS
 62
     7
  5
48E
 10
-2.688207
 20
4.743114
 30
0.0
 11
-2.696315
 21
4.743114
 31
0.0
  0
LINE
  8
0
  6
CONTINUOUS
 62
     7
  5
48F
 10
-2.696315
 20
4.743114
 30
0.0
 11
-2.704286
 21
4.743114
 31
0.0
  0
LINE
  8
0
  6
CONTINUOUS
 62
     7
  5
490
 10
-2.704286
 20
4.743114
 30
0.0
 11
-2.712106
 21
4.743115
 31
0.0
  0
LINE
  8
0
  6
CONTINUOUS
 62
     7
  5
491
 10
-2.712106
 20
4.743115
 30
0.0
 11
-2.719759
 21
4.743115
 31
0.0
  0
LINE
  8
0
  6
CONTINUOUS
 62
     7
  5
492
 10
-2.719759
 20
4.743115
 30
0.0
 11
-2.72723
 21
4.743115
 31
0.0
  0
LINE
  8
0
  6
CONTINUOUS
 62
     7
  5
493
 10
-2.72723
 20
4.743115
 30
0.0
 11
-2.734502
 21
4.743115
 31
0.0
  0
LINE
  8
0
  6
CONTINUOUS
 62
     7
  5
494
 10
-2.734502
 20
4.743115
 30
0.0
 11
-2.741563
 21
4.743116
 31
0.0
  0
LINE
  8
0
  6
CONTINUOUS
 62
     7
  5
495
 10
-2.741563
 20
4.743116
 30
0.0
 11
-2.748396
 21
4.743116
 31
0.0
  0
LINE
  8
0
  6
CONTINUOUS
 62
     7
  5
496
 10
-2.748396
 20
4.743116
 30
0.0
 11
-2.75499
 21
4.743117
 31
0.0
  0
LINE
  8
0
  6
CONTINUOUS
 62
     7
  5
497
 10
-2.75499
 20
4.743117
 30
0.0
 11
-2.76133
 21
4.743117
 31
0.0
  0
LINE
  8
0
  6
CONTINUOUS
 62
     7
  5
498
 10
-2.76133
 20
4.743117
 30
0.0
 11
-2.767403
 21
4.743117
 31
0.0
  0
LINE
  8
0
  6
CONTINUOUS
 62
     7
  5
499
 10
-2.767403
 20
4.743117
 30
0.0
 11
-2.773198
 21
4.743118
 31
0.0
  0
LINE
  8
0
  6
CONTINUOUS
 62
     7
  5
49A
 10
-2.773198
 20
4.743118
 30
0.0
 11
-2.778702
 21
4.743118
 31
0.0
  0
LINE
  8
0
  6
CONTINUOUS
 62
     7
  5
49B
 10
-2.778702
 20
4.743118
 30
0.0
 11
-2.783906
 21
4.743119
 31
0.0
  0
LINE
  8
0
  6
CONTINUOUS
 62
     7
  5
49C
 10
-2.783906
 20
4.743119
 30
0.0
 11
-2.788797
 21
4.743119
 31
0.0
  0
LINE
  8
0
  6
CONTINUOUS
 62
     7
  5
49D
 10
-2.788797
 20
4.743119
 30
0.0
 11
-2.793367
 21
4.74312
 31
0.0
  0
LINE
  8
0
  6
CONTINUOUS
 62
     7
  5
49E
 10
-2.793367
 20
4.74312
 30
0.0
 11
-2.797605
 21
4.74312
 31
0.0
  0
LINE
  8
0
  6
CONTINUOUS
 62
     7
  5
49F
 10
-2.797605
 20
4.74312
 30
0.0
 11
-2.801505
 21
4.743121
 31
0.0
  0
LINE
  8
0
  6
CONTINUOUS
 62
     7
  5
4A0
 10
-2.801505
 20
4.743121
 30
0.0
 11
-2.805057
 21
4.743121
 31
0.0
  0
LINE
  8
0
  6
CONTINUOUS
 62
     7
  5
4A1
 10
-2.805057
 20
4.743121
 30
0.0
 11
-2.808255
 21
4.743122
 31
0.0
  0
LINE
  8
0
  6
CONTINUOUS
 62
     7
  5
4A2
 10
-2.808255
 20
4.743122
 30
0.0
 11
-2.811091
 21
4.743122
 31
0.0
  0
LINE
  8
0
  6
CONTINUOUS
 62
     7
  5
4A3
 10
-2.811091
 20
4.743122
 30
0.0
 11
-2.813562
 21
4.743123
 31
0.0
  0
LINE
  8
0
  6
CONTINUOUS
 62
     7
  5
4A4
 10
-2.813562
 20
4.743123
 30
0.0
 11
-2.81566
 21
4.743124
 31
0.0
  0
LINE
  8
0
  6
CONTINUOUS
 62
     7
  5
4A5
 10
-2.81566
 20
4.743124
 30
0.0
 11
-2.817383
 21
4.743124
 31
0.0
  0
LINE
  8
0
  6
CONTINUOUS
 62
     7
  5
4A6
 10
-2.817383
 20
4.743124
 30
0.0
 11
-2.818727
 21
4.743125
 31
0.0
  0
LINE
  8
0
  6
CONTINUOUS
 62
     7
  5
4A7
 10
-2.818727
 20
4.743125
 30
0.0
 11
-2.819689
 21
4.743125
 31
0.0
  0
LINE
  8
0
  6
CONTINUOUS
 62
     7
  5
4A8
 10
-2.819689
 20
4.743125
 30
0.0
 11
-2.820266
 21
4.743126
 31
0.0
  0
LINE
  8
0
  6
CONTINUOUS
 62
     7
  5
4A9
 10
-2.820266
 20
4.743126
 30
0.0
 11
-2.820459
 21
4.743126
 31
0.0
  0
LINE
  8
0
  6
CONTINUOUS
 62
     7
  5
4AA
 10
-3.114173
 20
4.743135
 30
0.0
 11
-2.820459
 21
4.743135
 31
0.0
  0
LINE
  8
0
  6
CONTINUOUS
 62
     7
  5
4AB
 10
2.608268
 20
4.744094
 30
0.0
 11
2.582677
 21
4.744094
 31
0.0
  0
LINE
  8
0
  6
CONTINUOUS
 62
     7
  5
4AC
 10
2.608268
 20
3.667072
 30
0.0
 11
-3.041339
 21
3.667072
 31
0.0
  0
LINE
  8
0
  6
CONTINUOUS
 62
     7
  5
4AD
 10
0.187008
 20
0.0
 30
0.0
 11
0.127953
 21
0.0
 31
0.0
  0
LINE
  8
0
  6
CONTINUOUS
 62
     7
  5
4AE
 10
0.127953
 20
0.0
 30
0.0
 11
-0.127953
 21
0.0
 31
0.0
  0
LINE
  8
0
  6
CONTINUOUS
 62
     7
  5
4AF
 10
-0.127953
 20
0.0
 30
0.0
 11
-0.187008
 21
0.0
 31
0.0
  0
LINE
  8
0
  6
CONTINUOUS
 62
     7
  5
4B0
 10
-0.187008
 20
0.0
 30
0.0
 11
-3.041339
 21
0.0
 31
0.0
  0
LINE
  8
0
  6
CONTINUOUS
 62
     7
  5
4B1
 10
3.041339
 20
0.0
 30
0.0
 11
0.187008
 21
0.0
 31
0.0
  0
LINE
  8
0
  6
CONTINUOUS
 62
     7
  5
4B2
 10
0.127953
 20
0.15748
 30
0.0
 11
0.187008
 21
0.15748
 31
0.0
  0
LINE
  8
0
  6
CONTINUOUS
 62
     7
  5
4B3
 10
3.041339
 20
0.15748
 30
0.0
 11
0.187008
 21
0.15748
 31
0.0
  0
LINE
  8
0
  6
CONTINUOUS
 62
     7
  5
4B4
 10
-0.187008
 20
0.15748
 30
0.0
 11
-3.041339
 21
0.15748
 31
0.0
  0
LINE
  8
0
  6
CONTINUOUS
 62
     7
  5
4B5
 10
-0.187008
 20
0.15748
 30
0.0
 11
-0.127953
 21
0.15748
 31
0.0
  0
LINE
  8
0
  6
CONTINUOUS
 62
     7
  5
4B6
 10
-0.127953
 20
0.15748
 30
0.0
 11
0.127953
 21
0.15748
 31
0.0
  0
LINE
  8
0
  6
CONTINUOUS
 62
     7
  5
4B7
 10
-0.187008
 20
0.0
 30
0.0
 11
-0.189658
 21
0.000059
 31
0.0
  0
LINE
  8
0
  6
CONTINUOUS
 62
     7
  5
4B8
 10
-0.189658
 20
0.000059
 30
0.0
 11
-0.192302
 21
0.000238
 31
0.0
  0
LINE
  8
0
  6
CONTINUOUS
 62
     7
  5
4B9
 10
-0.192302
 20
0.000238
 30
0.0
 11
-0.194935
 21
0.000534
 31
0.0
  0
LINE
  8
0
  6
CONTINUOUS
 62
     7
  5
4BA
 10
-0.194935
 20
0.000534
 30
0.0
 11
-0.197553
 21
0.000949
 31
0.0
  0
LINE
  8
0
  6
CONTINUOUS
 62
     7
  5
4BB
 10
-0.197553
 20
0.000949
 30
0.0
 11
-0.200149
 21
0.001481
 31
0.0
  0
LINE
  8
0
  6
CONTINUOUS
 62
     7
  5
4BC
 10
-0.200149
 20
0.001481
 30
0.0
 11
-0.202719
 21
0.002128
 31
0.0
  0
LINE
  8
0
  6
CONTINUOUS
 62
     7
  5
4BD
 10
-0.202719
 20
0.002128
 30
0.0
 11
-0.205257
 21
0.00289
 31
0.0
  0
LINE
  8
0
  6
CONTINUOUS
 62
     7
  5
4BE
 10
-0.205257
 20
0.00289
 30
0.0
 11
-0.207759
 21
0.003766
 31
0.0
  0
LINE
  8
0
  6
CONTINUOUS
 62
     7
  5
4BF
 10
-0.207759
 20
0.003766
 30
0.0
 11
-0.210218
 21
0.004752
 31
0.0
  0
LINE
  8
0
  6
CONTINUOUS
 62
     7
  5
4C0
 10
-0.210218
 20
0.004752
 30
0.0
 11
-0.212631
 21
0.005848
 31
0.0
  0
LINE
  8
0
  6
CONTINUOUS
 62
     7
  5
4C1
 10
-0.212631
 20
0.005848
 30
0.0
 11
-0.214992
 21
0.007051
 31
0.0
  0
LINE
  8
0
  6
CONTINUOUS
 62
     7
  5
4C2
 10
-0.214992
 20
0.007051
 30
0.0
 11
-0.217297
 21
0.008359
 31
0.0
  0
LINE
  8
0
  6
CONTINUOUS
 62
     7
  5
4C3
 10
-0.217297
 20
0.008359
 30
0.0
 11
-0.219541
 21
0.009769
 31
0.0
  0
LINE
  8
0
  6
CONTINUOUS
 62
     7
  5
4C4
 10
-0.219541
 20
0.009769
 30
0.0
 11
-0.22172
 21
0.011279
 31
0.0
  0
LINE
  8
0
  6
CONTINUOUS
 62
     7
  5
4C5
 10
-0.22172
 20
0.011279
 30
0.0
 11
-0.223828
 21
0.012884
 31
0.0
  0
LINE
  8
0
  6
CONTINUOUS
 62
     7
  5
4C6
 10
-0.223828
 20
0.012884
 30
0.0
 11
-0.225863
 21
0.014582
 31
0.0
  0
LINE
  8
0
  6
CONTINUOUS
 62
     7
  5
4C7
 10
-0.225863
 20
0.014582
 30
0.0
 11
-0.227819
 21
0.01637
 31
0.0
  0
LINE
  8
0
  6
CONTINUOUS
 62
     7
  5
4C8
 10
-0.227819
 20
0.01637
 30
0.0
 11
-0.229693
 21
0.018244
 31
0.0
  0
LINE
  8
0
  6
CONTINUOUS
 62
     7
  5
4C9
 10
-0.229693
 20
0.018244
 30
0.0
 11
-0.231481
 21
0.0202
 31
0.0
  0
LINE
  8
0
  6
CONTINUOUS
 62
     7
  5
4CA
 10
-0.231481
 20
0.0202
 30
0.0
 11
-0.233179
 21
0.022235
 31
0.0
  0
LINE
  8
0
  6
CONTINUOUS
 62
     7
  5
4CB
 10
-0.233179
 20
0.022235
 30
0.0
 11
-0.234785
 21
0.024343
 31
0.0
  0
LINE
  8
0
  6
CONTINUOUS
 62
     7
  5
4CC
 10
-0.234785
 20
0.024343
 30
0.0
 11
-0.236294
 21
0.026522
 31
0.0
  0
LINE
  8
0
  6
CONTINUOUS
 62
     7
  5
4CD
 10
-0.236294
 20
0.026522
 30
0.0
 11
-0.237704
 21
0.028766
 31
0.0
  0
LINE
  8
0
  6
CONTINUOUS
 62
     7
  5
4CE
 10
-0.237704
 20
0.028766
 30
0.0
 11
-0.239012
 21
0.031071
 31
0.0
  0
LINE
  8
0
  6
CONTINUOUS
 62
     7
  5
4CF
 10
-0.239012
 20
0.031071
 30
0.0
 11
-0.240215
 21
0.033432
 31
0.0
  0
LINE
  8
0
  6
CONTINUOUS
 62
     7
  5
4D0
 10
-0.240215
 20
0.033432
 30
0.0
 11
-0.241311
 21
0.035845
 31
0.0
  0
LINE
  8
0
  6
CONTINUOUS
 62
     7
  5
4D1
 10
-0.241311
 20
0.035845
 30
0.0
 11
-0.242298
 21
0.038305
 31
0.0
  0
LINE
  8
0
  6
CONTINUOUS
 62
     7
  5
4D2
 10
-0.242298
 20
0.038305
 30
0.0
 11
-0.243173
 21
0.040806
 31
0.0
  0
LINE
  8
0
  6
CONTINUOUS
 62
     7
  5
4D3
 10
-0.243173
 20
0.040806
 30
0.0
 11
-0.243935
 21
0.043344
 31
0.0
  0
LINE
  8
0
  6
CONTINUOUS
 62
     7
  5
4D4
 10
-0.243935
 20
0.043344
 30
0.0
 11
-0.244583
 21
0.045914
 31
0.0
  0
LINE
  8
0
  6
CONTINUOUS
 62
     7
  5
4D5
 10
-0.244583
 20
0.045914
 30
0.0
 11
-0.245114
 21
0.04851
 31
0.0
  0
LINE
  8
0
  6
CONTINUOUS
 62
     7
  5
4D6
 10
-0.245114
 20
0.04851
 30
0.0
 11
-0.245529
 21
0.051128
 31
0.0
  0
LINE
  8
0
  6
CONTINUOUS
 62
     7
  5
4D7
 10
-0.245529
 20
0.051128
 30
0.0
 11
-0.245825
 21
0.053761
 31
0.0
  0
LINE
  8
0
  6
CONTINUOUS
 62
     7
  5
4D8
 10
-0.245825
 20
0.053761
 30
0.0
 11
-0.246004
 21
0.056406
 31
0.0
  0
LINE
  8
0
  6
CONTINUOUS
 62
     7
  5
4D9
 10
-0.246004
 20
0.056406
 30
0.0
 11
-0.246063
 21
0.059055
 31
0.0
  0
LINE
  8
0
  6
CONTINUOUS
 62
     7
  5
4DA
 10
-0.127953
 20
0.0
 30
0.0
 11
-0.127953
 21
0.15748
 31
0.0
  0
LINE
  8
0
  6
CONTINUOUS
 62
     7
  5
4DB
 10
-0.246063
 20
0.098425
 30
0.0
 11
-0.246004
 21
0.101075
 31
0.0
  0
LINE
  8
0
  6
CONTINUOUS
 62
     7
  5
4DC
 10
-0.246004
 20
0.101075
 30
0.0
 11
-0.245825
 21
0.103719
 31
0.0
  0
LINE
  8
0
  6
CONTINUOUS
 62
     7
  5
4DD
 10
-0.245825
 20
0.103719
 30
0.0
 11
-0.245529
 21
0.106352
 31
0.0
  0
LINE
  8
0
  6
CONTINUOUS
 62
     7
  5
4DE
 10
-0.245529
 20
0.106352
 30
0.0
 11
-0.245114
 21
0.10897
 31
0.0
  0
LINE
  8
0
  6
CONTINUOUS
 62
     7
  5
4DF
 10
-0.245114
 20
0.10897
 30
0.0
 11
-0.244583
 21
0.111566
 31
0.0
  0
LINE
  8
0
  6
CONTINUOUS
 62
     7
  5
4E0
 10
-0.244583
 20
0.111566
 30
0.0
 11
-0.243935
 21
0.114136
 31
0.0
  0
LINE
  8
0
  6
CONTINUOUS
 62
     7
  5
4E1
 10
-0.243935
 20
0.114136
 30
0.0
 11
-0.243173
 21
0.116674
 31
0.0
  0
LINE
  8
0
  6
CONTINUOUS
 62
     7
  5
4E2
 10
-0.243173
 20
0.116674
 30
0.0
 11
-0.242298
 21
0.119176
 31
0.0
  0
LINE
  8
0
  6
CONTINUOUS
 62
     7
  5
4E3
 10
-0.242298
 20
0.119176
 30
0.0
 11
-0.241311
 21
0.121635
 31
0.0
  0
LINE
  8
0
  6
CONTINUOUS
 62
     7
  5
4E4
 10
-0.241311
 20
0.121635
 30
0.0
 11
-0.240215
 21
0.124048
 31
0.0
  0
LINE
  8
0
  6
CONTINUOUS
 62
     7
  5
4E5
 10
-0.240215
 20
0.124048
 30
0.0
 11
-0.239012
 21
0.12641
 31
0.0
  0
LINE
  8
0
  6
CONTINUOUS
 62
     7
  5
4E6
 10
-0.239012
 20
0.12641
 30
0.0
 11
-0.237704
 21
0.128715
 31
0.0
  0
LINE
  8
0
  6
CONTINUOUS
 62
     7
  5
4E7
 10
-0.237704
 20
0.128715
 30
0.0
 11
-0.236294
 21
0.130958
 31
0.0
  0
LINE
  8
0
  6
CONTINUOUS
 62
     7
  5
4E8
 10
-0.236294
 20
0.130958
 30
0.0
 11
-0.234785
 21
0.133137
 31
0.0
  0
LINE
  8
0
  6
CONTINUOUS
 62
     7
  5
4E9
 10
-0.234785
 20
0.133137
 30
0.0
 11
-0.233179
 21
0.135245
 31
0.0
  0
LINE
  8
0
  6
CONTINUOUS
 62
     7
  5
4EA
 10
-0.233179
 20
0.135245
 30
0.0
 11
-0.231481
 21
0.13728
 31
0.0
  0
LINE
  8
0
  6
CONTINUOUS
 62
     7
  5
4EB
 10
-0.231481
 20
0.13728
 30
0.0
 11
-0.229693
 21
0.139236
 31
0.0
  0
LINE
  8
0
  6
CONTINUOUS
 62
     7
  5
4EC
 10
-0.229693
 20
0.139236
 30
0.0
 11
-0.227819
 21
0.14111
 31
0.0
  0
LINE
  8
0
  6
CONTINUOUS
 62
     7
  5
4ED
 10
-0.227819
 20
0.14111
 30
0.0
 11
-0.225863
 21
0.142898
 31
0.0
  0
LINE
  8
0
  6
CONTINUOUS
 62
     7
  5
4EE
 10
-0.225863
 20
0.142898
 30
0.0
 11
-0.223828
 21
0.144596
 31
0.0
  0
LINE
  8
0
  6
CONTINUOUS
 62
     7
  5
4EF
 10
-0.223828
 20
0.144596
 30
0.0
 11
-0.22172
 21
0.146202
 31
0.0
  0
LINE
  8
0
  6
CONTINUOUS
 62
     7
  5
4F0
 10
-0.22172
 20
0.146202
 30
0.0
 11
-0.219541
 21
0.147711
 31
0.0
  0
LINE
  8
0
  6
CONTINUOUS
 62
     7
  5
4F1
 10
-0.219541
 20
0.147711
 30
0.0
 11
-0.217297
 21
0.149121
 31
0.0
  0
LINE
  8
0
  6
CONTINUOUS
 62
     7
  5
4F2
 10
-0.217297
 20
0.149121
 30
0.0
 11
-0.214992
 21
0.150429
 31
0.0
  0
LINE
  8
0
  6
CONTINUOUS
 62
     7
  5
4F3
 10
-0.214992
 20
0.150429
 30
0.0
 11
-0.212631
 21
0.151632
 31
0.0
  0
LINE
  8
0
  6
CONTINUOUS
 62
     7
  5
4F4
 10
-0.212631
 20
0.151632
 30
0.0
 11
-0.210218
 21
0.152728
 31
0.0
  0
LINE
  8
0
  6
CONTINUOUS
 62
     7
  5
4F5
 10
-0.210218
 20
0.152728
 30
0.0
 11
-0.207759
 21
0.153715
 31
0.0
  0
LINE
  8
0
  6
CONTINUOUS
 62
     7
  5
4F6
 10
-0.207759
 20
0.153715
 30
0.0
 11
-0.205257
 21
0.15459
 31
0.0
  0
LINE
  8
0
  6
CONTINUOUS
 62
     7
  5
4F7
 10
-0.205257
 20
0.15459
 30
0.0
 11
-0.202719
 21
0.155352
 31
0.0
  0
LINE
  8
0
  6
CONTINUOUS
 62
     7
  5
4F8
 10
-0.202719
 20
0.155352
 30
0.0
 11
-0.200149
 21
0.156
 31
0.0
  0
LINE
  8
0
  6
CONTINUOUS
 62
     7
  5
4F9
 10
-0.200149
 20
0.156
 30
0.0
 11
-0.197553
 21
0.156531
 31
0.0
  0
LINE
  8
0
  6
CONTINUOUS
 62
     7
  5
4FA
 10
-0.197553
 20
0.156531
 30
0.0
 11
-0.194935
 21
0.156946
 31
0.0
  0
LINE
  8
0
  6
CONTINUOUS
 62
     7
  5
4FB
 10
-0.194935
 20
0.156946
 30
0.0
 11
-0.192302
 21
0.157243
 31
0.0
  0
LINE
  8
0
  6
CONTINUOUS
 62
     7
  5
4FC
 10
-0.192302
 20
0.157243
 30
0.0
 11
-0.189658
 21
0.157421
 31
0.0
  0
LINE
  8
0
  6
CONTINUOUS
 62
     7
  5
4FD
 10
-0.189658
 20
0.157421
 30
0.0
 11
-0.187008
 21
0.15748
 31
0.0
  0
LINE
  8
0
  6
CONTINUOUS
 62
     7
  5
4FE
 10
-0.246063
 20
0.059055
 30
0.0
 11
-0.246063
 21
0.098425
 31
0.0
  0
LINE
  8
0
  6
CONTINUOUS
 62
     7
  5
4FF
 10
0.246063
 20
0.059055
 30
0.0
 11
0.246004
 21
0.056406
 31
0.0
  0
LINE
  8
0
  6
CONTINUOUS
 62
     7
  5
500
 10
0.246004
 20
0.056406
 30
0.0
 11
0.245825
 21
0.053761
 31
0.0
  0
LINE
  8
0
  6
CONTINUOUS
 62
     7
  5
501
 10
0.245825
 20
0.053761
 30
0.0
 11
0.245529
 21
0.051128
 31
0.0
  0
LINE
  8
0
  6
CONTINUOUS
 62
     7
  5
502
 10
0.245529
 20
0.051128
 30
0.0
 11
0.245114
 21
0.04851
 31
0.0
  0
LINE
  8
0
  6
CONTINUOUS
 62
     7
  5
503
 10
0.245114
 20
0.04851
 30
0.0
 11
0.244583
 21
0.045914
 31
0.0
  0
LINE
  8
0
  6
CONTINUOUS
 62
     7
  5
504
 10
0.244583
 20
0.045914
 30
0.0
 11
0.243935
 21
0.043344
 31
0.0
  0
LINE
  8
0
  6
CONTINUOUS
 62
     7
  5
505
 10
0.243935
 20
0.043344
 30
0.0
 11
0.243173
 21
0.040806
 31
0.0
  0
LINE
  8
0
  6
CONTINUOUS
 62
     7
  5
506
 10
0.243173
 20
0.040806
 30
0.0
 11
0.242298
 21
0.038305
 31
0.0
  0
LINE
  8
0
  6
CONTINUOUS
 62
     7
  5
507
 10
0.242298
 20
0.038305
 30
0.0
 11
0.241311
 21
0.035845
 31
0.0
  0
LINE
  8
0
  6
CONTINUOUS
 62
     7
  5
508
 10
0.241311
 20
0.035845
 30
0.0
 11
0.240215
 21
0.033432
 31
0.0
  0
LINE
  8
0
  6
CONTINUOUS
 62
     7
  5
509
 10
0.240215
 20
0.033432
 30
0.0
 11
0.239012
 21
0.031071
 31
0.0
  0
LINE
  8
0
  6
CONTINUOUS
 62
     7
  5
50A
 10
0.239012
 20
0.031071
 30
0.0
 11
0.237704
 21
0.028766
 31
0.0
  0
LINE
  8
0
  6
CONTINUOUS
 62
     7
  5
50B
 10
0.237704
 20
0.028766
 30
0.0
 11
0.236294
 21
0.026522
 31
0.0
  0
LINE
  8
0
  6
CONTINUOUS
 62
     7
  5
50C
 10
0.236294
 20
0.026522
 30
0.0
 11
0.234785
 21
0.024343
 31
0.0
  0
LINE
  8
0
  6
CONTINUOUS
 62
     7
  5
50D
 10
0.234785
 20
0.024343
 30
0.0
 11
0.233179
 21
0.022235
 31
0.0
  0
LINE
  8
0
  6
CONTINUOUS
 62
     7
  5
50E
 10
0.233179
 20
0.022235
 30
0.0
 11
0.231481
 21
0.0202
 31
0.0
  0
LINE
  8
0
  6
CONTINUOUS
 62
     7
  5
50F
 10
0.231481
 20
0.0202
 30
0.0
 11
0.229693
 21
0.018244
 31
0.0
  0
LINE
  8
0
  6
CONTINUOUS
 62
     7
  5
510
 10
0.229693
 20
0.018244
 30
0.0
 11
0.227819
 21
0.01637
 31
0.0
  0
LINE
  8
0
  6
CONTINUOUS
 62
     7
  5
511
 10
0.227819
 20
0.01637
 30
0.0
 11
0.225863
 21
0.014582
 31
0.0
  0
LINE
  8
0
  6
CONTINUOUS
 62
     7
  5
512
 10
0.225863
 20
0.014582
 30
0.0
 11
0.223828
 21
0.012884
 31
0.0
  0
LINE
  8
0
  6
CONTINUOUS
 62
     7
  5
513
 10
0.223828
 20
0.012884
 30
0.0
 11
0.22172
 21
0.011279
 31
0.0
  0
LINE
  8
0
  6
CONTINUOUS
 62
     7
  5
514
 10
0.22172
 20
0.011279
 30
0.0
 11
0.219541
 21
0.009769
 31
0.0
  0
LINE
  8
0
  6
CONTINUOUS
 62
     7
  5
515
 10
0.219541
 20
0.009769
 30
0.0
 11
0.217297
 21
0.008359
 31
0.0
  0
LINE
  8
0
  6
CONTINUOUS
 62
     7
  5
516
 10
0.217297
 20
0.008359
 30
0.0
 11
0.214992
 21
0.007051
 31
0.0
  0
LINE
  8
0
  6
CONTINUOUS
 62
     7
  5
517
 10
0.214992
 20
0.007051
 30
0.0
 11
0.212631
 21
0.005848
 31
0.0
  0
LINE
  8
0
  6
CONTINUOUS
 62
     7
  5
518
 10
0.212631
 20
0.005848
 30
0.0
 11
0.210218
 21
0.004752
 31
0.0
  0
LINE
  8
0
  6
CONTINUOUS
 62
     7
  5
519
 10
0.210218
 20
0.004752
 30
0.0
 11
0.207759
 21
0.003766
 31
0.0
  0
LINE
  8
0
  6
CONTINUOUS
 62
     7
  5
51A
 10
0.207759
 20
0.003766
 30
0.0
 11
0.205257
 21
0.00289
 31
0.0
  0
LINE
  8
0
  6
CONTINUOUS
 62
     7
  5
51B
 10
0.205257
 20
0.00289
 30
0.0
 11
0.202719
 21
0.002128
 31
0.0
  0
LINE
  8
0
  6
CONTINUOUS
 62
     7
  5
51C
 10
0.202719
 20
0.002128
 30
0.0
 11
0.200149
 21
0.001481
 31
0.0
  0
LINE
  8
0
  6
CONTINUOUS
 62
     7
  5
51D
 10
0.200149
 20
0.001481
 30
0.0
 11
0.197553
 21
0.000949
 31
0.0
  0
LINE
  8
0
  6
CONTINUOUS
 62
     7
  5
51E
 10
0.197553
 20
0.000949
 30
0.0
 11
0.194935
 21
0.000534
 31
0.0
  0
LINE
  8
0
  6
CONTINUOUS
 62
     7
  5
51F
 10
0.194935
 20
0.000534
 30
0.0
 11
0.192302
 21
0.000238
 31
0.0
  0
LINE
  8
0
  6
CONTINUOUS
 62
     7
  5
520
 10
0.192302
 20
0.000238
 30
0.0
 11
0.189658
 21
0.000059
 31
0.0
  0
LINE
  8
0
  6
CONTINUOUS
 62
     7
  5
521
 10
0.189658
 20
0.000059
 30
0.0
 11
0.187008
 21
0.0
 31
0.0
  0
LINE
  8
0
  6
CONTINUOUS
 62
     7
  5
522
 10
0.246063
 20
0.098425
 30
0.0
 11
0.246063
 21
0.059055
 31
0.0
  0
LINE
  8
0
  6
CONTINUOUS
 62
     7
  5
523
 10
0.187008
 20
0.15748
 30
0.0
 11
0.189658
 21
0.157421
 31
0.0
  0
LINE
  8
0
  6
CONTINUOUS
 62
     7
  5
524
 10
0.189658
 20
0.157421
 30
0.0
 11
0.192302
 21
0.157243
 31
0.0
  0
LINE
  8
0
  6
CONTINUOUS
 62
     7
  5
525
 10
0.192302
 20
0.157243
 30
0.0
 11
0.194935
 21
0.156946
 31
0.0
  0
LINE
  8
0
  6
CONTINUOUS
 62
     7
  5
526
 10
0.194935
 20
0.156946
 30
0.0
 11
0.197553
 21
0.156531
 31
0.0
  0
LINE
  8
0
  6
CONTINUOUS
 62
     7
  5
527
 10
0.197553
 20
0.156531
 30
0.0
 11
0.200149
 21
0.156
 31
0.0
  0
LINE
  8
0
  6
CONTINUOUS
 62
     7
  5
528
 10
0.200149
 20
0.156
 30
0.0
 11
0.202719
 21
0.155352
 31
0.0
  0
LINE
  8
0
  6
CONTINUOUS
 62
     7
  5
529
 10
0.202719
 20
0.155352
 30
0.0
 11
0.205257
 21
0.15459
 31
0.0
  0
LINE
  8
0
  6
CONTINUOUS
 62
     7
  5
52A
 10
0.205257
 20
0.15459
 30
0.0
 11
0.207759
 21
0.153715
 31
0.0
  0
LINE
  8
0
  6
CONTINUOUS
 62
     7
  5
52B
 10
0.207759
 20
0.153715
 30
0.0
 11
0.210218
 21
0.152728
 31
0.0
  0
LINE
  8
0
  6
CONTINUOUS
 62
     7
  5
52C
 10
0.210218
 20
0.152728
 30
0.0
 11
0.212631
 21
0.151632
 31
0.0
  0
LINE
  8
0
  6
CONTINUOUS
 62
     7
  5
52D
 10
0.212631
 20
0.151632
 30
0.0
 11
0.214992
 21
0.150429
 31
0.0
  0
LINE
  8
0
  6
CONTINUOUS
 62
     7
  5
52E
 10
0.214992
 20
0.150429
 30
0.0
 11
0.217297
 21
0.149121
 31
0.0
  0
LINE
  8
0
  6
CONTINUOUS
 62
     7
  5
52F
 10
0.217297
 20
0.149121
 30
0.0
 11
0.219541
 21
0.147711
 31
0.0
  0
LINE
  8
0
  6
CONTINUOUS
 62
     7
  5
530
 10
0.219541
 20
0.147711
 30
0.0
 11
0.22172
 21
0.146202
 31
0.0
  0
LINE
  8
0
  6
CONTINUOUS
 62
     7
  5
531
 10
0.22172
 20
0.146202
 30
0.0
 11
0.223828
 21
0.144596
 31
0.0
  0
LINE
  8
0
  6
CONTINUOUS
 62
     7
  5
532
 10
0.223828
 20
0.144596
 30
0.0
 11
0.225863
 21
0.142898
 31
0.0
  0
LINE
  8
0
  6
CONTINUOUS
 62
     7
  5
533
 10
0.225863
 20
0.142898
 30
0.0
 11
0.227819
 21
0.14111
 31
0.0
  0
LINE
  8
0
  6
CONTINUOUS
 62
     7
  5
534
 10
0.227819
 20
0.14111
 30
0.0
 11
0.229693
 21
0.139236
 31
0.0
  0
LINE
  8
0
  6
CONTINUOUS
 62
     7
  5
535
 10
0.229693
 20
0.139236
 30
0.0
 11
0.231481
 21
0.13728
 31
0.0
  0
LINE
  8
0
  6
CONTINUOUS
 62
     7
  5
536
 10
0.231481
 20
0.13728
 30
0.0
 11
0.233179
 21
0.135245
 31
0.0
  0
LINE
  8
0
  6
CONTINUOUS
 62
     7
  5
537
 10
0.233179
 20
0.135245
 30
0.0
 11
0.234785
 21
0.133137
 31
0.0
  0
LINE
  8
0
  6
CONTINUOUS
 62
     7
  5
538
 10
0.234785
 20
0.133137
 30
0.0
 11
0.236294
 21
0.130958
 31
0.0
  0
LINE
  8
0
  6
CONTINUOUS
 62
     7
  5
539
 10
0.236294
 20
0.130958
 30
0.0
 11
0.237704
 21
0.128715
 31
0.0
  0
LINE
  8
0
  6
CONTINUOUS
 62
     7
  5
53A
 10
0.237704
 20
0.128715
 30
0.0
 11
0.239012
 21
0.12641
 31
0.0
  0
LINE
  8
0
  6
CONTINUOUS
 62
     7
  5
53B
 10
0.239012
 20
0.12641
 30
0.0
 11
0.240215
 21
0.124048
 31
0.0
  0
LINE
  8
0
  6
CONTINUOUS
 62
     7
  5
53C
 10
0.240215
 20
0.124048
 30
0.0
 11
0.241311
 21
0.121635
 31
0.0
  0
LINE
  8
0
  6
CONTINUOUS
 62
     7
  5
53D
 10
0.241311
 20
0.121635
 30
0.0
 11
0.242298
 21
0.119176
 31
0.0
  0
LINE
  8
0
  6
CONTINUOUS
 62
     7
  5
53E
 10
0.242298
 20
0.119176
 30
0.0
 11
0.243173
 21
0.116674
 31
0.0
  0
LINE
  8
0
  6
CONTINUOUS
 62
     7
  5
53F
 10
0.243173
 20
0.116674
 30
0.0
 11
0.243935
 21
0.114136
 31
0.0
  0
LINE
  8
0
  6
CONTINUOUS
 62
     7
  5
540
 10
0.243935
 20
0.114136
 30
0.0
 11
0.244583
 21
0.111566
 31
0.0
  0
LINE
  8
0
  6
CONTINUOUS
 62
     7
  5
541
 10
0.244583
 20
0.111566
 30
0.0
 11
0.245114
 21
0.10897
 31
0.0
  0
LINE
  8
0
  6
CONTINUOUS
 62
     7
  5
542
 10
0.245114
 20
0.10897
 30
0.0
 11
0.245529
 21
0.106352
 31
0.0
  0
LINE
  8
0
  6
CONTINUOUS
 62
     7
  5
543
 10
0.245529
 20
0.106352
 30
0.0
 11
0.245825
 21
0.103719
 31
0.0
  0
LINE
  8
0
  6
CONTINUOUS
 62
     7
  5
544
 10
0.245825
 20
0.103719
 30
0.0
 11
0.246004
 21
0.101075
 31
0.0
  0
LINE
  8
0
  6
CONTINUOUS
 62
     7
  5
545
 10
0.246004
 20
0.101075
 30
0.0
 11
0.246063
 21
0.098425
 31
0.0
  0
LINE
  8
0
  6
CONTINUOUS
 62
     7
  5
546
 10
0.127953
 20
0.0
 30
0.0
 11
0.127953
 21
0.15748
 31
0.0
  0
LINE
  8
0
  6
CONTINUOUS
 62
     7
  5
547
 10
-3.041339
 20
0.059055
 30
0.0
 11
-3.041339
 21
0.0
 31
0.0
  0
LINE
  8
0
  6
CONTINUOUS
 62
     7
  5
548
 10
-3.041339
 20
0.098425
 30
0.0
 11
-3.041339
 21
0.059055
 31
0.0
  0
LINE
  8
0
  6
CONTINUOUS
 62
     7
  5
549
 10
-3.041339
 20
0.15748
 30
0.0
 11
-3.041339
 21
0.098425
 31
0.0
  0
LINE
  8
0
  6
CONTINUOUS
 62
     7
  5
54A
 10
2.608268
 20
3.086363
 30
0.0
 11
-3.041339
 21
3.086363
 31
0.0
  0
LINE
  8
0
  6
CONTINUOUS
 62
     7
  5
54B
 10
3.041339
 20
0.314961
 30
0.0
 11
-3.041339
 21
0.314961
 31
0.0
  0
LINE
  8
0
  6
CONTINUOUS
 62
     7
  5
54C
 10
3.041339
 20
0.23622
 30
0.0
 11
-3.041339
 21
0.23622
 31
0.0
  0
LINE
  8
0
  6
CONTINUOUS
 62
     7
  5
54D
 10
2.549213
 20
8.377953
 30
0.0
 11
-3.080708
 21
8.377953
 31
0.0
  0
ARC
  8
0
  6
CONTINUOUS
 62
     7
  5
54E
 10
-0.915353
 20
-10.971094
 30
0.0
 40
19.685039
 50
83.684687
 51
96.109316
  0
LINE
  8
0
  6
CONTINUOUS
 62
     7
  5
54F
 10
1.25
 20
8.594488
 30
0.0
 11
2.470473
 21
8.594488
 31
0.0
  0
ARC
  8
0
  6
CONTINUOUS
 62
     7
  5
550
 10
2.470473
 20
8.515748
 30
0.0
 40
0.07874
 50
0.0
 51
90.0
  0
LINE
  8
0
  6
CONTINUOUS
 62
     7
  5
551
 10
2.549213
 20
8.515748
 30
0.0
 11
2.549213
 21
8.377953
 31
0.0
  0
LINE
  8
0
  6
CONTINUOUS
 62
     7
  5
552
 10
-3.080708
 20
8.377953
 30
0.0
 11
-3.080708
 21
8.523854
 31
0.0
  0
ARC
  8
0
  6
CONTINUOUS
 62
     7
  5
553
 10
-3.001968
 20
8.523854
 30
0.0
 40
0.07874
 50
96.109314
 51
180.0
  0
LINE
  8
0
  6
CONTINUOUS
 62
     7
  5
554
 10
-1.490565
 20
5.570867
 30
0.0
 11
-1.490565
 21
4.743135
 31
0.0
  0
LINE
  8
0
  6
CONTINUOUS
 62
     7
  5
555
 10
-1.490565
 20
6.015749
 30
0.0
 11
-1.490565
 21
5.570867
 31
0.0
  0
LINE
  8
0
  6
CONTINUOUS
 62
     7
  5
556
 10
-1.490565
 20
8.377492
 30
0.0
 11
-1.490565
 21
6.015749
 31
0.0
  0
LINE
  8
0
  6
CONTINUOUS
 62
     7
  5
557
 10
-2.820459
 20
8.377504
 30
0.0
 11
-2.820266
 21
8.377505
 31
0.0
  0
LINE
  8
0
  6
CONTINUOUS
 62
     7
  5
558
 10
-2.820266
 20
8.377505
 30
0.0
 11
-2.819689
 21
8.377506
 31
0.0
  0
LINE
  8
0
  6
CONTINUOUS
 62
     7
  5
559
 10
-2.819689
 20
8.377506
 30
0.0
 11
-2.818727
 21
8.377508
 31
0.0
  0
LINE
  8
0
  6
CONTINUOUS
 62
     7
  5
55A
 10
-2.818727
 20
8.377508
 30
0.0
 11
-2.817383
 21
8.377509
 31
0.0
  0
LINE
  8
0
  6
CONTINUOUS
 62
     7
  5
55B
 10
-2.817383
 20
8.377509
 30
0.0
 11
-2.81566
 21
8.37751
 31
0.0
  0
LINE
  8
0
  6
CONTINUOUS
 62
     7
  5
55C
 10
-2.81566
 20
8.37751
 30
0.0
 11
-2.813562
 21
8.377512
 31
0.0
  0
LINE
  8
0
  6
CONTINUOUS
 62
     7
  5
55D
 10
-2.813562
 20
8.377512
 30
0.0
 11
-2.811091
 21
8.377513
 31
0.0
  0
LINE
  8
0
  6
CONTINUOUS
 62
     7
  5
55E
 10
-2.811091
 20
8.377513
 30
0.0
 11
-2.808255
 21
8.377514
 31
0.0
  0
LINE
  8
0
  6
CONTINUOUS
 62
     7
  5
55F
 10
-2.808255
 20
8.377514
 30
0.0
 11
-2.805057
 21
8.377515
 31
0.0
  0
LINE
  8
0
  6
CONTINUOUS
 62
     7
  5
560
 10
-2.805057
 20
8.377515
 30
0.0
 11
-2.801505
 21
8.377516
 31
0.0
  0
LINE
  8
0
  6
CONTINUOUS
 62
     7
  5
561
 10
-2.801505
 20
8.377516
 30
0.0
 11
-2.797605
 21
8.377518
 31
0.0
  0
LINE
  8
0
  6
CONTINUOUS
 62
     7
  5
562
 10
-2.797605
 20
8.377518
 30
0.0
 11
-2.793367
 21
8.377519
 31
0.0
  0
LINE
  8
0
  6
CONTINUOUS
 62
     7
  5
563
 10
-2.793367
 20
8.377519
 30
0.0
 11
-2.788797
 21
8.37752
 31
0.0
  0
LINE
  8
0
  6
CONTINUOUS
 62
     7
  5
564
 10
-2.788797
 20
8.37752
 30
0.0
 11
-2.783906
 21
8.377521
 31
0.0
  0
LINE
  8
0
  6
CONTINUOUS
 62
     7
  5
565
 10
-2.783906
 20
8.377521
 30
0.0
 11
-2.778702
 21
8.377522
 31
0.0
  0
LINE
  8
0
  6
CONTINUOUS
 62
     7
  5
566
 10
-2.778702
 20
8.377522
 30
0.0
 11
-2.773198
 21
8.377523
 31
0.0
  0
LINE
  8
0
  6
CONTINUOUS
 62
     7
  5
567
 10
-2.773198
 20
8.377523
 30
0.0
 11
-2.767403
 21
8.377524
 31
0.0
  0
LINE
  8
0
  6
CONTINUOUS
 62
     7
  5
568
 10
-2.767403
 20
8.377524
 30
0.0
 11
-2.76133
 21
8.377525
 31
0.0
  0
LINE
  8
0
  6
CONTINUOUS
 62
     7
  5
569
 10
-2.76133
 20
8.377525
 30
0.0
 11
-2.75499
 21
8.377526
 31
0.0
  0
LINE
  8
0
  6
CONTINUOUS
 62
     7
  5
56A
 10
-2.75499
 20
8.377526
 30
0.0
 11
-2.748396
 21
8.377526
 31
0.0
  0
LINE
  8
0
  6
CONTINUOUS
 62
     7
  5
56B
 10
-2.748396
 20
8.377526
 30
0.0
 11
-2.741563
 21
8.377527
 31
0.0
  0
LINE
  8
0
  6
CONTINUOUS
 62
     7
  5
56C
 10
-2.741563
 20
8.377527
 30
0.0
 11
-2.734502
 21
8.377528
 31
0.0
  0
LINE
  8
0
  6
CONTINUOUS
 62
     7
  5
56D
 10
-2.734502
 20
8.377528
 30
0.0
 11
-2.72723
 21
8.377529
 31
0.0
  0
LINE
  8
0
  6
CONTINUOUS
 62
     7
  5
56E
 10
-2.72723
 20
8.377529
 30
0.0
 11
-2.719759
 21
8.377529
 31
0.0
  0
LINE
  8
0
  6
CONTINUOUS
 62
     7
  5
56F
 10
-2.719759
 20
8.377529
 30
0.0
 11
-2.712106
 21
8.37753
 31
0.0
  0
LINE
  8
0
  6
CONTINUOUS
 62
     7
  5
570
 10
-2.712106
 20
8.37753
 30
0.0
 11
-2.704286
 21
8.37753
 31
0.0
  0
LINE
  8
0
  6
CONTINUOUS
 62
     7
  5
571
 10
-2.704286
 20
8.37753
 30
0.0
 11
-2.696315
 21
8.377531
 31
0.0
  0
LINE
  8
0
  6
CONTINUOUS
 62
     7
  5
572
 10
-2.696315
 20
8.377531
 30
0.0
 11
-2.688207
 21
8.377531
 31
0.0
  0
LINE
  8
0
  6
CONTINUOUS
 62
     7
  5
573
 10
-2.688207
 20
8.377531
 30
0.0
 11
-2.679981
 21
8.377532
 31
0.0
  0
LINE
  8
0
  6
CONTINUOUS
 62
     7
  5
574
 10
-2.679981
 20
8.377532
 30
0.0
 11
-2.671652
 21
8.377532
 31
0.0
  0
LINE
  8
0
  6
CONTINUOUS
 62
     7
  5
575
 10
-2.671652
 20
8.377532
 30
0.0
 11
-2.663238
 21
8.377532
 31
0.0
  0
LINE
  8
0
  6
CONTINUOUS
 62
     7
  5
576
 10
-2.663238
 20
8.377532
 30
0.0
 11
-2.654754
 21
8.377532
 31
0.0
  0
LINE
  8
0
  6
CONTINUOUS
 62
     7
  5
577
 10
-2.654754
 20
8.377532
 30
0.0
 11
-2.646219
 21
8.377533
 31
0.0
  0
LINE
  8
0
  6
CONTINUOUS
 62
     7
  5
578
 10
-2.646219
 20
8.377533
 30
0.0
 11
-2.63765
 21
8.377533
 31
0.0
  0
LINE
  8
0
  6
CONTINUOUS
 62
     7
  5
579
 10
-2.63765
 20
8.377533
 30
0.0
 11
-2.629063
 21
8.377533
 31
0.0
  0
LINE
  8
0
  6
CONTINUOUS
 62
     7
  5
57A
 10
-2.629063
 20
8.377533
 30
0.0
 11
-1.681961
 21
8.377533
 31
0.0
  0
LINE
  8
0
  6
CONTINUOUS
 62
     7
  5
57B
 10
-2.820459
 20
6.015749
 30
0.0
 11
-2.820459
 21
8.377492
 31
0.0
  0
LINE
  8
0
  6
CONTINUOUS
 62
     7
  5
57C
 10
-2.820459
 20
5.570867
 30
0.0
 11
-2.820459
 21
6.015749
 31
0.0
  0
LINE
  8
0
  6
CONTINUOUS
 62
     7
  5
57D
 10
-2.820459
 20
4.743135
 30
0.0
 11
-2.820459
 21
5.570867
 31
0.0
  0
LINE
  8
0
  6
CONTINUOUS
 62
     7
  5
57E
 10
-3.114173
 20
8.377492
 30
0.0
 11
-2.820459
 21
8.377492
 31
0.0
  0
LINE
  8
0
  6
CONTINUOUS
 62
     7
  5
57F
 10
-1.490565
 20
8.377492
 30
0.0
 11
-0.930695
 21
8.377492
 31
0.0
  0
LINE
  8
0
  6
CONTINUOUS
 62
     7
  5
580
 10
-0.930695
 20
8.377504
 30
0.0
 11
-0.930502
 21
8.377505
 31
0.0
  0
LINE
  8
0
  6
CONTINUOUS
 62
     7
  5
581
 10
-0.930502
 20
8.377505
 30
0.0
 11
-0.929925
 21
8.377506
 31
0.0
  0
LINE
  8
0
  6
CONTINUOUS
 62
     7
  5
582
 10
-0.929925
 20
8.377506
 30
0.0
 11
-0.928963
 21
8.377508
 31
0.0
  0
LINE
  8
0
  6
CONTINUOUS
 62
     7
  5
583
 10
-0.928963
 20
8.377508
 30
0.0
 11
-0.927619
 21
8.377509
 31
0.0
  0
LINE
  8
0
  6
CONTINUOUS
 62
     7
  5
584
 10
-0.927619
 20
8.377509
 30
0.0
 11
-0.925896
 21
8.37751
 31
0.0
  0
LINE
  8
0
  6
CONTINUOUS
 62
     7
  5
585
 10
-0.925896
 20
8.37751
 30
0.0
 11
-0.923798
 21
8.377512
 31
0.0
  0
LINE
  8
0
  6
CONTINUOUS
 62
     7
  5
586
 10
-0.923798
 20
8.377512
 30
0.0
 11
-0.921327
 21
8.377513
 31
0.0
  0
LINE
  8
0
  6
CONTINUOUS
 62
     7
  5
587
 10
-0.921327
 20
8.377513
 30
0.0
 11
-0.918491
 21
8.377514
 31
0.0
  0
LINE
  8
0
  6
CONTINUOUS
 62
     7
  5
588
 10
-0.918491
 20
8.377514
 30
0.0
 11
-0.915293
 21
8.377515
 31
0.0
  0
LINE
  8
0
  6
CONTINUOUS
 62
     7
  5
589
 10
-0.915293
 20
8.377515
 30
0.0
 11
-0.911741
 21
8.377516
 31
0.0
  0
LINE
  8
0
  6
CONTINUOUS
 62
     7
  5
58A
 10
-0.911741
 20
8.377516
 30
0.0
 11
-0.907841
 21
8.377518
 31
0.0
  0
LINE
  8
0
  6
CONTINUOUS
 62
     7
  5
58B
 10
-0.907841
 20
8.377518
 30
0.0
 11
-0.903603
 21
8.377519
 31
0.0
  0
LINE
  8
0
  6
CONTINUOUS
 62
     7
  5
58C
 10
-0.903603
 20
8.377519
 30
0.0
 11
-0.899033
 21
8.37752
 31
0.0
  0
LINE
  8
0
  6
CONTINUOUS
 62
     7
  5
58D
 10
-0.899033
 20
8.37752
 30
0.0
 11
-0.894142
 21
8.377521
 31
0.0
  0
LINE
  8
0
  6
CONTINUOUS
 62
     7
  5
58E
 10
-0.894142
 20
8.377521
 30
0.0
 11
-0.888938
 21
8.377522
 31
0.0
  0
LINE
  8
0
  6
CONTINUOUS
 62
     7
  5
58F
 10
-0.888938
 20
8.377522
 30
0.0
 11
-0.883434
 21
8.377523
 31
0.0
  0
LINE
  8
0
  6
CONTINUOUS
 62
     7
  5
590
 10
-0.883434
 20
8.377523
 30
0.0
 11
-0.877639
 21
8.377524
 31
0.0
  0
LINE
  8
0
  6
CONTINUOUS
 62
     7
  5
591
 10
-0.877639
 20
8.377524
 30
0.0
 11
-0.871566
 21
8.377525
 31
0.0
  0
LINE
  8
0
  6
CONTINUOUS
 62
     7
  5
592
 10
-0.871566
 20
8.377525
 30
0.0
 11
-0.865226
 21
8.377526
 31
0.0
  0
LINE
  8
0
  6
CONTINUOUS
 62
     7
  5
593
 10
-0.865226
 20
8.377526
 30
0.0
 11
-0.858632
 21
8.377526
 31
0.0
  0
LINE
  8
0
  6
CONTINUOUS
 62
     7
  5
594
 10
-0.858632
 20
8.377526
 30
0.0
 11
-0.851799
 21
8.377527
 31
0.0
  0
LINE
  8
0
  6
CONTINUOUS
 62
     7
  5
595
 10
-0.851799
 20
8.377527
 30
0.0
 11
-0.844738
 21
8.377528
 31
0.0
  0
LINE
  8
0
  6
CONTINUOUS
 62
     7
  5
596
 10
-0.844738
 20
8.377528
 30
0.0
 11
-0.837466
 21
8.377529
 31
0.0
  0
LINE
  8
0
  6
CONTINUOUS
 62
     7
  5
597
 10
-0.837466
 20
8.377529
 30
0.0
 11
-0.829995
 21
8.377529
 31
0.0
  0
LINE
  8
0
  6
CONTINUOUS
 62
     7
  5
598
 10
-0.829995
 20
8.377529
 30
0.0
 11
-0.822342
 21
8.37753
 31
0.0
  0
LINE
  8
0
  6
CONTINUOUS
 62
     7
  5
599
 10
-0.822342
 20
8.37753
 30
0.0
 11
-0.814522
 21
8.37753
 31
0.0
  0
LINE
  8
0
  6
CONTINUOUS
 62
     7
  5
59A
 10
-0.814522
 20
8.37753
 30
0.0
 11
-0.806551
 21
8.377531
 31
0.0
  0
LINE
  8
0
  6
CONTINUOUS
 62
     7
  5
59B
 10
-0.806551
 20
8.377531
 30
0.0
 11
-0.798443
 21
8.377531
 31
0.0
  0
LINE
  8
0
  6
CONTINUOUS
 62
     7
  5
59C
 10
-0.798443
 20
8.377531
 30
0.0
 11
-0.790217
 21
8.377532
 31
0.0
  0
LINE
  8
0
  6
CONTINUOUS
 62
     7
  5
59D
 10
-0.790217
 20
8.377532
 30
0.0
 11
-0.781888
 21
8.377532
 31
0.0
  0
LINE
  8
0
  6
CONTINUOUS
 62
     7
  5
59E
 10
-0.781888
 20
8.377532
 30
0.0
 11
-0.773474
 21
8.377532
 31
0.0
  0
LINE
  8
0
  6
CONTINUOUS
 62
     7
  5
59F
 10
-0.773474
 20
8.377532
 30
0.0
 11
-0.76499
 21
8.377532
 31
0.0
  0
LINE
  8
0
  6
CONTINUOUS
 62
     7
  5
5A0
 10
-0.76499
 20
8.377532
 30
0.0
 11
-0.756455
 21
8.377533
 31
0.0
  0
LINE
  8
0
  6
CONTINUOUS
 62
     7
  5
5A1
 10
-0.756455
 20
8.377533
 30
0.0
 11
-0.747886
 21
8.377533
 31
0.0
  0
LINE
  8
0
  6
CONTINUOUS
 62
     7
  5
5A2
 10
-0.747886
 20
8.377533
 30
0.0
 11
-0.739299
 21
8.377533
 31
0.0
  0
LINE
  8
0
  6
CONTINUOUS
 62
     7
  5
5A3
 10
-0.739299
 20
8.377533
 30
0.0
 11
0.207803
 21
8.377533
 31
0.0
  0
LINE
  8
0
  6
CONTINUOUS
 62
     7
  5
5A4
 10
0.399199
 20
8.377492
 30
0.0
 11
0.959069
 21
8.377492
 31
0.0
  0
LINE
  8
0
  6
CONTINUOUS
 62
     7
  5
5A5
 10
0.959069
 20
8.377504
 30
0.0
 11
0.959262
 21
8.377505
 31
0.0
  0
LINE
  8
0
  6
CONTINUOUS
 62
     7
  5
5A6
 10
0.959262
 20
8.377505
 30
0.0
 11
0.959839
 21
8.377506
 31
0.0
  0
LINE
  8
0
  6
CONTINUOUS
 62
     7
  5
5A7
 10
0.959839
 20
8.377506
 30
0.0
 11
0.960801
 21
8.377508
 31
0.0
  0
LINE
  8
0
  6
CONTINUOUS
 62
     7
  5
5A8
 10
0.960801
 20
8.377508
 30
0.0
 11
0.962145
 21
8.377509
 31
0.0
  0
LINE
  8
0
  6
CONTINUOUS
 62
     7
  5
5A9
 10
0.962145
 20
8.377509
 30
0.0
 11
0.963868
 21
8.37751
 31
0.0
  0
LINE
  8
0
  6
CONTINUOUS
 62
     7
  5
5AA
 10
0.963868
 20
8.37751
 30
0.0
 11
0.965966
 21
8.377512
 31
0.0
  0
LINE
  8
0
  6
CONTINUOUS
 62
     7
  5
5AB
 10
0.965966
 20
8.377512
 30
0.0
 11
0.968437
 21
8.377513
 31
0.0
  0
LINE
  8
0
  6
CONTINUOUS
 62
     7
  5
5AC
 10
0.968437
 20
8.377513
 30
0.0
 11
0.971273
 21
8.377514
 31
0.0
  0
LINE
  8
0
  6
CONTINUOUS
 62
     7
  5
5AD
 10
0.971273
 20
8.377514
 30
0.0
 11
0.974471
 21
8.377515
 31
0.0
  0
LINE
  8
0
  6
CONTINUOUS
 62
     7
  5
5AE
 10
0.974471
 20
8.377515
 30
0.0
 11
0.978023
 21
8.377516
 31
0.0
  0
LINE
  8
0
  6
CONTINUOUS
 62
     7
  5
5AF
 10
0.978023
 20
8.377516
 30
0.0
 11
0.981923
 21
8.377518
 31
0.0
  0
LINE
  8
0
  6
CONTINUOUS
 62
     7
  5
5B0
 10
0.981923
 20
8.377518
 30
0.0
 11
0.986161
 21
8.377519
 31
0.0
  0
LINE
  8
0
  6
CONTINUOUS
 62
     7
  5
5B1
 10
0.986161
 20
8.377519
 30
0.0
 11
0.990731
 21
8.37752
 31
0.0
  0
LINE
  8
0
  6
CONTINUOUS
 62
     7
  5
5B2
 10
0.990731
 20
8.37752
 30
0.0
 11
0.995622
 21
8.377521
 31
0.0
  0
LINE
  8
0
  6
CONTINUOUS
 62
     7
  5
5B3
 10
0.995622
 20
8.377521
 30
0.0
 11
1.000826
 21
8.377522
 31
0.0
  0
LINE
  8
0
  6
CONTINUOUS
 62
     7
  5
5B4
 10
1.000826
 20
8.377522
 30
0.0
 11
1.00633
 21
8.377523
 31
0.0
  0
LINE
  8
0
  6
CONTINUOUS
 62
     7
  5
5B5
 10
1.00633
 20
8.377523
 30
0.0
 11
1.012125
 21
8.377524
 31
0.0
  0
LINE
  8
0
  6
CONTINUOUS
 62
     7
  5
5B6
 10
1.012125
 20
8.377524
 30
0.0
 11
1.018198
 21
8.377525
 31
0.0
  0
LINE
  8
0
  6
CONTINUOUS
 62
     7
  5
5B7
 10
1.018198
 20
8.377525
 30
0.0
 11
1.024538
 21
8.377526
 31
0.0
  0
LINE
  8
0
  6
CONTINUOUS
 62
     7
  5
5B8
 10
1.024538
 20
8.377526
 30
0.0
 11
1.031132
 21
8.377526
 31
0.0
  0
LINE
  8
0
  6
CONTINUOUS
 62
     7
  5
5B9
 10
1.031132
 20
8.377526
 30
0.0
 11
1.037965
 21
8.377527
 31
0.0
  0
LINE
  8
0
  6
CONTINUOUS
 62
     7
  5
5BA
 10
1.037965
 20
8.377527
 30
0.0
 11
1.045026
 21
8.377528
 31
0.0
  0
LINE
  8
0
  6
CONTINUOUS
 62
     7
  5
5BB
 10
1.045026
 20
8.377528
 30
0.0
 11
1.052298
 21
8.377529
 31
0.0
  0
LINE
  8
0
  6
CONTINUOUS
 62
     7
  5
5BC
 10
1.052298
 20
8.377529
 30
0.0
 11
1.059769
 21
8.377529
 31
0.0
  0
LINE
  8
0
  6
CONTINUOUS
 62
     7
  5
5BD
 10
1.059769
 20
8.377529
 30
0.0
 11
1.067422
 21
8.37753
 31
0.0
  0
LINE
  8
0
  6
CONTINUOUS
 62
     7
  5
5BE
 10
1.067422
 20
8.37753
 30
0.0
 11
1.075242
 21
8.37753
 31
0.0
  0
LINE
  8
0
  6
CONTINUOUS
 62
     7
  5
5BF
 10
1.075242
 20
8.37753
 30
0.0
 11
1.083213
 21
8.377531
 31
0.0
  0
LINE
  8
0
  6
CONTINUOUS
 62
     7
  5
5C0
 10
1.083213
 20
8.377531
 30
0.0
 11
1.091321
 21
8.377531
 31
0.0
  0
LINE
  8
0
  6
CONTINUOUS
 62
     7
  5
5C1
 10
1.091321
 20
8.377531
 30
0.0
 11
1.099547
 21
8.377532
 31
0.0
  0
LINE
  8
0
  6
CONTINUOUS
 62
     7
  5
5C2
 10
1.099547
 20
8.377532
 30
0.0
 11
1.107876
 21
8.377532
 31
0.0
  0
LINE
  8
0
  6
CONTINUOUS
 62
     7
  5
5C3
 10
1.107876
 20
8.377532
 30
0.0
 11
1.11629
 21
8.377532
 31
0.0
  0
LINE
  8
0
  6
CONTINUOUS
 62
     7
  5
5C4
 10
1.11629
 20
8.377532
 30
0.0
 11
1.124774
 21
8.377532
 31
0.0
  0
LINE
  8
0
  6
CONTINUOUS
 62
     7
  5
5C5
 10
1.124774
 20
8.377532
 30
0.0
 11
1.133309
 21
8.377533
 31
0.0
  0
LINE
  8
0
  6
CONTINUOUS
 62
     7
  5
5C6
 10
1.133309
 20
8.377533
 30
0.0
 11
1.141878
 21
8.377533
 31
0.0
  0
LINE
  8
0
  6
CONTINUOUS
 62
     7
  5
5C7
 10
1.141878
 20
8.377533
 30
0.0
 11
1.150465
 21
8.377533
 31
0.0
  0
LINE
  8
0
  6
CONTINUOUS
 62
     7
  5
5C8
 10
2.288963
 20
8.377492
 30
0.0
 11
2.582677
 21
8.377492
 31
0.0
  0
LINE
  8
0
  6
CONTINUOUS
 62
     7
  5
5C9
 10
-1.490565
 20
6.015749
 30
0.0
 11
-0.930695
 21
6.015749
 31
0.0
  0
LINE
  8
0
  6
CONTINUOUS
 62
     7
  5
5CA
 10
-0.930695
 20
6.015749
 30
0.0
 11
-0.930695
 21
8.377492
 31
0.0
  0
LINE
  8
0
  6
CONTINUOUS
 62
     7
  5
5CB
 10
-1.490565
 20
5.570867
 30
0.0
 11
-0.930695
 21
5.570867
 31
0.0
  0
LINE
  8
0
  6
CONTINUOUS
 62
     7
  5
5CC
 10
-0.930695
 20
5.570867
 30
0.0
 11
-0.930695
 21
6.015749
 31
0.0
  0
LINE
  8
0
  6
CONTINUOUS
 62
     7
  5
5CD
 10
-0.930695
 20
4.743135
 30
0.0
 11
-0.930695
 21
5.570867
 31
0.0
  0
LINE
  8
0
  6
CONTINUOUS
 62
     7
  5
5CE
 10
0.959069
 20
6.015749
 30
0.0
 11
0.959069
 21
8.377492
 31
0.0
  0
LINE
  8
0
  6
CONTINUOUS
 62
     7
  5
5CF
 10
0.959069
 20
5.570867
 30
0.0
 11
0.959069
 21
6.015749
 31
0.0
  0
LINE
  8
0
  6
CONTINUOUS
 62
     7
  5
5D0
 10
0.959069
 20
4.743135
 30
0.0
 11
0.959069
 21
5.570867
 31
0.0
  0
LINE
  8
0
  6
CONTINUOUS
 62
     7
  5
5D1
 10
2.288963
 20
5.570867
 30
0.0
 11
2.288963
 21
4.743135
 31
0.0
  0
LINE
  8
0
  6
CONTINUOUS
 62
     7
  5
5D2
 10
2.288963
 20
6.015749
 30
0.0
 11
2.288963
 21
5.570867
 31
0.0
  0
LINE
  8
0
  6
CONTINUOUS
 62
     7
  5
5D3
 10
2.288963
 20
8.377492
 30
0.0
 11
2.288963
 21
6.015749
 31
0.0
  0
LINE
  8
0
  6
CONTINUOUS
 62
     7
  5
5D4
 10
2.582677
 20
4.743135
 30
0.0
 11
2.582677
 21
5.570867
 31
0.0
  0
LINE
  8
0
  6
CONTINUOUS
 62
     7
  5
5D5
 10
2.288963
 20
5.570867
 30
0.0
 11
2.582677
 21
5.570867
 31
0.0
  0
LINE
  8
0
  6
CONTINUOUS
 62
     7
  5
5D6
 10
0.399199
 20
5.570867
 30
0.0
 11
0.959069
 21
5.570867
 31
0.0
  0
LINE
  8
0
  6
CONTINUOUS
 62
     7
  5
5D7
 10
0.399199
 20
5.570867
 30
0.0
 11
0.399199
 21
4.743135
 31
0.0
  0
LINE
  8
0
  6
CONTINUOUS
 62
     7
  5
5D8
 10
2.582677
 20
5.570867
 30
0.0
 11
2.582677
 21
6.015749
 31
0.0
  0
LINE
  8
0
  6
CONTINUOUS
 62
     7
  5
5D9
 10
2.288963
 20
6.015749
 30
0.0
 11
2.582677
 21
6.015749
 31
0.0
  0
LINE
  8
0
  6
CONTINUOUS
 62
     7
  5
5DA
 10
0.399199
 20
6.015749
 30
0.0
 11
0.959069
 21
6.015749
 31
0.0
  0
LINE
  8
0
  6
CONTINUOUS
 62
     7
  5
5DB
 10
0.399199
 20
6.015749
 30
0.0
 11
0.399199
 21
5.570867
 31
0.0
  0
LINE
  8
0
  6
CONTINUOUS
 62
     7
  5
5DC
 10
2.582677
 20
6.015749
 30
0.0
 11
2.582677
 21
8.377492
 31
0.0
  0
LINE
  8
0
  6
CONTINUOUS
 62
     7
  5
5DD
 10
0.399199
 20
8.377492
 30
0.0
 11
0.399199
 21
6.015749
 31
0.0
  0
LINE
  8
0
  6
CONTINUOUS
 62
     7
  5
5DE
 10
-1.490565
 20
8.377503
 30
0.0
 11
-1.490565
 21
4.743083
 31
0.0
  0
LINE
  8
0
  6
CONTINUOUS
 62
     7
  5
5DF
 10
2.288963
 20
8.377503
 30
0.0
 11
2.288963
 21
4.743083
 31
0.0
  0
LINE
  8
0
  6
CONTINUOUS
 62
     7
  5
5E0
 10
0.399199
 20
8.377503
 30
0.0
 11
0.399199
 21
4.743083
 31
0.0
  0
LINE
  8
0
  6
CONTINUOUS
 62
     7
  5
5E1
 10
-3.114173
 20
5.570867
 30
0.0
 11
-2.820459
 21
5.570867
 31
0.0
  0
LINE
  8
0
  6
CONTINUOUS
 62
     7
  5
5E2
 10
-3.114173
 20
6.015749
 30
0.0
 11
-2.820459
 21
6.015749
 31
0.0
  0
LINE
  8
0
  6
CONTINUOUS
 62
     7
  5
5E3
 10
4.040114
 20
5.718
 30
0.0
 11
2.608268
 21
5.718
 31
0.0
  0
LINE
  8
0
  6
CONTINUOUS
 62
     3
  5
5E4
 10
-2.155512
 20
5.551181
 30
0.0
 11
-2.155512
 21
5.787401
 31
0.0
  0
LINE
  8
0
  6
CONTINUOUS
 62
     3
  5
5E5
 10
-0.265748
 20
5.551181
 30
0.0
 11
-0.265748
 21
5.787401
 31
0.0
  0
LINE
  8
0
  6
CONTINUOUS
 62
     3
  5
5E6
 10
1.624016
 20
5.551181
 30
0.0
 11
1.624016
 21
5.787401
 31
0.0
  0
LINE
  8
0
  6
CONTINUOUS
 62
     3
  5
5E7
 10
-1.88975
 20
-0.01575
 30
0.0
 11
-1.88975
 21
0.17325
 31
0.0
  0
LINE
  8
0
  6
CONTINUOUS
 62
     3
  5
5E8
 10
1.88975
 20
-0.01575
 30
0.0
 11
1.88975
 21
0.17325
 31
0.0
  0
ENDSEC
  0
EOF
