999
DXF file: C:\Users\sesa63760\Dev\_Creo\CAD\MCADPD0003875_3D-CAD\drw0001_7.dxf
999
Pro/ENGINEER 2019471 by Parametric Technology Corporation
  0
SECTION
  2
HEADER
  9
$ACADVER
  1
AC1024
  9
$DWGCODEPAGE
  3
ANSI_1252
  9
$EXTMAX
 10
135.3414283528
 20
191.4114486704
 30
0.0
  9
$EXTMIN
 10
0.0
 20
0.0
 30
0.0
  9
$LIMMIN
 10
0.0
 20
0.0
  9
$LIMMAX
 10
135.3414283528
 20
191.4114486704
  9
$VIEWCTR
 10
67.6707141764
 20
95.7057243352
  9
$VIEWSIZE
 40
191.4114486704
  9
$CLAYER
  8
0
  9
$LTSCALE
 40
12.4771907281
  9
$CELTYPE
  6
BYLAYER
  9
$DIMSCALE
 40
1.0
  9
$DIMASZ
 40
1.6112074804
  9
$DIMEXO
 40
1.0
  9
$DIMDLI
 40
8.6206045031
  9
$DIMEXE
 40
1.0
  9
$DIMCEN
 40
2.0417221192
  9
$DIMLFAC
 40
1.0
  9
$DIMBLK
  1
_FILLED
  9
$DIMALT
 70
0
  9
$DIMALTF
 40
0.0393700787
  9
$DIMTXT
 40
2.2556904725
  9
$DIMTOL
 70
1
  9
$DIMLIM
 70
0
  9
$DIMTFAC
 40
1.0
  9
$DIMTP
 40
0.01
  9
$DIMTM
 40
0.01
  9
$DIMGAP
 40
0.625
  9
$DIMDSEP
 70
46
  9
$AUNITS
 70
0
  9
$PDMODE
 70
3
  9
$PDSIZE
 40
0.3125
  9
$HANDSEED
  5
258
  9
$TILEMODE
 70
1
  9
$MEASUREMENT
 70
1
  9
$INSUNITS
 70
4
  0
ENDSEC
  0
SECTION
  2
CLASSES
  0
CLASS
  1
ACDBDICTIONARYWDFLT
  2
AcDbDictionaryWithDefault
  3
AutoCAD 2000
 90
0
 91
1
280
0
281
0
  0
CLASS
  1
ACDBPLACEHOLDER
  2
AcDbPlaceHolder
  3
AutoCAD 2000
 90
0
 91
1
280
0
281
0
  0
CLASS
  1
LAYOUT
  2
AcDbLayout
  3
AutoCAD 2000
 90
0
 91
0
280
0
281
0
  0
ENDSEC
  0
SECTION
  2
TABLES
  0
TABLE
  2
VPORT
  5
8
100
AcDbSymbolTable
 70
2
  0
VPORT
  5
1F4
100
AcDbSymbolTableRecord
100
AcDbViewportTableRecord
  2
*ACTIVE
 70
0
 10
0.0
 20
0.0
 11
1.0
 21
1.0
 12
67.6707141764
 22
95.7057243352
 13
0.0
 23
0.0
 14
1.0
 24
1.0
 15
0.0
 25
0.0
 16
0.0
 26
0.0
 36
1.0
 17
0.0
 27
0.0
 37
0.0
 40
191.4114486704
 41
0.7070707071
 42
50.0
 43
0.0
 44
0.0
 50
0.0
 51
0.0
 71
0
 72
100
 73
1
 74
1
 75
0
 76
0
 77
0
 78
0
  0
ENDTAB
  0
TABLE
  2
LTYPE
  5
5
100
AcDbSymbolTable
 70
6
  0
LTYPE
  5
14
100
AcDbSymbolTableRecord
100
AcDbLinetypeTableRecord
  2
BYBLOCK
 70
0
  3

 72
65
 73
0
 40
0.0
  0
LTYPE
  5
15
100
AcDbSymbolTableRecord
100
AcDbLinetypeTableRecord
  2
BYLAYER
 70
0
  3

 72
65
 73
0
 40
0.0
  0
LTYPE
  5
16
100
AcDbSymbolTableRecord
100
AcDbLinetypeTableRecord
  2
CONTINUOUS
 70
64
  3
Solid line
 72
65
 73
0
 40
0.0
  0
LTYPE
  5
1F5
100
AcDbSymbolTableRecord
100
AcDbLinetypeTableRecord
  2
CENTER
 70
64
  3
____ _ ____ _ ____ _ ____ _ ____ _ ____ _ ____
 72
65
 73
4
 40
0.6
 49
0.375
 74
0
 49
-0.075
 74
0
 49
0.075
 74
0
 49
-0.075
 74
0
  0
LTYPE
  5
1F6
100
AcDbSymbolTableRecord
100
AcDbLinetypeTableRecord
  2
HIDDEN
 70
64
  3
- - - - - - - - - - - - - - - - - - - -
 72
65
 73
2
 40
0.2
 49
0.1
 74
0
 49
-0.1
 74
0
  0
LTYPE
  5
1F7
100
AcDbSymbolTableRecord
100
AcDbLinetypeTableRecord
  2
PHANTOM
 70
64
  3
_____ _ _ _____ _ _ _____ _ _ _____
 72
65
 73
6
 40
0.8
 49
0.45
 74
0
 49
-0.05
 74
0
 49
0.1
 74
0
 49
-0.05
 74
0
 49
0.1
 74
0
 49
-0.05
 74
0
  0
LTYPE
  5
1F8
100
AcDbSymbolTableRecord
100
AcDbLinetypeTableRecord
  2
DOT
 70
64
  3
. . . . . . . . . . . . . . . . . . . .
 72
65
 73
2
 40
0.2
 49
0.1
 74
0
 49
-0.1
 74
0
  0
LTYPE
  5
1F9
100
AcDbSymbolTableRecord
100
AcDbLinetypeTableRecord
  2
DASHED
 70
64
  3
- - - - - - - - - - - - - - - - - - - -
 72
65
 73
2
 40
0.2
 49
0.1
 74
0
 49
-0.1
 74
0
  0
ENDTAB
  0
TABLE
  2
LAYER
  5
2
100
AcDbSymbolTable
 70
36
  0
LAYER
  5
10
100
AcDbSymbolTableRecord
100
AcDbLayerTableRecord
  2
0
 70
0
 62
7
  6
CONTINUOUS
370
-3
390
F
  0
LAYER
  5
1FA
100
AcDbSymbolTableRecord
100
AcDbLayerTableRecord
  2
DEFAULT_1
 70
0
 62
7
  6
CENTER
370
-3
390
F
  0
LAYER
  5
1FB
100
AcDbSymbolTableRecord
100
AcDbLayerTableRecord
  2
DEFAULT_2
 70
0
 62
7
  6
HIDDEN
370
-3
390
F
  0
LAYER
  5
1FC
100
AcDbSymbolTableRecord
100
AcDbLayerTableRecord
  2
DEFAULT_3
 70
0
 62
7
  6
PHANTOM
370
-3
390
F
  0
LAYER
  5
1FD
100
AcDbSymbolTableRecord
100
AcDbLayerTableRecord
  2
00_COMPONENTS
 70
0
 62
7
  6
CONTINUOUS
370
-3
390
F
  0
LAYER
  5
1FE
100
AcDbSymbolTableRecord
100
AcDbLayerTableRecord
  2
01_1_DEFAULT_DATUMS
 70
0
 62
7
  6
CONTINUOUS
370
-3
390
F
  0
LAYER
  5
1FF
100
AcDbSymbolTableRecord
100
AcDbLayerTableRecord
  2
01_PLANES
 70
0
 62
7
  6
CONTINUOUS
370
-3
390
F
  0
LAYER
  5
200
100
AcDbSymbolTableRecord
100
AcDbLayerTableRecord
  2
02_COORD_SYS
 70
0
 62
7
  6
CONTINUOUS
370
-3
390
F
  0
LAYER
  5
201
100
AcDbSymbolTableRecord
100
AcDbLayerTableRecord
  2
03_AXES
 70
0
 62
7
  6
CONTINUOUS
370
-3
390
F
  0
LAYER
  5
202
100
AcDbSymbolTableRecord
100
AcDbLayerTableRecord
  2
04_POINTS
 70
0
 62
7
  6
CONTINUOUS
370
-3
390
F
  0
LAYER
  5
203
100
AcDbSymbolTableRecord
100
AcDbLayerTableRecord
  2
05_CURVES
 70
0
 62
7
  6
CONTINUOUS
370
-3
390
F
  0
LAYER
  5
204
100
AcDbSymbolTableRecord
100
AcDbLayerTableRecord
  2
06_SURFS
 70
0
 62
7
  6
CONTINUOUS
370
-3
390
F
  0
LAYER
  5
205
100
AcDbSymbolTableRecord
100
AcDbLayerTableRecord
  2
07_COSMETICS
 70
0
 62
7
  6
CONTINUOUS
370
-3
390
F
  0
LAYER
  5
206
100
AcDbSymbolTableRecord
100
AcDbLayerTableRecord
  2
10_NOTES
 70
0
 62
7
  6
CONTINUOUS
370
-3
390
F
  0
LAYER
  5
207
100
AcDbSymbolTableRecord
100
AcDbLayerTableRecord
  2
11_NOTES_PUB
 70
0
 62
7
  6
CONTINUOUS
370
-3
390
F
  0
LAYER
  5
208
100
AcDbSymbolTableRecord
100
AcDbLayerTableRecord
  2
13_REF_GTOL
 70
0
 62
7
  6
CONTINUOUS
370
-3
390
F
  0
LAYER
  5
209
100
AcDbSymbolTableRecord
100
AcDbLayerTableRecord
  2
16_MISC
 70
0
 62
7
  6
CONTINUOUS
370
-3
390
F
  0
LAYER
  5
20A
100
AcDbSymbolTableRecord
100
AcDbLayerTableRecord
  2
17_NO_PRINT
 70
0
 62
7
  6
CONTINUOUS
370
-3
390
F
  0
LAYER
  5
20B
100
AcDbSymbolTableRecord
100
AcDbLayerTableRecord
  2
18_DATUM_CAMS_JOINTS
 70
0
 62
7
  6
CONTINUOUS
370
-3
390
F
  0
LAYER
  5
20C
100
AcDbSymbolTableRecord
100
AcDbLayerTableRecord
  2
19_DATUM_FUNCTIONAL
 70
0
 62
7
  6
CONTINUOUS
370
-3
390
F
  0
LAYER
  5
20D
100
AcDbSymbolTableRecord
100
AcDbLayerTableRecord
  2
20_DATUM_KINEMATIC_SCHEME
 70
0
 62
7
  6
CONTINUOUS
370
-3
390
F
  0
ENDTAB
  0
TABLE
  2
STYLE
  5
3
100
AcDbSymbolTable
 70
1
  0
STYLE
  5
11
100
AcDbSymbolTableRecord
100
AcDbTextStyleTableRecord
  2
STANDARD
 70
0
 40
0.0
 41
1.0
 50
0.0
 71
0
 42
0.2
  3
ARIAL.TTF
  4

  0
STYLE
  5
20E
100
AcDbSymbolTableRecord
100
AcDbTextStyleTableRecord
  2
TEXTSTYLE_1
 70
0
 40
0.0
 41
0.8
 50
0.0
 71
0
 42
0.2
  3
gdt
  4

  0
ENDTAB
  0
TABLE
  2
VIEW
  5
6
100
AcDbSymbolTable
 70
0
  0
ENDTAB
  0
TABLE
  2
UCS
  5
7
100
AcDbSymbolTable
 70
0
  0
ENDTAB
  0
TABLE
  2
APPID
  5
9
100
AcDbSymbolTable
 70
1
  0
APPID
  5
20F
100
AcDbSymbolTableRecord
100
AcDbRegAppTableRecord
  2
ACAD
 70
0
  0
ENDTAB
  0
TABLE
  2
BLOCK_RECORD
  5
1
100
AcDbSymbolTable
 70
0
  0
BLOCK_RECORD
  5
210
100
AcDbSymbolTableRecord
100
AcDbBlockTableRecord
  2
*Model_Space
  0
BLOCK_RECORD
  5
211
100
AcDbSymbolTableRecord
100
AcDbBlockTableRecord
  2
*Paper_Space
  0
BLOCK_RECORD
  5
212
100
AcDbSymbolTableRecord
100
AcDbBlockTableRecord
  2
_FILLED
  0
ENDTAB
  0
TABLE
  2
DIMSTYLE
  5
A
100
AcDbSymbolTable
 70
1
100
AcDbDimStyleTable
 71
0
  0
DIMSTYLE
105
213
100
AcDbSymbolTableRecord
100
AcDbDimStyleTableRecord
  2
STANDARD
 70
0
  3

  4

 40
1.0
 41
1.6112074804
 42
1.0
 43
0.38
 44
1.0
 45
0.0
 46
0.0
 47
0.01
 48
0.01
140
2.2556904725
141
0.09
142
0.0
143
25.4
144
1.0
145
0.0
146
1.0
147
0.625
 71
1
 72
0
 73
0
 74
0
 75
0
 76
0
 77
1
 78
8
 79
2
170
0
171
1
172
0
173
0
174
0
175
0
176
0
177
0
178
0
270
2
179
2
271
2
272
2
273
2
274
2
275
0
280
0
281
0
282
0
283
1
284
8
285
0
286
0
287
3
288
0
340
11
278
46
341
212
342
212
343
212
344
212
  0
ENDTAB
  0
ENDSEC
  0
SECTION
  2
BLOCKS
  0
BLOCK
  5
20
100
AcDbEntity
  8
0
100
AcDbBlockBegin
  2
*Model_Space
 70
0
 10
0.0
 20
0.0
 30
0.0
  3
*Model_Space
  1

  0
ENDBLK
  5
21
100
AcDbEntity
  8
0
100
AcDbBlockEnd
  0
BLOCK
  5
1C
100
AcDbEntity
  8
0
100
AcDbBlockBegin
  2
*Paper_Space
 70
0
 10
0.0
 20
0.0
 30
0.0
  3
*Paper_Space
  1

  0
ENDBLK
  5
1D
100
AcDbEntity
  8
0
100
AcDbBlockEnd
  0
BLOCK
  5
214
100
AcDbEntity
  8
0
100
AcDbBlockBegin
  2
_FILLED
 70
64
 10
0.0
 20
0.0
  3
_FILLED
  1

  0
SOLID
  5
215
100
AcDbEntity
  8
0
  6
BYBLOCK
 62
0
100
AcDbTrace
 10
0.0
 20
0.0
 11
-1.0
 21
0.25
 12
-1.0
 22
-0.25
 13
-1.0
 23
-0.25
  0
ENDBLK
  5
216
100
AcDbEntity
  8
0
  6
BYBLOCK
 62
0
100
AcDbBlockEnd
  0
ENDSEC
  0
SECTION
  2
ENTITIES
  0
LINE
  5
217
100
AcDbEntity
  8
0
100
AcDbLine
 62
7
  6
BYLAYER
 10
37.4600129227
 20
36.2212196206
 11
45.7547099794
 21
36.2415252253
  0
LINE
  5
218
100
AcDbEntity
  8
0
100
AcDbLine
 62
7
  6
BYLAYER
 10
98.3499814787
 20
36.2214846301
 11
90.0547877029
 21
36.2416206773
  0
LINE
  5
219
100
AcDbEntity
  8
0
100
AcDbLine
 62
7
  6
BYLAYER
 10
49.1291296337
 20
165.9656607055
 11
49.1164868334
 21
170.4576592185
  0
LWPOLYLINE
  5
21A
100
AcDbEntity
  8
0
100
AcDbPolyline
 62
7
  6
BYLAYER
 90
3
 70
0
 10
49.1190635693
 20
169.4722056955
 10
48.9545951808
 20
133.1555274591
 10
47.2550022338
 20
102.1743109983
  0
LINE
  5
21B
100
AcDbEntity
  8
0
100
AcDbLine
 62
7
  6
BYLAYER
 10
46.5853370769
 20
96.5416205819
 11
47.254999845
 21
102.1742864799
  0
LWPOLYLINE
  5
21C
100
AcDbEntity
  8
0
100
AcDbPolyline
 62
7
  6
BYLAYER
 90
29
 70
0
 10
46.5853370769
 20
96.5416205819
 10
46.4492010247
 20
95.5963526817
 10
46.2015012355
 20
93.9867196637
 10
45.9418099305
 20
92.4243466424
 10
45.6718461501
 20
90.9105983657
 10
45.3933051107
 20
89.4468776904
 10
45.1076693461
 20
88.0336741959
 10
44.8163150176
 20
86.6712433596
 10
44.5206093442
 20
85.3600401476
 10
44.2219060375
 20
84.1006052063
 10
43.9214701766
 20
82.8932052114
 10
43.6203136343
 20
81.7372268775
 10
43.3193680164
 20
80.6319159265
 10
43.019530091
 20
79.576513926
 10
42.7216831019
 20
78.57029726
 10
42.4268184
 20
77.6129407637
 10
42.1364703874
 20
76.7057735044
 10
41.8523717842
 20
75.8504273555
 10
41.5764915856
 20
75.0489681976
 10
41.3101942698
 20
74.301760828
 10
41.053511246
 20
73.6055449795
 10
40.8070861918
 20
72.9589590686
 10
40.5726161242
 20
72.3633689216
 10
40.3511039396
 20
71.8181862158
 10
40.1409027162
 20
71.3165745268
 10
39.9415307058
 20
70.8551114722
 10
39.7525799982
 20
70.4310004888
 10
39.5847861104
 20
70.0665765583
 10
39.4602760899
 20
69.8064582998
  0
LINE
  5
21D
100
AcDbEntity
  8
0
100
AcDbLine
 62
7
  6
BYLAYER
 10
69.4046508061
 20
18.2566545576
 11
68.029999644
 21
26.4745476193
  0
LINE
  5
21E
100
AcDbEntity
  8
0
100
AcDbLine
 62
7
  6
BYLAYER
 10
60.4049999153
 20
102.9338493296
 11
60.4049999153
 21
100.7742872026
  0
LINE
  5
21F
100
AcDbEntity
  8
0
100
AcDbLine
 62
7
  6
BYLAYER
 10
60.3905683139
 20
100.5884561501
 11
60.4050030102
 21
100.7743270556
  0
LINE
  5
220
100
AcDbEntity
  8
0
100
AcDbLine
 62
7
  6
BYLAYER
 10
67.9049999022
 20
178.1743044233
 11
67.904999901
 21
102.1742867749
  0
LINE
  5
221
100
AcDbEntity
  8
0
100
AcDbLine
 62
7
  6
BYLAYER
 10
47.254999845
 20
102.1742864799
 11
60.4010742245
 21
102.1742868417
  0
LINE
  5
222
100
AcDbEntity
  8
0
100
AcDbLine
 62
7
  6
BYLAYER
 10
75.4089278843
 20
102.1742868538
 11
88.554999986
 21
102.1742864766
  0
LINE
  5
223
100
AcDbEntity
  8
0
100
AcDbLine
 62
7
  6
BYLAYER
 10
75.4049999153
 20
100.7742872026
 11
75.4049999153
 21
102.9338540882
  0
LINE
  5
224
100
AcDbEntity
  8
0
100
AcDbLine
 62
7
  6
BYLAYER
 10
66.4053493168
 20
18.2566613034
 11
67.7800001865
 21
26.4745476193
  0
LINE
  5
225
100
AcDbEntity
  8
0
100
AcDbLine
 62
7
  6
BYLAYER
 10
86.6810786939
 20
166.0331555687
 11
86.6935391138
 21
170.4576584079
  0
LWPOLYLINE
  5
226
100
AcDbEntity
  8
0
100
AcDbPolyline
 62
7
  6
BYLAYER
 90
30
 70
0
 10
96.3596398846
 20
69.7864425298
 10
96.358641728
 20
69.7884439778
 10
96.2665813278
 20
69.9789068199
 10
96.1066179506
 20
70.3228404216
 10
95.9201819923
 20
70.7377310729
 10
95.7217160268
 20
71.1934205075
 10
95.5118366115
 20
71.6904048157
 10
95.2904940311
 20
72.231106965
 10
95.055859066
 20
72.8228016865
 10
94.8086198437
 20
73.466987441
 10
94.5507064253
 20
74.1618407633
 10
94.2830358448
 20
74.9080531917
 10
94.0057657383
 20
75.7085457954
 10
93.7199428718
 20
76.5638966301
 10
93.5745379005
 20
77.0112266505
 10
93.2797774167
 20
77.9444228902
 10
92.9811300786
 20
78.9277410351
 10
92.679904724
 20
79.9605779729
 10
92.3770124598
 20
81.0436119071
 10
92.0733525493
 20
82.1776260968
 10
91.7698441374
 20
83.363438556
 10
91.4674509433
 20
84.6018559283
 10
91.1673015334
 20
85.8932150594
 10
90.8707588896
 20
87.2370145424
 10
90.5792189345
 20
88.6327224588
 10
90.2940930065
 20
90.0799223141
 10
90.0168058053
 20
91.5784269588
 10
89.7490005787
 20
93.1272025813
 10
89.492435608
 20
94.7247737026
 10
89.2488813822
 20
96.369796192
  0
LWPOLYLINE
  5
227
100
AcDbEntity
  8
0
100
AcDbPolyline
 62
7
  6
BYLAYER
 90
3
 70
0
 10
88.5549975961
 20
102.1743110054
 10
86.8554046989
 20
133.1555252205
 10
86.6909387429
 20
169.4731186185
  0
LINE
  5
228
100
AcDbEntity
  8
0
100
AcDbLine
 62
7
  6
BYLAYER
 10
89.2488813822
 20
96.369796192
 11
89.2247388248
 21
96.5409302304
  0
LINE
  5
229
100
AcDbEntity
  8
0
100
AcDbLine
 62
7
  6
BYLAYER
 10
89.2247388248
 20
96.5409302304
 11
88.5550005292
 21
102.1742808956
  0
ARC
  5
22A
100
AcDbEntity
  8
0
100
AcDbCircle
 62
7
  6
BYLAYER
 10
290.9766350842
 20
192.0209883821
 40
229.7181823069
100
AcDbArc
 50
211.8673439377
 51
212.140583305
  0
ARC
  5
22B
100
AcDbEntity
  8
0
100
AcDbCircle
 62
7
  6
BYLAYER
 10
-154.9753097647
 20
191.9015299248
 40
229.492626225
100
AcDbArc
 50
327.8648570091
 51
328.132494484
  0
ARC
  5
22C
100
AcDbEntity
  8
0
100
AcDbCircle
 62
7
  6
BYLAYER
 10
-89.5953145227
 20
100.8973320575
 40
150.0001196378
100
AcDbArc
 50
334.4664423602
 51
359.9530004366
  0
ARC
  5
22D
100
AcDbEntity
  8
0
100
AcDbCircle
 62
7
  6
BYLAYER
 10
225.405314115
 20
100.8973319934
 40
150.0001195582
100
AcDbArc
 50
180.046999539
 51
205.5332529875
  0
ARC
  5
22E
100
AcDbEntity
  8
0
100
AcDbCircle
 62
7
  6
BYLAYER
 10
67.9049999153
 20
52.9742872026
 40
38.8
100
AcDbArc
 50
128.2700807328
 51
51.737457038
  0
ARC
  5
22F
100
AcDbEntity
  8
0
100
AcDbCircle
 62
7
  6
BYLAYER
 10
67.9049999153
 20
52.9742872026
 40
34.7499995768
100
AcDbArc
 50
272.4733911647
 51
40.0243397586
  0
ARC
  5
230
100
AcDbEntity
  8
0
100
AcDbCircle
 62
7
  6
BYLAYER
 10
67.9049999153
 20
52.9742872026
 40
34.7498305383
100
AcDbArc
 50
138.540533153
 51
267.5266088354
  0
ARC
  5
231
100
AcDbEntity
  8
0
100
AcDbCircle
 62
7
  6
BYLAYER
 10
67.9055218481
 20
56.471375927
 40
29.9970811572
100
AcDbArc
 50
270.2380999758
 51
317.5936707582
  0
ARC
  5
232
100
AcDbEntity
  8
0
100
AcDbCircle
 62
7
  6
BYLAYER
 10
67.9030738923
 20
56.4717816186
 40
29.9968846076
100
AcDbArc
 50
222.4093135902
 51
269.7644258886
  0
ARC
  5
233
100
AcDbEntity
  8
0
100
AcDbCircle
 62
7
  6
BYLAYER
 10
67.9049999153
 20
148.6439920697
 40
29.530295133
100
AcDbArc
 50
52.4234672843
 51
127.5765326961
  0
ARC
  5
234
100
AcDbEntity
  8
0
100
AcDbCircle
 62
7
  6
BYLAYER
 10
84.6938739434
 20
170.4630084375
 40
1.9996619035
100
AcDbArc
 50
359.8467076131
 51
52.4280440576
  0
ARC
  5
235
100
AcDbEntity
  8
0
100
AcDbCircle
 62
7
  6
BYLAYER
 10
67.9049983102
 20
18.2243793634
 40
1.5000133503
100
AcDbArc
 50
178.7668225651
 51
358.7597862872
  0
SPLINE
  5
236
100
AcDbEntity
  8
0
100
AcDbSpline
 62
7
  6
BYLAYER
 70
0
 71
3
 72
25
 73
21
 74
0
 42
0.0000001
 43
0.0000001
 44
0.0000000001
 40
0.0
 40
0.0
 40
0.0
 40
0.0
 40
0.0110631453
 40
0.0227008551
 40
0.036455365
 40
0.0533220466
 40
0.0978880972
 40
0.1572281623
 40
0.2295814509
 40
0.3120640449
 40
0.401249263
 40
0.4935414658
 40
0.6738248516
 40
0.7556634412
 40
0.8284311957
 40
0.8900350522
 40
0.9389838275
 40
0.9585643413
 40
0.9749919166
 40
1.0
 40
1.0
 40
1.0
 40
1.0
 10
78.2799999153
 20
16.9900979663
 30
0.0
 10
78.2799999153
 20
17.0090941252
 30
0.0
 10
78.2721558778
 20
17.0486839516
 30
0.0
 10
78.234288179
 20
17.1004700741
 30
0.0
 10
78.1738755206
 20
17.1422806815
 30
0.0
 10
78.0534003788
 20
17.1904881957
 30
0.0
 10
77.846563189
 20
17.2223643242
 30
0.0
 10
77.5438198135
 20
17.2276512097
 30
0.0
 10
77.1764951872
 20
17.2023715157
 30
0.0
 10
76.7607267823
 20
17.149523911
 30
0.0
 10
76.3138631917
 20
17.0729434224
 30
0.0
 10
75.7057652278
 20
16.9459052385
 30
0.0
 10
75.1160629294
 20
16.7930363295
 30
0.0
 10
74.5689787401
 20
16.6154735378
 30
0.0
 10
74.2219882214
 20
16.4827655794
 30
0.0
 10
73.9365527226
 20
16.3493806017
 30
0.0
 10
73.7444876938
 20
16.2336058446
 30
0.0
 10
73.6323821304
 20
16.1391467159
 30
0.0
 10
73.5627418373
 20
16.0616891252
 30
0.0
 10
73.5299999153
 20
15.992075827
 30
0.0
 10
73.5299999153
 20
15.9491352786
 30
0.0
  0
SPLINE
  5
237
100
AcDbEntity
  8
0
100
AcDbSpline
 62
7
  6
BYLAYER
 70
0
 71
3
 72
10
 73
6
 74
0
 42
0.0000001
 43
0.0000001
 44
0.0000000001
 40
0.0
 40
0.0
 40
0.0
 40
0.0
 40
0.2534020294
 40
0.5092460055
 40
1.0
 40
1.0
 40
1.0
 40
1.0
 10
49.1164684883
 20
170.4575821851
 30
0.0
 10
49.1160624309
 20
170.6117523287
 30
0.0
 10
49.1531963002
 20
170.9228003605
 30
0.0
 10
49.3577239056
 20
171.4996740875
 30
0.0
 10
49.6601830298
 20
171.8658379834
 30
0.0
 10
49.8968165616
 20
172.047916162
 30
0.0
  0
SPLINE
  5
238
100
AcDbEntity
  8
0
100
AcDbSpline
 62
7
  6
BYLAYER
 70
0
 71
3
 72
8
 73
4
 74
0
 42
0.0000001
 43
0.0000001
 44
0.0000000001
 40
0.0
 40
0.0
 40
0.0
 40
0.0
 40
1.0
 40
1.0
 40
1.0
 40
1.0
 10
69.4046505138
 20
18.1919131019
 30
0.0
 10
69.4050902149
 20
18.2134913563
 30
0.0
 10
69.4052099005
 20
18.2350858199
 30
0.0
 10
69.4046505138
 20
18.2566613034
 30
0.0
  0
SPLINE
  5
239
100
AcDbEntity
  8
0
100
AcDbSpline
 62
7
  6
BYLAYER
 70
0
 71
3
 72
11
 73
7
 74
0
 42
0.0000001
 43
0.0000001
 44
0.0000000001
 40
0.0
 40
0.0
 40
0.0
 40
0.0
 40
0.2414180495
 40
0.4885315685
 40
0.7414694663
 40
1.0
 40
1.0
 40
1.0
 40
1.0
 10
83.7531027291
 20
102.1742861888
 30
0.0
 10
83.2840813331
 20
107.7481577404
 30
0.0
 10
82.71901509
 20
119.0604209663
 30
0.0
 10
82.6138261288
 20
136.2417960963
 30
0.0
 10
82.8864732025
 20
153.816041425
 30
0.0
 10
83.0832721331
 20
165.6650850016
 30
0.0
 10
83.1289090535
 20
171.6549712794
 30
0.0
  0
SPLINE
  5
23A
100
AcDbEntity
  8
0
100
AcDbSpline
 62
7
  6
BYLAYER
 70
0
 71
3
 72
25
 73
21
 74
0
 42
0.0000001
 43
0.0000001
 44
0.0000000001
 40
0.0
 40
0.0
 40
0.0
 40
0.0
 40
0.0109228027
 40
0.0228955325
 40
0.0371797946
 40
0.0545392014
 40
0.0995899626
 40
0.1586918778
 40
0.2303721283
 40
0.3120698098
 40
0.4004162936
 40
0.491780104
 40
0.6697773635
 40
0.7507415841
 40
0.8232231305
 40
0.8854093919
 40
0.9358201521
 40
0.9563380382
 40
0.9737154017
 40
1.0
 40
1.0
 40
1.0
 40
1.0
 10
73.5299999153
 20
15.9491352786
 30
0.0
 10
73.5299999153
 20
15.9300547001
 30
0.0
 10
73.5385658819
 20
15.8896152805
 30
0.0
 10
73.5764948308
 20
15.8353551022
 30
0.0
 10
73.6366346579
 20
15.7874337683
 30
0.0
 10
73.7563854262
 20
15.7260783271
 30
0.0
 10
73.9631995188
 20
15.6708365505
 30
0.0
 10
74.268562584
 20
15.6344561739
 30
0.0
 10
74.6402828497
 20
15.6281097338
 30
0.0
 10
75.0620485127
 20
15.6543963798
 30
0.0
 10
75.5151797865
 20
15.713695849
 30
0.0
 10
76.1288229976
 20
15.8328754493
 30
0.0
 10
76.7190211999
 20
16.0012891897
 30
0.0
 10
77.2587543982
 20
16.2117120386
 30
0.0
 10
77.5997342358
 20
16.3726775932
 30
0.0
 10
77.8799060137
 20
16.5348589259
 30
0.0
 10
78.0678508123
 20
16.6730568056
 30
0.0
 10
78.1780228898
 20
16.7820215613
 30
0.0
 10
78.2467070874
 20
16.8697200757
 30
0.0
 10
78.2799999153
 20
16.9441825217
 30
0.0
 10
78.2799999153
 20
16.9900979663
 30
0.0
  0
SPLINE
  5
23B
100
AcDbEntity
  8
0
100
AcDbSpline
 62
7
  6
BYLAYER
 70
0
 71
3
 72
9
 73
5
 74
0
 42
0.0000001
 43
0.0000001
 44
0.0000000001
 40
0.0
 40
0.0
 40
0.0
 40
0.0
 40
0.5027521886
 40
1.0
 40
1.0
 40
1.0
 40
1.0
 10
102.6548922848
 20
52.9744547639
 30
0.0
 10
101.1127105201
 20
56.1163749915
 30
0.0
 10
98.2910440976
 20
62.4885593598
 30
0.0
 10
95.9190621958
 20
69.0398627519
 30
0.0
 10
94.8515500201
 20
72.3328303711
 30
0.0
  0
SPLINE
  5
23C
100
AcDbEntity
  8
0
100
AcDbSpline
 62
7
  6
BYLAYER
 70
0
 71
3
 72
9
 73
5
 74
0
 42
0.0000001
 43
0.0000001
 44
0.0000000001
 40
0.0
 40
0.0
 40
0.0
 40
0.0
 40
0.5055758909
 40
1.0
 40
1.0
 40
1.0
 40
1.0
 10
94.8515500201
 20
72.3328303711
 30
0.0
 10
93.5594368508
 20
76.3186273704
 30
0.0
 10
91.326835018
 20
84.3113479354
 30
0.0
 10
89.7969294047
 20
92.4691391381
 30
0.0
 10
89.2267162919
 20
96.5268529183
 30
0.0
  0
SPLINE
  5
23D
100
AcDbEntity
  8
0
100
AcDbSpline
 62
7
  6
BYLAYER
 70
0
 71
3
 72
9
 73
5
 74
0
 42
0.0000001
 43
0.0000001
 44
0.0000000001
 40
0.0
 40
0.0
 40
0.0
 40
0.0
 40
0.5151892853
 40
1.0
 40
1.0
 40
1.0
 40
1.0
 10
34.4094713738
 20
62.2253895815
 30
0.0
 10
35.2778405467
 20
63.5191673793
 30
0.0
 10
36.9465147106
 20
66.0417966781
 30
0.0
 10
38.5781558377
 20
68.5885846296
 30
0.0
 10
39.3580875187
 20
69.8302548765
 30
0.0
  0
LINE
  5
23E
100
AcDbEntity
  8
0
100
AcDbLine
 62
7
  6
BYLAYER
 10
75.4049999153
 20
102.9338540882
 11
75.4089270349
 21
102.1742874702
  0
SPLINE
  5
23F
100
AcDbEntity
  8
0
100
AcDbSpline
 62
7
  6
BYLAYER
 70
0
 71
3
 72
11
 73
7
 74
0
 42
0.0000001
 43
0.0000001
 44
0.0000000001
 40
0.0
 40
0.0
 40
0.0
 40
0.0
 40
0.2502430132
 40
0.4999218062
 40
0.7496698196
 40
1.0
 40
1.0
 40
1.0
 40
1.0
 10
68.0301781765
 20
26.4745631619
 30
0.0
 10
68.030234625
 20
26.4425340567
 30
0.0
 10
68.0029104007
 20
26.3758671224
 30
0.0
 10
67.9045994947
 20
26.3359990404
 30
0.0
 10
67.8064073798
 20
26.3764714923
 30
0.0
 10
67.7796923683
 20
26.4432887384
 30
0.0
 10
67.7797414663
 20
26.4753290124
 30
0.0
  0
SPLINE
  5
240
100
AcDbEntity
  8
0
100
AcDbSpline
 62
7
  6
BYLAYER
 70
0
 71
3
 72
22
 73
18
 74
0
 42
0.0000001
 43
0.0000001
 44
0.0000000001
 40
0.0
 40
0.0
 40
0.0
 40
0.0
 40
0.0669880052
 40
0.1003681409
 40
0.1336605431
 40
0.1999476968
 40
0.2329205693
 40
0.2657670151
 40
0.3310472256
 40
0.395728057
 40
0.4597475327
 40
0.5230529586
 40
0.5855994996
 40
0.6473520593
 40
0.7683663368
 40
0.885941972
 40
1.0
 40
1.0
 40
1.0
 40
1.0
 10
83.7531012149
 20
102.1742868518
 30
0.0
 10
83.9124285142
 20
100.6717499845
 30
0.0
 10
84.1683559809
 20
98.4223392051
 30
0.0
 10
84.5209127776
 20
95.4282164898
 30
0.0
 10
84.8875047363
 20
92.451706479
 30
0.0
 10
85.3005076984
 20
89.490136666
 30
0.0
 10
85.779580157
 20
86.5490392623
 30
0.0
 10
86.2949417421
 20
83.6371953021
 30
0.0
 10
86.9827413265
 20
80.0297847788
 30
0.0
 10
87.862207589
 20
75.7435925649
 30
0.0
 10
88.7881295091
 20
71.5127932877
 30
0.0
 10
89.7518048103
 20
67.3398586277
 30
0.0
 10
90.7461099922
 20
63.2267128112
 30
0.0
 10
92.0967730257
 20
57.8608201099
 30
0.0
 10
93.8386572277
 20
51.3137228835
 30
0.0
 10
96.0264189174
 20
43.6658575088
 30
0.0
 10
97.562963483
 20
38.6717089675
 30
0.0
 10
98.3505857303
 20
36.2225829877
 30
0.0
  0
SPLINE
  5
241
100
AcDbEntity
  8
0
100
AcDbSpline
 62
7
  6
BYLAYER
 70
0
 71
3
 72
18
 73
14
 74
0
 42
0.0000001
 43
0.0000001
 44
0.0000000001
 40
0.0
 40
0.0
 40
0.0
 40
0.0
 40
0.0544403358
 40
0.1103566411
 40
0.1676832409
 40
0.2263342411
 40
0.347180011
 40
0.4722740872
 40
0.6009116023
 40
0.7323168786
 40
0.7987952142
 40
0.865634465
 40
1.0
 40
1.0
 40
1.0
 40
1.0
 10
98.3505857303
 20
36.2225829877
 30
0.0
 10
97.3290607693
 20
36.9901419253
 30
0.0
 10
95.3504420717
 20
38.672139365
 30
0.0
 10
92.6424085838
 20
41.5366593157
 30
0.0
 10
90.15484546
 20
44.7198106064
 30
0.0
 10
87.1037091241
 20
49.372079506
 30
0.0
 10
83.8482113637
 20
55.7617257083
 30
0.0
 10
80.7625127875
 20
64.0091951858
 30
0.0
 10
78.4021903722
 20
72.7469388936
 30
0.0
 10
77.0083717841
 20
80.2909299094
 30
0.0
 10
76.2173955146
 20
86.4547739951
 30
0.0
 10
75.6394549784
 20
92.7118319781
 30
0.0
 10
75.445716264
 20
97.434905015
 30
0.0
 10
75.4194321638
 20
100.5884561564
 30
0.0
  0
SPLINE
  5
242
100
AcDbEntity
  8
0
100
AcDbSpline
 62
7
  6
BYLAYER
 70
0
 71
3
 72
10
 73
6
 74
0
 42
0.0000001
 43
0.0000001
 44
0.0000000001
 40
0.0
 40
0.0
 40
0.0
 40
0.0
 40
0.4999526443
 40
0.7499788631
 40
1.0
 40
1.0
 40
1.0
 40
1.0
 10
75.4049999153
 20
102.9338540882
 30
0.0
 10
74.1680555178
 20
102.7054561599
 30
0.0
 10
72.3007628277
 20
102.4169406338
 30
0.0
 10
69.7924315386
 20
102.2095757045
 30
0.0
 10
68.5340395725
 20
102.1742867683
 30
0.0
 10
67.9049997472
 20
102.1742867686
 30
0.0
  0
SPLINE
  5
243
100
AcDbEntity
  8
0
100
AcDbSpline
 62
7
  6
BYLAYER
 70
0
 71
3
 72
9
 73
5
 74
0
 42
0.0000001
 43
0.0000001
 44
0.0000000001
 40
0.0
 40
0.0
 40
0.0
 40
0.0
 40
0.5004289922
 40
1.0
 40
1.0
 40
1.0
 40
1.0
 10
67.9049999015
 20
176.1796422967
 30
0.0
 10
70.5822136762
 20
176.1796318658
 30
0.0
 10
75.9598849272
 20
175.4009112793
 30
0.0
 10
80.892337495
 20
173.1180736913
 30
0.0
 10
83.1289118403
 20
171.6549767606
 30
0.0
  0
SPLINE
  5
244
100
AcDbEntity
  8
0
100
AcDbSpline
 62
7
  6
BYLAYER
 70
0
 71
3
 72
21
 73
17
 74
0
 42
0.0000001
 43
0.0000001
 44
0.0000000001
 40
0.0
 40
0.0
 40
0.0
 40
0.0
 40
0.001430874
 40
0.0047056216
 40
0.0100748616
 40
0.0176393912
 40
0.0396604901
 40
0.0713420331
 40
0.1130403426
 40
0.1643521528
 40
0.2246829043
 40
0.2934367167
 40
0.4526124509
 40
0.6310306059
 40
0.816958215
 40
1.0
 40
1.0
 40
1.0
 40
1.0
 10
84.1595974184
 20
173.2981274358
 30
0.0
 10
84.1603704352
 20
173.2976177819
 30
0.0
 10
84.1600582628
 20
173.2937880208
 30
0.0
 10
84.1581217892
 20
173.2881759387
 30
0.0
 10
84.1539754549
 20
173.2781896331
 30
0.0
 10
84.1441321394
 20
173.2580332417
 30
0.0
 10
84.1252385983
 20
173.2230006649
 30
0.0
 10
84.0945838056
 20
173.1694983429
 30
0.0
 10
84.0533970101
 20
173.1000781742
 30
0.0
 10
84.001933903
 20
173.0152530582
 30
0.0
 10
83.9406717265
 20
172.9158821924
 30
0.0
 10
83.8418851347
 20
172.7576588067
 30
0.0
 10
83.7010448725
 20
172.535610174
 30
0.0
 10
83.5179203837
 20
172.2506038176
 30
0.0
 10
83.3249432503
 20
171.9535763123
 30
0.0
 10
83.1940487427
 20
171.7538970957
 30
0.0
 10
83.1289184582
 20
171.6549667987
 30
0.0
  0
SPLINE
  5
245
100
AcDbEntity
  8
0
100
AcDbSpline
 62
7
  6
BYLAYER
 70
0
 71
3
 72
11
 73
7
 74
0
 42
0.0000001
 43
0.0000001
 44
0.0000000001
 40
0.0
 40
0.0
 40
0.0
 40
0.0
 40
0.2487091471
 40
0.4990355748
 40
0.7495422127
 40
1.0
 40
1.0
 40
1.0
 40
1.0
 10
88.5550004746
 20
102.1742814576
 30
0.0
 10
88.0415980789
 20
107.4478479976
 30
0.0
 10
87.2918683018
 20
118.0573428702
 30
0.0
 10
86.7712015589
 20
134.019164303
 30
0.0
 10
86.6343150654
 20
150.0249233047
 30
0.0
 10
86.6653958914
 20
160.6974285242
 30
0.0
 10
86.6810674789
 20
166.0331570061
 30
0.0
  0
SPLINE
  5
246
100
AcDbEntity
  8
0
100
AcDbSpline
 62
7
  6
BYLAYER
 70
0
 71
3
 72
9
 73
5
 74
0
 42
0.0000001
 43
0.0000001
 44
0.0000000001
 40
0.0
 40
0.0
 40
0.0
 40
0.0
 40
0.5151504548
 40
1.0
 40
1.0
 40
1.0
 40
1.0
 10
101.4017755722
 20
62.2235315249
 30
0.0
 10
100.5353953421
 20
63.5143281438
 30
0.0
 10
98.8703765474
 20
66.0313069709
 30
0.0
 10
97.2422165784
 20
68.5723324476
 30
0.0
 10
96.4638409592
 20
69.8112661663
 30
0.0
  0
SPLINE
  5
247
100
AcDbEntity
  8
0
100
AcDbSpline
 62
7
  6
BYLAYER
 70
0
 71
3
 72
9
 73
5
 74
0
 42
0.0000001
 43
0.0000001
 44
0.0000000001
 40
0.0
 40
0.0
 40
0.0
 40
0.0
 40
0.4983653955
 40
1.0
 40
1.0
 40
1.0
 40
1.0
 10
47.2549998161
 20
102.174286184
 30
0.0
 10
47.7484836531
 20
107.2432541131
 30
0.0
 10
48.4795732283
 20
117.4403473266
 30
0.0
 10
48.8326268718
 20
127.654977656
 30
0.0
 10
48.9479292594
 20
132.7800223071
 30
0.0
  0
SPLINE
  5
248
100
AcDbEntity
  8
0
100
AcDbSpline
 62
7
  6
BYLAYER
 70
0
 71
3
 72
8
 73
4
 74
0
 42
0.0000001
 43
0.0000001
 44
0.0000000001
 40
0.0
 40
0.0
 40
0.0
 40
0.0
 40
1.0
 40
1.0
 40
1.0
 40
1.0
 10
48.9479292594
 20
132.7800223071
 30
0.0
 10
48.9570360377
 20
133.1848070296
 30
0.0
 10
48.9657553797
 20
133.5896006394
 30
0.0
 10
48.9741027843
 20
133.9944017335
 30
0.0
  0
SPLINE
  5
249
100
AcDbEntity
  8
0
100
AcDbSpline
 62
7
  6
BYLAYER
 70
0
 71
3
 72
9
 73
5
 74
0
 42
0.0000001
 43
0.0000001
 44
0.0000000001
 40
0.0
 40
0.0
 40
0.0
 40
0.0
 40
0.5000489036
 40
1.0
 40
1.0
 40
1.0
 40
1.0
 10
48.9741027843
 20
133.9944017335
 30
0.0
 10
49.0839732488
 20
139.3224871158
 30
0.0
 10
49.1755633213
 20
149.980202728
 30
0.0
 10
49.1447732292
 20
160.6375093869
 30
0.0
 10
49.1291409653
 20
165.9656621665
 30
0.0
  0
SPLINE
  5
24A
100
AcDbEntity
  8
0
100
AcDbSpline
 62
7
  6
BYLAYER
 70
0
 71
3
 72
26
 73
22
 74
0
 42
0.0000001
 43
0.0000001
 44
0.0000000001
 40
0.0
 40
0.0
 40
0.0
 40
0.0
 40
0.0002894161
 40
0.0011884706
 40
0.0027109823
 40
0.0048576489
 40
0.0110204857
 40
0.0196690278
 40
0.030793884
 40
0.0443731779
 40
0.0603437666
 40
0.0786336846
 40
0.1218830532
 40
0.1735369326
 40
0.2329779923
 40
0.299576259
 40
0.3726232343
 40
0.4513408511
 40
0.622725846
 40
0.8078196903
 40
1.0
 40
1.0
 40
1.0
 40
1.0
 10
49.1164868334
 20
170.4576592185
 30
0.0
 10
49.116234485
 20
170.4579199624
 30
0.0
 10
49.1184762686
 20
170.4590573697
 30
0.0
 10
49.1205146506
 20
170.4603095651
 30
0.0
 10
49.1262740438
 20
170.4629058461
 30
0.0
 10
49.1372124205
 20
170.4677524898
 30
0.0
 10
49.157118014
 20
170.4759712085
 30
0.0
 10
49.1871905052
 20
170.4879924543
 30
0.0
 10
49.2262228083
 20
170.5031404129
 30
0.0
 10
49.2738794033
 20
170.5212408063
 30
0.0
 10
49.3300636227
 20
170.5422573572
 30
0.0
 10
49.4212065523
 20
170.5759658011
 30
0.0
 10
49.5545272274
 20
170.6246155419
 30
0.0
 10
49.7365456957
 20
170.6903106861
 30
0.0
 10
49.9464838765
 20
170.7648761774
 30
0.0
 10
50.1822351336
 20
170.8468881818
 30
0.0
 10
50.4413299864
 20
170.9353393608
 30
0.0
 10
50.8253136404
 20
171.0645914994
 30
0.0
 10
51.3432890433
 20
171.2361312062
 30
0.0
 10
51.9986289726
 20
171.4452764542
 30
0.0
 10
52.4506731032
 20
171.5845671321
 30
0.0
 10
52.6810892564
 20
171.6550279662
 30
0.0
  0
SPLINE
  5
24B
100
AcDbEntity
  8
0
100
AcDbSpline
 62
7
  6
BYLAYER
 70
0
 71
3
 72
21
 73
17
 74
0
 42
0.0000001
 43
0.0000001
 44
0.0000000001
 40
0.0
 40
0.0
 40
0.0
 40
0.0
 40
0.0014184991
 40
0.0046589327
 40
0.0099733471
 40
0.0174644872
 40
0.0392909436
 40
0.0707270725
 40
0.112147226
 40
0.1631757353
 40
0.223248041
 40
0.2917982689
 40
0.4508196871
 40
0.6294724986
 40
0.8160387259
 40
1.0
 40
1.0
 40
1.0
 40
1.0
 10
51.6504206313
 20
173.2981394479
 30
0.0
 10
51.64965432
 20
173.2976342157
 30
0.0
 10
51.6499474947
 20
173.2938460445
 30
0.0
 10
51.6518612877
 20
173.2882830539
 30
0.0
 10
51.6559534771
 20
173.2783955595
 30
0.0
 10
51.6656940145
 20
173.2584177748
 30
0.0
 10
51.684413071
 20
173.2236729828
 30
0.0
 10
51.7148214026
 20
173.1705654323
 30
0.0
 10
51.7557249682
 20
173.1015873682
 30
0.0
 10
51.8068969539
 20
173.0172090723
 30
0.0
 10
51.8678908233
 20
172.9182430723
 30
0.0
 10
51.9664465789
 20
172.7603515703
 30
0.0
 10
52.1072238772
 20
172.5383657163
 30
0.0
 10
52.2905800348
 20
172.2529659522
 30
0.0
 10
52.4841757354
 20
171.9549681787
 30
0.0
 10
52.6156170053
 20
171.7544494501
 30
0.0
 10
52.6810725947
 20
171.6550247548
 30
0.0
  0
SPLINE
  5
24C
100
AcDbEntity
  8
0
100
AcDbSpline
 62
7
  6
BYLAYER
 70
0
 71
3
 72
11
 73
7
 74
0
 42
0.0000001
 43
0.0000001
 44
0.0000000001
 40
0.0
 40
0.0
 40
0.0
 40
0.0
 40
0.2414181068
 40
0.4885318991
 40
0.7414682992
 40
1.0
 40
1.0
 40
1.0
 40
1.0
 10
52.0568936297
 20
102.1742868395
 30
0.0
 10
52.5259156217
 20
107.7481646776
 30
0.0
 10
53.0909823109
 20
119.0604456657
 30
0.0
 10
53.1961708842
 20
136.2418090915
 30
0.0
 10
52.9235206017
 20
153.8160687118
 30
0.0
 10
52.7267234486
 20
165.6651152253
 30
0.0
 10
52.6810871262
 20
171.655033888
 30
0.0
  0
SPLINE
  5
24D
100
AcDbEntity
  8
0
100
AcDbSpline
 62
7
  6
BYLAYER
 70
0
 71
3
 72
10
 73
6
 74
0
 42
0.0000001
 43
0.0000001
 44
0.0000000001
 40
0.0
 40
0.0
 40
0.0
 40
0.0
 40
0.2500213109
 40
0.5000474525
 40
1.0
 40
1.0
 40
1.0
 40
1.0
 10
67.9049997472
 20
102.1742867686
 30
0.0
 10
67.2759594622
 20
102.1742867689
 30
0.0
 10
66.0175671237
 20
102.2095666927
 30
0.0
 10
63.5092345109
 20
102.4169229063
 30
0.0
 10
61.6419445468
 20
102.7054537693
 30
0.0
 10
60.4049999153
 20
102.9338493296
 30
0.0
  0
SPLINE
  5
24E
100
AcDbEntity
  8
0
100
AcDbSpline
 62
7
  6
BYLAYER
 70
0
 71
3
 72
9
 73
5
 74
0
 42
0.0000001
 43
0.0000001
 44
0.0000000001
 40
0.0
 40
0.0
 40
0.0
 40
0.0
 40
0.499581906
 40
1.0
 40
1.0
 40
1.0
 40
1.0
 10
52.6810852658
 20
171.6550367361
 30
0.0
 10
54.9177023685
 20
173.1181744053
 30
0.0
 10
59.8501662158
 20
175.4010160191
 30
0.0
 10
65.2278446505
 20
176.179658237
 30
0.0
 10
67.9049999015
 20
176.179658417
 30
0.0
  0
LINE
  5
24F
100
AcDbEntity
  8
0
100
AcDbLine
 62
7
  6
BYLAYER
 10
60.4010729618
 20
102.1742871678
 11
60.4049999153
 21
102.9338493296
  0
SPLINE
  5
250
100
AcDbEntity
  8
0
100
AcDbSpline
 62
7
  6
BYLAYER
 70
0
 71
3
 72
22
 73
18
 74
0
 42
0.0000001
 43
0.0000001
 44
0.0000000001
 40
0.0
 40
0.0
 40
0.0
 40
0.0
 40
0.1140586628
 40
0.231634117
 40
0.3526482982
 40
0.414400815
 40
0.4769473157
 40
0.540252703
 40
0.6042721389
 40
0.6689529315
 40
0.7342330963
 40
0.7670795124
 40
0.8000523756
 40
0.8663394708
 40
0.8996318705
 40
0.9330120144
 40
1.0
 40
1.0
 40
1.0
 40
1.0
 10
37.4596036976
 20
36.2223013228
 30
0.0
 10
38.24721914
 20
38.6714530116
 30
0.0
 10
39.7833674431
 20
43.6657512473
 30
0.0
 10
41.9713547717
 20
51.3135827875
 30
0.0
 10
43.713191717
 20
57.8607091083
 30
0.0
 10
45.0638661866
 20
63.2266122901
 30
0.0
 10
46.0581735426
 20
67.3397685113
 30
0.0
 10
47.021852278
 20
71.5127133896
 30
0.0
 10
47.9477780518
 20
75.7435230497
 30
0.0
 10
48.8272456523
 20
80.0297261197
 30
0.0
 10
49.5150518418
 20
83.6371445052
 30
0.0
 10
50.0304078643
 20
86.5489970081
 30
0.0
 10
50.5094750011
 20
89.4901022906
 30
0.0
 10
50.922519206
 20
92.4516745576
 30
0.0
 10
51.289057494
 20
95.4281995433
 30
0.0
 10
51.6416429511
 20
98.4223279776
 30
0.0
 10
51.8975708618
 20
100.6717456983
 30
0.0
 10
52.0568986145
 20
102.1742868396
 30
0.0
  0
SPLINE
  5
251
100
AcDbEntity
  8
0
100
AcDbSpline
 62
7
  6
BYLAYER
 70
0
 71
3
 72
8
 73
4
 74
0
 42
0.0000001
 43
0.0000001
 44
0.0000000001
 40
0.0
 40
0.0
 40
0.0
 40
0.0
 40
1.0
 40
1.0
 40
1.0
 40
1.0
 10
60.4010742245
 20
102.1742868417
 30
0.0
 10
60.3980865171
 20
101.6456734539
 30
0.0
 10
60.3945797691
 20
101.1170627593
 30
0.0
 10
60.3905688161
 20
100.5884561452
 30
0.0
  0
SPLINE
  5
252
100
AcDbEntity
  8
0
100
AcDbSpline
 62
7
  6
BYLAYER
 70
0
 71
3
 72
18
 73
14
 74
0
 42
0.0000001
 43
0.0000001
 44
0.0000000001
 40
0.0
 40
0.0
 40
0.0
 40
0.0
 40
0.0544402032
 40
0.1103561731
 40
0.1676828834
 40
0.226333848
 40
0.3471796958
 40
0.4722736431
 40
0.6009112437
 40
0.73231663
 40
0.7987950255
 40
0.8656343353
 40
1.0
 40
1.0
 40
1.0
 40
1.0
 10
37.4600041749
 20
36.2214308093
 30
0.0
 10
38.4815302116
 20
36.98899151
 30
0.0
 10
40.4587165413
 20
38.6726631245
 30
0.0
 10
43.167637826
 20
41.5362205517
 30
0.0
 10
45.6549401311
 20
44.7196643035
 30
0.0
 10
48.7062137128
 20
49.3718355928
 30
0.0
 10
51.9616925312
 20
55.7615484697
 30
0.0
 10
55.0474397626
 20
64.0090263937
 30
0.0
 10
57.4077798385
 20
72.7468078018
 30
0.0
 10
58.8016132902
 20
80.2908319449
 30
0.0
 10
59.5925970807
 20
86.4547053179
 30
0.0
 10
60.1705429095
 20
92.711793485
 30
0.0
 10
60.3642840855
 20
97.4348895466
 30
0.0
 10
60.3905683139
 20
100.5884561501
 30
0.0
  0
SPLINE
  5
253
100
AcDbEntity
  8
0
100
AcDbSpline
 62
7
  6
BYLAYER
 70
0
 71
3
 72
9
 73
5
 74
0
 42
0.0000001
 43
0.0000001
 44
0.0000000001
 40
0.0
 40
0.0
 40
0.0
 40
0.0
 40
0.5027520144
 40
1.0
 40
1.0
 40
1.0
 40
1.0
 10
33.1547498288
 20
52.9738289881
 30
0.0
 10
34.6969320572
 20
56.1156951496
 30
0.0
 10
37.5186054943
 20
62.487773786
 30
0.0
 10
39.8906030202
 20
69.038971635
 30
0.0
 10
40.9581271552
 20
72.3318876623
 30
0.0
  0
SPLINE
  5
254
100
AcDbEntity
  8
0
100
AcDbSpline
 62
7
  6
BYLAYER
 70
0
 71
3
 72
9
 73
5
 74
0
 42
0.0000001
 43
0.0000001
 44
0.0000000001
 40
0.0
 40
0.0
 40
0.0
 40
0.0
 40
0.5055726003
 40
1.0
 40
1.0
 40
1.0
 40
1.0
 10
40.9581271552
 20
72.3318876623
 30
0.0
 10
42.2501997268
 20
76.3174523349
 30
0.0
 10
44.482788679
 20
84.3097529726
 30
0.0
 10
46.012685076
 20
92.4671281367
 30
0.0
 10
46.5829541419
 20
96.5246579059
 30
0.0
  0
SPLINE
  5
255
100
AcDbEntity
  8
0
100
AcDbSpline
 62
7
  6
BYLAYER
 70
0
 71
3
 72
23
 73
19
 74
0
 42
0.0000001
 43
0.0000001
 44
0.0000000001
 40
0.0
 40
0.0
 40
0.0
 40
0.0
 40
0.1921555608
 40
0.3770785538
 40
0.5483553509
 40
0.6270806987
 40
0.700148192
 40
0.7667931055
 40
0.8263173684
 40
0.8780325872
 40
0.9213144066
 40
0.9556146949
 40
0.9692280467
 40
0.9804022988
 40
0.9891009473
 40
0.9952901748
 40
0.9989348389
 40
1.0
 40
1.0
 40
1.0
 40
1.0
 10
83.1289090535
 20
171.6549712794
 30
0.0
 10
83.3594373043
 20
171.5850135376
 30
0.0
 10
83.8111390131
 20
171.4454852756
 30
0.0
 10
84.4659947075
 20
171.2361707896
 30
0.0
 10
84.9838263438
 20
171.0653382257
 30
0.0
 10
85.3675986098
 20
170.9358127582
 30
0.0
 10
85.6266508982
 20
170.8469797878
 30
0.0
 10
85.8625183865
 20
170.7647460505
 30
0.0
 10
86.0727559927
 20
170.6903661741
 30
0.0
 10
86.2551741154
 20
170.6250482887
 30
0.0
 10
86.4074710933
 20
170.5697944912
 30
0.0
 10
86.5148273654
 20
170.5298277939
 30
0.0
 10
86.5836203985
 20
170.5032616547
 30
0.0
 10
86.6231975269
 20
170.4872405646
 30
0.0
 10
86.6517611945
 20
170.4756352914
 30
0.0
 10
86.6767358833
 20
170.4643869067
 30
0.0
 10
86.6831091568
 20
170.4625255058
 30
0.0
 10
86.6944738599
 20
170.4567310522
 30
0.0
 10
86.6935130176
 20
170.4576584757
 30
0.0
  0
ENDSEC
  0
SECTION
  2
OBJECTS
  0
DICTIONARY
  5
C
100
AcDbDictionary
280
0
281
1
  3
ACAD_GROUP
350
D
  3
ACAD_MLINESTYLE
350
17
  3
ACAD_LAYOUT
350
1A
  3
ACAD_PLOTSETTINGS
350
19
  3
ACAD_PLOTSTYLENAME
350
E
  0
DICTIONARY
  5
D
102
{ACAD_REACTORS
330
C
102
}
100
AcDbDictionary
280
0
281
1
  0
ACDBDICTIONARYWDFLT
  5
E
102
{ACAD_REACTORS
330
C
102
}
100
AcDbDictionary
281
1
  3
Normal
350
F
100
AcDbDictionaryWithDefault
340
F
  0
DICTIONARY
  5
17
102
{ACAD_REACTORS
330
C
102
}
100
AcDbDictionary
280
0
281
1
  3
Standard
350
18
  0
DICTIONARY
  5
19
102
{ACAD_REACTORS
330
C
102
}
100
AcDbDictionary
281
1
  0
DICTIONARY
  5
1A
102
{ACAD_REACTORS
330
C
102
}
100
AcDbDictionary
281
1
  3
Model
350
256
  3
Layout1
350
257
  0
ACDBPLACEHOLDER
  5
F
102
{ACAD_REACTORS
330
E
102
}
  0
MLINESTYLE
  5
18
102
{ACAD_REACTORS
330
17
102
}
100
AcDbMlineStyle
  2
STANDARD
 70
0
  3

 62
256
 51
90.0
 52
90.0
 71
2
 49
0.5
 62
256
  6
BYLAYER
 49
-0.5
 62
256
  6
BYLAYER
  0
LAYOUT
  5
256
102
{ACAD_REACTORS
330
1A
102
}
100
AcDbPlotSettings
  1

  2
none_device
  4

  6

 40
0.0
 41
0.0
 42
0.0
 43
0.0
 44
210.0
 45
297.0
 46
0.0
 47
0.0
 48
0.0
 49
0.0
140
0.0
141
0.0
142
1.0
143
1.0
 70
1024
 72
1
 73
0
 74
0
  7

 75
0
147
1.0
148
0.0
149
0.0
100
AcDbLayout
  1
Model
 70
0
 71
0
 10
0.0
 20
0.0
 11
210.0
 21
297.0
 12
0.0
 22
0.0
 32
0.0
 14
0.0
 24
0.0
 34
0.0
 15
0.0
 25
0.0
 35
0.0
146
0.0
 13
0.0
 23
0.0
 33
0.0
 16
1.0
 26
0.0
 36
0.0
 17
0.0
 27
1.0
 37
0.0
 76
0
330
210
345
0
346
0
  0
LAYOUT
  5
257
102
{ACAD_REACTORS
330
1A
102
}
100
AcDbPlotSettings
  1

  2
none_device
  4

  6

 40
0.0
 41
0.0
 42
0.0
 43
0.0
 44
210.0
 45
297.0
 46
0.0
 47
0.0
 48
0.0
 49
0.0
140
0.0
141
0.0
142
1.0
143
1.0
 70
0
 72
1
 73
0
 74
0
  7

 75
0
147
1.0
148
0.0
149
0.0
100
AcDbLayout
  1
Layout1
 70
0
 71
1
 10
0.0
 20
0.0
 11
210.0
 21
297.0
 12
0.0
 22
0.0
 32
0.0
 14
0.0
 24
0.0
 34
0.0
 15
0.0
 25
0.0
 35
0.0
146
0.0
 13
0.0
 23
0.0
 33
0.0
 16
1.0
 26
0.0
 36
0.0
 17
0.0
 27
1.0
 37
0.0
 76
0
330
211
345
0
346
0
  0
ENDSEC
  0
EOF
