  0
SECTION
  2
HEADER
  9
$ACADVER
  1
AC1009
  9
$DWGCODEPAGE
  3
ansi_1250
  9
$INSBASE
 10
0.0
 20
0.0
 30
0.0
  9
$EXTMIN
 10
-2.329506
 20
-1.36554
 30
0.0
  9
$EXTMAX
 10
0.401575
 20
1.36554
 30
0.0
  9
$LIMMIN
 10
0.0
 20
0.0
  9
$LIMMAX
 10
0.0
 20
0.0
  9
$ORTHOMODE
 70
     0
  9
$REGENMODE
 70
     1
  9
$FILLMODE
 70
     1
  9
$QTEXTMODE
 70
     0
  9
$MIRRTEXT
 70
     1
  9
$DRAGMODE
 70
     2
  9
$LTSCALE
 40
1.0
  9
$OSMODE
 70
     0
  9
$ATTMODE
 70
     1
  9
$TEXTSIZE
 40
0.2
  9
$TRACEWID
 40
0.05
  9
$TEXTSTYLE
  7
STANDARD
  9
$CLAYER
  8
0
  9
$CELTYPE
  6
CONTINUOUS
  9
$CECOLOR
 62
   256
  9
$DIMSCALE
 40
1.0
  9
$DIMASZ
 40
0.18
  9
$DIMEXO
 40
0.0625
  9
$DIMDLI
 40
0.38
  9
$DIMRND
 40
0.0
  9
$DIMDLE
 40
0.0
  9
$DIMEXE
 40
0.18
  9
$DIMTP
 40
0.0
  9
$DIMTM
 40
0.0
  9
$DIMTXT
 40
0.18
  9
$DIMCEN
 40
0.09
  9
$DIMTSZ
 40
0.0
  9
$DIMTOL
 70
     0
  9
$DIMLIM
 70
     0
  9
$DIMTIH
 70
     1
  9
$DIMTOH
 70
     1
  9
$DIMSE1
 70
     0
  9
$DIMSE2
 70
     0
  9
$DIMTAD
 70
     0
  9
$DIMZIN
 70
     0
  9
$DIMBLK
  1

  9
$DIMASO
 70
     1
  9
$DIMSHO
 70
     1
  9
$DIMPOST
  1

  9
$DIMAPOST
  1

  9
$DIMALT
 70
     0
  9
$DIMALTD
 70
     2
  9
$DIMALTF
 40
25.4
  9
$DIMLFAC
 40
1.0
  9
$DIMTOFL
 70
     0
  9
$DIMTVP
 40
0.0
  9
$DIMTIX
 70
     0
  9
$DIMSOXD
 70
     0
  9
$DIMSAH
 70
     0
  9
$DIMBLK1
  1

  9
$DIMBLK2
  1

  9
$DIMSTYLE
  2
STANDARD
  9
$DIMCLRD
 70
     0
  9
$DIMCLRE
 70
     0
  9
$DIMCLRT
 70
     0
  9
$DIMTFAC
 40
1.0
  9
$DIMGAP
 40
0.09
  9
$LUNITS
 70
     2
  9
$LUPREC
 70
     4
  9
$AXISMODE
 70
     0
  9
$AXISUNIT
 10
0.0
 20
0.0
  9
$SKETCHINC
 40
0.1
  9
$FILLETRAD
 40
0.0
  9
$AUNITS
 70
     0
  9
$AUPREC
 70
     0
  9
$MENU
  1
acad
  9
$ELEVATION
 40
0.0
  9
$PELEVATION
 40
0.0
  9
$THICKNESS
 40
0.0
  9
$LIMCHECK
 70
     0
  9
$BLIPMODE
 70
     1
  9
$CHAMFERA
 40
0.0
  9
$CHAMFERB
 40
0.0
  9
$SKPOLY
 70
     0
  9
$TDCREATE
 40
0.000000000
  9
$TDUPDATE
 40
0.000000000
  9
$TDINDWG
 40
0.0000000000
  9
$TDUSRTIMER
 40
0.0000000000
  9
$USRTIMER
 70
     1
  9
$ANGBASE
 50
0.0
  9
$ANGDIR
 70
     0
  9
$PDMODE
 70
     0
  9
$PDSIZE
 40
0.0
  9
$PLINEWID
 40
0.0
  9
$COORDS
 70
     0
  9
$SPLFRAME
 70
     0
  9
$SPLINETYPE
 70
     6
  9
$SPLINESEGS
 70
     8
  9
$ATTDIA
 70
     0
  9
$ATTREQ
 70
     1
  9
$HANDLING
 70
     1
  9
$HANDSEED
  5
56A
  9
$SURFTAB1
 70
     6
  9
$SURFTAB2
 70
     6
  9
$SURFTYPE
 70
     6
  9
$SURFU
 70
     6
  9
$SURFV
 70
     6
  9
$UCSNAME
  2

  9
$UCSORG
 10
0.0
 20
0.0
 30
0.0
  9
$UCSXDIR
 10
1.0
 20
0.0
 30
0.0
  9
$UCSYDIR
 10
0.0
 20
1.0
 30
0.0
  9
$PUCSNAME
  2

  9
$PUCSORG
 10
0.0
 20
0.0
 30
0.0
  9
$PUCSXDIR
 10
1.0
 20
0.0
 30
0.0
  9
$PUCSYDIR
 10
0.0
 20
1.0
 30
0.0
  9
$USERI1
 70
     0
  9
$USERI2
 70
     0
  9
$USERI3
 70
     0
  9
$USERI4
 70
     0
  9
$USERI5
 70
     0
  9
$USERR1
 40
0.0
  9
$USERR2
 40
0.0
  9
$USERR3
 40
0.0
  9
$USERR4
 40
0.0
  9
$USERR5
 40
0.0
  9
$WORLDVIEW
 70
     1
  9
$SHADEDGE
 70
     3
  9
$SHADEDIF
 70
    70
  9
$TILEMODE
 70
     1
  9
$MAXACTVP
 70
    16
  9
$PINSBASE
 10
0.0
 20
0.0
 30
0.0
  9
$PLIMCHECK
 70
     0
  9
$PEXTMIN
 10
1.000000E+20
 20
1.000000E+20
 30
1.000000E+20
  9
$PEXTMAX
 10
-1.000000E+20
 20
-1.000000E+20
 30
-1.000000E+20
  9
$PLIMMIN
 10
0.0
 20
0.0
  9
$PLIMMAX
 10
12.0
 20
9.0
  9
$UNITMODE
 70
     0
  9
$VISRETAIN
 70
     0
  9
$PLINEGEN
 70
     1
  9
$PSLTSCALE
 70
     0
  9
$TREEDEPTH
 70
  3020
  0
ENDSEC
  0
SECTION
  2
TABLES
  0
TABLE
  2
VPORT
 70
     1
  0
VPORT
  2
*ACTIVE
 70
     0
 10
0.0
 20
0.0
 11
1.0
 21
1.0
 12
6.591288
 22
4.579184
 13
0.0
 23
0.0
 14
1.0
 24
1.0
 15
0.0
 25
0.0
 16
0.0
 26
0.0
 36
1.0
 17
0.0
 27
0.0
 37
0.0
 40
9.158369
 41
0.688564
 42
50.0
 43
0.0
 44
0.0
 50
0.0
 51
0.0
 71
     0
 72
   100
 73
     1
 74
     1
 75
     0
 76
     0
 77
     0
 78
     0
  0
ENDTAB
  0
TABLE
  2
LTYPE
 70
     5
  0
LTYPE
  2
CONTINUOUS
 70
    64
  3
Solid line
 72
    65
 73
     0
 40
0.0
  0
LTYPE
  2
CENTER
 70
    64
  3
Center ____ _ ____ _ ____ _ ____ _ ____ _ ____
 72
    65
 73
     4
 40
50.8
 49
31.75
 49
-6.35
 49
6.35
 49
-6.35
  0
LTYPE
  2
HIDDEN
 70
    64
  3
Hidden __ __ __ __ __ __ __ __ __ __ __ __ __ __
 72
    65
 73
     2
 40
9.525
 49
6.35
 49
-3.175
  0
LTYPE
  2
CENTER2
 70
    64
  3
Center (.5x) ___ _ ___ _ ___ _ ___ _ ___ _ ___
 72
    65
 73
     4
 40
28.575
 49
19.05
 49
-3.175
 49
3.175
 49
-3.175
  0
LTYPE
  2
HIDDEN2
 70
    64
  3
Hidden (.5x) _ _ _ _ _ _ _ _ _ _ _ _ _ _ _ _ _
 72
    65
 73
     2
 40
4.7625
 49
3.175
 49
-1.5875
  0
ENDTAB
  0
TABLE
  2
LAYER
 70
     1
  0
LAYER
  2
0
 70
     0
 62
     7
  6
CONTINUOUS
  0
ENDTAB
  0
TABLE
  2
STYLE
 70
     1
  0
STYLE
  2
STANDARD
 70
     0
 40
0.0
 41
1.0
 50
0.0
 71
     0
 42
0.0
  3
txt
  4

  0
ENDTAB
  0
TABLE
  2
VIEW
 70
     0
  0
ENDTAB
  0
TABLE
  2
UCS
 70
     0
  0
ENDTAB
  0
TABLE
  2
APPID
 70
     1
  0
APPID
  2
ACAD
 70
     0
  0
ENDTAB
  0
TABLE
  2
DIMSTYLE
 70
     1
  0
DIMSTYLE
  2
STANDARD
 70
     0
  3

  4

  5

  6

  7

 40
1.0
 41
0.18
 42
0.0625
 43
0.38
 44
0.18
 45
0.0
 46
0.0
 47
0.0
 48
0.0
 71
     0
 72
     0
 73
     1
 74
     1
 75
     0
 76
     0
 77
     0
 78
     0
140
0.18
141
0.09
142
0.0
143
25.4
144
1.0
145
0.0
146
1.0
147
0.09
170
     0
171
     2
172
     0
173
     0
174
     0
175
     0
176
     0
177
     0
178
     0
  0
ENDTAB
  0
ENDSEC
  0
SECTION
  2
BLOCKS
  0
ENDSEC
  0
SECTION
  2
ENTITIES
  0
LINE
  8
0
  6
CONTINUOUS
 62
     7
  5
2F8
 10
0.0
 20
-0.344488
 30
0.0
 11
0.0
 21
0.344488
 31
0.0
  0
LINE
  8
0
  6
CONTINUOUS
 62
     7
  5
2F9
 10
0.366142
 20
0.264954
 30
0.0
 11
0.366142
 21
0.309055
 31
0.0
  0
LINE
  8
0
  6
CONTINUOUS
 62
     7
  5
2FA
 10
0.366142
 20
-0.309055
 30
0.0
 11
0.366142
 21
-0.264954
 31
0.0
  0
LINE
  8
0
  6
CONTINUOUS
 62
     7
  5
2FB
 10
0.401575
 20
0.0
 30
0.0
 11
0.401555
 21
0.008295
 31
0.0
  0
LINE
  8
0
  6
CONTINUOUS
 62
     7
  5
2FC
 10
0.401555
 20
0.008295
 30
0.0
 11
0.401495
 21
0.016648
 31
0.0
  0
LINE
  8
0
  6
CONTINUOUS
 62
     7
  5
2FD
 10
0.401495
 20
0.016648
 30
0.0
 11
0.401394
 21
0.025049
 31
0.0
  0
LINE
  8
0
  6
CONTINUOUS
 62
     7
  5
2FE
 10
0.401394
 20
0.025049
 30
0.0
 11
0.401252
 21
0.033488
 31
0.0
  0
LINE
  8
0
  6
CONTINUOUS
 62
     7
  5
2FF
 10
0.401252
 20
0.033488
 30
0.0
 11
0.401067
 21
0.041956
 31
0.0
  0
LINE
  8
0
  6
CONTINUOUS
 62
     7
  5
300
 10
0.401067
 20
0.041956
 30
0.0
 11
0.400841
 21
0.050442
 31
0.0
  0
LINE
  8
0
  6
CONTINUOUS
 62
     7
  5
301
 10
0.400841
 20
0.050442
 30
0.0
 11
0.400574
 21
0.058937
 31
0.0
  0
LINE
  8
0
  6
CONTINUOUS
 62
     7
  5
302
 10
0.400574
 20
0.058937
 30
0.0
 11
0.400264
 21
0.067429
 31
0.0
  0
LINE
  8
0
  6
CONTINUOUS
 62
     7
  5
303
 10
0.400264
 20
0.067429
 30
0.0
 11
0.399914
 21
0.07591
 31
0.0
  0
LINE
  8
0
  6
CONTINUOUS
 62
     7
  5
304
 10
0.399914
 20
0.07591
 30
0.0
 11
0.399524
 21
0.084368
 31
0.0
  0
LINE
  8
0
  6
CONTINUOUS
 62
     7
  5
305
 10
0.399524
 20
0.084368
 30
0.0
 11
0.399094
 21
0.092795
 31
0.0
  0
LINE
  8
0
  6
CONTINUOUS
 62
     7
  5
306
 10
0.399094
 20
0.092795
 30
0.0
 11
0.398626
 21
0.10118
 31
0.0
  0
LINE
  8
0
  6
CONTINUOUS
 62
     7
  5
307
 10
0.398626
 20
0.10118
 30
0.0
 11
0.398121
 21
0.109514
 31
0.0
  0
LINE
  8
0
  6
CONTINUOUS
 62
     7
  5
308
 10
0.398121
 20
0.109514
 30
0.0
 11
0.397579
 21
0.117789
 31
0.0
  0
LINE
  8
0
  6
CONTINUOUS
 62
     7
  5
309
 10
0.397579
 20
0.117789
 30
0.0
 11
0.397004
 21
0.125995
 31
0.0
  0
LINE
  8
0
  6
CONTINUOUS
 62
     7
  5
30A
 10
0.397004
 20
0.125995
 30
0.0
 11
0.396396
 21
0.134126
 31
0.0
  0
LINE
  8
0
  6
CONTINUOUS
 62
     7
  5
30B
 10
0.396396
 20
0.134126
 30
0.0
 11
0.395757
 21
0.142172
 31
0.0
  0
LINE
  8
0
  6
CONTINUOUS
 62
     7
  5
30C
 10
0.395757
 20
0.142172
 30
0.0
 11
0.395089
 21
0.150127
 31
0.0
  0
LINE
  8
0
  6
CONTINUOUS
 62
     7
  5
30D
 10
0.395089
 20
0.150127
 30
0.0
 11
0.394394
 21
0.157984
 31
0.0
  0
LINE
  8
0
  6
CONTINUOUS
 62
     7
  5
30E
 10
0.394394
 20
0.157984
 30
0.0
 11
0.393674
 21
0.165735
 31
0.0
  0
LINE
  8
0
  6
CONTINUOUS
 62
     7
  5
30F
 10
0.393674
 20
0.165735
 30
0.0
 11
0.392931
 21
0.173372
 31
0.0
  0
LINE
  8
0
  6
CONTINUOUS
 62
     7
  5
310
 10
0.392931
 20
0.173372
 30
0.0
 11
0.392167
 21
0.180888
 31
0.0
  0
LINE
  8
0
  6
CONTINUOUS
 62
     7
  5
311
 10
0.392167
 20
0.180888
 30
0.0
 11
0.391385
 21
0.188275
 31
0.0
  0
LINE
  8
0
  6
CONTINUOUS
 62
     7
  5
312
 10
0.391385
 20
0.188275
 30
0.0
 11
0.390588
 21
0.195526
 31
0.0
  0
LINE
  8
0
  6
CONTINUOUS
 62
     7
  5
313
 10
0.390588
 20
0.195526
 30
0.0
 11
0.389777
 21
0.202634
 31
0.0
  0
LINE
  8
0
  6
CONTINUOUS
 62
     7
  5
314
 10
0.389777
 20
0.202634
 30
0.0
 11
0.388956
 21
0.209593
 31
0.0
  0
LINE
  8
0
  6
CONTINUOUS
 62
     7
  5
315
 10
0.388956
 20
0.209593
 30
0.0
 11
0.388127
 21
0.216396
 31
0.0
  0
LINE
  8
0
  6
CONTINUOUS
 62
     7
  5
316
 10
0.388127
 20
0.216396
 30
0.0
 11
0.387292
 21
0.223037
 31
0.0
  0
LINE
  8
0
  6
CONTINUOUS
 62
     7
  5
317
 10
0.387292
 20
0.223037
 30
0.0
 11
0.386454
 21
0.229512
 31
0.0
  0
LINE
  8
0
  6
CONTINUOUS
 62
     7
  5
318
 10
0.386454
 20
0.229512
 30
0.0
 11
0.385616
 21
0.235814
 31
0.0
  0
LINE
  8
0
  6
CONTINUOUS
 62
     7
  5
319
 10
0.385616
 20
0.235814
 30
0.0
 11
0.384781
 21
0.241939
 31
0.0
  0
LINE
  8
0
  6
CONTINUOUS
 62
     7
  5
31A
 10
0.384781
 20
0.241939
 30
0.0
 11
0.383949
 21
0.247885
 31
0.0
  0
LINE
  8
0
  6
CONTINUOUS
 62
     7
  5
31B
 10
0.383949
 20
0.247885
 30
0.0
 11
0.383121
 21
0.253676
 31
0.0
  0
LINE
  8
0
  6
CONTINUOUS
 62
     7
  5
31C
 10
0.383121
 20
0.253676
 30
0.0
 11
0.382287
 21
0.25937
 31
0.0
  0
LINE
  8
0
  6
CONTINUOUS
 62
     7
  5
31D
 10
0.382287
 20
0.25937
 30
0.0
 11
0.381452
 21
0.264959
 31
0.0
  0
LINE
  8
0
  6
CONTINUOUS
 62
     7
  5
31E
 10
0.381452
 20
-0.264959
 30
0.0
 11
0.382287
 21
-0.25937
 31
0.0
  0
LINE
  8
0
  6
CONTINUOUS
 62
     7
  5
31F
 10
0.382287
 20
-0.25937
 30
0.0
 11
0.383121
 21
-0.253676
 31
0.0
  0
LINE
  8
0
  6
CONTINUOUS
 62
     7
  5
320
 10
0.383121
 20
-0.253676
 30
0.0
 11
0.383949
 21
-0.247885
 31
0.0
  0
LINE
  8
0
  6
CONTINUOUS
 62
     7
  5
321
 10
0.383949
 20
-0.247885
 30
0.0
 11
0.384781
 21
-0.241939
 31
0.0
  0
LINE
  8
0
  6
CONTINUOUS
 62
     7
  5
322
 10
0.384781
 20
-0.241939
 30
0.0
 11
0.385616
 21
-0.235814
 31
0.0
  0
LINE
  8
0
  6
CONTINUOUS
 62
     7
  5
323
 10
0.385616
 20
-0.235814
 30
0.0
 11
0.386454
 21
-0.229512
 31
0.0
  0
LINE
  8
0
  6
CONTINUOUS
 62
     7
  5
324
 10
0.386454
 20
-0.229512
 30
0.0
 11
0.387292
 21
-0.223037
 31
0.0
  0
LINE
  8
0
  6
CONTINUOUS
 62
     7
  5
325
 10
0.387292
 20
-0.223037
 30
0.0
 11
0.388127
 21
-0.216396
 31
0.0
  0
LINE
  8
0
  6
CONTINUOUS
 62
     7
  5
326
 10
0.388127
 20
-0.216396
 30
0.0
 11
0.388956
 21
-0.209593
 31
0.0
  0
LINE
  8
0
  6
CONTINUOUS
 62
     7
  5
327
 10
0.388956
 20
-0.209593
 30
0.0
 11
0.389777
 21
-0.202634
 31
0.0
  0
LINE
  8
0
  6
CONTINUOUS
 62
     7
  5
328
 10
0.389777
 20
-0.202634
 30
0.0
 11
0.390588
 21
-0.195526
 31
0.0
  0
LINE
  8
0
  6
CONTINUOUS
 62
     7
  5
329
 10
0.390588
 20
-0.195526
 30
0.0
 11
0.391385
 21
-0.188275
 31
0.0
  0
LINE
  8
0
  6
CONTINUOUS
 62
     7
  5
32A
 10
0.391385
 20
-0.188275
 30
0.0
 11
0.392167
 21
-0.180888
 31
0.0
  0
LINE
  8
0
  6
CONTINUOUS
 62
     7
  5
32B
 10
0.392167
 20
-0.180888
 30
0.0
 11
0.392931
 21
-0.173372
 31
0.0
  0
LINE
  8
0
  6
CONTINUOUS
 62
     7
  5
32C
 10
0.392931
 20
-0.173372
 30
0.0
 11
0.393674
 21
-0.165735
 31
0.0
  0
LINE
  8
0
  6
CONTINUOUS
 62
     7
  5
32D
 10
0.393674
 20
-0.165735
 30
0.0
 11
0.394394
 21
-0.157984
 31
0.0
  0
LINE
  8
0
  6
CONTINUOUS
 62
     7
  5
32E
 10
0.394394
 20
-0.157984
 30
0.0
 11
0.395089
 21
-0.150127
 31
0.0
  0
LINE
  8
0
  6
CONTINUOUS
 62
     7
  5
32F
 10
0.395089
 20
-0.150127
 30
0.0
 11
0.395757
 21
-0.142172
 31
0.0
  0
LINE
  8
0
  6
CONTINUOUS
 62
     7
  5
330
 10
0.395757
 20
-0.142172
 30
0.0
 11
0.396396
 21
-0.134126
 31
0.0
  0
LINE
  8
0
  6
CONTINUOUS
 62
     7
  5
331
 10
0.396396
 20
-0.134126
 30
0.0
 11
0.397004
 21
-0.125995
 31
0.0
  0
LINE
  8
0
  6
CONTINUOUS
 62
     7
  5
332
 10
0.397004
 20
-0.125995
 30
0.0
 11
0.397579
 21
-0.117789
 31
0.0
  0
LINE
  8
0
  6
CONTINUOUS
 62
     7
  5
333
 10
0.397579
 20
-0.117789
 30
0.0
 11
0.398121
 21
-0.109514
 31
0.0
  0
LINE
  8
0
  6
CONTINUOUS
 62
     7
  5
334
 10
0.398121
 20
-0.109514
 30
0.0
 11
0.398626
 21
-0.10118
 31
0.0
  0
LINE
  8
0
  6
CONTINUOUS
 62
     7
  5
335
 10
0.398626
 20
-0.10118
 30
0.0
 11
0.399094
 21
-0.092795
 31
0.0
  0
LINE
  8
0
  6
CONTINUOUS
 62
     7
  5
336
 10
0.399094
 20
-0.092795
 30
0.0
 11
0.399524
 21
-0.084368
 31
0.0
  0
LINE
  8
0
  6
CONTINUOUS
 62
     7
  5
337
 10
0.399524
 20
-0.084368
 30
0.0
 11
0.399914
 21
-0.07591
 31
0.0
  0
LINE
  8
0
  6
CONTINUOUS
 62
     7
  5
338
 10
0.399914
 20
-0.07591
 30
0.0
 11
0.400264
 21
-0.067429
 31
0.0
  0
LINE
  8
0
  6
CONTINUOUS
 62
     7
  5
339
 10
0.400264
 20
-0.067429
 30
0.0
 11
0.400574
 21
-0.058937
 31
0.0
  0
LINE
  8
0
  6
CONTINUOUS
 62
     7
  5
33A
 10
0.400574
 20
-0.058937
 30
0.0
 11
0.400841
 21
-0.050442
 31
0.0
  0
LINE
  8
0
  6
CONTINUOUS
 62
     7
  5
33B
 10
0.400841
 20
-0.050442
 30
0.0
 11
0.401067
 21
-0.041956
 31
0.0
  0
LINE
  8
0
  6
CONTINUOUS
 62
     7
  5
33C
 10
0.401067
 20
-0.041956
 30
0.0
 11
0.401252
 21
-0.033488
 31
0.0
  0
LINE
  8
0
  6
CONTINUOUS
 62
     7
  5
33D
 10
0.401252
 20
-0.033488
 30
0.0
 11
0.401394
 21
-0.025049
 31
0.0
  0
LINE
  8
0
  6
CONTINUOUS
 62
     7
  5
33E
 10
0.401394
 20
-0.025049
 30
0.0
 11
0.401495
 21
-0.016648
 31
0.0
  0
LINE
  8
0
  6
CONTINUOUS
 62
     7
  5
33F
 10
0.401495
 20
-0.016648
 30
0.0
 11
0.401555
 21
-0.008295
 31
0.0
  0
LINE
  8
0
  6
CONTINUOUS
 62
     7
  5
340
 10
0.401555
 20
-0.008295
 30
0.0
 11
0.401575
 21
0.0
 31
0.0
  0
LINE
  8
0
  6
CONTINUOUS
 62
     7
  5
341
 10
0.381452
 20
0.264959
 30
0.0
 11
0.318898
 21
0.264959
 31
0.0
  0
LINE
  8
0
  6
CONTINUOUS
 62
     7
  5
342
 10
0.318898
 20
0.264959
 30
0.0
 11
0.316882
 21
0.269503
 31
0.0
  0
LINE
  8
0
  6
CONTINUOUS
 62
     7
  5
343
 10
0.316882
 20
0.269503
 30
0.0
 11
0.314875
 21
0.273966
 31
0.0
  0
LINE
  8
0
  6
CONTINUOUS
 62
     7
  5
344
 10
0.314875
 20
0.273966
 30
0.0
 11
0.31288
 21
0.278345
 31
0.0
  0
LINE
  8
0
  6
CONTINUOUS
 62
     7
  5
345
 10
0.31288
 20
0.278345
 30
0.0
 11
0.310902
 21
0.282635
 31
0.0
  0
LINE
  8
0
  6
CONTINUOUS
 62
     7
  5
346
 10
0.310902
 20
0.282635
 30
0.0
 11
0.308945
 21
0.286829
 31
0.0
  0
LINE
  8
0
  6
CONTINUOUS
 62
     7
  5
347
 10
0.308945
 20
0.286829
 30
0.0
 11
0.307013
 21
0.290924
 31
0.0
  0
LINE
  8
0
  6
CONTINUOUS
 62
     7
  5
348
 10
0.307013
 20
0.290924
 30
0.0
 11
0.305109
 21
0.294915
 31
0.0
  0
LINE
  8
0
  6
CONTINUOUS
 62
     7
  5
349
 10
0.305109
 20
0.294915
 30
0.0
 11
0.303238
 21
0.298798
 31
0.0
  0
LINE
  8
0
  6
CONTINUOUS
 62
     7
  5
34A
 10
0.303238
 20
0.298798
 30
0.0
 11
0.301404
 21
0.302568
 31
0.0
  0
LINE
  8
0
  6
CONTINUOUS
 62
     7
  5
34B
 10
0.301404
 20
0.302568
 30
0.0
 11
0.299609
 21
0.306221
 31
0.0
  0
LINE
  8
0
  6
CONTINUOUS
 62
     7
  5
34C
 10
0.299609
 20
0.306221
 30
0.0
 11
0.297858
 21
0.309754
 31
0.0
  0
LINE
  8
0
  6
CONTINUOUS
 62
     7
  5
34D
 10
0.297858
 20
0.309754
 30
0.0
 11
0.296155
 21
0.313162
 31
0.0
  0
LINE
  8
0
  6
CONTINUOUS
 62
     7
  5
34E
 10
0.296155
 20
0.313162
 30
0.0
 11
0.294502
 21
0.316444
 31
0.0
  0
LINE
  8
0
  6
CONTINUOUS
 62
     7
  5
34F
 10
0.294502
 20
0.316444
 30
0.0
 11
0.292903
 21
0.319594
 31
0.0
  0
LINE
  8
0
  6
CONTINUOUS
 62
     7
  5
350
 10
0.292903
 20
0.319594
 30
0.0
 11
0.29136
 21
0.322611
 31
0.0
  0
LINE
  8
0
  6
CONTINUOUS
 62
     7
  5
351
 10
0.29136
 20
0.322611
 30
0.0
 11
0.289877
 21
0.325492
 31
0.0
  0
LINE
  8
0
  6
CONTINUOUS
 62
     7
  5
352
 10
0.289877
 20
0.325492
 30
0.0
 11
0.288457
 21
0.328234
 31
0.0
  0
LINE
  8
0
  6
CONTINUOUS
 62
     7
  5
353
 10
0.288457
 20
0.328234
 30
0.0
 11
0.287101
 21
0.330836
 31
0.0
  0
LINE
  8
0
  6
CONTINUOUS
 62
     7
  5
354
 10
0.287101
 20
0.330836
 30
0.0
 11
0.285812
 21
0.333296
 31
0.0
  0
LINE
  8
0
  6
CONTINUOUS
 62
     7
  5
355
 10
0.285812
 20
0.333296
 30
0.0
 11
0.284592
 21
0.335611
 31
0.0
  0
LINE
  8
0
  6
CONTINUOUS
 62
     7
  5
356
 10
0.284592
 20
0.335611
 30
0.0
 11
0.283444
 21
0.337781
 31
0.0
  0
LINE
  8
0
  6
CONTINUOUS
 62
     7
  5
357
 10
0.283444
 20
0.337781
 30
0.0
 11
0.282369
 21
0.339802
 31
0.0
  0
LINE
  8
0
  6
CONTINUOUS
 62
     7
  5
358
 10
0.282369
 20
0.339802
 30
0.0
 11
0.28137
 21
0.341675
 31
0.0
  0
LINE
  8
0
  6
CONTINUOUS
 62
     7
  5
359
 10
0.28137
 20
0.341675
 30
0.0
 11
0.280447
 21
0.343397
 31
0.0
  0
LINE
  8
0
  6
CONTINUOUS
 62
     7
  5
35A
 10
0.280447
 20
0.343397
 30
0.0
 11
0.279602
 21
0.344968
 31
0.0
  0
LINE
  8
0
  6
CONTINUOUS
 62
     7
  5
35B
 10
0.279602
 20
0.344968
 30
0.0
 11
0.278837
 21
0.346387
 31
0.0
  0
LINE
  8
0
  6
CONTINUOUS
 62
     7
  5
35C
 10
0.278837
 20
0.346387
 30
0.0
 11
0.278152
 21
0.347654
 31
0.0
  0
LINE
  8
0
  6
CONTINUOUS
 62
     7
  5
35D
 10
0.278152
 20
0.347654
 30
0.0
 11
0.277548
 21
0.348769
 31
0.0
  0
LINE
  8
0
  6
CONTINUOUS
 62
     7
  5
35E
 10
0.277548
 20
0.348769
 30
0.0
 11
0.277025
 21
0.349731
 31
0.0
  0
LINE
  8
0
  6
CONTINUOUS
 62
     7
  5
35F
 10
0.277025
 20
0.349731
 30
0.0
 11
0.276584
 21
0.350542
 31
0.0
  0
LINE
  8
0
  6
CONTINUOUS
 62
     7
  5
360
 10
0.276584
 20
0.350542
 30
0.0
 11
0.276224
 21
0.351202
 31
0.0
  0
LINE
  8
0
  6
CONTINUOUS
 62
     7
  5
361
 10
0.276224
 20
0.351202
 30
0.0
 11
0.275946
 21
0.351712
 31
0.0
  0
LINE
  8
0
  6
CONTINUOUS
 62
     7
  5
362
 10
0.275946
 20
0.351712
 30
0.0
 11
0.275748
 21
0.352075
 31
0.0
  0
LINE
  8
0
  6
CONTINUOUS
 62
     7
  5
363
 10
0.275748
 20
0.352075
 30
0.0
 11
0.27563
 21
0.352291
 31
0.0
  0
LINE
  8
0
  6
CONTINUOUS
 62
     7
  5
364
 10
0.27563
 20
0.352291
 30
0.0
 11
0.275591
 21
0.352362
 31
0.0
  0
LINE
  8
0
  6
CONTINUOUS
 62
     7
  5
365
 10
0.401575
 20
0.0
 30
0.0
 11
0.401555
 21
-0.008295
 31
0.0
  0
LINE
  8
0
  6
CONTINUOUS
 62
     7
  5
366
 10
0.401555
 20
-0.008295
 30
0.0
 11
0.401495
 21
-0.016648
 31
0.0
  0
LINE
  8
0
  6
CONTINUOUS
 62
     7
  5
367
 10
0.401495
 20
-0.016648
 30
0.0
 11
0.401394
 21
-0.025049
 31
0.0
  0
LINE
  8
0
  6
CONTINUOUS
 62
     7
  5
368
 10
0.401394
 20
-0.025049
 30
0.0
 11
0.401252
 21
-0.033488
 31
0.0
  0
LINE
  8
0
  6
CONTINUOUS
 62
     7
  5
369
 10
0.401252
 20
-0.033488
 30
0.0
 11
0.401067
 21
-0.041956
 31
0.0
  0
LINE
  8
0
  6
CONTINUOUS
 62
     7
  5
36A
 10
0.401067
 20
-0.041956
 30
0.0
 11
0.400841
 21
-0.050442
 31
0.0
  0
LINE
  8
0
  6
CONTINUOUS
 62
     7
  5
36B
 10
0.400841
 20
-0.050442
 30
0.0
 11
0.400574
 21
-0.058937
 31
0.0
  0
LINE
  8
0
  6
CONTINUOUS
 62
     7
  5
36C
 10
0.400574
 20
-0.058937
 30
0.0
 11
0.400264
 21
-0.067429
 31
0.0
  0
LINE
  8
0
  6
CONTINUOUS
 62
     7
  5
36D
 10
0.400264
 20
-0.067429
 30
0.0
 11
0.399914
 21
-0.07591
 31
0.0
  0
LINE
  8
0
  6
CONTINUOUS
 62
     7
  5
36E
 10
0.399914
 20
-0.07591
 30
0.0
 11
0.399524
 21
-0.084368
 31
0.0
  0
LINE
  8
0
  6
CONTINUOUS
 62
     7
  5
36F
 10
0.399524
 20
-0.084368
 30
0.0
 11
0.399094
 21
-0.092795
 31
0.0
  0
LINE
  8
0
  6
CONTINUOUS
 62
     7
  5
370
 10
0.399094
 20
-0.092795
 30
0.0
 11
0.398626
 21
-0.10118
 31
0.0
  0
LINE
  8
0
  6
CONTINUOUS
 62
     7
  5
371
 10
0.398626
 20
-0.10118
 30
0.0
 11
0.398121
 21
-0.109514
 31
0.0
  0
LINE
  8
0
  6
CONTINUOUS
 62
     7
  5
372
 10
0.398121
 20
-0.109514
 30
0.0
 11
0.397579
 21
-0.117789
 31
0.0
  0
LINE
  8
0
  6
CONTINUOUS
 62
     7
  5
373
 10
0.397579
 20
-0.117789
 30
0.0
 11
0.397004
 21
-0.125995
 31
0.0
  0
LINE
  8
0
  6
CONTINUOUS
 62
     7
  5
374
 10
0.397004
 20
-0.125995
 30
0.0
 11
0.396396
 21
-0.134126
 31
0.0
  0
LINE
  8
0
  6
CONTINUOUS
 62
     7
  5
375
 10
0.396396
 20
-0.134126
 30
0.0
 11
0.395757
 21
-0.142172
 31
0.0
  0
LINE
  8
0
  6
CONTINUOUS
 62
     7
  5
376
 10
0.395757
 20
-0.142172
 30
0.0
 11
0.395089
 21
-0.150127
 31
0.0
  0
LINE
  8
0
  6
CONTINUOUS
 62
     7
  5
377
 10
0.395089
 20
-0.150127
 30
0.0
 11
0.394394
 21
-0.157984
 31
0.0
  0
LINE
  8
0
  6
CONTINUOUS
 62
     7
  5
378
 10
0.394394
 20
-0.157984
 30
0.0
 11
0.393674
 21
-0.165735
 31
0.0
  0
LINE
  8
0
  6
CONTINUOUS
 62
     7
  5
379
 10
0.393674
 20
-0.165735
 30
0.0
 11
0.392931
 21
-0.173372
 31
0.0
  0
LINE
  8
0
  6
CONTINUOUS
 62
     7
  5
37A
 10
0.392931
 20
-0.173372
 30
0.0
 11
0.392167
 21
-0.180888
 31
0.0
  0
LINE
  8
0
  6
CONTINUOUS
 62
     7
  5
37B
 10
0.392167
 20
-0.180888
 30
0.0
 11
0.391385
 21
-0.188275
 31
0.0
  0
LINE
  8
0
  6
CONTINUOUS
 62
     7
  5
37C
 10
0.391385
 20
-0.188275
 30
0.0
 11
0.390588
 21
-0.195526
 31
0.0
  0
LINE
  8
0
  6
CONTINUOUS
 62
     7
  5
37D
 10
0.390588
 20
-0.195526
 30
0.0
 11
0.389777
 21
-0.202634
 31
0.0
  0
LINE
  8
0
  6
CONTINUOUS
 62
     7
  5
37E
 10
0.389777
 20
-0.202634
 30
0.0
 11
0.388956
 21
-0.209593
 31
0.0
  0
LINE
  8
0
  6
CONTINUOUS
 62
     7
  5
37F
 10
0.388956
 20
-0.209593
 30
0.0
 11
0.388127
 21
-0.216396
 31
0.0
  0
LINE
  8
0
  6
CONTINUOUS
 62
     7
  5
380
 10
0.388127
 20
-0.216396
 30
0.0
 11
0.387292
 21
-0.223037
 31
0.0
  0
LINE
  8
0
  6
CONTINUOUS
 62
     7
  5
381
 10
0.387292
 20
-0.223037
 30
0.0
 11
0.386454
 21
-0.229512
 31
0.0
  0
LINE
  8
0
  6
CONTINUOUS
 62
     7
  5
382
 10
0.386454
 20
-0.229512
 30
0.0
 11
0.385616
 21
-0.235814
 31
0.0
  0
LINE
  8
0
  6
CONTINUOUS
 62
     7
  5
383
 10
0.385616
 20
-0.235814
 30
0.0
 11
0.384781
 21
-0.241939
 31
0.0
  0
LINE
  8
0
  6
CONTINUOUS
 62
     7
  5
384
 10
0.384781
 20
-0.241939
 30
0.0
 11
0.383949
 21
-0.247885
 31
0.0
  0
LINE
  8
0
  6
CONTINUOUS
 62
     7
  5
385
 10
0.383949
 20
-0.247885
 30
0.0
 11
0.383121
 21
-0.253676
 31
0.0
  0
LINE
  8
0
  6
CONTINUOUS
 62
     7
  5
386
 10
0.383121
 20
-0.253676
 30
0.0
 11
0.382287
 21
-0.25937
 31
0.0
  0
LINE
  8
0
  6
CONTINUOUS
 62
     7
  5
387
 10
0.382287
 20
-0.25937
 30
0.0
 11
0.381452
 21
-0.264959
 31
0.0
  0
LINE
  8
0
  6
CONTINUOUS
 62
     7
  5
388
 10
0.381452
 20
0.264959
 30
0.0
 11
0.382287
 21
0.25937
 31
0.0
  0
LINE
  8
0
  6
CONTINUOUS
 62
     7
  5
389
 10
0.382287
 20
0.25937
 30
0.0
 11
0.383121
 21
0.253676
 31
0.0
  0
LINE
  8
0
  6
CONTINUOUS
 62
     7
  5
38A
 10
0.383121
 20
0.253676
 30
0.0
 11
0.383949
 21
0.247885
 31
0.0
  0
LINE
  8
0
  6
CONTINUOUS
 62
     7
  5
38B
 10
0.383949
 20
0.247885
 30
0.0
 11
0.384781
 21
0.241939
 31
0.0
  0
LINE
  8
0
  6
CONTINUOUS
 62
     7
  5
38C
 10
0.384781
 20
0.241939
 30
0.0
 11
0.385616
 21
0.235814
 31
0.0
  0
LINE
  8
0
  6
CONTINUOUS
 62
     7
  5
38D
 10
0.385616
 20
0.235814
 30
0.0
 11
0.386454
 21
0.229512
 31
0.0
  0
LINE
  8
0
  6
CONTINUOUS
 62
     7
  5
38E
 10
0.386454
 20
0.229512
 30
0.0
 11
0.387292
 21
0.223037
 31
0.0
  0
LINE
  8
0
  6
CONTINUOUS
 62
     7
  5
38F
 10
0.387292
 20
0.223037
 30
0.0
 11
0.388127
 21
0.216396
 31
0.0
  0
LINE
  8
0
  6
CONTINUOUS
 62
     7
  5
390
 10
0.388127
 20
0.216396
 30
0.0
 11
0.388956
 21
0.209593
 31
0.0
  0
LINE
  8
0
  6
CONTINUOUS
 62
     7
  5
391
 10
0.388956
 20
0.209593
 30
0.0
 11
0.389777
 21
0.202634
 31
0.0
  0
LINE
  8
0
  6
CONTINUOUS
 62
     7
  5
392
 10
0.389777
 20
0.202634
 30
0.0
 11
0.390588
 21
0.195526
 31
0.0
  0
LINE
  8
0
  6
CONTINUOUS
 62
     7
  5
393
 10
0.390588
 20
0.195526
 30
0.0
 11
0.391385
 21
0.188275
 31
0.0
  0
LINE
  8
0
  6
CONTINUOUS
 62
     7
  5
394
 10
0.391385
 20
0.188275
 30
0.0
 11
0.392167
 21
0.180888
 31
0.0
  0
LINE
  8
0
  6
CONTINUOUS
 62
     7
  5
395
 10
0.392167
 20
0.180888
 30
0.0
 11
0.392931
 21
0.173372
 31
0.0
  0
LINE
  8
0
  6
CONTINUOUS
 62
     7
  5
396
 10
0.392931
 20
0.173372
 30
0.0
 11
0.393674
 21
0.165735
 31
0.0
  0
LINE
  8
0
  6
CONTINUOUS
 62
     7
  5
397
 10
0.393674
 20
0.165735
 30
0.0
 11
0.394394
 21
0.157984
 31
0.0
  0
LINE
  8
0
  6
CONTINUOUS
 62
     7
  5
398
 10
0.394394
 20
0.157984
 30
0.0
 11
0.395089
 21
0.150127
 31
0.0
  0
LINE
  8
0
  6
CONTINUOUS
 62
     7
  5
399
 10
0.395089
 20
0.150127
 30
0.0
 11
0.395757
 21
0.142172
 31
0.0
  0
LINE
  8
0
  6
CONTINUOUS
 62
     7
  5
39A
 10
0.395757
 20
0.142172
 30
0.0
 11
0.396396
 21
0.134126
 31
0.0
  0
LINE
  8
0
  6
CONTINUOUS
 62
     7
  5
39B
 10
0.396396
 20
0.134126
 30
0.0
 11
0.397004
 21
0.125995
 31
0.0
  0
LINE
  8
0
  6
CONTINUOUS
 62
     7
  5
39C
 10
0.397004
 20
0.125995
 30
0.0
 11
0.397579
 21
0.117789
 31
0.0
  0
LINE
  8
0
  6
CONTINUOUS
 62
     7
  5
39D
 10
0.397579
 20
0.117789
 30
0.0
 11
0.398121
 21
0.109514
 31
0.0
  0
LINE
  8
0
  6
CONTINUOUS
 62
     7
  5
39E
 10
0.398121
 20
0.109514
 30
0.0
 11
0.398626
 21
0.10118
 31
0.0
  0
LINE
  8
0
  6
CONTINUOUS
 62
     7
  5
39F
 10
0.398626
 20
0.10118
 30
0.0
 11
0.399094
 21
0.092795
 31
0.0
  0
LINE
  8
0
  6
CONTINUOUS
 62
     7
  5
3A0
 10
0.399094
 20
0.092795
 30
0.0
 11
0.399524
 21
0.084368
 31
0.0
  0
LINE
  8
0
  6
CONTINUOUS
 62
     7
  5
3A1
 10
0.399524
 20
0.084368
 30
0.0
 11
0.399914
 21
0.07591
 31
0.0
  0
LINE
  8
0
  6
CONTINUOUS
 62
     7
  5
3A2
 10
0.399914
 20
0.07591
 30
0.0
 11
0.400264
 21
0.067429
 31
0.0
  0
LINE
  8
0
  6
CONTINUOUS
 62
     7
  5
3A3
 10
0.400264
 20
0.067429
 30
0.0
 11
0.400574
 21
0.058937
 31
0.0
  0
LINE
  8
0
  6
CONTINUOUS
 62
     7
  5
3A4
 10
0.400574
 20
0.058937
 30
0.0
 11
0.400841
 21
0.050442
 31
0.0
  0
LINE
  8
0
  6
CONTINUOUS
 62
     7
  5
3A5
 10
0.400841
 20
0.050442
 30
0.0
 11
0.401067
 21
0.041956
 31
0.0
  0
LINE
  8
0
  6
CONTINUOUS
 62
     7
  5
3A6
 10
0.401067
 20
0.041956
 30
0.0
 11
0.401252
 21
0.033488
 31
0.0
  0
LINE
  8
0
  6
CONTINUOUS
 62
     7
  5
3A7
 10
0.401252
 20
0.033488
 30
0.0
 11
0.401394
 21
0.025049
 31
0.0
  0
LINE
  8
0
  6
CONTINUOUS
 62
     7
  5
3A8
 10
0.401394
 20
0.025049
 30
0.0
 11
0.401495
 21
0.016648
 31
0.0
  0
LINE
  8
0
  6
CONTINUOUS
 62
     7
  5
3A9
 10
0.401495
 20
0.016648
 30
0.0
 11
0.401555
 21
0.008295
 31
0.0
  0
LINE
  8
0
  6
CONTINUOUS
 62
     7
  5
3AA
 10
0.401555
 20
0.008295
 30
0.0
 11
0.401575
 21
0.0
 31
0.0
  0
LINE
  8
0
  6
CONTINUOUS
 62
     7
  5
3AB
 10
0.275591
 20
-0.352362
 30
0.0
 11
0.27563
 21
-0.352291
 31
0.0
  0
LINE
  8
0
  6
CONTINUOUS
 62
     7
  5
3AC
 10
0.27563
 20
-0.352291
 30
0.0
 11
0.275748
 21
-0.352075
 31
0.0
  0
LINE
  8
0
  6
CONTINUOUS
 62
     7
  5
3AD
 10
0.275748
 20
-0.352075
 30
0.0
 11
0.275946
 21
-0.351712
 31
0.0
  0
LINE
  8
0
  6
CONTINUOUS
 62
     7
  5
3AE
 10
0.275946
 20
-0.351712
 30
0.0
 11
0.276224
 21
-0.351202
 31
0.0
  0
LINE
  8
0
  6
CONTINUOUS
 62
     7
  5
3AF
 10
0.276224
 20
-0.351202
 30
0.0
 11
0.276584
 21
-0.350542
 31
0.0
  0
LINE
  8
0
  6
CONTINUOUS
 62
     7
  5
3B0
 10
0.276584
 20
-0.350542
 30
0.0
 11
0.277025
 21
-0.349731
 31
0.0
  0
LINE
  8
0
  6
CONTINUOUS
 62
     7
  5
3B1
 10
0.277025
 20
-0.349731
 30
0.0
 11
0.277548
 21
-0.348769
 31
0.0
  0
LINE
  8
0
  6
CONTINUOUS
 62
     7
  5
3B2
 10
0.277548
 20
-0.348769
 30
0.0
 11
0.278152
 21
-0.347654
 31
0.0
  0
LINE
  8
0
  6
CONTINUOUS
 62
     7
  5
3B3
 10
0.278152
 20
-0.347654
 30
0.0
 11
0.278837
 21
-0.346387
 31
0.0
  0
LINE
  8
0
  6
CONTINUOUS
 62
     7
  5
3B4
 10
0.278837
 20
-0.346387
 30
0.0
 11
0.279602
 21
-0.344968
 31
0.0
  0
LINE
  8
0
  6
CONTINUOUS
 62
     7
  5
3B5
 10
0.279602
 20
-0.344968
 30
0.0
 11
0.280447
 21
-0.343397
 31
0.0
  0
LINE
  8
0
  6
CONTINUOUS
 62
     7
  5
3B6
 10
0.280447
 20
-0.343397
 30
0.0
 11
0.28137
 21
-0.341675
 31
0.0
  0
LINE
  8
0
  6
CONTINUOUS
 62
     7
  5
3B7
 10
0.28137
 20
-0.341675
 30
0.0
 11
0.282369
 21
-0.339802
 31
0.0
  0
LINE
  8
0
  6
CONTINUOUS
 62
     7
  5
3B8
 10
0.282369
 20
-0.339802
 30
0.0
 11
0.283444
 21
-0.337781
 31
0.0
  0
LINE
  8
0
  6
CONTINUOUS
 62
     7
  5
3B9
 10
0.283444
 20
-0.337781
 30
0.0
 11
0.284592
 21
-0.335611
 31
0.0
  0
LINE
  8
0
  6
CONTINUOUS
 62
     7
  5
3BA
 10
0.284592
 20
-0.335611
 30
0.0
 11
0.285812
 21
-0.333296
 31
0.0
  0
LINE
  8
0
  6
CONTINUOUS
 62
     7
  5
3BB
 10
0.285812
 20
-0.333296
 30
0.0
 11
0.287101
 21
-0.330836
 31
0.0
  0
LINE
  8
0
  6
CONTINUOUS
 62
     7
  5
3BC
 10
0.287101
 20
-0.330836
 30
0.0
 11
0.288457
 21
-0.328234
 31
0.0
  0
LINE
  8
0
  6
CONTINUOUS
 62
     7
  5
3BD
 10
0.288457
 20
-0.328234
 30
0.0
 11
0.289877
 21
-0.325492
 31
0.0
  0
LINE
  8
0
  6
CONTINUOUS
 62
     7
  5
3BE
 10
0.289877
 20
-0.325492
 30
0.0
 11
0.29136
 21
-0.322611
 31
0.0
  0
LINE
  8
0
  6
CONTINUOUS
 62
     7
  5
3BF
 10
0.29136
 20
-0.322611
 30
0.0
 11
0.292903
 21
-0.319594
 31
0.0
  0
LINE
  8
0
  6
CONTINUOUS
 62
     7
  5
3C0
 10
0.292903
 20
-0.319594
 30
0.0
 11
0.294502
 21
-0.316444
 31
0.0
  0
LINE
  8
0
  6
CONTINUOUS
 62
     7
  5
3C1
 10
0.294502
 20
-0.316444
 30
0.0
 11
0.296155
 21
-0.313162
 31
0.0
  0
LINE
  8
0
  6
CONTINUOUS
 62
     7
  5
3C2
 10
0.296155
 20
-0.313162
 30
0.0
 11
0.297858
 21
-0.309754
 31
0.0
  0
LINE
  8
0
  6
CONTINUOUS
 62
     7
  5
3C3
 10
0.297858
 20
-0.309754
 30
0.0
 11
0.299609
 21
-0.306221
 31
0.0
  0
LINE
  8
0
  6
CONTINUOUS
 62
     7
  5
3C4
 10
0.299609
 20
-0.306221
 30
0.0
 11
0.301404
 21
-0.302568
 31
0.0
  0
LINE
  8
0
  6
CONTINUOUS
 62
     7
  5
3C5
 10
0.301404
 20
-0.302568
 30
0.0
 11
0.303238
 21
-0.298798
 31
0.0
  0
LINE
  8
0
  6
CONTINUOUS
 62
     7
  5
3C6
 10
0.303238
 20
-0.298798
 30
0.0
 11
0.305109
 21
-0.294915
 31
0.0
  0
LINE
  8
0
  6
CONTINUOUS
 62
     7
  5
3C7
 10
0.305109
 20
-0.294915
 30
0.0
 11
0.307013
 21
-0.290924
 31
0.0
  0
LINE
  8
0
  6
CONTINUOUS
 62
     7
  5
3C8
 10
0.307013
 20
-0.290924
 30
0.0
 11
0.308945
 21
-0.286829
 31
0.0
  0
LINE
  8
0
  6
CONTINUOUS
 62
     7
  5
3C9
 10
0.308945
 20
-0.286829
 30
0.0
 11
0.310902
 21
-0.282635
 31
0.0
  0
LINE
  8
0
  6
CONTINUOUS
 62
     7
  5
3CA
 10
0.310902
 20
-0.282635
 30
0.0
 11
0.31288
 21
-0.278345
 31
0.0
  0
LINE
  8
0
  6
CONTINUOUS
 62
     7
  5
3CB
 10
0.31288
 20
-0.278345
 30
0.0
 11
0.314875
 21
-0.273966
 31
0.0
  0
LINE
  8
0
  6
CONTINUOUS
 62
     7
  5
3CC
 10
0.314875
 20
-0.273966
 30
0.0
 11
0.316882
 21
-0.269503
 31
0.0
  0
LINE
  8
0
  6
CONTINUOUS
 62
     7
  5
3CD
 10
0.316882
 20
-0.269503
 30
0.0
 11
0.318898
 21
-0.264959
 31
0.0
  0
LINE
  8
0
  6
CONTINUOUS
 62
     7
  5
3CE
 10
0.318898
 20
-0.264959
 30
0.0
 11
0.381452
 21
-0.264959
 31
0.0
  0
LINE
  8
0
  6
CONTINUOUS
 62
     7
  5
3CF
 10
0.023622
 20
-0.352362
 30
0.0
 11
0.023622
 21
0.352362
 31
0.0
  0
LINE
  8
0
  6
CONTINUOUS
 62
     7
  5
3D0
 10
0.0
 20
0.31249
 30
0.0
 11
-0.109331
 21
0.31249
 31
0.0
  0
LINE
  8
0
  6
CONTINUOUS
 62
     7
  5
3D1
 10
-0.437008
 20
0.31249
 30
0.0
 11
-0.437297
 21
0.311985
 31
0.0
  0
LINE
  8
0
  6
CONTINUOUS
 62
     7
  5
3D2
 10
-0.437297
 20
0.311985
 30
0.0
 11
-0.437586
 21
0.31148
 31
0.0
  0
LINE
  8
0
  6
CONTINUOUS
 62
     7
  5
3D3
 10
-0.437586
 20
0.31148
 30
0.0
 11
-0.437875
 21
0.310977
 31
0.0
  0
LINE
  8
0
  6
CONTINUOUS
 62
     7
  5
3D4
 10
-0.437875
 20
0.310977
 30
0.0
 11
-0.438163
 21
0.310474
 31
0.0
  0
LINE
  8
0
  6
CONTINUOUS
 62
     7
  5
3D5
 10
-0.438163
 20
0.310474
 30
0.0
 11
-0.438451
 21
0.309972
 31
0.0
  0
LINE
  8
0
  6
CONTINUOUS
 62
     7
  5
3D6
 10
-0.438451
 20
0.309972
 30
0.0
 11
-0.438738
 21
0.30947
 31
0.0
  0
LINE
  8
0
  6
CONTINUOUS
 62
     7
  5
3D7
 10
-0.438738
 20
0.30947
 30
0.0
 11
-0.439024
 21
0.30897
 31
0.0
  0
LINE
  8
0
  6
CONTINUOUS
 62
     7
  5
3D8
 10
-0.439024
 20
0.30897
 30
0.0
 11
-0.439311
 21
0.30847
 31
0.0
  0
LINE
  8
0
  6
CONTINUOUS
 62
     7
  5
3D9
 10
-0.439311
 20
0.30847
 30
0.0
 11
-0.439596
 21
0.307971
 31
0.0
  0
LINE
  8
0
  6
CONTINUOUS
 62
     7
  5
3DA
 10
-0.439596
 20
0.307971
 30
0.0
 11
-0.439882
 21
0.307473
 31
0.0
  0
LINE
  8
0
  6
CONTINUOUS
 62
     7
  5
3DB
 10
-0.439882
 20
0.307473
 30
0.0
 11
-0.440166
 21
0.306976
 31
0.0
  0
LINE
  8
0
  6
CONTINUOUS
 62
     7
  5
3DC
 10
-0.440166
 20
0.306976
 30
0.0
 11
-0.440451
 21
0.306479
 31
0.0
  0
LINE
  8
0
  6
CONTINUOUS
 62
     7
  5
3DD
 10
-0.440451
 20
0.306479
 30
0.0
 11
-0.440734
 21
0.305984
 31
0.0
  0
LINE
  8
0
  6
CONTINUOUS
 62
     7
  5
3DE
 10
-0.440734
 20
0.305984
 30
0.0
 11
-0.441018
 21
0.305489
 31
0.0
  0
LINE
  8
0
  6
CONTINUOUS
 62
     7
  5
3DF
 10
-0.441018
 20
0.305489
 30
0.0
 11
-0.441301
 21
0.304995
 31
0.0
  0
LINE
  8
0
  6
CONTINUOUS
 62
     7
  5
3E0
 10
-0.441301
 20
0.304995
 30
0.0
 11
-0.441583
 21
0.304501
 31
0.0
  0
LINE
  8
0
  6
CONTINUOUS
 62
     7
  5
3E1
 10
-0.441583
 20
0.304501
 30
0.0
 11
-0.441865
 21
0.304009
 31
0.0
  0
LINE
  8
0
  6
CONTINUOUS
 62
     7
  5
3E2
 10
-0.441865
 20
0.304009
 30
0.0
 11
-0.442147
 21
0.303517
 31
0.0
  0
LINE
  8
0
  6
CONTINUOUS
 62
     7
  5
3E3
 10
-0.442147
 20
0.303517
 30
0.0
 11
-0.442428
 21
0.303026
 31
0.0
  0
LINE
  8
0
  6
CONTINUOUS
 62
     7
  5
3E4
 10
-0.442428
 20
0.303026
 30
0.0
 11
-0.442709
 21
0.302536
 31
0.0
  0
LINE
  8
0
  6
CONTINUOUS
 62
     7
  5
3E5
 10
-0.442709
 20
0.302536
 30
0.0
 11
-0.442989
 21
0.302046
 31
0.0
  0
LINE
  8
0
  6
CONTINUOUS
 62
     7
  5
3E6
 10
-0.442989
 20
0.302046
 30
0.0
 11
-0.443269
 21
0.301558
 31
0.0
  0
LINE
  8
0
  6
CONTINUOUS
 62
     7
  5
3E7
 10
-0.443269
 20
0.301558
 30
0.0
 11
-0.443548
 21
0.30107
 31
0.0
  0
LINE
  8
0
  6
CONTINUOUS
 62
     7
  5
3E8
 10
-0.443548
 20
0.30107
 30
0.0
 11
-0.443827
 21
0.300583
 31
0.0
  0
LINE
  8
0
  6
CONTINUOUS
 62
     7
  5
3E9
 10
-0.443827
 20
0.300583
 30
0.0
 11
-0.444105
 21
0.300097
 31
0.0
  0
LINE
  8
0
  6
CONTINUOUS
 62
     7
  5
3EA
 10
-0.444105
 20
0.300097
 30
0.0
 11
-0.444383
 21
0.299611
 31
0.0
  0
LINE
  8
0
  6
CONTINUOUS
 62
     7
  5
3EB
 10
-0.444383
 20
0.299611
 30
0.0
 11
-0.44466
 21
0.299126
 31
0.0
  0
LINE
  8
0
  6
CONTINUOUS
 62
     7
  5
3EC
 10
-0.44466
 20
0.299126
 30
0.0
 11
-0.444937
 21
0.298642
 31
0.0
  0
LINE
  8
0
  6
CONTINUOUS
 62
     7
  5
3ED
 10
-0.444937
 20
0.298642
 30
0.0
 11
-0.445214
 21
0.298159
 31
0.0
  0
LINE
  8
0
  6
CONTINUOUS
 62
     7
  5
3EE
 10
-0.445214
 20
0.298159
 30
0.0
 11
-0.44549
 21
0.297677
 31
0.0
  0
LINE
  8
0
  6
CONTINUOUS
 62
     7
  5
3EF
 10
-0.44549
 20
0.297677
 30
0.0
 11
-0.445766
 21
0.297195
 31
0.0
  0
LINE
  8
0
  6
CONTINUOUS
 62
     7
  5
3F0
 10
-0.445766
 20
0.297195
 30
0.0
 11
-0.446041
 21
0.296714
 31
0.0
  0
LINE
  8
0
  6
CONTINUOUS
 62
     7
  5
3F1
 10
-0.446041
 20
0.296714
 30
0.0
 11
-0.446316
 21
0.296234
 31
0.0
  0
LINE
  8
0
  6
CONTINUOUS
 62
     7
  5
3F2
 10
-0.446316
 20
0.296234
 30
0.0
 11
-0.44659
 21
0.295754
 31
0.0
  0
LINE
  8
0
  6
CONTINUOUS
 62
     7
  5
3F3
 10
-0.44659
 20
0.295754
 30
0.0
 11
-0.446864
 21
0.295276
 31
0.0
  0
LINE
  8
0
  6
CONTINUOUS
 62
     7
  5
3F4
 10
-0.322835
 20
0.31249
 30
0.0
 11
-0.437008
 21
0.31249
 31
0.0
  0
LINE
  8
0
  6
CONTINUOUS
 62
     7
  5
3F5
 10
-0.125984
 20
0.119675
 30
0.0
 11
0.0
 21
0.119675
 31
0.0
  0
LINE
  8
0
  6
CONTINUOUS
 62
     7
  5
3F6
 10
-0.437008
 20
-0.31249
 30
0.0
 11
-0.322835
 21
-0.31249
 31
0.0
  0
LINE
  8
0
  6
CONTINUOUS
 62
     7
  5
3F7
 10
-0.446864
 20
-0.295276
 30
0.0
 11
-0.44659
 21
-0.295754
 31
0.0
  0
LINE
  8
0
  6
CONTINUOUS
 62
     7
  5
3F8
 10
-0.44659
 20
-0.295754
 30
0.0
 11
-0.446316
 21
-0.296234
 31
0.0
  0
LINE
  8
0
  6
CONTINUOUS
 62
     7
  5
3F9
 10
-0.446316
 20
-0.296234
 30
0.0
 11
-0.446041
 21
-0.296714
 31
0.0
  0
LINE
  8
0
  6
CONTINUOUS
 62
     7
  5
3FA
 10
-0.446041
 20
-0.296714
 30
0.0
 11
-0.445766
 21
-0.297195
 31
0.0
  0
LINE
  8
0
  6
CONTINUOUS
 62
     7
  5
3FB
 10
-0.445766
 20
-0.297195
 30
0.0
 11
-0.44549
 21
-0.297677
 31
0.0
  0
LINE
  8
0
  6
CONTINUOUS
 62
     7
  5
3FC
 10
-0.44549
 20
-0.297677
 30
0.0
 11
-0.445214
 21
-0.298159
 31
0.0
  0
LINE
  8
0
  6
CONTINUOUS
 62
     7
  5
3FD
 10
-0.445214
 20
-0.298159
 30
0.0
 11
-0.444937
 21
-0.298642
 31
0.0
  0
LINE
  8
0
  6
CONTINUOUS
 62
     7
  5
3FE
 10
-0.444937
 20
-0.298642
 30
0.0
 11
-0.44466
 21
-0.299126
 31
0.0
  0
LINE
  8
0
  6
CONTINUOUS
 62
     7
  5
3FF
 10
-0.44466
 20
-0.299126
 30
0.0
 11
-0.444383
 21
-0.299611
 31
0.0
  0
LINE
  8
0
  6
CONTINUOUS
 62
     7
  5
400
 10
-0.444383
 20
-0.299611
 30
0.0
 11
-0.444105
 21
-0.300097
 31
0.0
  0
LINE
  8
0
  6
CONTINUOUS
 62
     7
  5
401
 10
-0.444105
 20
-0.300097
 30
0.0
 11
-0.443827
 21
-0.300583
 31
0.0
  0
LINE
  8
0
  6
CONTINUOUS
 62
     7
  5
402
 10
-0.443827
 20
-0.300583
 30
0.0
 11
-0.443548
 21
-0.30107
 31
0.0
  0
LINE
  8
0
  6
CONTINUOUS
 62
     7
  5
403
 10
-0.443548
 20
-0.30107
 30
0.0
 11
-0.443269
 21
-0.301558
 31
0.0
  0
LINE
  8
0
  6
CONTINUOUS
 62
     7
  5
404
 10
-0.443269
 20
-0.301558
 30
0.0
 11
-0.442989
 21
-0.302046
 31
0.0
  0
LINE
  8
0
  6
CONTINUOUS
 62
     7
  5
405
 10
-0.442989
 20
-0.302046
 30
0.0
 11
-0.442709
 21
-0.302536
 31
0.0
  0
LINE
  8
0
  6
CONTINUOUS
 62
     7
  5
406
 10
-0.442709
 20
-0.302536
 30
0.0
 11
-0.442428
 21
-0.303026
 31
0.0
  0
LINE
  8
0
  6
CONTINUOUS
 62
     7
  5
407
 10
-0.442428
 20
-0.303026
 30
0.0
 11
-0.442147
 21
-0.303517
 31
0.0
  0
LINE
  8
0
  6
CONTINUOUS
 62
     7
  5
408
 10
-0.442147
 20
-0.303517
 30
0.0
 11
-0.441865
 21
-0.304009
 31
0.0
  0
LINE
  8
0
  6
CONTINUOUS
 62
     7
  5
409
 10
-0.441865
 20
-0.304009
 30
0.0
 11
-0.441583
 21
-0.304501
 31
0.0
  0
LINE
  8
0
  6
CONTINUOUS
 62
     7
  5
40A
 10
-0.441583
 20
-0.304501
 30
0.0
 11
-0.441301
 21
-0.304995
 31
0.0
  0
LINE
  8
0
  6
CONTINUOUS
 62
     7
  5
40B
 10
-0.441301
 20
-0.304995
 30
0.0
 11
-0.441018
 21
-0.305489
 31
0.0
  0
LINE
  8
0
  6
CONTINUOUS
 62
     7
  5
40C
 10
-0.441018
 20
-0.305489
 30
0.0
 11
-0.440734
 21
-0.305984
 31
0.0
  0
LINE
  8
0
  6
CONTINUOUS
 62
     7
  5
40D
 10
-0.440734
 20
-0.305984
 30
0.0
 11
-0.440451
 21
-0.306479
 31
0.0
  0
LINE
  8
0
  6
CONTINUOUS
 62
     7
  5
40E
 10
-0.440451
 20
-0.306479
 30
0.0
 11
-0.440166
 21
-0.306976
 31
0.0
  0
LINE
  8
0
  6
CONTINUOUS
 62
     7
  5
40F
 10
-0.440166
 20
-0.306976
 30
0.0
 11
-0.439882
 21
-0.307473
 31
0.0
  0
LINE
  8
0
  6
CONTINUOUS
 62
     7
  5
410
 10
-0.439882
 20
-0.307473
 30
0.0
 11
-0.439596
 21
-0.307971
 31
0.0
  0
LINE
  8
0
  6
CONTINUOUS
 62
     7
  5
411
 10
-0.439596
 20
-0.307971
 30
0.0
 11
-0.439311
 21
-0.30847
 31
0.0
  0
LINE
  8
0
  6
CONTINUOUS
 62
     7
  5
412
 10
-0.439311
 20
-0.30847
 30
0.0
 11
-0.439024
 21
-0.30897
 31
0.0
  0
LINE
  8
0
  6
CONTINUOUS
 62
     7
  5
413
 10
-0.439024
 20
-0.30897
 30
0.0
 11
-0.438738
 21
-0.30947
 31
0.0
  0
LINE
  8
0
  6
CONTINUOUS
 62
     7
  5
414
 10
-0.438738
 20
-0.30947
 30
0.0
 11
-0.438451
 21
-0.309972
 31
0.0
  0
LINE
  8
0
  6
CONTINUOUS
 62
     7
  5
415
 10
-0.438451
 20
-0.309972
 30
0.0
 11
-0.438163
 21
-0.310474
 31
0.0
  0
LINE
  8
0
  6
CONTINUOUS
 62
     7
  5
416
 10
-0.438163
 20
-0.310474
 30
0.0
 11
-0.437875
 21
-0.310977
 31
0.0
  0
LINE
  8
0
  6
CONTINUOUS
 62
     7
  5
417
 10
-0.437875
 20
-0.310977
 30
0.0
 11
-0.437586
 21
-0.31148
 31
0.0
  0
LINE
  8
0
  6
CONTINUOUS
 62
     7
  5
418
 10
-0.437586
 20
-0.31148
 30
0.0
 11
-0.437297
 21
-0.311985
 31
0.0
  0
LINE
  8
0
  6
CONTINUOUS
 62
     7
  5
419
 10
-0.437297
 20
-0.311985
 30
0.0
 11
-0.437008
 21
-0.31249
 31
0.0
  0
LINE
  8
0
  6
CONTINUOUS
 62
     7
  5
41A
 10
-0.109331
 20
-0.31249
 30
0.0
 11
0.0
 21
-0.31249
 31
0.0
  0
LINE
  8
0
  6
CONTINUOUS
 62
     7
  5
41B
 10
0.0
 20
-0.119675
 30
0.0
 11
-0.125984
 21
-0.119675
 31
0.0
  0
LINE
  8
0
  6
CONTINUOUS
 62
     7
  5
41C
 10
-0.322835
 20
-0.119675
 30
0.0
 11
-0.437008
 21
-0.119675
 31
0.0
  0
LINE
  8
0
  6
CONTINUOUS
 62
     7
  5
41D
 10
-0.437008
 20
-0.119675
 30
0.0
 11
-0.437008
 21
-0.31249
 31
0.0
  0
LINE
  8
0
  6
CONTINUOUS
 62
     7
  5
41E
 10
-0.446864
 20
0.295276
 30
0.0
 11
-0.44659
 21
0.295754
 31
0.0
  0
LINE
  8
0
  6
CONTINUOUS
 62
     7
  5
41F
 10
-0.44659
 20
0.295754
 30
0.0
 11
-0.446316
 21
0.296234
 31
0.0
  0
LINE
  8
0
  6
CONTINUOUS
 62
     7
  5
420
 10
-0.446316
 20
0.296234
 30
0.0
 11
-0.446041
 21
0.296714
 31
0.0
  0
LINE
  8
0
  6
CONTINUOUS
 62
     7
  5
421
 10
-0.446041
 20
0.296714
 30
0.0
 11
-0.445766
 21
0.297195
 31
0.0
  0
LINE
  8
0
  6
CONTINUOUS
 62
     7
  5
422
 10
-0.445766
 20
0.297195
 30
0.0
 11
-0.44549
 21
0.297677
 31
0.0
  0
LINE
  8
0
  6
CONTINUOUS
 62
     7
  5
423
 10
-0.44549
 20
0.297677
 30
0.0
 11
-0.445214
 21
0.298159
 31
0.0
  0
LINE
  8
0
  6
CONTINUOUS
 62
     7
  5
424
 10
-0.445214
 20
0.298159
 30
0.0
 11
-0.444937
 21
0.298642
 31
0.0
  0
LINE
  8
0
  6
CONTINUOUS
 62
     7
  5
425
 10
-0.444937
 20
0.298642
 30
0.0
 11
-0.44466
 21
0.299126
 31
0.0
  0
LINE
  8
0
  6
CONTINUOUS
 62
     7
  5
426
 10
-0.44466
 20
0.299126
 30
0.0
 11
-0.444383
 21
0.299611
 31
0.0
  0
LINE
  8
0
  6
CONTINUOUS
 62
     7
  5
427
 10
-0.444383
 20
0.299611
 30
0.0
 11
-0.444105
 21
0.300097
 31
0.0
  0
LINE
  8
0
  6
CONTINUOUS
 62
     7
  5
428
 10
-0.444105
 20
0.300097
 30
0.0
 11
-0.443827
 21
0.300583
 31
0.0
  0
LINE
  8
0
  6
CONTINUOUS
 62
     7
  5
429
 10
-0.443827
 20
0.300583
 30
0.0
 11
-0.443548
 21
0.30107
 31
0.0
  0
LINE
  8
0
  6
CONTINUOUS
 62
     7
  5
42A
 10
-0.443548
 20
0.30107
 30
0.0
 11
-0.443269
 21
0.301558
 31
0.0
  0
LINE
  8
0
  6
CONTINUOUS
 62
     7
  5
42B
 10
-0.443269
 20
0.301558
 30
0.0
 11
-0.442989
 21
0.302046
 31
0.0
  0
LINE
  8
0
  6
CONTINUOUS
 62
     7
  5
42C
 10
-0.442989
 20
0.302046
 30
0.0
 11
-0.442709
 21
0.302536
 31
0.0
  0
LINE
  8
0
  6
CONTINUOUS
 62
     7
  5
42D
 10
-0.442709
 20
0.302536
 30
0.0
 11
-0.442428
 21
0.303026
 31
0.0
  0
LINE
  8
0
  6
CONTINUOUS
 62
     7
  5
42E
 10
-0.442428
 20
0.303026
 30
0.0
 11
-0.442147
 21
0.303517
 31
0.0
  0
LINE
  8
0
  6
CONTINUOUS
 62
     7
  5
42F
 10
-0.442147
 20
0.303517
 30
0.0
 11
-0.441865
 21
0.304009
 31
0.0
  0
LINE
  8
0
  6
CONTINUOUS
 62
     7
  5
430
 10
-0.441865
 20
0.304009
 30
0.0
 11
-0.441583
 21
0.304501
 31
0.0
  0
LINE
  8
0
  6
CONTINUOUS
 62
     7
  5
431
 10
-0.441583
 20
0.304501
 30
0.0
 11
-0.441301
 21
0.304995
 31
0.0
  0
LINE
  8
0
  6
CONTINUOUS
 62
     7
  5
432
 10
-0.441301
 20
0.304995
 30
0.0
 11
-0.441018
 21
0.305489
 31
0.0
  0
LINE
  8
0
  6
CONTINUOUS
 62
     7
  5
433
 10
-0.441018
 20
0.305489
 30
0.0
 11
-0.440734
 21
0.305984
 31
0.0
  0
LINE
  8
0
  6
CONTINUOUS
 62
     7
  5
434
 10
-0.440734
 20
0.305984
 30
0.0
 11
-0.440451
 21
0.306479
 31
0.0
  0
LINE
  8
0
  6
CONTINUOUS
 62
     7
  5
435
 10
-0.440451
 20
0.306479
 30
0.0
 11
-0.440166
 21
0.306976
 31
0.0
  0
LINE
  8
0
  6
CONTINUOUS
 62
     7
  5
436
 10
-0.440166
 20
0.306976
 30
0.0
 11
-0.439882
 21
0.307473
 31
0.0
  0
LINE
  8
0
  6
CONTINUOUS
 62
     7
  5
437
 10
-0.439882
 20
0.307473
 30
0.0
 11
-0.439596
 21
0.307971
 31
0.0
  0
LINE
  8
0
  6
CONTINUOUS
 62
     7
  5
438
 10
-0.439596
 20
0.307971
 30
0.0
 11
-0.439311
 21
0.30847
 31
0.0
  0
LINE
  8
0
  6
CONTINUOUS
 62
     7
  5
439
 10
-0.439311
 20
0.30847
 30
0.0
 11
-0.439024
 21
0.30897
 31
0.0
  0
LINE
  8
0
  6
CONTINUOUS
 62
     7
  5
43A
 10
-0.439024
 20
0.30897
 30
0.0
 11
-0.438738
 21
0.30947
 31
0.0
  0
LINE
  8
0
  6
CONTINUOUS
 62
     7
  5
43B
 10
-0.438738
 20
0.30947
 30
0.0
 11
-0.438451
 21
0.309972
 31
0.0
  0
LINE
  8
0
  6
CONTINUOUS
 62
     7
  5
43C
 10
-0.438451
 20
0.309972
 30
0.0
 11
-0.438163
 21
0.310474
 31
0.0
  0
LINE
  8
0
  6
CONTINUOUS
 62
     7
  5
43D
 10
-0.438163
 20
0.310474
 30
0.0
 11
-0.437875
 21
0.310977
 31
0.0
  0
LINE
  8
0
  6
CONTINUOUS
 62
     7
  5
43E
 10
-0.437875
 20
0.310977
 30
0.0
 11
-0.437586
 21
0.31148
 31
0.0
  0
LINE
  8
0
  6
CONTINUOUS
 62
     7
  5
43F
 10
-0.437586
 20
0.31148
 30
0.0
 11
-0.437297
 21
0.311985
 31
0.0
  0
LINE
  8
0
  6
CONTINUOUS
 62
     7
  5
440
 10
-0.437297
 20
0.311985
 30
0.0
 11
-0.437008
 21
0.31249
 31
0.0
  0
LINE
  8
0
  6
CONTINUOUS
 62
     7
  5
441
 10
-0.448819
 20
0.0
 30
0.0
 11
-0.448819
 21
0.043059
 31
0.0
  0
LINE
  8
0
  6
CONTINUOUS
 62
     7
  5
442
 10
-0.448819
 20
0.294503
 30
0.0
 11
-0.448819
 21
0.043059
 31
0.0
  0
LINE
  8
0
  6
CONTINUOUS
 62
     7
  5
443
 10
-0.448819
 20
-0.043059
 30
0.0
 11
-0.448819
 21
-0.294503
 31
0.0
  0
LINE
  8
0
  6
CONTINUOUS
 62
     7
  5
444
 10
-0.448819
 20
-0.043059
 30
0.0
 11
-0.448819
 21
0.0
 31
0.0
  0
LINE
  8
0
  6
CONTINUOUS
 62
     7
  5
445
 10
-0.448373
 20
-0.295276
 30
0.0
 11
-0.446864
 21
-0.295276
 31
0.0
  0
LINE
  8
0
  6
CONTINUOUS
 62
     7
  5
446
 10
-0.446864
 20
0.295276
 30
0.0
 11
-0.448373
 21
0.295276
 31
0.0
  0
LINE
  8
0
  6
CONTINUOUS
 62
     7
  5
447
 10
-0.437008
 20
0.31249
 30
0.0
 11
-0.437008
 21
0.119675
 31
0.0
  0
LINE
  8
0
  6
CONTINUOUS
 62
     7
  5
448
 10
-0.437008
 20
0.119675
 30
0.0
 11
-0.322835
 21
0.119675
 31
0.0
  0
LINE
  8
0
  6
CONTINUOUS
 62
     7
  5
449
 10
-0.448819
 20
0.043059
 30
0.0
 11
-0.448634
 21
0.045192
 31
0.0
  0
LINE
  8
0
  6
CONTINUOUS
 62
     7
  5
44A
 10
-0.448634
 20
0.045192
 30
0.0
 11
-0.448441
 21
0.047326
 31
0.0
  0
LINE
  8
0
  6
CONTINUOUS
 62
     7
  5
44B
 10
-0.448441
 20
0.047326
 30
0.0
 11
-0.448239
 21
0.049463
 31
0.0
  0
LINE
  8
0
  6
CONTINUOUS
 62
     7
  5
44C
 10
-0.448239
 20
0.049463
 30
0.0
 11
-0.448028
 21
0.051601
 31
0.0
  0
LINE
  8
0
  6
CONTINUOUS
 62
     7
  5
44D
 10
-0.448028
 20
0.051601
 30
0.0
 11
-0.447808
 21
0.05374
 31
0.0
  0
LINE
  8
0
  6
CONTINUOUS
 62
     7
  5
44E
 10
-0.447808
 20
0.05374
 30
0.0
 11
-0.44758
 21
0.055882
 31
0.0
  0
LINE
  8
0
  6
CONTINUOUS
 62
     7
  5
44F
 10
-0.44758
 20
0.055882
 30
0.0
 11
-0.447342
 21
0.058027
 31
0.0
  0
LINE
  8
0
  6
CONTINUOUS
 62
     7
  5
450
 10
-0.447342
 20
0.058027
 30
0.0
 11
-0.447096
 21
0.060174
 31
0.0
  0
LINE
  8
0
  6
CONTINUOUS
 62
     7
  5
451
 10
-0.447096
 20
0.060174
 30
0.0
 11
-0.44684
 21
0.062323
 31
0.0
  0
LINE
  8
0
  6
CONTINUOUS
 62
     7
  5
452
 10
-0.44684
 20
0.062323
 30
0.0
 11
-0.446576
 21
0.064475
 31
0.0
  0
LINE
  8
0
  6
CONTINUOUS
 62
     7
  5
453
 10
-0.446576
 20
0.064475
 30
0.0
 11
-0.446303
 21
0.06663
 31
0.0
  0
LINE
  8
0
  6
CONTINUOUS
 62
     7
  5
454
 10
-0.446303
 20
0.06663
 30
0.0
 11
-0.446021
 21
0.068788
 31
0.0
  0
LINE
  8
0
  6
CONTINUOUS
 62
     7
  5
455
 10
-0.446021
 20
0.068788
 30
0.0
 11
-0.44573
 21
0.07095
 31
0.0
  0
LINE
  8
0
  6
CONTINUOUS
 62
     7
  5
456
 10
-0.44573
 20
0.07095
 30
0.0
 11
-0.44543
 21
0.073115
 31
0.0
  0
LINE
  8
0
  6
CONTINUOUS
 62
     7
  5
457
 10
-0.44543
 20
0.073115
 30
0.0
 11
-0.445121
 21
0.075283
 31
0.0
  0
LINE
  8
0
  6
CONTINUOUS
 62
     7
  5
458
 10
-0.445121
 20
0.075283
 30
0.0
 11
-0.444803
 21
0.077455
 31
0.0
  0
LINE
  8
0
  6
CONTINUOUS
 62
     7
  5
459
 10
-0.444803
 20
0.077455
 30
0.0
 11
-0.444476
 21
0.079632
 31
0.0
  0
LINE
  8
0
  6
CONTINUOUS
 62
     7
  5
45A
 10
-0.444476
 20
0.079632
 30
0.0
 11
-0.44414
 21
0.081812
 31
0.0
  0
LINE
  8
0
  6
CONTINUOUS
 62
     7
  5
45B
 10
-0.44414
 20
0.081812
 30
0.0
 11
-0.443795
 21
0.083996
 31
0.0
  0
LINE
  8
0
  6
CONTINUOUS
 62
     7
  5
45C
 10
-0.443795
 20
0.083996
 30
0.0
 11
-0.44344
 21
0.086186
 31
0.0
  0
LINE
  8
0
  6
CONTINUOUS
 62
     7
  5
45D
 10
-0.44344
 20
0.086186
 30
0.0
 11
-0.443077
 21
0.088379
 31
0.0
  0
LINE
  8
0
  6
CONTINUOUS
 62
     7
  5
45E
 10
-0.443077
 20
0.088379
 30
0.0
 11
-0.442704
 21
0.090578
 31
0.0
  0
LINE
  8
0
  6
CONTINUOUS
 62
     7
  5
45F
 10
-0.442704
 20
0.090578
 30
0.0
 11
-0.442322
 21
0.092781
 31
0.0
  0
LINE
  8
0
  6
CONTINUOUS
 62
     7
  5
460
 10
-0.442322
 20
0.092781
 30
0.0
 11
-0.441931
 21
0.09499
 31
0.0
  0
LINE
  8
0
  6
CONTINUOUS
 62
     7
  5
461
 10
-0.441931
 20
0.09499
 30
0.0
 11
-0.441531
 21
0.097204
 31
0.0
  0
LINE
  8
0
  6
CONTINUOUS
 62
     7
  5
462
 10
-0.441531
 20
0.097204
 30
0.0
 11
-0.441121
 21
0.099423
 31
0.0
  0
LINE
  8
0
  6
CONTINUOUS
 62
     7
  5
463
 10
-0.441121
 20
0.099423
 30
0.0
 11
-0.440702
 21
0.101648
 31
0.0
  0
LINE
  8
0
  6
CONTINUOUS
 62
     7
  5
464
 10
-0.440702
 20
0.101648
 30
0.0
 11
-0.440274
 21
0.103879
 31
0.0
  0
LINE
  8
0
  6
CONTINUOUS
 62
     7
  5
465
 10
-0.440274
 20
0.103879
 30
0.0
 11
-0.439836
 21
0.106116
 31
0.0
  0
LINE
  8
0
  6
CONTINUOUS
 62
     7
  5
466
 10
-0.439836
 20
0.106116
 30
0.0
 11
-0.439388
 21
0.108359
 31
0.0
  0
LINE
  8
0
  6
CONTINUOUS
 62
     7
  5
467
 10
-0.439388
 20
0.108359
 30
0.0
 11
-0.438932
 21
0.110609
 31
0.0
  0
LINE
  8
0
  6
CONTINUOUS
 62
     7
  5
468
 10
-0.438932
 20
0.110609
 30
0.0
 11
-0.438465
 21
0.112865
 31
0.0
  0
LINE
  8
0
  6
CONTINUOUS
 62
     7
  5
469
 10
-0.438465
 20
0.112865
 30
0.0
 11
-0.437989
 21
0.115128
 31
0.0
  0
LINE
  8
0
  6
CONTINUOUS
 62
     7
  5
46A
 10
-0.437989
 20
0.115128
 30
0.0
 11
-0.437503
 21
0.117398
 31
0.0
  0
LINE
  8
0
  6
CONTINUOUS
 62
     7
  5
46B
 10
-0.437503
 20
0.117398
 30
0.0
 11
-0.437008
 21
0.119675
 31
0.0
  0
LINE
  8
0
  6
CONTINUOUS
 62
     7
  5
46C
 10
-0.437008
 20
-0.119675
 30
0.0
 11
-0.437503
 21
-0.117398
 31
0.0
  0
LINE
  8
0
  6
CONTINUOUS
 62
     7
  5
46D
 10
-0.437503
 20
-0.117398
 30
0.0
 11
-0.437989
 21
-0.115128
 31
0.0
  0
LINE
  8
0
  6
CONTINUOUS
 62
     7
  5
46E
 10
-0.437989
 20
-0.115128
 30
0.0
 11
-0.438465
 21
-0.112865
 31
0.0
  0
LINE
  8
0
  6
CONTINUOUS
 62
     7
  5
46F
 10
-0.438465
 20
-0.112865
 30
0.0
 11
-0.438932
 21
-0.110609
 31
0.0
  0
LINE
  8
0
  6
CONTINUOUS
 62
     7
  5
470
 10
-0.438932
 20
-0.110609
 30
0.0
 11
-0.439388
 21
-0.108359
 31
0.0
  0
LINE
  8
0
  6
CONTINUOUS
 62
     7
  5
471
 10
-0.439388
 20
-0.108359
 30
0.0
 11
-0.439836
 21
-0.106116
 31
0.0
  0
LINE
  8
0
  6
CONTINUOUS
 62
     7
  5
472
 10
-0.439836
 20
-0.106116
 30
0.0
 11
-0.440274
 21
-0.103879
 31
0.0
  0
LINE
  8
0
  6
CONTINUOUS
 62
     7
  5
473
 10
-0.440274
 20
-0.103879
 30
0.0
 11
-0.440702
 21
-0.101648
 31
0.0
  0
LINE
  8
0
  6
CONTINUOUS
 62
     7
  5
474
 10
-0.440702
 20
-0.101648
 30
0.0
 11
-0.441121
 21
-0.099423
 31
0.0
  0
LINE
  8
0
  6
CONTINUOUS
 62
     7
  5
475
 10
-0.441121
 20
-0.099423
 30
0.0
 11
-0.441531
 21
-0.097204
 31
0.0
  0
LINE
  8
0
  6
CONTINUOUS
 62
     7
  5
476
 10
-0.441531
 20
-0.097204
 30
0.0
 11
-0.441931
 21
-0.09499
 31
0.0
  0
LINE
  8
0
  6
CONTINUOUS
 62
     7
  5
477
 10
-0.441931
 20
-0.09499
 30
0.0
 11
-0.442322
 21
-0.092781
 31
0.0
  0
LINE
  8
0
  6
CONTINUOUS
 62
     7
  5
478
 10
-0.442322
 20
-0.092781
 30
0.0
 11
-0.442704
 21
-0.090578
 31
0.0
  0
LINE
  8
0
  6
CONTINUOUS
 62
     7
  5
479
 10
-0.442704
 20
-0.090578
 30
0.0
 11
-0.443077
 21
-0.088379
 31
0.0
  0
LINE
  8
0
  6
CONTINUOUS
 62
     7
  5
47A
 10
-0.443077
 20
-0.088379
 30
0.0
 11
-0.44344
 21
-0.086186
 31
0.0
  0
LINE
  8
0
  6
CONTINUOUS
 62
     7
  5
47B
 10
-0.44344
 20
-0.086186
 30
0.0
 11
-0.443795
 21
-0.083996
 31
0.0
  0
LINE
  8
0
  6
CONTINUOUS
 62
     7
  5
47C
 10
-0.443795
 20
-0.083996
 30
0.0
 11
-0.44414
 21
-0.081812
 31
0.0
  0
LINE
  8
0
  6
CONTINUOUS
 62
     7
  5
47D
 10
-0.44414
 20
-0.081812
 30
0.0
 11
-0.444476
 21
-0.079632
 31
0.0
  0
LINE
  8
0
  6
CONTINUOUS
 62
     7
  5
47E
 10
-0.444476
 20
-0.079632
 30
0.0
 11
-0.444803
 21
-0.077455
 31
0.0
  0
LINE
  8
0
  6
CONTINUOUS
 62
     7
  5
47F
 10
-0.444803
 20
-0.077455
 30
0.0
 11
-0.445121
 21
-0.075283
 31
0.0
  0
LINE
  8
0
  6
CONTINUOUS
 62
     7
  5
480
 10
-0.445121
 20
-0.075283
 30
0.0
 11
-0.44543
 21
-0.073115
 31
0.0
  0
LINE
  8
0
  6
CONTINUOUS
 62
     7
  5
481
 10
-0.44543
 20
-0.073115
 30
0.0
 11
-0.44573
 21
-0.07095
 31
0.0
  0
LINE
  8
0
  6
CONTINUOUS
 62
     7
  5
482
 10
-0.44573
 20
-0.07095
 30
0.0
 11
-0.446021
 21
-0.068788
 31
0.0
  0
LINE
  8
0
  6
CONTINUOUS
 62
     7
  5
483
 10
-0.446021
 20
-0.068788
 30
0.0
 11
-0.446303
 21
-0.06663
 31
0.0
  0
LINE
  8
0
  6
CONTINUOUS
 62
     7
  5
484
 10
-0.446303
 20
-0.06663
 30
0.0
 11
-0.446576
 21
-0.064475
 31
0.0
  0
LINE
  8
0
  6
CONTINUOUS
 62
     7
  5
485
 10
-0.446576
 20
-0.064475
 30
0.0
 11
-0.44684
 21
-0.062323
 31
0.0
  0
LINE
  8
0
  6
CONTINUOUS
 62
     7
  5
486
 10
-0.44684
 20
-0.062323
 30
0.0
 11
-0.447096
 21
-0.060174
 31
0.0
  0
LINE
  8
0
  6
CONTINUOUS
 62
     7
  5
487
 10
-0.447096
 20
-0.060174
 30
0.0
 11
-0.447342
 21
-0.058027
 31
0.0
  0
LINE
  8
0
  6
CONTINUOUS
 62
     7
  5
488
 10
-0.447342
 20
-0.058027
 30
0.0
 11
-0.44758
 21
-0.055882
 31
0.0
  0
LINE
  8
0
  6
CONTINUOUS
 62
     7
  5
489
 10
-0.44758
 20
-0.055882
 30
0.0
 11
-0.447808
 21
-0.05374
 31
0.0
  0
LINE
  8
0
  6
CONTINUOUS
 62
     7
  5
48A
 10
-0.447808
 20
-0.05374
 30
0.0
 11
-0.448028
 21
-0.051601
 31
0.0
  0
LINE
  8
0
  6
CONTINUOUS
 62
     7
  5
48B
 10
-0.448028
 20
-0.051601
 30
0.0
 11
-0.448239
 21
-0.049463
 31
0.0
  0
LINE
  8
0
  6
CONTINUOUS
 62
     7
  5
48C
 10
-0.448239
 20
-0.049463
 30
0.0
 11
-0.448441
 21
-0.047326
 31
0.0
  0
LINE
  8
0
  6
CONTINUOUS
 62
     7
  5
48D
 10
-0.448441
 20
-0.047326
 30
0.0
 11
-0.448634
 21
-0.045192
 31
0.0
  0
LINE
  8
0
  6
CONTINUOUS
 62
     7
  5
48E
 10
-0.448634
 20
-0.045192
 30
0.0
 11
-0.448819
 21
-0.043059
 31
0.0
  0
LINE
  8
0
  6
CONTINUOUS
 62
     7
  5
48F
 10
-0.275591
 20
0.331978
 30
0.0
 11
-0.322835
 21
0.331978
 31
0.0
  0
LINE
  8
0
  6
CONTINUOUS
 62
     7
  5
490
 10
-0.322835
 20
0.11811
 30
0.0
 11
-0.275591
 21
0.11811
 31
0.0
  0
LINE
  8
0
  6
CONTINUOUS
 62
     7
  5
491
 10
-0.275591
 20
0.11811
 30
0.0
 11
-0.275591
 21
-0.11811
 31
0.0
  0
LINE
  8
0
  6
CONTINUOUS
 62
     7
  5
492
 10
-0.275591
 20
0.352362
 30
0.0
 11
-0.275591
 21
0.331978
 31
0.0
  0
LINE
  8
0
  6
CONTINUOUS
 62
     7
  5
493
 10
-0.275591
 20
-0.331978
 30
0.0
 11
-0.275591
 21
-0.352362
 31
0.0
  0
LINE
  8
0
  6
CONTINUOUS
 62
     7
  5
494
 10
-0.244094
 20
-0.343563
 30
0.0
 11
-0.165354
 21
-0.343563
 31
0.0
  0
LINE
  8
0
  6
CONTINUOUS
 62
     7
  5
495
 10
-0.165354
 20
-0.350929
 30
0.0
 11
-0.244094
 21
-0.350929
 31
0.0
  0
LINE
  8
0
  6
CONTINUOUS
 62
     7
  5
496
 10
-0.244094
 20
-0.302567
 30
0.0
 11
-0.165354
 21
-0.302567
 31
0.0
  0
LINE
  8
0
  6
CONTINUOUS
 62
     7
  5
497
 10
-0.165354
 20
-0.323944
 30
0.0
 11
-0.244094
 21
-0.323944
 31
0.0
  0
LINE
  8
0
  6
CONTINUOUS
 62
     7
  5
498
 10
-0.244094
 20
-0.231953
 30
0.0
 11
-0.165354
 21
-0.231953
 31
0.0
  0
LINE
  8
0
  6
CONTINUOUS
 62
     7
  5
499
 10
-0.165354
 20
-0.265248
 30
0.0
 11
-0.244094
 21
-0.265248
 31
0.0
  0
LINE
  8
0
  6
CONTINUOUS
 62
     7
  5
49A
 10
-0.244094
 20
-0.138634
 30
0.0
 11
-0.165354
 21
-0.138634
 31
0.0
  0
LINE
  8
0
  6
CONTINUOUS
 62
     7
  5
49B
 10
-0.165354
 20
-0.180589
 30
0.0
 11
-0.244094
 21
-0.180589
 31
0.0
  0
LINE
  8
0
  6
CONTINUOUS
 62
     7
  5
49C
 10
-0.244094
 20
-0.031745
 30
0.0
 11
-0.165354
 21
-0.031745
 31
0.0
  0
LINE
  8
0
  6
CONTINUOUS
 62
     7
  5
49D
 10
-0.165354
 20
-0.078252
 30
0.0
 11
-0.244094
 21
-0.078252
 31
0.0
  0
LINE
  8
0
  6
CONTINUOUS
 62
     7
  5
49E
 10
-0.322835
 20
-0.331978
 30
0.0
 11
-0.275591
 21
-0.331978
 31
0.0
  0
LINE
  8
0
  6
CONTINUOUS
 62
     7
  5
49F
 10
-0.322835
 20
0.11811
 30
0.0
 11
-0.322835
 21
0.331978
 31
0.0
  0
LINE
  8
0
  6
CONTINUOUS
 62
     7
  5
4A0
 10
-0.322835
 20
-0.331978
 30
0.0
 11
-0.322835
 21
-0.11811
 31
0.0
  0
LINE
  8
0
  6
CONTINUOUS
 62
     7
  5
4A1
 10
-0.275591
 20
-0.11811
 30
0.0
 11
-0.322835
 21
-0.11811
 31
0.0
  0
LINE
  8
0
  6
CONTINUOUS
 62
     7
  5
4A2
 10
-0.244094
 20
-0.350929
 30
0.0
 11
-0.244094
 21
-0.343563
 31
0.0
  0
LINE
  8
0
  6
CONTINUOUS
 62
     7
  5
4A3
 10
-0.244094
 20
-0.323944
 30
0.0
 11
-0.244094
 21
-0.302567
 31
0.0
  0
LINE
  8
0
  6
CONTINUOUS
 62
     7
  5
4A4
 10
-0.244094
 20
-0.265248
 30
0.0
 11
-0.244094
 21
-0.231953
 31
0.0
  0
LINE
  8
0
  6
CONTINUOUS
 62
     7
  5
4A5
 10
-0.244094
 20
-0.180589
 30
0.0
 11
-0.244094
 21
-0.138634
 31
0.0
  0
LINE
  8
0
  6
CONTINUOUS
 62
     7
  5
4A6
 10
-0.244094
 20
-0.078252
 30
0.0
 11
-0.244094
 21
-0.031745
 31
0.0
  0
LINE
  8
0
  6
CONTINUOUS
 62
     7
  5
4A7
 10
-0.165354
 20
0.031745
 30
0.0
 11
-0.244094
 21
0.031745
 31
0.0
  0
LINE
  8
0
  6
CONTINUOUS
 62
     7
  5
4A8
 10
-0.244094
 20
0.031745
 30
0.0
 11
-0.244094
 21
0.078252
 31
0.0
  0
LINE
  8
0
  6
CONTINUOUS
 62
     7
  5
4A9
 10
-0.244094
 20
0.078252
 30
0.0
 11
-0.165354
 21
0.078252
 31
0.0
  0
LINE
  8
0
  6
CONTINUOUS
 62
     7
  5
4AA
 10
-0.165354
 20
0.138634
 30
0.0
 11
-0.244094
 21
0.138634
 31
0.0
  0
LINE
  8
0
  6
CONTINUOUS
 62
     7
  5
4AB
 10
-0.244094
 20
0.138634
 30
0.0
 11
-0.244094
 21
0.180589
 31
0.0
  0
LINE
  8
0
  6
CONTINUOUS
 62
     7
  5
4AC
 10
-0.244094
 20
0.180589
 30
0.0
 11
-0.165354
 21
0.180589
 31
0.0
  0
LINE
  8
0
  6
CONTINUOUS
 62
     7
  5
4AD
 10
-0.165354
 20
0.231953
 30
0.0
 11
-0.244094
 21
0.231953
 31
0.0
  0
LINE
  8
0
  6
CONTINUOUS
 62
     7
  5
4AE
 10
-0.244094
 20
0.231953
 30
0.0
 11
-0.244094
 21
0.265248
 31
0.0
  0
LINE
  8
0
  6
CONTINUOUS
 62
     7
  5
4AF
 10
-0.244094
 20
0.265248
 30
0.0
 11
-0.165354
 21
0.265248
 31
0.0
  0
LINE
  8
0
  6
CONTINUOUS
 62
     7
  5
4B0
 10
-0.165354
 20
0.302567
 30
0.0
 11
-0.244094
 21
0.302567
 31
0.0
  0
LINE
  8
0
  6
CONTINUOUS
 62
     7
  5
4B1
 10
-0.244094
 20
0.302567
 30
0.0
 11
-0.244094
 21
0.323944
 31
0.0
  0
LINE
  8
0
  6
CONTINUOUS
 62
     7
  5
4B2
 10
-0.244094
 20
0.323944
 30
0.0
 11
-0.165354
 21
0.323944
 31
0.0
  0
LINE
  8
0
  6
CONTINUOUS
 62
     7
  5
4B3
 10
-0.165354
 20
0.343563
 30
0.0
 11
-0.244094
 21
0.343563
 31
0.0
  0
LINE
  8
0
  6
CONTINUOUS
 62
     7
  5
4B4
 10
-0.244094
 20
0.343563
 30
0.0
 11
-0.244094
 21
0.350929
 31
0.0
  0
LINE
  8
0
  6
CONTINUOUS
 62
     7
  5
4B5
 10
-0.244094
 20
0.350929
 30
0.0
 11
-0.165354
 21
0.350929
 31
0.0
  0
LINE
  8
0
  6
CONTINUOUS
 62
     7
  5
4B6
 10
-0.125984
 20
-0.244094
 30
0.0
 11
-0.125984
 21
0.244094
 31
0.0
  0
LINE
  8
0
  6
CONTINUOUS
 62
     7
  5
4B7
 10
-0.099144
 20
-0.354331
 30
0.0
 11
-0.125984
 21
-0.244094
 31
0.0
  0
LINE
  8
0
  6
CONTINUOUS
 62
     7
  5
4B8
 10
-0.099144
 20
-0.354331
 30
0.0
 11
-0.138514
 21
-0.354331
 31
0.0
  0
LINE
  8
0
  6
CONTINUOUS
 62
     7
  5
4B9
 10
-0.138514
 20
-0.354331
 30
0.0
 11
-0.165354
 21
-0.354331
 31
0.0
  0
LINE
  8
0
  6
CONTINUOUS
 62
     7
  5
4BA
 10
-0.125984
 20
0.244094
 30
0.0
 11
-0.099144
 21
0.354331
 31
0.0
  0
LINE
  8
0
  6
CONTINUOUS
 62
     7
  5
4BB
 10
-0.099144
 20
0.354331
 30
0.0
 11
-0.138514
 21
0.354331
 31
0.0
  0
LINE
  8
0
  6
CONTINUOUS
 62
     7
  5
4BC
 10
-0.138514
 20
0.354331
 30
0.0
 11
-0.165354
 21
0.244094
 31
0.0
  0
LINE
  8
0
  6
CONTINUOUS
 62
     7
  5
4BD
 10
-0.165354
 20
-0.244094
 30
0.0
 11
-0.165354
 21
0.244094
 31
0.0
  0
LINE
  8
0
  6
CONTINUOUS
 62
     7
  5
4BE
 10
-0.165354
 20
-0.244094
 30
0.0
 11
-0.138514
 21
-0.354331
 31
0.0
  0
LINE
  8
0
  6
CONTINUOUS
 62
     7
  5
4BF
 10
-0.165354
 20
0.354331
 30
0.0
 11
-0.138514
 21
0.354331
 31
0.0
  0
LINE
  8
0
  6
CONTINUOUS
 62
     7
  5
4C0
 10
-0.165354
 20
-0.354331
 30
0.0
 11
-0.165354
 21
-0.244094
 31
0.0
  0
LINE
  8
0
  6
CONTINUOUS
 62
     7
  5
4C1
 10
-0.165354
 20
0.244094
 30
0.0
 11
-0.165354
 21
0.354331
 31
0.0
  0
LINE
  8
0
  6
CONTINUOUS
 62
     7
  5
4C2
 10
-0.854331
 20
-0.216535
 30
0.0
 11
-0.854331
 21
-0.251969
 31
0.0
  0
LINE
  8
0
  6
CONTINUOUS
 62
     7
  5
4C3
 10
-1.137795
 20
-0.251969
 30
0.0
 11
-1.139904
 21
-0.249288
 31
0.0
  0
LINE
  8
0
  6
CONTINUOUS
 62
     7
  5
4C4
 10
-1.139904
 20
-0.249288
 30
0.0
 11
-1.141906
 21
-0.246526
 31
0.0
  0
LINE
  8
0
  6
CONTINUOUS
 62
     7
  5
4C5
 10
-1.141906
 20
-0.246526
 30
0.0
 11
-1.143798
 21
-0.243688
 31
0.0
  0
LINE
  8
0
  6
CONTINUOUS
 62
     7
  5
4C6
 10
-1.143798
 20
-0.243688
 30
0.0
 11
-1.145577
 21
-0.240778
 31
0.0
  0
LINE
  8
0
  6
CONTINUOUS
 62
     7
  5
4C7
 10
-1.145577
 20
-0.240778
 30
0.0
 11
-1.147241
 21
-0.237801
 31
0.0
  0
LINE
  8
0
  6
CONTINUOUS
 62
     7
  5
4C8
 10
-1.147241
 20
-0.237801
 30
0.0
 11
-1.148787
 21
-0.234761
 31
0.0
  0
LINE
  8
0
  6
CONTINUOUS
 62
     7
  5
4C9
 10
-1.148787
 20
-0.234761
 30
0.0
 11
-1.150213
 21
-0.231662
 31
0.0
  0
LINE
  8
0
  6
CONTINUOUS
 62
     7
  5
4CA
 10
-1.150213
 20
-0.231662
 30
0.0
 11
-1.151516
 21
-0.22851
 31
0.0
  0
LINE
  8
0
  6
CONTINUOUS
 62
     7
  5
4CB
 10
-1.151516
 20
-0.22851
 30
0.0
 11
-1.152694
 21
-0.22531
 31
0.0
  0
LINE
  8
0
  6
CONTINUOUS
 62
     7
  5
4CC
 10
-1.152694
 20
-0.22531
 30
0.0
 11
-1.153746
 21
-0.222065
 31
0.0
  0
LINE
  8
0
  6
CONTINUOUS
 62
     7
  5
4CD
 10
-1.153746
 20
-0.222065
 30
0.0
 11
-1.154671
 21
-0.218782
 31
0.0
  0
LINE
  8
0
  6
CONTINUOUS
 62
     7
  5
4CE
 10
-1.154671
 20
-0.218782
 30
0.0
 11
-1.155466
 21
-0.215466
 31
0.0
  0
LINE
  8
0
  6
CONTINUOUS
 62
     7
  5
4CF
 10
-1.155466
 20
-0.215466
 30
0.0
 11
-1.15613
 21
-0.21212
 31
0.0
  0
LINE
  8
0
  6
CONTINUOUS
 62
     7
  5
4D0
 10
-1.15613
 20
-0.21212
 30
0.0
 11
-1.156663
 21
-0.208751
 31
0.0
  0
LINE
  8
0
  6
CONTINUOUS
 62
     7
  5
4D1
 10
-1.156663
 20
-0.208751
 30
0.0
 11
-1.157063
 21
-0.205364
 31
0.0
  0
LINE
  8
0
  6
CONTINUOUS
 62
     7
  5
4D2
 10
-1.157063
 20
-0.205364
 30
0.0
 11
-1.15733
 21
-0.201964
 31
0.0
  0
LINE
  8
0
  6
CONTINUOUS
 62
     7
  5
4D3
 10
-1.15733
 20
-0.201964
 30
0.0
 11
-1.157464
 21
-0.198556
 31
0.0
  0
LINE
  8
0
  6
CONTINUOUS
 62
     7
  5
4D4
 10
-1.157464
 20
-0.198556
 30
0.0
 11
-1.157464
 21
-0.195145
 31
0.0
  0
LINE
  8
0
  6
CONTINUOUS
 62
     7
  5
4D5
 10
-1.157464
 20
-0.195145
 30
0.0
 11
-1.15733
 21
-0.191737
 31
0.0
  0
LINE
  8
0
  6
CONTINUOUS
 62
     7
  5
4D6
 10
-1.15733
 20
-0.191737
 30
0.0
 11
-1.157063
 21
-0.188337
 31
0.0
  0
LINE
  8
0
  6
CONTINUOUS
 62
     7
  5
4D7
 10
-1.157063
 20
-0.188337
 30
0.0
 11
-1.156663
 21
-0.18495
 31
0.0
  0
LINE
  8
0
  6
CONTINUOUS
 62
     7
  5
4D8
 10
-1.156663
 20
-0.18495
 30
0.0
 11
-1.15613
 21
-0.181581
 31
0.0
  0
LINE
  8
0
  6
CONTINUOUS
 62
     7
  5
4D9
 10
-1.15613
 20
-0.181581
 30
0.0
 11
-1.155466
 21
-0.178235
 31
0.0
  0
LINE
  8
0
  6
CONTINUOUS
 62
     7
  5
4DA
 10
-1.155466
 20
-0.178235
 30
0.0
 11
-1.154671
 21
-0.174918
 31
0.0
  0
LINE
  8
0
  6
CONTINUOUS
 62
     7
  5
4DB
 10
-1.154671
 20
-0.174918
 30
0.0
 11
-1.153746
 21
-0.171635
 31
0.0
  0
LINE
  8
0
  6
CONTINUOUS
 62
     7
  5
4DC
 10
-1.153746
 20
-0.171635
 30
0.0
 11
-1.152694
 21
-0.168391
 31
0.0
  0
LINE
  8
0
  6
CONTINUOUS
 62
     7
  5
4DD
 10
-1.152694
 20
-0.168391
 30
0.0
 11
-1.151516
 21
-0.16519
 31
0.0
  0
LINE
  8
0
  6
CONTINUOUS
 62
     7
  5
4DE
 10
-1.151516
 20
-0.16519
 30
0.0
 11
-1.150213
 21
-0.162038
 31
0.0
  0
LINE
  8
0
  6
CONTINUOUS
 62
     7
  5
4DF
 10
-1.150213
 20
-0.162038
 30
0.0
 11
-1.148787
 21
-0.15894
 31
0.0
  0
LINE
  8
0
  6
CONTINUOUS
 62
     7
  5
4E0
 10
-1.148787
 20
-0.15894
 30
0.0
 11
-1.147241
 21
-0.1559
 31
0.0
  0
LINE
  8
0
  6
CONTINUOUS
 62
     7
  5
4E1
 10
-1.147241
 20
-0.1559
 30
0.0
 11
-1.145577
 21
-0.152922
 31
0.0
  0
LINE
  8
0
  6
CONTINUOUS
 62
     7
  5
4E2
 10
-1.145577
 20
-0.152922
 30
0.0
 11
-1.143798
 21
-0.150013
 31
0.0
  0
LINE
  8
0
  6
CONTINUOUS
 62
     7
  5
4E3
 10
-1.143798
 20
-0.150013
 30
0.0
 11
-1.141906
 21
-0.147175
 31
0.0
  0
LINE
  8
0
  6
CONTINUOUS
 62
     7
  5
4E4
 10
-1.141906
 20
-0.147175
 30
0.0
 11
-1.139904
 21
-0.144413
 31
0.0
  0
LINE
  8
0
  6
CONTINUOUS
 62
     7
  5
4E5
 10
-1.139904
 20
-0.144413
 30
0.0
 11
-1.137795
 21
-0.141732
 31
0.0
  0
LINE
  8
0
  6
CONTINUOUS
 62
     7
  5
4E6
 10
-1.137795
 20
-0.141732
 30
0.0
 11
-1.137795
 21
-0.251969
 31
0.0
  0
LINE
  8
0
  6
CONTINUOUS
 62
     7
  5
4E7
 10
-1.137795
 20
-0.141732
 30
0.0
 11
-0.88189
 21
-0.141732
 31
0.0
  0
LINE
  8
0
  6
CONTINUOUS
 62
     7
  5
4E8
 10
-0.854331
 20
-0.251969
 30
0.0
 11
-1.137795
 21
-0.251969
 31
0.0
  0
LINE
  8
0
  6
CONTINUOUS
 62
     7
  5
4E9
 10
-1.03937
 20
-0.220472
 30
0.0
 11
-1.094488
 21
-0.220472
 31
0.0
  0
ARC
  8
0
  6
CONTINUOUS
 62
     7
  5
4EA
 10
-1.094488
 20
-0.19685
 30
0.0
 40
0.023622
 50
90.0
 51
270.0
  0
LINE
  8
0
  6
CONTINUOUS
 62
     7
  5
4EB
 10
-1.094488
 20
-0.173228
 30
0.0
 11
-1.03937
 21
-0.173228
 31
0.0
  0
ARC
  8
0
  6
CONTINUOUS
 62
     7
  5
4EC
 10
-1.03937
 20
-0.19685
 30
0.0
 40
0.023622
 50
270.0
 51
90.0
  0
LINE
  8
0
  6
CONTINUOUS
 62
     7
  5
4ED
 10
-0.88189
 20
-0.19685
 30
0.0
 11
-0.88189
 21
-0.216535
 31
0.0
  0
LINE
  8
0
  6
CONTINUOUS
 62
     7
  5
4EE
 10
-0.88189
 20
0.188976
 30
0.0
 11
-0.88189
 21
-0.19685
 31
0.0
  0
LINE
  8
0
  6
CONTINUOUS
 62
     7
  5
4EF
 10
-0.88189
 20
0.224409
 30
0.0
 11
-0.88189
 21
0.188976
 31
0.0
  0
LINE
  8
0
  6
CONTINUOUS
 62
     7
  5
4F0
 10
-0.88189
 20
-0.055118
 30
0.0
 11
-1.137795
 21
-0.055118
 31
0.0
  0
LINE
  8
0
  6
CONTINUOUS
 62
     7
  5
4F1
 10
-1.03937
 20
-0.023622
 30
0.0
 11
-1.094488
 21
-0.023622
 31
0.0
  0
ARC
  8
0
  6
CONTINUOUS
 62
     7
  5
4F2
 10
-1.094488
 20
0.0
 30
0.0
 40
0.023622
 50
90.0
 51
270.0
  0
LINE
  8
0
  6
CONTINUOUS
 62
     7
  5
4F3
 10
-1.094488
 20
0.023622
 30
0.0
 11
-1.03937
 21
0.023622
 31
0.0
  0
ARC
  8
0
  6
CONTINUOUS
 62
     7
  5
4F4
 10
-1.03937
 20
0.0
 30
0.0
 40
0.023622
 50
270.0
 51
90.0
  0
LINE
  8
0
  6
CONTINUOUS
 62
     7
  5
4F5
 10
-1.137795
 20
0.055118
 30
0.0
 11
-0.88189
 21
0.055118
 31
0.0
  0
LINE
  8
0
  6
CONTINUOUS
 62
     7
  5
4F6
 10
-1.137795
 20
0.055118
 30
0.0
 11
-1.137795
 21
-0.055118
 31
0.0
  0
LINE
  8
0
  6
CONTINUOUS
 62
     7
  5
4F7
 10
-1.137795
 20
-0.055118
 30
0.0
 11
-1.139904
 21
-0.052437
 31
0.0
  0
LINE
  8
0
  6
CONTINUOUS
 62
     7
  5
4F8
 10
-1.139904
 20
-0.052437
 30
0.0
 11
-1.141906
 21
-0.049676
 31
0.0
  0
LINE
  8
0
  6
CONTINUOUS
 62
     7
  5
4F9
 10
-1.141906
 20
-0.049676
 30
0.0
 11
-1.143798
 21
-0.046838
 31
0.0
  0
LINE
  8
0
  6
CONTINUOUS
 62
     7
  5
4FA
 10
-1.143798
 20
-0.046838
 30
0.0
 11
-1.145577
 21
-0.043928
 31
0.0
  0
LINE
  8
0
  6
CONTINUOUS
 62
     7
  5
4FB
 10
-1.145577
 20
-0.043928
 30
0.0
 11
-1.147241
 21
-0.040951
 31
0.0
  0
LINE
  8
0
  6
CONTINUOUS
 62
     7
  5
4FC
 10
-1.147241
 20
-0.040951
 30
0.0
 11
-1.148787
 21
-0.037911
 31
0.0
  0
LINE
  8
0
  6
CONTINUOUS
 62
     7
  5
4FD
 10
-1.148787
 20
-0.037911
 30
0.0
 11
-1.150213
 21
-0.034812
 31
0.0
  0
LINE
  8
0
  6
CONTINUOUS
 62
     7
  5
4FE
 10
-1.150213
 20
-0.034812
 30
0.0
 11
-1.151516
 21
-0.03166
 31
0.0
  0
LINE
  8
0
  6
CONTINUOUS
 62
     7
  5
4FF
 10
-1.151516
 20
-0.03166
 30
0.0
 11
-1.152694
 21
-0.028459
 31
0.0
  0
LINE
  8
0
  6
CONTINUOUS
 62
     7
  5
500
 10
-1.152694
 20
-0.028459
 30
0.0
 11
-1.153746
 21
-0.025215
 31
0.0
  0
LINE
  8
0
  6
CONTINUOUS
 62
     7
  5
501
 10
-1.153746
 20
-0.025215
 30
0.0
 11
-1.154671
 21
-0.021932
 31
0.0
  0
LINE
  8
0
  6
CONTINUOUS
 62
     7
  5
502
 10
-1.154671
 20
-0.021932
 30
0.0
 11
-1.155466
 21
-0.018615
 31
0.0
  0
LINE
  8
0
  6
CONTINUOUS
 62
     7
  5
503
 10
-1.155466
 20
-0.018615
 30
0.0
 11
-1.15613
 21
-0.01527
 31
0.0
  0
LINE
  8
0
  6
CONTINUOUS
 62
     7
  5
504
 10
-1.15613
 20
-0.01527
 30
0.0
 11
-1.156663
 21
-0.011901
 31
0.0
  0
LINE
  8
0
  6
CONTINUOUS
 62
     7
  5
505
 10
-1.156663
 20
-0.011901
 30
0.0
 11
-1.157063
 21
-0.008514
 31
0.0
  0
LINE
  8
0
  6
CONTINUOUS
 62
     7
  5
506
 10
-1.157063
 20
-0.008514
 30
0.0
 11
-1.15733
 21
-0.005113
 31
0.0
  0
LINE
  8
0
  6
CONTINUOUS
 62
     7
  5
507
 10
-1.15733
 20
-0.005113
 30
0.0
 11
-1.157464
 21
-0.001705
 31
0.0
  0
LINE
  8
0
  6
CONTINUOUS
 62
     7
  5
508
 10
-1.157464
 20
-0.001705
 30
0.0
 11
-1.157464
 21
0.001705
 31
0.0
  0
LINE
  8
0
  6
CONTINUOUS
 62
     7
  5
509
 10
-1.157464
 20
0.001705
 30
0.0
 11
-1.15733
 21
0.005113
 31
0.0
  0
LINE
  8
0
  6
CONTINUOUS
 62
     7
  5
50A
 10
-1.15733
 20
0.005113
 30
0.0
 11
-1.157063
 21
0.008514
 31
0.0
  0
LINE
  8
0
  6
CONTINUOUS
 62
     7
  5
50B
 10
-1.157063
 20
0.008514
 30
0.0
 11
-1.156663
 21
0.011901
 31
0.0
  0
LINE
  8
0
  6
CONTINUOUS
 62
     7
  5
50C
 10
-1.156663
 20
0.011901
 30
0.0
 11
-1.15613
 21
0.01527
 31
0.0
  0
LINE
  8
0
  6
CONTINUOUS
 62
     7
  5
50D
 10
-1.15613
 20
0.01527
 30
0.0
 11
-1.155466
 21
0.018615
 31
0.0
  0
LINE
  8
0
  6
CONTINUOUS
 62
     7
  5
50E
 10
-1.155466
 20
0.018615
 30
0.0
 11
-1.154671
 21
0.021932
 31
0.0
  0
LINE
  8
0
  6
CONTINUOUS
 62
     7
  5
50F
 10
-1.154671
 20
0.021932
 30
0.0
 11
-1.153746
 21
0.025215
 31
0.0
  0
LINE
  8
0
  6
CONTINUOUS
 62
     7
  5
510
 10
-1.153746
 20
0.025215
 30
0.0
 11
-1.152694
 21
0.028459
 31
0.0
  0
LINE
  8
0
  6
CONTINUOUS
 62
     7
  5
511
 10
-1.152694
 20
0.028459
 30
0.0
 11
-1.151516
 21
0.03166
 31
0.0
  0
LINE
  8
0
  6
CONTINUOUS
 62
     7
  5
512
 10
-1.151516
 20
0.03166
 30
0.0
 11
-1.150213
 21
0.034812
 31
0.0
  0
LINE
  8
0
  6
CONTINUOUS
 62
     7
  5
513
 10
-1.150213
 20
0.034812
 30
0.0
 11
-1.148787
 21
0.037911
 31
0.0
  0
LINE
  8
0
  6
CONTINUOUS
 62
     7
  5
514
 10
-1.148787
 20
0.037911
 30
0.0
 11
-1.147241
 21
0.040951
 31
0.0
  0
LINE
  8
0
  6
CONTINUOUS
 62
     7
  5
515
 10
-1.147241
 20
0.040951
 30
0.0
 11
-1.145577
 21
0.043928
 31
0.0
  0
LINE
  8
0
  6
CONTINUOUS
 62
     7
  5
516
 10
-1.145577
 20
0.043928
 30
0.0
 11
-1.143798
 21
0.046838
 31
0.0
  0
LINE
  8
0
  6
CONTINUOUS
 62
     7
  5
517
 10
-1.143798
 20
0.046838
 30
0.0
 11
-1.141906
 21
0.049676
 31
0.0
  0
LINE
  8
0
  6
CONTINUOUS
 62
     7
  5
518
 10
-1.141906
 20
0.049676
 30
0.0
 11
-1.139904
 21
0.052437
 31
0.0
  0
LINE
  8
0
  6
CONTINUOUS
 62
     7
  5
519
 10
-1.139904
 20
0.052437
 30
0.0
 11
-1.137795
 21
0.055118
 31
0.0
  0
LINE
  8
0
  6
CONTINUOUS
 62
     7
  5
51A
 10
-0.88189
 20
0.141732
 30
0.0
 11
-1.137795
 21
0.141732
 31
0.0
  0
LINE
  8
0
  6
CONTINUOUS
 62
     7
  5
51B
 10
-1.03937
 20
0.173228
 30
0.0
 11
-1.094488
 21
0.173228
 31
0.0
  0
ARC
  8
0
  6
CONTINUOUS
 62
     7
  5
51C
 10
-1.094488
 20
0.19685
 30
0.0
 40
0.023622
 50
90.0
 51
270.0
  0
LINE
  8
0
  6
CONTINUOUS
 62
     7
  5
51D
 10
-1.094488
 20
0.220472
 30
0.0
 11
-1.03937
 21
0.220472
 31
0.0
  0
ARC
  8
0
  6
CONTINUOUS
 62
     7
  5
51E
 10
-1.03937
 20
0.19685
 30
0.0
 40
0.023622
 50
270.0
 51
90.0
  0
LINE
  8
0
  6
CONTINUOUS
 62
     7
  5
51F
 10
-0.854331
 20
0.251969
 30
0.0
 11
-0.854331
 21
0.224409
 31
0.0
  0
LINE
  8
0
  6
CONTINUOUS
 62
     7
  5
520
 10
-1.137795
 20
0.251969
 30
0.0
 11
-0.854331
 21
0.251969
 31
0.0
  0
LINE
  8
0
  6
CONTINUOUS
 62
     7
  5
521
 10
-1.137795
 20
0.251969
 30
0.0
 11
-1.137795
 21
0.141732
 31
0.0
  0
LINE
  8
0
  6
CONTINUOUS
 62
     7
  5
522
 10
-1.137795
 20
0.141732
 30
0.0
 11
-1.139904
 21
0.144413
 31
0.0
  0
LINE
  8
0
  6
CONTINUOUS
 62
     7
  5
523
 10
-1.139904
 20
0.144413
 30
0.0
 11
-1.141906
 21
0.147175
 31
0.0
  0
LINE
  8
0
  6
CONTINUOUS
 62
     7
  5
524
 10
-1.141906
 20
0.147175
 30
0.0
 11
-1.143798
 21
0.150013
 31
0.0
  0
LINE
  8
0
  6
CONTINUOUS
 62
     7
  5
525
 10
-1.143798
 20
0.150013
 30
0.0
 11
-1.145577
 21
0.152922
 31
0.0
  0
LINE
  8
0
  6
CONTINUOUS
 62
     7
  5
526
 10
-1.145577
 20
0.152922
 30
0.0
 11
-1.147241
 21
0.1559
 31
0.0
  0
LINE
  8
0
  6
CONTINUOUS
 62
     7
  5
527
 10
-1.147241
 20
0.1559
 30
0.0
 11
-1.148787
 21
0.15894
 31
0.0
  0
LINE
  8
0
  6
CONTINUOUS
 62
     7
  5
528
 10
-1.148787
 20
0.15894
 30
0.0
 11
-1.150213
 21
0.162038
 31
0.0
  0
LINE
  8
0
  6
CONTINUOUS
 62
     7
  5
529
 10
-1.150213
 20
0.162038
 30
0.0
 11
-1.151516
 21
0.16519
 31
0.0
  0
LINE
  8
0
  6
CONTINUOUS
 62
     7
  5
52A
 10
-1.151516
 20
0.16519
 30
0.0
 11
-1.152694
 21
0.168391
 31
0.0
  0
LINE
  8
0
  6
CONTINUOUS
 62
     7
  5
52B
 10
-1.152694
 20
0.168391
 30
0.0
 11
-1.153746
 21
0.171635
 31
0.0
  0
LINE
  8
0
  6
CONTINUOUS
 62
     7
  5
52C
 10
-1.153746
 20
0.171635
 30
0.0
 11
-1.154671
 21
0.174918
 31
0.0
  0
LINE
  8
0
  6
CONTINUOUS
 62
     7
  5
52D
 10
-1.154671
 20
0.174918
 30
0.0
 11
-1.155466
 21
0.178235
 31
0.0
  0
LINE
  8
0
  6
CONTINUOUS
 62
     7
  5
52E
 10
-1.155466
 20
0.178235
 30
0.0
 11
-1.15613
 21
0.181581
 31
0.0
  0
LINE
  8
0
  6
CONTINUOUS
 62
     7
  5
52F
 10
-1.15613
 20
0.181581
 30
0.0
 11
-1.156663
 21
0.18495
 31
0.0
  0
LINE
  8
0
  6
CONTINUOUS
 62
     7
  5
530
 10
-1.156663
 20
0.18495
 30
0.0
 11
-1.157063
 21
0.188337
 31
0.0
  0
LINE
  8
0
  6
CONTINUOUS
 62
     7
  5
531
 10
-1.157063
 20
0.188337
 30
0.0
 11
-1.15733
 21
0.191737
 31
0.0
  0
LINE
  8
0
  6
CONTINUOUS
 62
     7
  5
532
 10
-1.15733
 20
0.191737
 30
0.0
 11
-1.157464
 21
0.195145
 31
0.0
  0
LINE
  8
0
  6
CONTINUOUS
 62
     7
  5
533
 10
-1.157464
 20
0.195145
 30
0.0
 11
-1.157464
 21
0.198556
 31
0.0
  0
LINE
  8
0
  6
CONTINUOUS
 62
     7
  5
534
 10
-1.157464
 20
0.198556
 30
0.0
 11
-1.15733
 21
0.201964
 31
0.0
  0
LINE
  8
0
  6
CONTINUOUS
 62
     7
  5
535
 10
-1.15733
 20
0.201964
 30
0.0
 11
-1.157063
 21
0.205364
 31
0.0
  0
LINE
  8
0
  6
CONTINUOUS
 62
     7
  5
536
 10
-1.157063
 20
0.205364
 30
0.0
 11
-1.156663
 21
0.208751
 31
0.0
  0
LINE
  8
0
  6
CONTINUOUS
 62
     7
  5
537
 10
-1.156663
 20
0.208751
 30
0.0
 11
-1.15613
 21
0.21212
 31
0.0
  0
LINE
  8
0
  6
CONTINUOUS
 62
     7
  5
538
 10
-1.15613
 20
0.21212
 30
0.0
 11
-1.155466
 21
0.215466
 31
0.0
  0
LINE
  8
0
  6
CONTINUOUS
 62
     7
  5
539
 10
-1.155466
 20
0.215466
 30
0.0
 11
-1.154671
 21
0.218782
 31
0.0
  0
LINE
  8
0
  6
CONTINUOUS
 62
     7
  5
53A
 10
-1.154671
 20
0.218782
 30
0.0
 11
-1.153746
 21
0.222065
 31
0.0
  0
LINE
  8
0
  6
CONTINUOUS
 62
     7
  5
53B
 10
-1.153746
 20
0.222065
 30
0.0
 11
-1.152694
 21
0.22531
 31
0.0
  0
LINE
  8
0
  6
CONTINUOUS
 62
     7
  5
53C
 10
-1.152694
 20
0.22531
 30
0.0
 11
-1.151516
 21
0.22851
 31
0.0
  0
LINE
  8
0
  6
CONTINUOUS
 62
     7
  5
53D
 10
-1.151516
 20
0.22851
 30
0.0
 11
-1.150213
 21
0.231662
 31
0.0
  0
LINE
  8
0
  6
CONTINUOUS
 62
     7
  5
53E
 10
-1.150213
 20
0.231662
 30
0.0
 11
-1.148787
 21
0.234761
 31
0.0
  0
LINE
  8
0
  6
CONTINUOUS
 62
     7
  5
53F
 10
-1.148787
 20
0.234761
 30
0.0
 11
-1.147241
 21
0.237801
 31
0.0
  0
LINE
  8
0
  6
CONTINUOUS
 62
     7
  5
540
 10
-1.147241
 20
0.237801
 30
0.0
 11
-1.145577
 21
0.240778
 31
0.0
  0
LINE
  8
0
  6
CONTINUOUS
 62
     7
  5
541
 10
-1.145577
 20
0.240778
 30
0.0
 11
-1.143798
 21
0.243688
 31
0.0
  0
LINE
  8
0
  6
CONTINUOUS
 62
     7
  5
542
 10
-1.143798
 20
0.243688
 30
0.0
 11
-1.141906
 21
0.246526
 31
0.0
  0
LINE
  8
0
  6
CONTINUOUS
 62
     7
  5
543
 10
-1.141906
 20
0.246526
 30
0.0
 11
-1.139904
 21
0.249288
 31
0.0
  0
LINE
  8
0
  6
CONTINUOUS
 62
     7
  5
544
 10
-1.139904
 20
0.249288
 30
0.0
 11
-1.137795
 21
0.251969
 31
0.0
  0
LINE
  8
0
  6
CONTINUOUS
 62
     7
  5
545
 10
-0.84252
 20
0.224409
 30
0.0
 11
-0.88189
 21
0.224409
 31
0.0
  0
LINE
  8
0
  6
CONTINUOUS
 62
     7
  5
546
 10
-0.84252
 20
-0.19685
 30
0.0
 11
-0.88189
 21
-0.19685
 31
0.0
  0
LINE
  8
0
  6
CONTINUOUS
 62
     7
  5
547
 10
-0.84252
 20
0.188976
 30
0.0
 11
-0.88189
 21
0.188976
 31
0.0
  0
LINE
  8
0
  6
CONTINUOUS
 62
     7
  5
548
 10
-0.84252
 20
-0.216535
 30
0.0
 11
-0.88189
 21
-0.216535
 31
0.0
  0
LINE
  8
0
  6
CONTINUOUS
 62
     7
  5
549
 10
-0.84252
 20
-0.098425
 30
0.0
 11
-0.84252
 21
0.098425
 31
0.0
  0
LINE
  8
0
  6
CONTINUOUS
 62
     7
  5
54A
 10
-0.645669
 20
-0.098425
 30
0.0
 11
-0.84252
 21
-0.098425
 31
0.0
  0
LINE
  8
0
  6
CONTINUOUS
 62
     7
  5
54B
 10
-0.645669
 20
0.098425
 30
0.0
 11
-0.645669
 21
-0.098425
 31
0.0
  0
LINE
  8
0
  6
CONTINUOUS
 62
     7
  5
54C
 10
-0.84252
 20
0.098425
 30
0.0
 11
-0.645669
 21
0.098425
 31
0.0
  0
LINE
  8
0
  6
CONTINUOUS
 62
     7
  5
54D
 10
-0.84252
 20
-0.291339
 30
0.0
 11
-0.84252
 21
-0.098425
 31
0.0
  0
LINE
  8
0
  6
CONTINUOUS
 62
     7
  5
54E
 10
-0.84252
 20
0.098425
 30
0.0
 11
-0.84252
 21
0.291339
 31
0.0
  0
ARC
  8
0
  6
CONTINUOUS
 62
     7
  5
54F
 10
-0.963965
 20
0.0
 30
0.0
 40
1.36554
 50
346.919228
 51
348.811778
  0
ARC
  8
0
  6
CONTINUOUS
 62
     7
  5
550
 10
-0.963965
 20
0.0
 30
0.0
 40
1.36554
 50
11.188222
 51
13.080772
  0
LINE
  8
0
  6
CONTINUOUS
 62
     7
  5
551
 10
0.298117
 20
-0.309055
 30
0.0
 11
0.366142
 21
-0.309055
 31
0.0
  0
LINE
  8
0
  6
CONTINUOUS
 62
     7
  5
552
 10
0.366142
 20
0.309055
 30
0.0
 11
0.298117
 21
0.309055
 31
0.0
  0
LINE
  8
0
  6
CONTINUOUS
 62
     7
  5
553
 10
0.023622
 20
-0.352362
 30
0.0
 11
0.275591
 21
-0.352362
 31
0.0
  0
LINE
  8
0
  6
CONTINUOUS
 62
     7
  5
554
 10
0.275591
 20
0.352362
 30
0.0
 11
0.023622
 21
0.352362
 31
0.0
  0
LINE
  8
0
  6
CONTINUOUS
 62
     7
  5
555
 10
0.0
 20
-0.344488
 30
0.0
 11
0.023622
 21
-0.344488
 31
0.0
  0
LINE
  8
0
  6
CONTINUOUS
 62
     7
  5
556
 10
0.023622
 20
0.344488
 30
0.0
 11
0.0
 21
0.344488
 31
0.0
  0
LINE
  8
0
  6
CONTINUOUS
 62
     7
  5
557
 10
-0.275591
 20
-0.352362
 30
0.0
 11
-0.165354
 21
-0.352362
 31
0.0
  0
LINE
  8
0
  6
CONTINUOUS
 62
     7
  5
558
 10
-0.165354
 20
0.352362
 30
0.0
 11
-0.275591
 21
0.352362
 31
0.0
  0
LINE
  8
0
  6
CONTINUOUS
 62
     7
  5
559
 10
-0.84252
 20
-0.291339
 30
0.0
 11
-0.448819
 21
-0.291339
 31
0.0
  0
LINE
  8
0
  6
CONTINUOUS
 62
     7
  5
55A
 10
-0.448819
 20
0.291339
 30
0.0
 11
-0.84252
 21
0.291339
 31
0.0
  0
LINE
  8
0
  6
CONTINUOUS
 62
     3
  5
55B
 10
-0.84252
 20
0.0
 30
0.0
 11
0.401575
 21
0.0
 31
0.0
  0
LINE
  8
0
  6
CONTINUOUS
 62
     3
  5
55C
 10
-1.094488
 20
-0.220472
 30
0.0
 11
-1.094488
 21
-0.173228
 31
0.0
  0
LINE
  8
0
  6
CONTINUOUS
 62
     3
  5
55D
 10
-1.11811
 20
-0.19685
 30
0.0
 11
-1.070866
 21
-0.19685
 31
0.0
  0
LINE
  8
0
  6
CONTINUOUS
 62
     3
  5
55E
 10
-1.03937
 20
-0.220472
 30
0.0
 11
-1.03937
 21
-0.173228
 31
0.0
  0
LINE
  8
0
  6
CONTINUOUS
 62
     3
  5
55F
 10
-1.062992
 20
-0.19685
 30
0.0
 11
-1.015748
 21
-0.19685
 31
0.0
  0
LINE
  8
0
  6
CONTINUOUS
 62
     3
  5
560
 10
-1.094488
 20
-0.023622
 30
0.0
 11
-1.094488
 21
0.023622
 31
0.0
  0
LINE
  8
0
  6
CONTINUOUS
 62
     3
  5
561
 10
-1.11811
 20
0.0
 30
0.0
 11
-1.070866
 21
0.0
 31
0.0
  0
LINE
  8
0
  6
CONTINUOUS
 62
     3
  5
562
 10
-1.03937
 20
-0.023622
 30
0.0
 11
-1.03937
 21
0.023622
 31
0.0
  0
LINE
  8
0
  6
CONTINUOUS
 62
     3
  5
563
 10
-1.062992
 20
0.0
 30
0.0
 11
-1.015748
 21
0.0
 31
0.0
  0
LINE
  8
0
  6
CONTINUOUS
 62
     3
  5
564
 10
-1.094488
 20
0.173228
 30
0.0
 11
-1.094488
 21
0.220472
 31
0.0
  0
LINE
  8
0
  6
CONTINUOUS
 62
     3
  5
565
 10
-1.11811
 20
0.19685
 30
0.0
 11
-1.070866
 21
0.19685
 31
0.0
  0
LINE
  8
0
  6
CONTINUOUS
 62
     3
  5
566
 10
-1.03937
 20
0.173228
 30
0.0
 11
-1.03937
 21
0.220472
 31
0.0
  0
LINE
  8
0
  6
CONTINUOUS
 62
     3
  5
567
 10
-1.062992
 20
0.19685
 30
0.0
 11
-1.015748
 21
0.19685
 31
0.0
  0
ENDSEC
  0
EOF
