999
DXF file: C:\Users\sesa63760\Dev\_Creo\CAD\MCADID0005931_3D-CAD\mcadid0005931_3d-simplified_1.dxf
999
Pro/ENGINEER 2019471 by Parametric Technology Corporation
  0
SECTION
  2
HEADER
  9
$ACADVER
  1
AC1024
  9
$DWGCODEPAGE
  3
ANSI_1252
  9
$EXTMAX
 10
280.6729258239
 20
396.9517093795
 30
0.0
  9
$EXTMIN
 10
0.0
 20
0.0
 30
0.0
  9
$LIMMIN
 10
0.0
 20
0.0
  9
$LIMMAX
 10
280.6729258239
 20
396.9517093795
  9
$VIEWCTR
 10
140.3364629119
 20
198.4758546897
  9
$VIEWSIZE
 40
396.9517093795
  9
$CLAYER
  8
0
  9
$LTSCALE
 40
25.8753706855
  9
$CELTYPE
  6
BYLAYER
  9
$DIMSCALE
 40
1.0
  9
$DIMASZ
 40
3.341344355
  9
$DIMEXO
 40
1.0
  9
$DIMDLI
 40
17.8775288372
  9
$DIMEXE
 40
1.0
  9
$DIMCEN
 40
4.2341515667
  9
$DIMLFAC
 40
1.0
  9
$DIMBLK
  1
_FILLED
  9
$DIMALT
 70
0
  9
$DIMALTF
 40
0.0393700787
  9
$DIMTXT
 40
4.6778820971
  9
$DIMTOL
 70
1
  9
$DIMLIM
 70
0
  9
$DIMTFAC
 40
1.0
  9
$DIMTP
 40
0.01
  9
$DIMTM
 40
0.01
  9
$DIMGAP
 40
0.625
  9
$DIMDSEP
 70
46
  9
$AUNITS
 70
0
  9
$PDMODE
 70
3
  9
$PDSIZE
 40
0.3125
  9
$HANDSEED
  5
589
  9
$TILEMODE
 70
1
  9
$MEASUREMENT
 70
1
  9
$INSUNITS
 70
4
  0
ENDSEC
  0
SECTION
  2
CLASSES
  0
CLASS
  1
ACDBDICTIONARYWDFLT
  2
AcDbDictionaryWithDefault
  3
AutoCAD 2000
 90
0
 91
1
280
0
281
0
  0
CLASS
  1
ACDBPLACEHOLDER
  2
AcDbPlaceHolder
  3
AutoCAD 2000
 90
0
 91
1
280
0
281
0
  0
CLASS
  1
LAYOUT
  2
AcDbLayout
  3
AutoCAD 2000
 90
0
 91
0
280
0
281
0
  0
ENDSEC
  0
SECTION
  2
TABLES
  0
TABLE
  2
VPORT
  5
8
100
AcDbSymbolTable
 70
2
  0
VPORT
  5
1F4
100
AcDbSymbolTableRecord
100
AcDbViewportTableRecord
  2
*ACTIVE
 70
0
 10
0.0
 20
0.0
 11
1.0
 21
1.0
 12
140.3364629119
 22
198.4758546897
 13
0.0
 23
0.0
 14
1.0
 24
1.0
 15
0.0
 25
0.0
 16
0.0
 26
0.0
 36
1.0
 17
0.0
 27
0.0
 37
0.0
 40
396.9517093795
 41
0.7070707071
 42
50.0
 43
0.0
 44
0.0
 50
0.0
 51
0.0
 71
0
 72
100
 73
1
 74
1
 75
0
 76
0
 77
0
 78
0
  0
ENDTAB
  0
TABLE
  2
LTYPE
  5
5
100
AcDbSymbolTable
 70
6
  0
LTYPE
  5
14
100
AcDbSymbolTableRecord
100
AcDbLinetypeTableRecord
  2
BYBLOCK
 70
0
  3

 72
65
 73
0
 40
0.0
  0
LTYPE
  5
15
100
AcDbSymbolTableRecord
100
AcDbLinetypeTableRecord
  2
BYLAYER
 70
0
  3

 72
65
 73
0
 40
0.0
  0
LTYPE
  5
16
100
AcDbSymbolTableRecord
100
AcDbLinetypeTableRecord
  2
CONTINUOUS
 70
64
  3
Solid line
 72
65
 73
0
 40
0.0
  0
LTYPE
  5
1F5
100
AcDbSymbolTableRecord
100
AcDbLinetypeTableRecord
  2
CENTER
 70
64
  3
____ _ ____ _ ____ _ ____ _ ____ _ ____ _ ____
 72
65
 73
4
 40
0.6
 49
0.375
 74
0
 49
-0.075
 74
0
 49
0.075
 74
0
 49
-0.075
 74
0
  0
LTYPE
  5
1F6
100
AcDbSymbolTableRecord
100
AcDbLinetypeTableRecord
  2
HIDDEN
 70
64
  3
- - - - - - - - - - - - - - - - - - - -
 72
65
 73
2
 40
0.2
 49
0.1
 74
0
 49
-0.1
 74
0
  0
LTYPE
  5
1F7
100
AcDbSymbolTableRecord
100
AcDbLinetypeTableRecord
  2
PHANTOM
 70
64
  3
_____ _ _ _____ _ _ _____ _ _ _____
 72
65
 73
6
 40
0.8
 49
0.45
 74
0
 49
-0.05
 74
0
 49
0.1
 74
0
 49
-0.05
 74
0
 49
0.1
 74
0
 49
-0.05
 74
0
  0
LTYPE
  5
1F8
100
AcDbSymbolTableRecord
100
AcDbLinetypeTableRecord
  2
DOT
 70
64
  3
. . . . . . . . . . . . . . . . . . . .
 72
65
 73
2
 40
0.2
 49
0.1
 74
0
 49
-0.1
 74
0
  0
LTYPE
  5
1F9
100
AcDbSymbolTableRecord
100
AcDbLinetypeTableRecord
  2
DASHED
 70
64
  3
- - - - - - - - - - - - - - - - - - - -
 72
65
 73
2
 40
0.2
 49
0.1
 74
0
 49
-0.1
 74
0
  0
ENDTAB
  0
TABLE
  2
LAYER
  5
2
100
AcDbSymbolTable
 70
36
  0
LAYER
  5
10
100
AcDbSymbolTableRecord
100
AcDbLayerTableRecord
  2
0
 70
0
 62
7
  6
CONTINUOUS
370
-3
390
F
  0
LAYER
  5
1FA
100
AcDbSymbolTableRecord
100
AcDbLayerTableRecord
  2
DEFAULT_1
 70
0
 62
7
  6
CENTER
370
-3
390
F
  0
LAYER
  5
1FB
100
AcDbSymbolTableRecord
100
AcDbLayerTableRecord
  2
DEFAULT_2
 70
0
 62
7
  6
HIDDEN
370
-3
390
F
  0
LAYER
  5
1FC
100
AcDbSymbolTableRecord
100
AcDbLayerTableRecord
  2
DEFAULT_3
 70
0
 62
7
  6
PHANTOM
370
-3
390
F
  0
LAYER
  5
1FD
100
AcDbSymbolTableRecord
100
AcDbLayerTableRecord
  2
00_COMPONENTS
 70
0
 62
7
  6
CONTINUOUS
370
-3
390
F
  0
LAYER
  5
1FE
100
AcDbSymbolTableRecord
100
AcDbLayerTableRecord
  2
01_1_DEFAULT_DATUMS
 70
0
 62
7
  6
CONTINUOUS
370
-3
390
F
  0
LAYER
  5
1FF
100
AcDbSymbolTableRecord
100
AcDbLayerTableRecord
  2
01_PLANES
 70
0
 62
7
  6
CONTINUOUS
370
-3
390
F
  0
LAYER
  5
200
100
AcDbSymbolTableRecord
100
AcDbLayerTableRecord
  2
02_COORD_SYS
 70
0
 62
7
  6
CONTINUOUS
370
-3
390
F
  0
LAYER
  5
201
100
AcDbSymbolTableRecord
100
AcDbLayerTableRecord
  2
03_AXES
 70
0
 62
7
  6
CONTINUOUS
370
-3
390
F
  0
LAYER
  5
202
100
AcDbSymbolTableRecord
100
AcDbLayerTableRecord
  2
04_POINTS
 70
0
 62
7
  6
CONTINUOUS
370
-3
390
F
  0
LAYER
  5
203
100
AcDbSymbolTableRecord
100
AcDbLayerTableRecord
  2
05_CURVES
 70
0
 62
7
  6
CONTINUOUS
370
-3
390
F
  0
LAYER
  5
204
100
AcDbSymbolTableRecord
100
AcDbLayerTableRecord
  2
06_SURFS
 70
0
 62
7
  6
CONTINUOUS
370
-3
390
F
  0
LAYER
  5
205
100
AcDbSymbolTableRecord
100
AcDbLayerTableRecord
  2
07_COSMETICS
 70
0
 62
7
  6
CONTINUOUS
370
-3
390
F
  0
LAYER
  5
206
100
AcDbSymbolTableRecord
100
AcDbLayerTableRecord
  2
10_NOTES
 70
0
 62
7
  6
CONTINUOUS
370
-3
390
F
  0
LAYER
  5
207
100
AcDbSymbolTableRecord
100
AcDbLayerTableRecord
  2
11_NOTES_PUB
 70
0
 62
7
  6
CONTINUOUS
370
-3
390
F
  0
LAYER
  5
208
100
AcDbSymbolTableRecord
100
AcDbLayerTableRecord
  2
13_REF_GTOL
 70
0
 62
7
  6
CONTINUOUS
370
-3
390
F
  0
LAYER
  5
209
100
AcDbSymbolTableRecord
100
AcDbLayerTableRecord
  2
16_MISC
 70
0
 62
7
  6
CONTINUOUS
370
-3
390
F
  0
LAYER
  5
20A
100
AcDbSymbolTableRecord
100
AcDbLayerTableRecord
  2
17_NO_PRINT
 70
0
 62
7
  6
CONTINUOUS
370
-3
390
F
  0
LAYER
  5
20B
100
AcDbSymbolTableRecord
100
AcDbLayerTableRecord
  2
18_DATUM_CAMS_JOINTS
 70
0
 62
7
  6
CONTINUOUS
370
-3
390
F
  0
LAYER
  5
20C
100
AcDbSymbolTableRecord
100
AcDbLayerTableRecord
  2
19_DATUM_FUNCTIONAL
 70
0
 62
7
  6
CONTINUOUS
370
-3
390
F
  0
LAYER
  5
20D
100
AcDbSymbolTableRecord
100
AcDbLayerTableRecord
  2
2
 70
0
 62
7
  6
CONTINUOUS
370
-3
390
F
  0
LAYER
  5
20E
100
AcDbSymbolTableRecord
100
AcDbLayerTableRecord
  2
20_DATUM_KINEMATIC_SCHEME
 70
0
 62
7
  6
CONTINUOUS
370
-3
390
F
  0
LAYER
  5
20F
100
AcDbSymbolTableRecord
100
AcDbLayerTableRecord
  2
5
 70
0
 62
7
  6
CONTINUOUS
370
-3
390
F
  0
LAYER
  5
210
100
AcDbSymbolTableRecord
100
AcDbLayerTableRecord
  2
_1
 70
0
 62
7
  6
CONTINUOUS
370
-3
390
F
  0
ENDTAB
  0
TABLE
  2
STYLE
  5
3
100
AcDbSymbolTable
 70
1
  0
STYLE
  5
11
100
AcDbSymbolTableRecord
100
AcDbTextStyleTableRecord
  2
STANDARD
 70
0
 40
0.0
 41
1.0
 50
0.0
 71
0
 42
0.2
  3
ARIAL.TTF
  4

  0
STYLE
  5
211
100
AcDbSymbolTableRecord
100
AcDbTextStyleTableRecord
  2
TEXTSTYLE_1
 70
0
 40
0.0
 41
0.8
 50
0.0
 71
0
 42
0.2
  3
gdt
  4

  0
ENDTAB
  0
TABLE
  2
VIEW
  5
6
100
AcDbSymbolTable
 70
0
  0
ENDTAB
  0
TABLE
  2
UCS
  5
7
100
AcDbSymbolTable
 70
0
  0
ENDTAB
  0
TABLE
  2
APPID
  5
9
100
AcDbSymbolTable
 70
1
  0
APPID
  5
212
100
AcDbSymbolTableRecord
100
AcDbRegAppTableRecord
  2
ACAD
 70
0
  0
ENDTAB
  0
TABLE
  2
BLOCK_RECORD
  5
1
100
AcDbSymbolTable
 70
0
  0
BLOCK_RECORD
  5
213
100
AcDbSymbolTableRecord
100
AcDbBlockTableRecord
  2
*Model_Space
  0
BLOCK_RECORD
  5
214
100
AcDbSymbolTableRecord
100
AcDbBlockTableRecord
  2
*Paper_Space
  0
BLOCK_RECORD
  5
215
100
AcDbSymbolTableRecord
100
AcDbBlockTableRecord
  2
_FILLED
  0
ENDTAB
  0
TABLE
  2
DIMSTYLE
  5
A
100
AcDbSymbolTable
 70
1
100
AcDbDimStyleTable
 71
0
  0
DIMSTYLE
105
216
100
AcDbSymbolTableRecord
100
AcDbDimStyleTableRecord
  2
STANDARD
 70
0
  3

  4

 40
1.0
 41
3.341344355
 42
1.0
 43
0.38
 44
1.0
 45
0.0
 46
0.0
 47
0.01
 48
0.01
140
4.6778820971
141
0.09
142
0.0
143
25.4
144
1.0
145
0.0
146
1.0
147
0.625
 71
1
 72
0
 73
0
 74
0
 75
0
 76
0
 77
1
 78
8
 79
2
170
0
171
1
172
0
173
0
174
0
175
0
176
0
177
0
178
0
270
2
179
2
271
2
272
2
273
2
274
2
275
0
280
0
281
0
282
0
283
1
284
8
285
0
286
0
287
3
288
0
340
11
278
46
341
215
342
215
343
215
344
215
  0
ENDTAB
  0
ENDSEC
  0
SECTION
  2
BLOCKS
  0
BLOCK
  5
20
100
AcDbEntity
  8
0
100
AcDbBlockBegin
  2
*Model_Space
 70
0
 10
0.0
 20
0.0
 30
0.0
  3
*Model_Space
  1

  0
ENDBLK
  5
21
100
AcDbEntity
  8
0
100
AcDbBlockEnd
  0
BLOCK
  5
1C
100
AcDbEntity
  8
0
100
AcDbBlockBegin
  2
*Paper_Space
 70
0
 10
0.0
 20
0.0
 30
0.0
  3
*Paper_Space
  1

  0
ENDBLK
  5
1D
100
AcDbEntity
  8
0
100
AcDbBlockEnd
  0
BLOCK
  5
217
100
AcDbEntity
  8
0
100
AcDbBlockBegin
  2
_FILLED
 70
64
 10
0.0
 20
0.0
  3
_FILLED
  1

  0
SOLID
  5
218
100
AcDbEntity
  8
0
  6
BYBLOCK
 62
0
100
AcDbTrace
 10
0.0
 20
0.0
 11
-1.0
 21
0.25
 12
-1.0
 22
-0.25
 13
-1.0
 23
-0.25
  0
ENDBLK
  5
219
100
AcDbEntity
  8
0
  6
BYBLOCK
 62
0
100
AcDbBlockEnd
  0
ENDSEC
  0
SECTION
  2
ENTITIES
  0
LINE
  5
21A
100
AcDbEntity
  8
_1
100
AcDbLine
 62
7
  6
BYLAYER
 10
47.9056079215
 20
56.6569674447
 11
44.5114812408
 21
58.6165230664
  0
LINE
  5
21B
100
AcDbEntity
  8
_1
100
AcDbLine
 62
7
  6
BYLAYER
 10
44.5114812408
 20
59.8412766921
 11
47.9056079215
 21
57.8817210704
  0
LINE
  5
21C
100
AcDbEntity
  8
_1
100
AcDbLine
 62
7
  6
BYLAYER
 10
98.9587257659
 20
35.183101103
 11
59.0777372676
 21
58.2078796579
  0
LINE
  5
21D
100
AcDbEntity
  8
_1
100
AcDbLine
 62
7
  6
BYLAYER
 10
91.9584525352
 20
39.8782226742
 11
55.9866015896
 21
60.6461106685
  0
LINE
  5
21E
100
AcDbEntity
  8
_1
100
AcDbLine
 62
7
  6
BYLAYER
 10
48.2591627841
 20
65.1074486141
 11
45.9963204007
 21
66.413871718
  0
LINE
  5
21F
100
AcDbEntity
  8
_1
100
AcDbLine
 62
7
  6
BYLAYER
 10
48.2591627841
 20
70.3330640837
 11
44.5821009504
 21
72.4559686967
  0
LINE
  5
220
100
AcDbEntity
  8
_1
100
AcDbLine
 62
7
  6
BYLAYER
 10
48.2591627841
 20
71.9660271018
 11
45.9963086248
 21
73.2724570045
  0
LINE
  5
221
100
AcDbEntity
  8
_1
100
AcDbLine
 62
7
  6
BYLAYER
 10
48.1556013791
 20
57.8569683242
 11
47.9056079215
 21
57.8817210704
  0
LINE
  5
222
100
AcDbEntity
  8
_1
100
AcDbLine
 62
7
  6
BYLAYER
 10
47.9056079215
 20
89.8069655802
 11
44.5114812408
 21
91.7665212019
  0
LINE
  5
223
100
AcDbEntity
  8
_1
100
AcDbLine
 62
7
  6
BYLAYER
 10
44.5114812408
 20
92.9912748276
 11
47.9056079215
 21
91.0317192059
  0
LINE
  5
224
100
AcDbEntity
  8
_1
100
AcDbLine
 62
7
  6
BYLAYER
 10
44.5821009504
 20
104.3812132065
 11
54.4109078011
 21
98.7066773006
  0
LINE
  5
225
100
AcDbEntity
  8
_1
100
AcDbLine
 62
7
  6
BYLAYER
 10
189.1847885571
 20
361.3737662433
 11
192.3667558246
 21
363.2108649358
  0
LINE
  5
226
100
AcDbEntity
  8
_1
100
AcDbLine
 62
7
  6
BYLAYER
 10
195.2736879023
 20
350.0111357764
 11
196.0791172092
 21
350.2597776138
  0
LINE
  5
227
100
AcDbEntity
  8
_1
100
AcDbLine
 62
7
  6
BYLAYER
 10
201.7717237916
 20
83.9275673018
 11
201.2717431214
 21
83.878058204
  0
LINE
  5
228
100
AcDbEntity
  8
_1
100
AcDbLine
 62
7
  6
BYLAYER
 10
55.4715907176
 20
99.3190592126
 11
58.8657173983
 21
97.3595035909
  0
LINE
  5
229
100
AcDbEntity
  8
_1
100
AcDbLine
 62
7
  6
BYLAYER
 10
62.2244885928
 20
109.3825513398
 11
46.8802075571
 21
118.2413757129
  0
LINE
  5
22A
100
AcDbEntity
  8
_1
100
AcDbLine
 62
7
  6
BYLAYER
 10
32.5612886143
 20
223.8208092359
 11
32.5612886143
 21
245.7514107475
  0
LINE
  5
22B
100
AcDbEntity
  8
_1
100
AcDbLine
 62
7
  6
BYLAYER
 10
33.9755080646
 20
244.573406622
 11
33.9755080646
 21
223.0043277268
  0
LINE
  5
22C
100
AcDbEntity
  8
_1
100
AcDbLine
 62
7
  6
BYLAYER
 10
37.9075565923
 20
181.3450277497
 11
37.9075565923
 21
170.0772943933
  0
LINE
  5
22D
100
AcDbEntity
  8
_1
100
AcDbLine
 62
7
  6
BYLAYER
 10
38.6146663175
 20
180.9367869951
 11
38.6146663175
 21
169.6690536388
  0
LINE
  5
22E
100
AcDbEntity
  8
_1
100
AcDbLine
 62
7
  6
BYLAYER
 10
40.9964405468
 20
254.7045009835
 11
39.8689137129
 21
253.657172999
  0
LINE
  5
22F
100
AcDbEntity
  8
_1
100
AcDbLine
 62
7
  6
BYLAYER
 10
41.3347528526
 20
252.4361711569
 11
41.9964361998
 21
252.9724476692
  0
LINE
  5
230
100
AcDbEntity
  8
_1
100
AcDbLine
 62
7
  6
BYLAYER
 10
144.6203421388
 20
333.7667015818
 11
190.811140925
 21
360.4348125079
  0
LINE
  5
231
100
AcDbEntity
  8
_1
100
AcDbLine
 62
7
  6
BYLAYER
 10
191.1647046195
 20
359.0059647681
 11
146.0345615891
 21
332.9502200728
  0
LINE
  5
232
100
AcDbEntity
  8
_1
100
AcDbLine
 62
7
  6
BYLAYER
 10
177.4468901775
 20
347.8200185145
 11
171.7900594798
 21
344.5540652835
  0
LINE
  5
233
100
AcDbEntity
  8
_1
100
AcDbLine
 62
7
  6
BYLAYER
 10
164.7190211077
 20
340.4716237448
 11
159.0621904099
 21
337.2056705138
  0
LINE
  5
234
100
AcDbEntity
  8
_1
100
AcDbLine
 62
7
  6
BYLAYER
 10
151.9911520378
 20
333.1232289751
 11
146.3343213401
 21
329.8572757441
  0
LINE
  5
235
100
AcDbEntity
  8
_1
100
AcDbLine
 62
7
  6
BYLAYER
 10
145.6272175029
 20
327.8159985373
 11
150.5769325875
 21
330.6737008156
  0
LINE
  5
236
100
AcDbEntity
  8
_1
100
AcDbLine
 62
7
  6
BYLAYER
 10
158.3550865727
 20
335.164393307
 11
163.3048016574
 21
338.0220955853
  0
LINE
  5
237
100
AcDbEntity
  8
_1
100
AcDbLine
 62
7
  6
BYLAYER
 10
171.0829556426
 20
342.5127880766
 11
176.0326707272
 21
345.370490355
  0
LINE
  5
238
100
AcDbEntity
  8
_1
100
AcDbLine
 62
7
  6
BYLAYER
 10
146.3343213401
 20
326.5912660756
 11
151.9911520378
 21
329.8572193066
  0
LINE
  5
239
100
AcDbEntity
  8
_1
100
AcDbLine
 62
7
  6
BYLAYER
 10
159.0621904099
 20
333.9396608453
 11
164.7190211077
 21
337.2056140763
  0
LINE
  5
23A
100
AcDbEntity
  8
_1
100
AcDbLine
 62
7
  6
BYLAYER
 10
171.7900594798
 20
341.288055615
 11
177.4468901775
 21
344.5540088459
  0
LINE
  5
23B
100
AcDbEntity
  8
_1
100
AcDbLine
 62
7
  6
BYLAYER
 10
196.0791172092
 20
351.2696770214
 11
197.9940954017
 21
352.3752835967
  0
LINE
  5
23C
100
AcDbEntity
  8
_1
100
AcDbLine
 62
7
  6
BYLAYER
 10
198.6824157963
 20
351.7627837821
 11
196.0791172092
 21
350.2597776138
  0
LINE
  5
23D
100
AcDbEntity
  8
_1
100
AcDbLine
 62
7
  6
BYLAYER
 10
207.4285544893
 20
90.4595302013
 11
207.9285351595
 21
90.5090392991
  0
LINE
  5
23E
100
AcDbEntity
  8
_1
100
AcDbLine
 62
7
  6
BYLAYER
 10
62.2244885928
 20
111.0155143579
 11
48.2944152315
 21
119.0578640206
  0
LINE
  5
23F
100
AcDbEntity
  8
_1
100
AcDbLine
 62
7
  6
BYLAYER
 10
77.5334141422
 20
107.8110105169
 11
65.5125488147
 21
114.7511033437
  0
LINE
  5
240
100
AcDbEntity
  8
_1
100
AcDbLine
 62
7
  6
BYLAYER
 10
84.1802455586
 20
103.9735474244
 11
95.494001161
 21
97.4416953521
  0
LINE
  5
241
100
AcDbEntity
  8
_1
100
AcDbLine
 62
7
  6
BYLAYER
 10
77.5334141422
 20
109.443973535
 11
66.9267564892
 21
115.5675916515
  0
LINE
  5
242
100
AcDbEntity
  8
_1
100
AcDbLine
 62
7
  6
BYLAYER
 10
99.029520347
 20
99.4829161214
 11
87.7157647447
 21
106.0147681938
  0
LINE
  5
243
100
AcDbEntity
  8
_1
100
AcDbLine
 62
7
  6
BYLAYER
 10
46.8802075571
 20
133.5916211549
 11
62.2244885928
 21
124.7327967818
  0
LINE
  5
244
100
AcDbEntity
  8
_1
100
AcDbLine
 62
7
  6
BYLAYER
 10
38.9252231492
 20
78.6613034345
 11
38.9252231492
 21
147.2728347984
  0
LINE
  5
245
100
AcDbEntity
  8
_1
100
AcDbLine
 62
7
  6
BYLAYER
 10
38.9252231492
 20
149.4020213241
 11
38.9252231492
 21
169.7170970611
  0
LINE
  5
246
100
AcDbEntity
  8
_1
100
AcDbLine
 62
7
  6
BYLAYER
 10
38.9252231492
 20
182.1071265448
 11
38.9252231492
 21
213.4832340816
  0
LINE
  5
247
100
AcDbEntity
  8
_1
100
AcDbLine
 62
7
  6
BYLAYER
 10
38.9252231492
 20
215.6124206072
 11
38.9252231492
 21
222.5959921179
  0
LINE
  5
248
100
AcDbEntity
  8
_1
100
AcDbLine
 62
7
  6
BYLAYER
 10
39.4555510271
 20
147.5790179138
 11
39.4555510271
 21
148.3035876468
  0
LINE
  5
249
100
AcDbEntity
  8
_1
100
AcDbLine
 62
7
  6
BYLAYER
 10
39.4555510271
 20
214.0575138295
 11
39.4555510271
 21
215.9186037226
  0
LINE
  5
24A
100
AcDbEntity
  8
_1
100
AcDbLine
 62
7
  6
BYLAYER
 10
40.2756852383
 20
181.1937481222
 11
40.2756852383
 21
169.9260147658
  0
LINE
  5
24B
100
AcDbEntity
  8
_1
100
AcDbLine
 62
7
  6
BYLAYER
 10
40.3394425995
 20
219.7937671435
 11
40.3394425995
 21
221.7795106089
  0
LINE
  5
24C
100
AcDbEntity
  8
_1
100
AcDbLine
 62
7
  6
BYLAYER
 10
40.4980383183
 20
181.3610488046
 11
40.4980383183
 21
170.0933154482
  0
LINE
  5
24D
100
AcDbEntity
  8
_1
100
AcDbLine
 62
7
  6
BYLAYER
 10
41.8950839948
 20
182.8307257189
 11
41.8950839948
 21
171.5629923625
  0
LINE
  5
24E
100
AcDbEntity
  8
_1
100
AcDbLine
 62
7
  6
BYLAYER
 10
44.5114812408
 20
58.6165230664
 11
44.5114812408
 21
59.8412766921
  0
LINE
  5
24F
100
AcDbEntity
  8
_1
100
AcDbLine
 62
7
  6
BYLAYER
 10
44.5114812408
 20
91.7665212019
 11
44.5114812408
 21
92.9912748276
  0
LINE
  5
250
100
AcDbEntity
  8
_1
100
AcDbLine
 62
7
  6
BYLAYER
 10
44.5821009504
 20
72.4559686967
 11
44.5821009504
 21
91.7257498159
  0
LINE
  5
251
100
AcDbEntity
  8
_1
100
AcDbLine
 62
7
  6
BYLAYER
 10
44.5821009504
 20
93.0320468925
 11
44.5821009504
 21
104.3812132065
  0
LINE
  5
252
100
AcDbEntity
  8
_1
100
AcDbLine
 62
7
  6
BYLAYER
 10
45.9963086248
 20
73.2724570045
 11
45.9963086248
 21
90.9092751055
  0
LINE
  5
253
100
AcDbEntity
  8
_1
100
AcDbLine
 62
7
  6
BYLAYER
 10
45.9963086248
 20
93.8485352002
 11
45.9963086248
 21
103.5647384961
  0
LINE
  5
254
100
AcDbEntity
  8
_1
100
AcDbLine
 62
7
  6
BYLAYER
 10
46.8802075571
 20
118.2413757129
 11
46.8802075571
 21
133.5916211549
  0
LINE
  5
255
100
AcDbEntity
  8
_1
100
AcDbLine
 62
7
  6
BYLAYER
 10
47.4104809716
 20
223.8762086822
 11
47.4104809716
 21
251.7599753078
  0
LINE
  5
256
100
AcDbEntity
  8
_1
100
AcDbLine
 62
7
  6
BYLAYER
 10
48.1883346419
 20
226.5299510864
 11
48.1883346419
 21
228.8161578543
  0
LINE
  5
257
100
AcDbEntity
  8
_1
100
AcDbLine
 62
7
  6
BYLAYER
 10
48.1883346419
 20
244.4930042632
 11
48.1883346419
 21
246.7792110312
  0
LINE
  5
258
100
AcDbEntity
  8
_1
100
AcDbLine
 62
7
  6
BYLAYER
 10
48.2591627841
 20
58.0858519017
 11
48.2591627841
 21
89.1945939943
  0
LINE
  5
259
100
AcDbEntity
  8
_1
100
AcDbLine
 62
7
  6
BYLAYER
 10
48.2944152315
 20
119.0578640206
 11
48.2944152315
 21
132.7751464445
  0
LINE
  5
25A
100
AcDbEntity
  8
_1
100
AcDbLine
 62
7
  6
BYLAYER
 10
48.8954443671
 20
222.3249740922
 11
48.8954443671
 21
226.1217103318
  0
LINE
  5
25B
100
AcDbEntity
  8
_1
100
AcDbLine
 62
7
  6
BYLAYER
 10
48.8954443671
 20
228.4079170998
 11
48.8954443671
 21
244.0847635087
  0
LINE
  5
25C
100
AcDbEntity
  8
_1
100
AcDbLine
 62
7
  6
BYLAYER
 10
48.8954443671
 20
246.3709702766
 11
48.8954443671
 21
250.1677065163
  0
LINE
  5
25D
100
AcDbEntity
  8
_1
100
AcDbLine
 62
7
  6
BYLAYER
 10
49.3198273718
 20
88.5822328626
 11
49.3198273718
 21
57.4734907699
  0
LINE
  5
25E
100
AcDbEntity
  8
_1
100
AcDbLine
 62
7
  6
BYLAYER
 10
137.4531885746
 20
315.1766430076
 11
134.8792138591
 21
313.6905668834
  0
LINE
  5
25F
100
AcDbEntity
  8
_1
100
AcDbLine
 62
7
  6
BYLAYER
 10
201.3824501573
 20
349.2693542696
 11
200.5339255527
 21
348.779461285
  0
LINE
  5
260
100
AcDbEntity
  8
_1
100
AcDbLine
 62
7
  6
BYLAYER
 10
138.8390206656
 20
312.465849039
 11
191.1647046195
 21
342.6759164255
  0
LINE
  5
261
100
AcDbEntity
  8
_1
100
AcDbLine
 62
7
  6
BYLAYER
 10
51.6029003433
 20
260.8283327561
 11
40.9963427851
 21
254.704670448
  0
LINE
  5
262
100
AcDbEntity
  8
_1
100
AcDbLine
 62
7
  6
BYLAYER
 10
51.9564522619
 20
261.032454833
 11
132.9237571388
 21
307.778671062
  0
LINE
  5
263
100
AcDbEntity
  8
_1
100
AcDbLine
 62
7
  6
BYLAYER
 10
105.7154192595
 20
291.6684818326
 11
106.8285421201
 21
292.3111397796
  0
LINE
  5
264
100
AcDbEntity
  8
_1
100
AcDbLine
 62
7
  6
BYLAYER
 10
129.0810998772
 20
305.1585833019
 11
130.1942227377
 21
305.8012412489
  0
LINE
  5
265
100
AcDbEntity
  8
_1
100
AcDbLine
 62
7
  6
BYLAYER
 10
203.6007518563
 20
347.9886461601
 11
204.8028283795
 21
348.6826612217
  0
LINE
  5
266
100
AcDbEntity
  8
_1
100
AcDbLine
 62
7
  6
BYLAYER
 10
203.3623644532
 20
347.1464982669
 11
205.4129655812
 21
348.3304063131
  0
LINE
  5
267
100
AcDbEntity
  8
_1
100
AcDbLine
 62
7
  6
BYLAYER
 10
34.849761768
 20
249.3457183509
 11
36.9710732797
 21
250.5704508125
  0
LINE
  5
268
100
AcDbEntity
  8
_1
100
AcDbLine
 62
7
  6
BYLAYER
 10
96.2131849467
 20
284.5786126597
 11
105.7154192595
 21
290.0646974507
  0
LINE
  5
269
100
AcDbEntity
  8
_1
100
AcDbLine
 62
7
  6
BYLAYER
 10
108.217479993
 20
291.5092542658
 11
118.1327026777
 21
297.2337765811
  0
LINE
  5
26A
100
AcDbEntity
  8
_1
100
AcDbLine
 62
7
  6
BYLAYER
 10
45.9963204007
 20
254.2094276578
 11
56.6028779589
 21
260.3330899659
  0
LINE
  5
26B
100
AcDbEntity
  8
_1
100
AcDbLine
 62
7
  6
BYLAYER
 10
56.9564298775
 20
260.5372120429
 11
97.5288911746
 21
283.9615936697
  0
LINE
  5
26C
100
AcDbEntity
  8
_1
100
AcDbLine
 62
7
  6
BYLAYER
 10
119.4484089055
 20
296.6167575911
 11
129.0810998772
 21
302.1781611195
  0
LINE
  5
26D
100
AcDbEntity
  8
_1
100
AcDbLine
 62
7
  6
BYLAYER
 10
132.7753809616
 20
304.3110425664
 11
137.0005842501
 21
306.7504502611
  0
LINE
  5
26E
100
AcDbEntity
  8
_1
100
AcDbLine
 62
7
  6
BYLAYER
 10
97.6274288355
 20
283.9047042117
 11
105.7154192595
 21
288.5742797866
  0
LINE
  5
26F
100
AcDbEntity
  8
_1
100
AcDbLine
 62
7
  6
BYLAYER
 10
109.5082380048
 20
290.764051639
 11
118.1327026777
 21
295.743358917
  0
LINE
  5
270
100
AcDbEntity
  8
_1
100
AcDbLine
 62
7
  6
BYLAYER
 10
38.3518604015
 20
249.420294855
 11
36.2305488899
 21
248.1955623933
  0
LINE
  5
271
100
AcDbEntity
  8
_1
100
AcDbLine
 62
7
  6
BYLAYER
 10
111.0004865545
 20
290.3107617821
 11
132.5459404744
 21
302.7499611506
  0
LINE
  5
272
100
AcDbEntity
  8
_1
100
AcDbLine
 62
7
  6
BYLAYER
 10
34.1752273955
 20
245.7514394591
 11
45.9963692768
 21
252.5763381672
  0
LINE
  5
273
100
AcDbEntity
  8
_1
100
AcDbLine
 62
7
  6
BYLAYER
 10
133.6590726037
 20
302.1073085548
 11
112.1136186838
 21
289.6681091863
  0
LINE
  5
274
100
AcDbEntity
  8
_1
100
AcDbLine
 62
7
  6
BYLAYER
 10
48.8954443671
 20
250.1677065163
 11
49.5319337884
 21
250.5351816615
  0
LINE
  5
275
100
AcDbEntity
  8
_1
100
AcDbLine
 62
7
  6
BYLAYER
 10
235.5789422357
 20
326.7414127687
 11
236.3843715426
 21
326.9900546061
  0
LINE
  5
276
100
AcDbEntity
  8
_1
100
AcDbLine
 62
7
  6
BYLAYER
 10
97.7663138451
 20
110.207848358
 11
90.1457289942
 21
114.6074955397
  0
LINE
  5
277
100
AcDbEntity
  8
_1
100
AcDbLine
 62
7
  6
BYLAYER
 10
65.5125488147
 20
129.2031961269
 11
77.5334141422
 21
122.2631033001
  0
LINE
  5
278
100
AcDbEntity
  8
_1
100
AcDbLine
 62
7
  6
BYLAYER
 10
97.7663138451
 20
111.024329867
 11
90.8528328314
 21
115.0157396936
  0
LINE
  5
279
100
AcDbEntity
  8
_1
100
AcDbLine
 62
7
  6
BYLAYER
 10
74.2807094065
 20
125.145308744
 11
42.4607717749
 21
143.5161426974
  0
LINE
  5
27A
100
AcDbEntity
  8
_1
100
AcDbLine
 62
7
  6
BYLAYER
 10
42.9910996528
 20
143.8223258128
 11
74.8110372845
 21
125.4514918594
  0
LINE
  5
27B
100
AcDbEntity
  8
_1
100
AcDbLine
 62
7
  6
BYLAYER
 10
74.2807094065
 20
126.3700623696
 11
42.4607717749
 21
144.7408963231
  0
LINE
  5
27C
100
AcDbEntity
  8
_1
100
AcDbLine
 62
7
  6
BYLAYER
 10
40.4878157429
 20
181.4058776339
 11
40.2636683921
 21
181.8888331039
  0
LINE
  5
27D
100
AcDbEntity
  8
_1
100
AcDbLine
 62
7
  6
BYLAYER
 10
40.4980043931
 20
181.36104876
 11
40.4878157429
 21
181.4058776339
  0
LINE
  5
27E
100
AcDbEntity
  8
_1
100
AcDbLine
 62
7
  6
BYLAYER
 10
52.360307927
 20
165.7414848483
 11
52.360307927
 21
180.1935776314
  0
LINE
  5
27F
100
AcDbEntity
  8
_1
100
AcDbLine
 62
7
  6
BYLAYER
 10
53.7745156014
 20
166.557973156
 11
53.7745156014
 21
179.3771029211
  0
LINE
  5
280
100
AcDbEntity
  8
_1
100
AcDbLine
 62
7
  6
BYLAYER
 10
55.3301687726
 20
156.719177046
 11
55.3301687726
 21
159.6585857476
  0
LINE
  5
281
100
AcDbEntity
  8
_1
100
AcDbLine
 62
7
  6
BYLAYER
 10
55.9665416185
 20
246.0852989711
 11
55.9665416185
 21
218.242566547
  0
LINE
  5
282
100
AcDbEntity
  8
_1
100
AcDbLine
 62
7
  6
BYLAYER
 10
56.3201223878
 20
213.3028091887
 11
56.3201223878
 21
213.0170333427
  0
LINE
  5
283
100
AcDbEntity
  8
_1
100
AcDbLine
 62
7
  6
BYLAYER
 10
56.744376447
 20
157.5356653537
 11
56.744376447
 21
158.8421110372
  0
LINE
  5
284
100
AcDbEntity
  8
_1
100
AcDbLine
 62
7
  6
BYLAYER
 10
57.9464488489
 20
224.5296644302
 11
57.9464488489
 21
244.207372683
  0
LINE
  5
285
100
AcDbEntity
  8
_1
100
AcDbLine
 62
7
  6
BYLAYER
 10
59.0071393434
 20
208.8937358616
 11
59.0071393434
 21
210.1184894873
  0
LINE
  5
286
100
AcDbEntity
  8
_1
100
AcDbLine
 62
7
  6
BYLAYER
 10
59.9263231067
 20
223.3866093539
 11
59.9263231067
 21
220.5287338085
  0
LINE
  5
287
100
AcDbEntity
  8
_1
100
AcDbLine
 62
7
  6
BYLAYER
 10
60.2799368486
 20
94.9100172476
 11
60.2799368486
 21
63.8012751549
  0
LINE
  5
288
100
AcDbEntity
  8
_1
100
AcDbLine
 62
7
  6
BYLAYER
 10
61.3406014364
 20
208.7712949973
 11
61.3406014364
 21
207.5465413717
  0
LINE
  5
289
100
AcDbEntity
  8
_1
100
AcDbLine
 62
7
  6
BYLAYER
 10
61.4113124089
 20
156.1477152588
 11
61.4113124089
 21
153.2083065571
  0
LINE
  5
28A
100
AcDbEntity
  8
_1
100
AcDbLine
 62
7
  6
BYLAYER
 10
62.2244885928
 20
124.7327967818
 11
62.2244885928
 21
109.3825513398
  0
LINE
  5
28B
100
AcDbEntity
  8
_1
100
AcDbLine
 62
7
  6
BYLAYER
 10
63.9569074194
 20
206.0360505799
 11
63.9569074194
 21
207.2608042056
  0
LINE
  5
28C
100
AcDbEntity
  8
_1
100
AcDbLine
 62
7
  6
BYLAYER
 10
64.3811732545
 20
173.2534848046
 11
64.3811732545
 21
158.8013920214
  0
LINE
  5
28D
100
AcDbEntity
  8
_1
100
AcDbLine
 62
7
  6
BYLAYER
 10
48.1883346419
 20
246.7792110312
 11
48.8954443671
 21
247.1874585844
  0
LINE
  5
28E
100
AcDbEntity
  8
_1
100
AcDbLine
 62
7
  6
BYLAYER
 10
203.3623644532
 20
333.2659571757
 11
205.4129655812
 21
334.4498652219
  0
LINE
  5
28F
100
AcDbEntity
  8
_1
100
AcDbLine
 62
7
  6
BYLAYER
 10
55.9665416185
 20
246.0852989711
 11
56.6030310398
 21
246.4527741163
  0
LINE
  5
290
100
AcDbEntity
  8
_1
100
AcDbLine
 62
7
  6
BYLAYER
 10
133.6590726037
 20
288.2267674636
 11
112.1136186838
 21
275.7875680951
  0
LINE
  5
291
100
AcDbEntity
  8
_1
100
AcDbLine
 62
7
  6
BYLAYER
 10
57.9464488489
 20
244.207372683
 11
59.2193480202
 21
244.9422769754
  0
LINE
  5
292
100
AcDbEntity
  8
_1
100
AcDbLine
 62
7
  6
BYLAYER
 10
61.4113124089
 20
153.2083065571
 11
55.3301687726
 21
156.719177046
  0
LINE
  5
293
100
AcDbEntity
  8
_1
100
AcDbLine
 62
7
  6
BYLAYER
 10
61.4113124089
 20
154.8412695752
 11
56.744376447
 21
157.5356653537
  0
LINE
  5
294
100
AcDbEntity
  8
_1
100
AcDbLine
 62
7
  6
BYLAYER
 10
55.3301687726
 20
159.6585857476
 11
61.4113124089
 21
156.1477152588
  0
LINE
  5
295
100
AcDbEntity
  8
_1
100
AcDbLine
 62
7
  6
BYLAYER
 10
72.2730892345
 20
150.2367937236
 11
71.5659795093
 21
150.6450344781
  0
LINE
  5
296
100
AcDbEntity
  8
_1
100
AcDbLine
 62
7
  6
BYLAYER
 10
38.6146663175
 20
169.6690536388
 11
37.9075565923
 21
170.0772943933
  0
LINE
  5
297
100
AcDbEntity
  8
_1
100
AcDbLine
 62
7
  6
BYLAYER
 10
65.5125488147
 20
114.7511033437
 11
65.5125488147
 21
129.2031961269
  0
LINE
  5
298
100
AcDbEntity
  8
_1
100
AcDbLine
 62
7
  6
BYLAYER
 10
66.2903695124
 20
205.9136097157
 11
66.2903695124
 21
204.68885609
  0
LINE
  5
299
100
AcDbEntity
  8
_1
100
AcDbLine
 62
7
  6
BYLAYER
 10
66.5024765232
 20
239.2676595533
 11
66.5024765232
 21
219.5899513005
  0
LINE
  5
29A
100
AcDbEntity
  8
_1
100
AcDbLine
 62
7
  6
BYLAYER
 10
66.9267564892
 20
115.5675916515
 11
66.9267564892
 21
128.3867214165
  0
LINE
  5
29B
100
AcDbEntity
  8
_1
100
AcDbLine
 62
7
  6
BYLAYER
 10
68.9066754954
 20
203.1783652983
 11
68.9066754954
 21
204.403118924
  0
LINE
  5
29C
100
AcDbEntity
  8
_1
100
AcDbLine
 62
7
  6
BYLAYER
 10
70.4622580114
 20
238.4513267104
 11
70.4622580114
 21
221.8761185621
  0
LINE
  5
29D
100
AcDbEntity
  8
_1
100
AcDbLine
 62
7
  6
BYLAYER
 10
70.5330019565
 20
217.2629789997
 11
70.5330019565
 21
234.0829287926
  0
LINE
  5
29E
100
AcDbEntity
  8
_1
100
AcDbLine
 62
7
  6
BYLAYER
 10
71.2401375884
 20
203.0559244341
 11
71.2401375884
 21
201.8311708084
  0
LINE
  5
29F
100
AcDbEntity
  8
_1
100
AcDbLine
 62
7
  6
BYLAYER
 10
71.5659795093
 20
161.9127678345
 11
71.5659795093
 21
150.6450344781
  0
LINE
  5
2A0
100
AcDbEntity
  8
_1
100
AcDbLine
 62
7
  6
BYLAYER
 10
72.2730892345
 20
161.50452708
 11
72.2730892345
 21
150.2367937236
  0
LINE
  5
2A1
100
AcDbEntity
  8
_1
100
AcDbLine
 62
7
  6
BYLAYER
 10
73.8564435715
 20
200.3206800166
 11
73.8564435715
 21
201.5454336423
  0
LINE
  5
2A2
100
AcDbEntity
  8
_1
100
AcDbLine
 62
7
  6
BYLAYER
 10
75.9777727469
 20
163.153521351
 11
75.9777727469
 21
151.8857879947
  0
LINE
  5
2A3
100
AcDbEntity
  8
_1
100
AcDbLine
 62
7
  6
BYLAYER
 10
76.1899056644
 20
200.1982391524
 11
76.1899056644
 21
198.9734855267
  0
LINE
  5
2A4
100
AcDbEntity
  8
_1
100
AcDbLine
 62
7
  6
BYLAYER
 10
77.5334141422
 20
122.2631033001
 11
77.5334141422
 21
107.8110105169
  0
LINE
  5
2A5
100
AcDbEntity
  8
_1
100
AcDbLine
 62
7
  6
BYLAYER
 10
78.1698128949
 20
128.615501514
 11
78.1698128949
 21
188.9550301399
  0
LINE
  5
2A6
100
AcDbEntity
  8
_1
100
AcDbLine
 62
7
  6
BYLAYER
 10
38.9252231492
 20
215.6124206072
 11
38.9608474454
 21
215.6332709877
  0
LINE
  5
2A7
100
AcDbEntity
  8
_1
100
AcDbLine
 62
7
  6
BYLAYER
 10
129.8649898605
 20
278.3649182722
 11
151.9604266743
 21
291.1216485171
  0
LINE
  5
2A8
100
AcDbEntity
  8
_1
100
AcDbLine
 62
7
  6
BYLAYER
 10
48.1883346419
 20
228.8161578543
 11
48.8954443671
 21
229.2244054076
  0
LINE
  5
2A9
100
AcDbEntity
  8
_1
100
AcDbLine
 62
7
  6
BYLAYER
 10
36.0968195762
 20
221.7795529371
 11
38.2181310879
 21
223.0042853987
  0
LINE
  5
2AA
100
AcDbEntity
  8
_1
100
AcDbLine
 62
7
  6
BYLAYER
 10
66.5024765232
 20
239.2676595533
 11
67.7753756945
 21
240.0025638457
  0
LINE
  5
2AB
100
AcDbEntity
  8
_1
100
AcDbLine
 62
7
  6
BYLAYER
 10
228.8890255311
 20
332.4090070287
 11
230.939626659
 21
333.5929150749
  0
LINE
  5
2AC
100
AcDbEntity
  8
_1
100
AcDbLine
 62
7
  6
BYLAYER
 10
230.3476873374
 20
332.5466451048
 11
231.5497638606
 21
333.2406601664
  0
LINE
  5
2AD
100
AcDbEntity
  8
_1
100
AcDbLine
 62
7
  6
BYLAYER
 10
90.9373301029
 20
252.0256639443
 11
106.369614249
 21
260.935444166
  0
LINE
  5
2AE
100
AcDbEntity
  8
_1
100
AcDbLine
 62
7
  6
BYLAYER
 10
232.5659890363
 20
331.2659369953
 11
231.7174644316
 21
330.7760440106
  0
LINE
  5
2AF
100
AcDbEntity
  8
_1
100
AcDbLine
 62
7
  6
BYLAYER
 10
108.5624397392
 20
259.6694444197
 11
127.8731779763
 21
270.8184377886
  0
LINE
  5
2B0
100
AcDbEntity
  8
_1
100
AcDbLine
 62
7
  6
BYLAYER
 10
47.4104809716
 20
223.8762086822
 11
40.3394425995
 21
219.7937671435
  0
LINE
  5
2B1
100
AcDbEntity
  8
_1
100
AcDbLine
 62
7
  6
BYLAYER
 10
109.2695616836
 20
259.2611966106
 11
127.8731779763
 21
270.0019353715
  0
LINE
  5
2B2
100
AcDbEntity
  8
_1
100
AcDbLine
 62
7
  6
BYLAYER
 10
77.1091188675
 20
240.3292590009
 11
73.5735996814
 21
238.2880382316
  0
LINE
  5
2B3
100
AcDbEntity
  8
_1
100
AcDbLine
 62
7
  6
BYLAYER
 10
70.5330019565
 20
234.0829287926
 11
74.1729263937
 21
236.184427602
  0
LINE
  5
2B4
100
AcDbEntity
  8
_1
100
AcDbLine
 62
7
  6
BYLAYER
 10
38.9252231492
 20
215.6124206072
 11
38.9609699038
 21
215.6330588824
  0
LINE
  5
2B5
100
AcDbEntity
  8
_1
100
AcDbLine
 62
7
  6
BYLAYER
 10
161.0379269388
 20
285.8808698581
 11
138.942490125
 21
273.1241396132
  0
LINE
  5
2B6
100
AcDbEntity
  8
_1
100
AcDbLine
 62
7
  6
BYLAYER
 10
112.3334115755
 20
257.4923220681
 11
96.9011274294
 21
248.5825418463
  0
LINE
  5
2B7
100
AcDbEntity
  8
_1
100
AcDbLine
 62
7
  6
BYLAYER
 10
236.3843715426
 20
327.9999540137
 11
238.299349735
 21
329.105560589
  0
LINE
  5
2B8
100
AcDbEntity
  8
_1
100
AcDbLine
 62
7
  6
BYLAYER
 10
39.7107840864
 20
214.3343350719
 11
40.2411119643
 21
214.6405181873
  0
LINE
  5
2B9
100
AcDbEntity
  8
_1
100
AcDbLine
 62
7
  6
BYLAYER
 10
90.1457289942
 20
141.3627919003
 11
97.7663138451
 21
136.9631447185
  0
LINE
  5
2BA
100
AcDbEntity
  8
_1
100
AcDbLine
 62
7
  6
BYLAYER
 10
196.4720488758
 20
79.9932134478
 11
195.0578294255
 21
80.8096949568
  0
LINE
  5
2BB
100
AcDbEntity
  8
_1
100
AcDbLine
 62
7
  6
BYLAYER
 10
64.3811732545
 20
158.8013920214
 11
52.360307927
 21
165.7414848483
  0
LINE
  5
2BC
100
AcDbEntity
  8
_1
100
AcDbLine
 62
7
  6
BYLAYER
 10
194.4020026219
 20
84.4291973812
 11
192.9877831716
 21
85.2456788902
  0
LINE
  5
2BD
100
AcDbEntity
  8
_1
100
AcDbLine
 62
7
  6
BYLAYER
 10
64.3811732545
 20
160.4343550395
 11
53.7745156014
 21
166.557973156
  0
LINE
  5
2BE
100
AcDbEntity
  8
_1
100
AcDbLine
 62
7
  6
BYLAYER
 10
201.7717237916
 20
83.9275673018
 11
201.0646109011
 21
84.3358098838
  0
LINE
  5
2BF
100
AcDbEntity
  8
_1
100
AcDbLine
 62
7
  6
BYLAYER
 10
83.8205432661
 20
153.4042031494
 11
88.9122860715
 21
150.4645505739
  0
LINE
  5
2C0
100
AcDbEntity
  8
_1
100
AcDbLine
 62
7
  6
BYLAYER
 10
93.3696422514
 20
147.8911530016
 11
98.6024436304
 21
144.870062063
  0
LINE
  5
2C1
100
AcDbEntity
  8
_1
100
AcDbLine
 62
7
  6
BYLAYER
 10
98.5713767823
 20
144.9387299852
 11
93.3385754033
 21
147.9598209238
  0
LINE
  5
2C2
100
AcDbEntity
  8
_1
100
AcDbLine
 62
7
  6
BYLAYER
 10
88.8812192234
 20
150.5332184961
 11
83.789476418
 21
153.4728710716
  0
LINE
  5
2C3
100
AcDbEntity
  8
_1
100
AcDbLine
 62
7
  6
BYLAYER
 10
93.2928210104
 20
148.1417495257
 11
88.9891073125
 21
150.6264435764
  0
LINE
  5
2C4
100
AcDbEntity
  8
_1
100
AcDbLine
 62
7
  6
BYLAYER
 10
93.3354577075
 20
148.1678656488
 11
88.8843369191
 21
150.7376632976
  0
LINE
  5
2C5
100
AcDbEntity
  8
_1
100
AcDbLine
 62
7
  6
BYLAYER
 10
72.2730892345
 20
161.50452708
 11
71.5659795093
 21
161.9127678345
  0
LINE
  5
2C6
100
AcDbEntity
  8
_1
100
AcDbLine
 62
7
  6
BYLAYER
 10
38.6146663175
 20
180.9367869951
 11
37.9075565923
 21
181.3450277497
  0
LINE
  5
2C7
100
AcDbEntity
  8
_1
100
AcDbLine
 62
7
  6
BYLAYER
 10
206.014335039
 20
88.0100020418
 11
207.4285544893
 21
87.1935205327
  0
LINE
  5
2C8
100
AcDbEntity
  8
_1
100
AcDbLine
 62
7
  6
BYLAYER
 10
40.7637084346
 20
183.4839109262
 11
41.8950839948
 21
182.8307257189
  0
LINE
  5
2C9
100
AcDbEntity
  8
_1
100
AcDbLine
 62
7
  6
BYLAYER
 10
74.8463971867
 20
163.8067065583
 11
75.9777727469
 21
163.153521351
  0
LINE
  5
2CA
100
AcDbEntity
  8
_1
100
AcDbLine
 62
7
  6
BYLAYER
 10
93.3385754033
 20
147.9598209238
 11
93.2946578189
 21
148.0188099443
  0
LINE
  5
2CB
100
AcDbEntity
  8
_1
100
AcDbLine
 62
7
  6
BYLAYER
 10
83.789476418
 20
153.4728710716
 11
83.7455419936
 21
153.5341076947
  0
LINE
  5
2CC
100
AcDbEntity
  8
_1
100
AcDbLine
 62
7
  6
BYLAYER
 10
83.8205432661
 20
153.4042031494
 11
83.789476418
 21
153.4728710716
  0
LINE
  5
2CD
100
AcDbEntity
  8
_1
100
AcDbLine
 62
7
  6
BYLAYER
 10
88.8812192234
 20
150.5332184961
 11
88.9122860715
 21
150.4645505739
  0
LINE
  5
2CE
100
AcDbEntity
  8
_1
100
AcDbLine
 62
7
  6
BYLAYER
 10
93.3696422514
 20
147.8911530016
 11
93.3385754033
 21
147.9598209238
  0
LINE
  5
2CF
100
AcDbEntity
  8
_1
100
AcDbLine
 62
7
  6
BYLAYER
 10
88.8812192234
 20
186.7085138929
 11
88.8843369191
 21
186.5004691679
  0
LINE
  5
2D0
100
AcDbEntity
  8
_1
100
AcDbLine
 62
7
  6
BYLAYER
 10
89.0946337135
 20
186.6240045927
 11
89.0933351033
 21
186.7106612192
  0
LINE
  5
2D1
100
AcDbEntity
  8
_1
100
AcDbLine
 62
7
  6
BYLAYER
 10
88.8812192234
 20
227.5336347494
 11
88.8843369191
 21
227.3255900243
  0
LINE
  5
2D2
100
AcDbEntity
  8
_1
100
AcDbLine
 62
7
  6
BYLAYER
 10
89.5881569801
 20
187.0064956665
 11
89.5963946811
 21
186.4567915429
  0
LINE
  5
2D3
100
AcDbEntity
  8
_1
100
AcDbLine
 62
7
  6
BYLAYER
 10
89.6416381506
 20
186.4306708045
 11
89.6320898358
 21
187.0678325659
  0
LINE
  5
2D4
100
AcDbEntity
  8
_1
100
AcDbLine
 62
7
  6
BYLAYER
 10
89.0946337135
 20
227.4491254492
 11
89.0933351033
 21
227.5357820756
  0
LINE
  5
2D5
100
AcDbEntity
  8
_1
100
AcDbLine
 62
7
  6
BYLAYER
 10
89.5881569801
 20
227.831616523
 11
89.5963946811
 21
227.2819123994
  0
LINE
  5
2D6
100
AcDbEntity
  8
_1
100
AcDbLine
 62
7
  6
BYLAYER
 10
89.6416381506
 20
227.255791661
 11
89.6320898358
 21
227.8929534224
  0
LINE
  5
2D7
100
AcDbEntity
  8
_1
100
AcDbLine
 62
7
  6
BYLAYER
 10
78.7001407728
 20
189.2612132553
 11
78.7001407728
 21
128.9216846294
  0
LINE
  5
2D8
100
AcDbEntity
  8
_1
100
AcDbLine
 62
7
  6
BYLAYER
 10
78.87692262
 20
227.0612084014
 11
78.87692262
 21
205.1789436223
  0
LINE
  5
2D9
100
AcDbEntity
  8
_1
100
AcDbLine
 62
7
  6
BYLAYER
 10
79.2304774826
 20
188.3426690081
 11
79.2304774826
 21
128.0031403822
  0
LINE
  5
2DA
100
AcDbEntity
  8
_1
100
AcDbLine
 62
7
  6
BYLAYER
 10
80.6446969329
 20
226.0406065151
 11
80.6446969329
 21
110.0972632827
  0
LINE
  5
2DB
100
AcDbEntity
  8
_1
100
AcDbLine
 62
7
  6
BYLAYER
 10
83.7455419936
 20
153.5341076947
 11
83.7455419936
 21
189.7094030915
  0
LINE
  5
2DC
100
AcDbEntity
  8
_1
100
AcDbLine
 62
7
  6
BYLAYER
 10
83.7455419936
 20
194.3592285512
 11
83.7455419936
 21
230.5345239479
  0
LINE
  5
2DD
100
AcDbEntity
  8
_1
100
AcDbLine
 62
7
  6
BYLAYER
 10
83.789476418
 20
153.4728710716
 11
83.789476418
 21
189.6481664684
  0
LINE
  5
2DE
100
AcDbEntity
  8
_1
100
AcDbLine
 62
7
  6
BYLAYER
 10
83.789476418
 20
194.2979919281
 11
83.789476418
 21
230.4732873249
  0
LINE
  5
2DF
100
AcDbEntity
  8
_1
100
AcDbLine
 62
7
  6
BYLAYER
 10
84.1802161189
 20
112.138484052
 11
84.1802161189
 21
153.1965506288
  0
LINE
  5
2E0
100
AcDbEntity
  8
_1
100
AcDbLine
 62
7
  6
BYLAYER
 10
84.1802161189
 20
190.0618004945
 11
84.1802161189
 21
194.0216714852
  0
LINE
  5
2E1
100
AcDbEntity
  8
_1
100
AcDbLine
 62
7
  6
BYLAYER
 10
90.1457289942
 20
114.6074955397
 11
90.1457289942
 21
141.3627919003
  0
LINE
  5
2E2
100
AcDbEntity
  8
_1
100
AcDbLine
 62
7
  6
BYLAYER
 10
90.8528328314
 20
115.0157396936
 11
90.8528328314
 21
140.9545545451
  0
LINE
  5
2E3
100
AcDbEntity
  8
_1
100
AcDbLine
 62
7
  6
BYLAYER
 10
90.9373301029
 20
252.0256639443
 11
90.9373301029
 21
247.0041740789
  0
LINE
  5
2E4
100
AcDbEntity
  8
_1
100
AcDbLine
 62
7
  6
BYLAYER
 10
88.8843369191
 20
191.5627841541
 11
88.8812192234
 21
191.3583393526
  0
LINE
  5
2E5
100
AcDbEntity
  8
_1
100
AcDbLine
 62
7
  6
BYLAYER
 10
89.0933351033
 20
191.3562116992
 11
89.0938668733
 21
191.3910828405
  0
LINE
  5
2E6
100
AcDbEntity
  8
_1
100
AcDbLine
 62
7
  6
BYLAYER
 10
88.8843369191
 20
150.7376632976
 11
88.8812192234
 21
150.5332184961
  0
LINE
  5
2E7
100
AcDbEntity
  8
_1
100
AcDbLine
 62
7
  6
BYLAYER
 10
89.0933351033
 20
150.5310908428
 11
89.0938668733
 21
150.565961984
  0
LINE
  5
2E8
100
AcDbEntity
  8
_1
100
AcDbLine
 62
7
  6
BYLAYER
 10
89.5881569801
 20
227.831616523
 11
89.6320898358
 21
227.8929534224
  0
LINE
  5
2E9
100
AcDbEntity
  8
_1
100
AcDbLine
 62
7
  6
BYLAYER
 10
83.816650958
 20
230.6621021769
 11
84.3029837917
 21
230.9628376647
  0
LINE
  5
2EA
100
AcDbEntity
  8
_1
100
AcDbLine
 62
7
  6
BYLAYER
 10
84.3800237278
 20
230.9566474183
 11
83.8936908941
 21
230.6559119305
  0
LINE
  5
2EB
100
AcDbEntity
  8
_1
100
AcDbLine
 62
7
  6
BYLAYER
 10
89.4802555763
 20
228.0120938024
 11
88.9854336994
 21
227.716259355
  0
LINE
  5
2EC
100
AcDbEntity
  8
_1
100
AcDbLine
 62
7
  6
BYLAYER
 10
89.5881569801
 20
227.831616523
 11
89.0933351033
 21
227.5357820756
  0
LINE
  5
2ED
100
AcDbEntity
  8
_1
100
AcDbLine
 62
7
  6
BYLAYER
 10
238.9876701297
 20
328.4930607744
 11
236.3843715426
 21
326.9900546061
  0
LINE
  5
2EE
100
AcDbEntity
  8
_1
100
AcDbLine
 62
7
  6
BYLAYER
 10
42.4607717749
 20
214.0619515374
 11
42.9910996528
 21
214.3681346528
  0
LINE
  5
2EF
100
AcDbEntity
  8
_1
100
AcDbLine
 62
7
  6
BYLAYER
 10
161.0379269388
 20
280.8593799928
 11
138.942490125
 21
268.1026497478
  0
LINE
  5
2F0
100
AcDbEntity
  8
_1
100
AcDbLine
 62
7
  6
BYLAYER
 10
112.3334115755
 20
252.4708322027
 11
96.9011274294
 21
243.5610519809
  0
LINE
  5
2F1
100
AcDbEntity
  8
_1
100
AcDbLine
 62
7
  6
BYLAYER
 10
136.0095033102
 20
266.1210344363
 11
113.1949972449
 21
252.9491518436
  0
LINE
  5
2F2
100
AcDbEntity
  8
_1
100
AcDbLine
 62
7
  6
BYLAYER
 10
245.1878876207
 20
327.8163711227
 11
200.0577445903
 21
301.7606264274
  0
LINE
  5
2F3
100
AcDbEntity
  8
_1
100
AcDbLine
 62
7
  6
BYLAYER
 10
55.9665416185
 20
218.242566547
 11
59.9263231067
 21
220.5287338085
  0
LINE
  5
2F4
100
AcDbEntity
  8
_1
100
AcDbLine
 62
7
  6
BYLAYER
 10
247.6627628268
 20
327.6122558445
 11
201.4719640406
 21
300.9441449184
  0
LINE
  5
2F5
100
AcDbEntity
  8
_1
100
AcDbLine
 62
7
  6
BYLAYER
 10
249.2891151946
 20
326.6733021091
 11
252.4710824621
 21
328.5104008015
  0
LINE
  5
2F6
100
AcDbEntity
  8
_1
100
AcDbLine
 62
7
  6
BYLAYER
 10
56.9414582786
 20
214.6761670136
 11
64.0124966507
 21
218.7586085523
  0
LINE
  5
2F7
100
AcDbEntity
  8
_1
100
AcDbLine
 62
7
  6
BYLAYER
 10
232.884292629
 20
315.8139433601
 11
227.2274619313
 21
312.5479901291
  0
LINE
  5
2F8
100
AcDbEntity
  8
_1
100
AcDbLine
 62
7
  6
BYLAYER
 10
220.1564235592
 20
308.4655485904
 11
214.4995928615
 21
305.1995953594
  0
LINE
  5
2F9
100
AcDbEntity
  8
_1
100
AcDbLine
 62
7
  6
BYLAYER
 10
207.4285544893
 20
301.1171538207
 11
201.7717237916
 21
297.8512005897
  0
LINE
  5
2FA
100
AcDbEntity
  8
_1
100
AcDbLine
 62
7
  6
BYLAYER
 10
66.5024765232
 20
219.5899513005
 11
70.4622580114
 21
221.8761185621
  0
LINE
  5
2FB
100
AcDbEntity
  8
_1
100
AcDbLine
 62
7
  6
BYLAYER
 10
58.4414515633
 20
214.5275941765
 11
65.5124899354
 21
218.6100357152
  0
LINE
  5
2FC
100
AcDbEntity
  8
_1
100
AcDbLine
 62
7
  6
BYLAYER
 10
56.3201407164
 20
213.0170015966
 11
54.1987932124
 21
211.7922483549
  0
LINE
  5
2FD
100
AcDbEntity
  8
_1
100
AcDbLine
 62
7
  6
BYLAYER
 10
201.0646199544
 20
295.8099233829
 11
206.014335039
 21
298.6676256612
  0
LINE
  5
2FE
100
AcDbEntity
  8
_1
100
AcDbLine
 62
7
  6
BYLAYER
 10
213.7924890243
 20
303.1583181526
 11
218.7422041089
 21
306.0160204309
  0
LINE
  5
2FF
100
AcDbEntity
  8
_1
100
AcDbLine
 62
7
  6
BYLAYER
 10
226.5203580941
 20
310.5067129223
 11
231.4700731787
 21
313.3644152006
  0
LINE
  5
300
100
AcDbEntity
  8
_1
100
AcDbLine
 62
7
  6
BYLAYER
 10
80.6446969329
 20
226.0406065151
 11
83.7455419936
 21
227.8308695592
  0
LINE
  5
301
100
AcDbEntity
  8
_1
100
AcDbLine
 62
7
  6
BYLAYER
 10
201.7717237916
 20
294.5851909212
 11
207.4285544893
 21
297.8511441522
  0
LINE
  5
302
100
AcDbEntity
  8
_1
100
AcDbLine
 62
7
  6
BYLAYER
 10
214.4995928615
 20
301.9335856909
 11
220.1564235592
 21
305.1995389219
  0
LINE
  5
303
100
AcDbEntity
  8
_1
100
AcDbLine
 62
7
  6
BYLAYER
 10
227.2274619313
 20
309.2819804606
 11
232.884292629
 21
312.5479336916
  0
LINE
  5
304
100
AcDbEntity
  8
_1
100
AcDbLine
 62
7
  6
BYLAYER
 10
89.200699289
 20
227.5103620723
 11
89.0946337135
 21
227.4491254492
  0
LINE
  5
305
100
AcDbEntity
  8
_1
100
AcDbLine
 62
7
  6
BYLAYER
 10
98.6759311314
 20
144.8499742211
 11
102.8507489174
 21
144.8079114509
  0
LINE
  5
306
100
AcDbEntity
  8
_1
100
AcDbLine
 62
7
  6
BYLAYER
 10
98.6774429824
 20
144.913365306
 11
102.8522607684
 21
144.8713025357
  0
LINE
  5
307
100
AcDbEntity
  8
_1
100
AcDbLine
 62
7
  6
BYLAYER
 10
98.6024629786
 20
144.8700508984
 11
98.6759311314
 21
144.8499742212
  0
LINE
  5
308
100
AcDbEntity
  8
_1
100
AcDbLine
 62
7
  6
BYLAYER
 10
208.1356583265
 20
88.4182671037
 11
206.7214388763
 21
89.2347486128
  0
LINE
  5
309
100
AcDbEntity
  8
_1
100
AcDbLine
 62
7
  6
BYLAYER
 10
207.428545436
 20
90.45951452
 11
208.1356583265
 21
90.051271938
  0
LINE
  5
30A
100
AcDbEntity
  8
_1
100
AcDbLine
 62
7
  6
BYLAYER
 10
52.360307927
 20
180.1935776314
 11
64.3811732545
 21
173.2534848046
  0
LINE
  5
30B
100
AcDbEntity
  8
_1
100
AcDbLine
 62
7
  6
BYLAYER
 10
83.7455419936
 20
189.7094030915
 11
83.789476418
 21
189.6481664684
  0
LINE
  5
30C
100
AcDbEntity
  8
_1
100
AcDbLine
 62
7
  6
BYLAYER
 10
98.5713767823
 20
144.9387299852
 11
98.6024436304
 21
144.870062063
  0
LINE
  5
30D
100
AcDbEntity
  8
_1
100
AcDbLine
 62
7
  6
BYLAYER
 10
83.8205432661
 20
194.2293240059
 11
83.789476418
 21
194.2979919281
  0
LINE
  5
30E
100
AcDbEntity
  8
_1
100
AcDbLine
 62
7
  6
BYLAYER
 10
88.8812192234
 20
191.3583393526
 11
88.9122860715
 21
191.2896714304
  0
LINE
  5
30F
100
AcDbEntity
  8
_1
100
AcDbLine
 62
7
  6
BYLAYER
 10
93.2946578189
 20
148.0188099443
 11
93.2928153385
 21
148.1417591817
  0
LINE
  5
310
100
AcDbEntity
  8
_1
100
AcDbLine
 62
7
  6
BYLAYER
 10
93.3385754033
 20
147.9598209238
 11
93.3354577075
 21
148.1678656488
  0
LINE
  5
311
100
AcDbEntity
  8
_1
100
AcDbLine
 62
7
  6
BYLAYER
 10
93.2946578189
 20
188.8439308008
 11
93.2928153385
 21
188.9668800382
  0
LINE
  5
312
100
AcDbEntity
  8
_1
100
AcDbLine
 62
7
  6
BYLAYER
 10
93.3385754033
 20
188.7849417803
 11
93.3354577075
 21
188.9929865053
  0
LINE
  5
313
100
AcDbEntity
  8
_1
100
AcDbLine
 62
7
  6
BYLAYER
 10
96.9011274294
 20
248.5825418463
 11
96.9011274294
 21
243.5610519809
  0
LINE
  5
314
100
AcDbEntity
  8
_1
100
AcDbLine
 62
7
  6
BYLAYER
 10
97.7663138451
 20
136.9631447185
 11
97.7663138451
 21
110.207848358
  0
LINE
  5
315
100
AcDbEntity
  8
_1
100
AcDbLine
 62
7
  6
BYLAYER
 10
98.5713767823
 20
221.9391462385
 11
98.5713767823
 21
185.7638508417
  0
LINE
  5
316
100
AcDbEntity
  8
_1
100
AcDbLine
 62
7
  6
BYLAYER
 10
98.5713767823
 20
181.114025382
 11
98.5713767823
 21
144.9387299852
  0
LINE
  5
317
100
AcDbEntity
  8
_1
100
AcDbLine
 62
7
  6
BYLAYER
 10
98.6774429824
 20
144.913365306
 11
98.6774429824
 21
181.0886607027
  0
LINE
  5
318
100
AcDbEntity
  8
_1
100
AcDbLine
 62
7
  6
BYLAYER
 10
98.6774429824
 20
185.7384861624
 11
98.6774429824
 21
221.9137815592
  0
LINE
  5
319
100
AcDbEntity
  8
_1
100
AcDbLine
 62
7
  6
BYLAYER
 10
99.029520347
 20
99.4829161214
 11
99.029520347
 21
144.8464116844
  0
LINE
  5
31A
100
AcDbEntity
  8
_1
100
AcDbLine
 62
7
  6
BYLAYER
 10
99.029520347
 20
181.7397388311
 11
99.029520347
 21
185.6715325408
  0
LINE
  5
31B
100
AcDbEntity
  8
_1
100
AcDbLine
 62
7
  6
BYLAYER
 10
99.029520347
 20
222.5648596876
 11
99.029520347
 21
226.5798897943
  0
LINE
  5
31C
100
AcDbEntity
  8
_1
100
AcDbLine
 62
7
  6
BYLAYER
 10
99.0295497867
 20
91.3179794938
 11
99.0295497867
 21
43.9608393003
  0
LINE
  5
31D
100
AcDbEntity
  8
_1
100
AcDbLine
 62
7
  6
BYLAYER
 10
102.4942743916
 20
42.5790819685
 11
102.4942743916
 21
37.224409416
  0
LINE
  5
31E
100
AcDbEntity
  8
_1
100
AcDbLine
 62
7
  6
BYLAYER
 10
102.8522607684
 20
221.9558643995
 11
102.8522607684
 21
185.6964233922
  0
LINE
  5
31F
100
AcDbEntity
  8
_1
100
AcDbLine
 62
7
  6
BYLAYER
 10
102.8522607684
 20
181.1307435431
 11
102.8522607684
 21
144.8713025357
  0
LINE
  5
320
100
AcDbEntity
  8
_1
100
AcDbLine
 62
7
  6
BYLAYER
 10
102.9564593487
 20
144.8956083249
 11
102.9564593487
 21
181.1550493323
  0
LINE
  5
321
100
AcDbEntity
  8
_1
100
AcDbLine
 62
7
  6
BYLAYER
 10
102.9564593487
 20
185.7207291814
 11
102.9564593487
 21
221.9801701888
  0
LINE
  5
322
100
AcDbEntity
  8
_1
100
AcDbLine
 62
7
  6
BYLAYER
 10
103.5549301474
 20
43.1914481993
 11
103.5549301474
 21
37.8367756469
  0
LINE
  5
323
100
AcDbEntity
  8
_1
100
AcDbLine
 62
7
  6
BYLAYER
 10
103.681327654
 20
222.39867085
 11
103.681327654
 21
186.1105108266
  0
LINE
  5
324
100
AcDbEntity
  8
_1
100
AcDbLine
 62
7
  6
BYLAYER
 10
103.681327654
 20
181.5735499935
 11
103.681327654
 21
145.2853899701
  0
LINE
  5
325
100
AcDbEntity
  8
_1
100
AcDbLine
 62
7
  6
BYLAYER
 10
103.7271284492
 20
145.3476854832
 11
103.7271284492
 21
181.6358455066
  0
LINE
  5
326
100
AcDbEntity
  8
_1
100
AcDbLine
 62
7
  6
BYLAYER
 10
103.7271284492
 20
186.1728063397
 11
103.7271284492
 21
222.4609663631
  0
LINE
  5
327
100
AcDbEntity
  8
_1
100
AcDbLine
 62
7
  6
BYLAYER
 10
93.2928383859
 20
224.9044113168
 11
93.294658417
 21
225.0237609701
  0
LINE
  5
328
100
AcDbEntity
  8
_1
100
AcDbLine
 62
7
  6
BYLAYER
 10
93.3354577075
 20
224.7557923756
 11
93.3385754033
 21
224.9602371771
  0
LINE
  5
329
100
AcDbEntity
  8
_1
100
AcDbLine
 62
7
  6
BYLAYER
 10
93.2928383859
 20
184.0792904603
 11
93.294658417
 21
184.1986401136
  0
LINE
  5
32A
100
AcDbEntity
  8
_1
100
AcDbLine
 62
7
  6
BYLAYER
 10
93.3354577075
 20
183.9306715191
 11
93.3385754033
 21
184.1351163206
  0
LINE
  5
32B
100
AcDbEntity
  8
_1
100
AcDbLine
 62
7
  6
BYLAYER
 10
72.0110417688
 20
162.8717459855
 11
71.5659795093
 21
161.9127678345
  0
LINE
  5
32C
100
AcDbEntity
  8
_1
100
AcDbLine
 62
7
  6
BYLAYER
 10
89.0603782072
 20
191.2885899162
 11
89.0933351033
 21
191.3562116992
  0
LINE
  5
32D
100
AcDbEntity
  8
_1
100
AcDbLine
 62
7
  6
BYLAYER
 10
99.0023475248
 20
222.5648594498
 11
98.9655378376
 21
222.5358874238
  0
LINE
  5
32E
100
AcDbEntity
  8
_1
100
AcDbLine
 62
7
  6
BYLAYER
 10
40.7637084346
 20
183.4839109262
 11
37.9075565923
 21
181.3450277497
  0
LINE
  5
32F
100
AcDbEntity
  8
_1
100
AcDbLine
 62
7
  6
BYLAYER
 10
93.3677371815
 20
225.150259692
 11
93.8628606767
 21
225.4459200039
  0
LINE
  5
330
100
AcDbEntity
  8
_1
100
AcDbLine
 62
7
  6
BYLAYER
 10
93.4427898793
 20
225.1428617827
 11
93.9379133746
 21
225.4385220945
  0
LINE
  5
331
100
AcDbEntity
  8
_1
100
AcDbLine
 62
7
  6
BYLAYER
 10
60.06782226
 20
209.5061177736
 11
59.0071393434
 21
208.8937358616
  0
LINE
  5
332
100
AcDbEntity
  8
_1
100
AcDbLine
 62
7
  6
BYLAYER
 10
182.9627163846
 20
280.2148012173
 11
102.918562012
 21
234.001562999
  0
LINE
  5
333
100
AcDbEntity
  8
_1
100
AcDbLine
 62
7
  6
BYLAYER
 10
102.5650100934
 20
233.7974409221
 11
95.4939717213
 21
229.7149993834
  0
LINE
  5
334
100
AcDbEntity
  8
_1
100
AcDbLine
 62
7
  6
BYLAYER
 10
65.017590336
 20
206.6484324919
 11
63.9569074194
 21
206.0360505799
  0
LINE
  5
335
100
AcDbEntity
  8
_1
100
AcDbLine
 62
7
  6
BYLAYER
 10
247.6627628268
 20
311.2822075019
 11
194.2764231172
 21
280.4597738846
  0
LINE
  5
336
100
AcDbEntity
  8
_1
100
AcDbLine
 62
7
  6
BYLAYER
 10
249.2891151946
 20
310.3432537665
 11
194.9835404966
 21
278.9901027492
  0
LINE
  5
337
100
AcDbEntity
  8
_1
100
AcDbLine
 62
7
  6
BYLAYER
 10
69.967358412
 20
203.7907472103
 11
68.9066754954
 21
203.1783652983
  0
LINE
  5
338
100
AcDbEntity
  8
_1
100
AcDbLine
 62
7
  6
BYLAYER
 10
102.8504090444
 20
222.1638536844
 11
103.5752773496
 21
222.5823543456
  0
LINE
  5
339
100
AcDbEntity
  8
_1
100
AcDbLine
 62
7
  6
BYLAYER
 10
103.681327654
 20
222.39867085
 11
102.9564593487
 21
221.9801701888
  0
LINE
  5
33A
100
AcDbEntity
  8
_1
100
AcDbLine
 62
7
  6
BYLAYER
 10
102.8507489174
 20
144.8079114509
 11
102.9233279702
 21
144.8258078046
  0
LINE
  5
33B
100
AcDbEntity
  8
_1
100
AcDbLine
 62
7
  6
BYLAYER
 10
73.2149815839
 20
162.8648139432
 11
72.378464347
 21
162.994219605
  0
LINE
  5
33C
100
AcDbEntity
  8
_1
100
AcDbLine
 62
7
  6
BYLAYER
 10
93.3385754033
 20
188.7849417803
 11
93.2946578189
 21
188.8439308008
  0
LINE
  5
33D
100
AcDbEntity
  8
_1
100
AcDbLine
 62
7
  6
BYLAYER
 10
83.789476418
 20
194.2979919281
 11
83.7455419936
 21
194.3592285512
  0
LINE
  5
33E
100
AcDbEntity
  8
_1
100
AcDbLine
 62
7
  6
BYLAYER
 10
93.294658417
 20
184.1986401136
 11
93.3385754033
 21
184.1351163206
  0
LINE
  5
33F
100
AcDbEntity
  8
_1
100
AcDbLine
 62
7
  6
BYLAYER
 10
93.3696422514
 20
188.7162738581
 11
93.3385754033
 21
188.7849417803
  0
LINE
  5
340
100
AcDbEntity
  8
_1
100
AcDbLine
 62
7
  6
BYLAYER
 10
98.5713767823
 20
185.7638508417
 11
98.6024436304
 21
185.6951829195
  0
LINE
  5
341
100
AcDbEntity
  8
_1
100
AcDbLine
 62
7
  6
BYLAYER
 10
105.7154192595
 20
291.6684818326
 11
105.7154192595
 21
277.7879407414
  0
LINE
  5
342
100
AcDbEntity
  8
_1
100
AcDbLine
 62
7
  6
BYLAYER
 10
106.1005881588
 20
95.4004210325
 11
106.1005881588
 21
219.5087884362
  0
LINE
  5
343
100
AcDbEntity
  8
_1
100
AcDbLine
 62
7
  6
BYLAYER
 10
109.1802569128
 20
289.6681021354
 11
109.1802569128
 21
275.7875610442
  0
LINE
  5
344
100
AcDbEntity
  8
_1
100
AcDbLine
 62
7
  6
BYLAYER
 10
109.6361073449
 20
221.5500092056
 11
109.6361073449
 21
50.0845016084
  0
LINE
  5
345
100
AcDbEntity
  8
_1
100
AcDbLine
 62
7
  6
BYLAYER
 10
109.9896592635
 20
221.7541312825
 11
109.9896592635
 21
50.2886236853
  0
LINE
  5
346
100
AcDbEntity
  8
_1
100
AcDbLine
 62
7
  6
BYLAYER
 10
112.1136186838
 20
275.7875680951
 11
112.1136186838
 21
289.6681091863
  0
LINE
  5
347
100
AcDbEntity
  8
_1
100
AcDbLine
 62
7
  6
BYLAYER
 10
112.3334115755
 20
257.4923220681
 11
112.3334115755
 21
252.4708322027
  0
LINE
  5
348
100
AcDbEntity
  8
_1
100
AcDbLine
 62
7
  6
BYLAYER
 10
48.2591627841
 20
58.0858519017
 11
48.1556013791
 21
57.8569683242
  0
LINE
  5
349
100
AcDbEntity
  8
_1
100
AcDbLine
 62
7
  6
BYLAYER
 10
102.9233279702
 20
185.6509286611
 11
102.9564593487
 21
185.7207291814
  0
LINE
  5
34A
100
AcDbEntity
  8
_1
100
AcDbLine
 62
7
  6
BYLAYER
 10
103.681327654
 20
186.1105108266
 11
103.6481682368
 21
186.0406952176
  0
LINE
  5
34B
100
AcDbEntity
  8
_1
100
AcDbLine
 62
7
  6
BYLAYER
 10
89.0603782072
 20
150.4634690597
 11
89.0933351033
 21
150.5310908428
  0
LINE
  5
34C
100
AcDbEntity
  8
_1
100
AcDbLine
 62
7
  6
BYLAYER
 10
89.5881569801
 20
187.0064956665
 11
89.6320898358
 21
187.0678325659
  0
LINE
  5
34D
100
AcDbEntity
  8
_1
100
AcDbLine
 62
7
  6
BYLAYER
 10
78.8769409485
 20
205.1789118761
 11
76.7555934446
 21
203.9541586345
  0
LINE
  5
34E
100
AcDbEntity
  8
_1
100
AcDbLine
 62
7
  6
BYLAYER
 10
41.8950839948
 20
182.8307257189
 11
40.2636683921
 21
181.8888331039
  0
LINE
  5
34F
100
AcDbEntity
  8
_1
100
AcDbLine
 62
7
  6
BYLAYER
 10
106.1005881588
 20
219.5087884362
 11
109.6361073449
 21
221.5500092056
  0
LINE
  5
350
100
AcDbEntity
  8
_1
100
AcDbLine
 62
7
  6
BYLAYER
 10
109.9896592635
 20
221.7541312825
 11
194.9835404966
 21
270.8250785779
  0
LINE
  5
351
100
AcDbEntity
  8
_1
100
AcDbLine
 62
7
  6
BYLAYER
 10
74.917126488
 20
200.9330619286
 11
73.8564435715
 21
200.3206800166
  0
LINE
  5
352
100
AcDbEntity
  8
_1
100
AcDbLine
 62
7
  6
BYLAYER
 10
74.8110372845
 20
195.9973006994
 11
74.2807094065
 21
195.6911175839
  0
LINE
  5
353
100
AcDbEntity
  8
_1
100
AcDbLine
 62
7
  6
BYLAYER
 10
41.8950839948
 20
171.5629923625
 11
40.4980383183
 21
170.7564124797
  0
LINE
  5
354
100
AcDbEntity
  8
_1
100
AcDbLine
 62
7
  6
BYLAYER
 10
88.8843369191
 20
186.5004691679
 11
93.3354577075
 21
183.9306715191
  0
LINE
  5
355
100
AcDbEntity
  8
_1
100
AcDbLine
 62
7
  6
BYLAYER
 10
83.789476418
 20
189.6481664684
 11
88.8812192234
 21
186.7085138929
  0
LINE
  5
356
100
AcDbEntity
  8
_1
100
AcDbLine
 62
7
  6
BYLAYER
 10
93.3385754033
 20
184.1351163206
 11
98.5713767823
 21
181.114025382
  0
LINE
  5
357
100
AcDbEntity
  8
_1
100
AcDbLine
 62
7
  6
BYLAYER
 10
93.2948896185
 20
184.1990405753
 11
89.0946337135
 21
186.6240045927
  0
LINE
  5
358
100
AcDbEntity
  8
_1
100
AcDbLine
 62
7
  6
BYLAYER
 10
93.3355933005
 20
184.2980130515
 11
89.200699289
 21
186.6852412158
  0
LINE
  5
359
100
AcDbEntity
  8
_1
100
AcDbLine
 62
7
  6
BYLAYER
 10
98.6755912584
 20
181.2966499876
 11
93.4427898793
 21
184.3177409262
  0
LINE
  5
35A
100
AcDbEntity
  8
_1
100
AcDbLine
 62
7
  6
BYLAYER
 10
88.9854336994
 20
186.8911384985
 11
83.8936908941
 21
189.830791074
  0
LINE
  5
35B
100
AcDbEntity
  8
_1
100
AcDbLine
 62
7
  6
BYLAYER
 10
74.2807094065
 20
195.6911175839
 11
42.4607717749
 21
214.0619515374
  0
LINE
  5
35C
100
AcDbEntity
  8
_1
100
AcDbLine
 62
7
  6
BYLAYER
 10
84.3800237278
 20
190.1315265618
 11
89.4802555763
 21
187.1869729459
  0
LINE
  5
35D
100
AcDbEntity
  8
_1
100
AcDbLine
 62
7
  6
BYLAYER
 10
93.9379133746
 20
184.6134012381
 11
98.9655378377
 21
181.7107665673
  0
LINE
  5
35E
100
AcDbEntity
  8
_1
100
AcDbLine
 62
7
  6
BYLAYER
 10
84.4568735548
 20
190.1400431245
 11
89.5571054033
 21
187.1954895086
  0
LINE
  5
35F
100
AcDbEntity
  8
_1
100
AcDbLine
 62
7
  6
BYLAYER
 10
94.0147632016
 20
184.6219178008
 11
98.9984436936
 21
181.7446536195
  0
LINE
  5
360
100
AcDbEntity
  8
_1
100
AcDbLine
 62
7
  6
BYLAYER
 10
42.9910996528
 20
214.3681346528
 11
74.8110372845
 21
195.9973006994
  0
LINE
  5
361
100
AcDbEntity
  8
_1
100
AcDbLine
 62
7
  6
BYLAYER
 10
74.2807094065
 20
196.9158712096
 11
42.4607717749
 21
215.2867051631
  0
LINE
  5
362
100
AcDbEntity
  8
_1
100
AcDbLine
 62
7
  6
BYLAYER
 10
34.5968450268
 20
221.6309692834
 11
33.1826255765
 21
222.4474507924
  0
LINE
  5
363
100
AcDbEntity
  8
_1
100
AcDbLine
 62
7
  6
BYLAYER
 10
33.9755080646
 20
223.0043277268
 11
32.5612886143
 21
223.8208092359
  0
LINE
  5
364
100
AcDbEntity
  8
_1
100
AcDbLine
 62
7
  6
BYLAYER
 10
83.8205432661
 20
194.2293240059
 11
88.9122860715
 21
191.2896714304
  0
LINE
  5
365
100
AcDbEntity
  8
_1
100
AcDbLine
 62
7
  6
BYLAYER
 10
93.3696422514
 20
188.7162738581
 11
98.6024436304
 21
185.6951829195
  0
LINE
  5
366
100
AcDbEntity
  8
_1
100
AcDbLine
 62
7
  6
BYLAYER
 10
98.5713767823
 20
185.7638508417
 11
93.3385754033
 21
188.7849417803
  0
LINE
  5
367
100
AcDbEntity
  8
_1
100
AcDbLine
 62
7
  6
BYLAYER
 10
88.8812192234
 20
191.3583393526
 11
83.789476418
 21
194.2979919281
  0
LINE
  5
368
100
AcDbEntity
  8
_1
100
AcDbLine
 62
7
  6
BYLAYER
 10
93.2928210104
 20
188.9668703822
 11
88.9891073125
 21
191.4515644329
  0
LINE
  5
369
100
AcDbEntity
  8
_1
100
AcDbLine
 62
7
  6
BYLAYER
 10
93.3354577075
 20
188.9929865053
 11
88.8843369191
 21
191.5627841541
  0
LINE
  5
36A
100
AcDbEntity
  8
_1
100
AcDbLine
 62
7
  6
BYLAYER
 10
76.1899056644
 20
198.9734855267
 11
73.8564435715
 21
200.3206800166
  0
LINE
  5
36B
100
AcDbEntity
  8
_1
100
AcDbLine
 62
7
  6
BYLAYER
 10
71.2401375884
 20
201.8311708084
 11
68.9066754954
 21
203.1783652983
  0
LINE
  5
36C
100
AcDbEntity
  8
_1
100
AcDbLine
 62
7
  6
BYLAYER
 10
66.2903695124
 20
204.68885609
 11
63.9569074194
 21
206.0360505799
  0
LINE
  5
36D
100
AcDbEntity
  8
_1
100
AcDbLine
 62
7
  6
BYLAYER
 10
61.3406014364
 20
207.5465413717
 11
59.0071393434
 21
208.8937358616
  0
LINE
  5
36E
100
AcDbEntity
  8
_1
100
AcDbLine
 62
7
  6
BYLAYER
 10
54.1987932124
 20
211.7922483549
 11
40.3394425995
 21
219.7937671435
  0
LINE
  5
36F
100
AcDbEntity
  8
_1
100
AcDbLine
 62
7
  6
BYLAYER
 10
59.0071393434
 20
210.1184894873
 11
61.3406014364
 21
208.7712949973
  0
LINE
  5
370
100
AcDbEntity
  8
_1
100
AcDbLine
 62
7
  6
BYLAYER
 10
63.9569074194
 20
207.2608042056
 11
66.2903695124
 21
205.9136097157
  0
LINE
  5
371
100
AcDbEntity
  8
_1
100
AcDbLine
 62
7
  6
BYLAYER
 10
68.9066754954
 20
204.403118924
 11
71.2401375884
 21
203.0559244341
  0
LINE
  5
372
100
AcDbEntity
  8
_1
100
AcDbLine
 62
7
  6
BYLAYER
 10
73.8564435715
 20
201.5454336423
 11
76.1899056644
 21
200.1982391524
  0
LINE
  5
373
100
AcDbEntity
  8
_1
100
AcDbLine
 62
7
  6
BYLAYER
 10
38.9252231492
 20
222.5959921179
 11
40.3394425995
 21
221.7795106089
  0
LINE
  5
374
100
AcDbEntity
  8
_1
100
AcDbLine
 62
7
  6
BYLAYER
 10
76.7555934446
 20
203.9541586345
 11
58.4414515633
 21
214.5275941765
  0
LINE
  5
375
100
AcDbEntity
  8
_1
100
AcDbLine
 62
7
  6
BYLAYER
 10
247.6627628268
 20
107.1566032195
 11
249.2891151946
 21
106.2176494841
  0
LINE
  5
376
100
AcDbEntity
  8
_1
100
AcDbLine
 62
7
  6
BYLAYER
 10
55.9665416185
 20
218.242566547
 11
48.8954443671
 21
222.3249740922
  0
LINE
  5
377
100
AcDbEntity
  8
_1
100
AcDbLine
 62
7
  6
BYLAYER
 10
60.1435930105
 20
216.5249093275
 11
56.5674938709
 21
218.5895244206
  0
LINE
  5
378
100
AcDbEntity
  8
_1
100
AcDbLine
 62
7
  6
BYLAYER
 10
48.8954443671
 20
223.0188840614
 11
47.4104809716
 21
223.8762086822
  0
LINE
  5
379
100
AcDbEntity
  8
_1
100
AcDbLine
 62
7
  6
BYLAYER
 10
33.9755080646
 20
244.573406622
 11
32.5612886143
 21
245.7514107475
  0
LINE
  5
37A
100
AcDbEntity
  8
_1
100
AcDbLine
 62
7
  6
BYLAYER
 10
36.2305488899
 20
248.1955623933
 11
34.849761768
 21
249.3457183509
  0
LINE
  5
37B
100
AcDbEntity
  8
_1
100
AcDbLine
 62
7
  6
BYLAYER
 10
36.9710732797
 20
250.5704508125
 11
38.3518604015
 21
249.420294855
  0
LINE
  5
37C
100
AcDbEntity
  8
_1
100
AcDbLine
 62
7
  6
BYLAYER
 10
83.7455419936
 20
230.5345239479
 11
83.789476418
 21
230.4732873249
  0
LINE
  5
37D
100
AcDbEntity
  8
_1
100
AcDbLine
 62
7
  6
BYLAYER
 10
93.294658417
 20
225.0237609701
 11
93.3385754033
 21
224.9602371771
  0
LINE
  5
37E
100
AcDbEntity
  8
_1
100
AcDbLine
 62
7
  6
BYLAYER
 10
118.1327026777
 20
295.743358917
 11
118.1327026777
 21
297.2337765811
  0
LINE
  5
37F
100
AcDbEntity
  8
_1
100
AcDbLine
 62
7
  6
BYLAYER
 10
127.8731779763
 20
270.0019353715
 11
127.8731779763
 21
270.8184377886
  0
LINE
  5
380
100
AcDbEntity
  8
_1
100
AcDbLine
 62
7
  6
BYLAYER
 10
129.0810998772
 20
305.1585833019
 11
129.0810998772
 21
300.74954644
  0
LINE
  5
381
100
AcDbEntity
  8
_1
100
AcDbLine
 62
7
  6
BYLAYER
 10
129.8649898605
 20
278.3649182722
 11
129.8649898605
 21
273.3434284068
  0
LINE
  5
382
100
AcDbEntity
  8
_1
100
AcDbLine
 62
7
  6
BYLAYER
 10
102.9233279702
 20
144.8258078046
 11
102.9564593487
 21
144.8956083249
  0
LINE
  5
383
100
AcDbEntity
  8
_1
100
AcDbLine
 62
7
  6
BYLAYER
 10
103.681327654
 20
145.2853899701
 11
103.6481682368
 21
145.2155743612
  0
LINE
  5
384
100
AcDbEntity
  8
_1
100
AcDbLine
 62
7
  6
BYLAYER
 10
103.7271284492
 20
186.1728063397
 11
103.681327654
 21
186.1105108266
  0
LINE
  5
385
100
AcDbEntity
  8
_1
100
AcDbLine
 62
7
  6
BYLAYER
 10
99.0023475248
 20
181.7397385933
 11
98.9655378376
 21
181.7107665673
  0
LINE
  5
386
100
AcDbEntity
  8
_1
100
AcDbLine
 62
7
  6
BYLAYER
 10
83.816650958
 20
189.8369813204
 11
84.3029837917
 21
190.1377168082
  0
LINE
  5
387
100
AcDbEntity
  8
_1
100
AcDbLine
 62
7
  6
BYLAYER
 10
84.3800237278
 20
190.1315265618
 11
83.8936908941
 21
189.830791074
  0
LINE
  5
388
100
AcDbEntity
  8
_1
100
AcDbLine
 62
7
  6
BYLAYER
 10
89.4802555763
 20
187.1869729459
 11
88.9854336994
 21
186.8911384985
  0
LINE
  5
389
100
AcDbEntity
  8
_1
100
AcDbLine
 62
7
  6
BYLAYER
 10
89.5881569801
 20
187.0064956665
 11
89.0933351033
 21
186.7106612192
  0
LINE
  5
38A
100
AcDbEntity
  8
_1
100
AcDbLine
 62
7
  6
BYLAYER
 10
93.3677371815
 20
184.3251388355
 11
93.8628606767
 21
184.6207991474
  0
LINE
  5
38B
100
AcDbEntity
  8
_1
100
AcDbLine
 62
7
  6
BYLAYER
 10
93.4427898793
 20
184.3177409262
 11
93.9379133746
 21
184.6134012381
  0
LINE
  5
38C
100
AcDbEntity
  8
_1
100
AcDbLine
 62
7
  6
BYLAYER
 10
78.1698128949
 20
188.9550301399
 11
78.7001407728
 21
189.2612132553
  0
LINE
  5
38D
100
AcDbEntity
  8
_1
100
AcDbLine
 62
7
  6
BYLAYER
 10
53.7745156014
 20
166.557973156
 11
52.360307927
 21
165.7414848483
  0
LINE
  5
38E
100
AcDbEntity
  8
_1
100
AcDbLine
 62
7
  6
BYLAYER
 10
89.200699289
 20
186.6852412158
 11
89.0946337135
 21
186.6240045927
  0
LINE
  5
38F
100
AcDbEntity
  8
_1
100
AcDbLine
 62
7
  6
BYLAYER
 10
89.0933351033
 20
191.3562116992
 11
89.1243325052
 21
191.3734938976
  0
LINE
  5
390
100
AcDbEntity
  8
_1
100
AcDbLine
 62
7
  6
BYLAYER
 10
89.0603295251
 20
191.2885627398
 11
89.1677268552
 21
191.3484407248
  0
LINE
  5
391
100
AcDbEntity
  8
_1
100
AcDbLine
 62
7
  6
BYLAYER
 10
40.2756852383
 20
169.9260147658
 11
38.6146663175
 21
169.6690536388
  0
LINE
  5
392
100
AcDbEntity
  8
_1
100
AcDbLine
 62
7
  6
BYLAYER
 10
102.8522607684
 20
181.1307435431
 11
98.6774429824
 21
181.0886607027
  0
LINE
  5
393
100
AcDbEntity
  8
_1
100
AcDbLine
 62
7
  6
BYLAYER
 10
98.6755912584
 20
181.2966499876
 11
102.8504090444
 21
181.3387328279
  0
LINE
  5
394
100
AcDbEntity
  8
_1
100
AcDbLine
 62
7
  6
BYLAYER
 10
103.5752773496
 20
181.7572334891
 11
98.9655378377
 21
181.7107665673
  0
LINE
  5
395
100
AcDbEntity
  8
_1
100
AcDbLine
 62
7
  6
BYLAYER
 10
99.0023710954
 20
181.7397388311
 11
103.5756165016
 21
181.7858378864
  0
LINE
  5
396
100
AcDbEntity
  8
_1
100
AcDbLine
 62
7
  6
BYLAYER
 10
98.6759311314
 20
185.6750950776
 11
102.8507489174
 21
185.6330323074
  0
LINE
  5
397
100
AcDbEntity
  8
_1
100
AcDbLine
 62
7
  6
BYLAYER
 10
98.6774429824
 20
185.7384861624
 11
102.8522607684
 21
185.6964233922
  0
LINE
  5
398
100
AcDbEntity
  8
_1
100
AcDbLine
 62
7
  6
BYLAYER
 10
84.3029837917
 20
190.1377168082
 11
84.3800237278
 21
190.1315265618
  0
LINE
  5
399
100
AcDbEntity
  8
_1
100
AcDbLine
 62
7
  6
BYLAYER
 10
83.8936908941
 20
189.830791074
 11
83.816680659
 21
189.8369996724
  0
LINE
  5
39A
100
AcDbEntity
  8
_1
100
AcDbLine
 62
7
  6
BYLAYER
 10
93.8628606767
 20
184.6207991474
 11
93.9379133746
 21
184.6134012381
  0
LINE
  5
39B
100
AcDbEntity
  8
_1
100
AcDbLine
 62
7
  6
BYLAYER
 10
93.4427898793
 20
184.3177409262
 11
93.3677838263
 21
184.3251666536
  0
LINE
  5
39C
100
AcDbEntity
  8
_1
100
AcDbLine
 62
7
  6
BYLAYER
 10
98.6024629786
 20
185.6951717549
 11
98.6759311314
 21
185.6750950776
  0
LINE
  5
39D
100
AcDbEntity
  8
_1
100
AcDbLine
 62
7
  6
BYLAYER
 10
48.8954443671
 20
226.1217103318
 11
48.1883346419
 21
226.5299510864
  0
LINE
  5
39E
100
AcDbEntity
  8
_1
100
AcDbLine
 62
7
  6
BYLAYER
 10
78.87692262
 20
210.8942514616
 11
65.5124899354
 21
218.6100357152
  0
LINE
  5
39F
100
AcDbEntity
  8
_1
100
AcDbLine
 62
7
  6
BYLAYER
 10
48.1883346419
 20
228.8161578543
 11
48.8954443671
 21
228.4079170998
  0
LINE
  5
3A0
100
AcDbEntity
  8
_1
100
AcDbLine
 62
7
  6
BYLAYER
 10
78.87692262
 20
212.4457231395
 11
70.5330019565
 21
217.2629789997
  0
LINE
  5
3A1
100
AcDbEntity
  8
_1
100
AcDbLine
 62
7
  6
BYLAYER
 10
66.5024765232
 20
219.5899513005
 11
57.9464488489
 21
224.5296644302
  0
LINE
  5
3A2
100
AcDbEntity
  8
_1
100
AcDbLine
 62
7
  6
BYLAYER
 10
39.8689137129
 20
253.657172999
 11
41.3347528526
 21
252.4361711569
  0
LINE
  5
3A3
100
AcDbEntity
  8
_1
100
AcDbLine
 62
7
  6
BYLAYER
 10
132.5459375304
 20
303.1582036048
 11
132.5459375304
 21
302.7499611506
  0
LINE
  5
3A4
100
AcDbEntity
  8
_1
100
AcDbLine
 62
7
  6
BYLAYER
 10
132.8289819351
 20
310.8328816018
 11
132.8289819351
 21
307.778671062
  0
LINE
  5
3A5
100
AcDbEntity
  8
_1
100
AcDbLine
 62
7
  6
BYLAYER
 10
133.6590726037
 20
302.1073085548
 11
133.6590726037
 21
288.2267674636
  0
LINE
  5
3A6
100
AcDbEntity
  8
_1
100
AcDbLine
 62
7
  6
BYLAYER
 10
134.2665856118
 20
302.9540815278
 11
134.2665856118
 21
289.0735404366
  0
LINE
  5
3A7
100
AcDbEntity
  8
_1
100
AcDbLine
 62
7
  6
BYLAYER
 10
134.8792550747
 20
307.5990849909
 11
134.8792550747
 21
307.9751725247
  0
LINE
  5
3A8
100
AcDbEntity
  8
_1
100
AcDbLine
 62
7
  6
BYLAYER
 10
138.942490125
 20
273.1241396132
 11
138.942490125
 21
268.1026497478
  0
LINE
  5
3A9
100
AcDbEntity
  8
_1
100
AcDbLine
 62
7
  6
BYLAYER
 10
137.4248012153
 20
313.282330548
 11
137.5503807201
 21
321.6623569679
  0
LINE
  5
3AA
100
AcDbEntity
  8
_1
100
AcDbLine
 62
7
  6
BYLAYER
 10
138.9646001704
 20
320.8458754588
 11
138.8390206656
 21
312.465849039
  0
LINE
  5
3AB
100
AcDbEntity
  8
_1
100
AcDbLine
 62
7
  6
BYLAYER
 10
103.7271284492
 20
145.3476854832
 11
103.681327654
 21
145.2853899701
  0
LINE
  5
3AC
100
AcDbEntity
  8
_1
100
AcDbLine
 62
7
  6
BYLAYER
 10
39.4555510271
 20
147.5790179138
 11
38.9252231492
 21
147.2728347984
  0
LINE
  5
3AD
100
AcDbEntity
  8
_1
100
AcDbLine
 62
7
  6
BYLAYER
 10
56.744376447
 20
157.5356653537
 11
55.3301687726
 21
156.719177046
  0
LINE
  5
3AE
100
AcDbEntity
  8
_1
100
AcDbLine
 62
7
  6
BYLAYER
 10
102.8504090444
 20
181.3387328279
 11
103.5752773496
 21
181.7572334891
  0
LINE
  5
3AF
100
AcDbEntity
  8
_1
100
AcDbLine
 62
7
  6
BYLAYER
 10
103.681327654
 20
181.5735499935
 11
102.9564593487
 21
181.1550493323
  0
LINE
  5
3B0
100
AcDbEntity
  8
_1
100
AcDbLine
 62
7
  6
BYLAYER
 10
73.2149815839
 20
162.8648139432
 11
74.8463971867
 21
163.8067065583
  0
LINE
  5
3B1
100
AcDbEntity
  8
_1
100
AcDbLine
 62
7
  6
BYLAYER
 10
42.4607717749
 20
143.5161426974
 11
42.9910996528
 21
143.8223258128
  0
LINE
  5
3B2
100
AcDbEntity
  8
_1
100
AcDbLine
 62
7
  6
BYLAYER
 10
102.9564593487
 20
185.7207291814
 11
103.681327654
 21
186.1105108266
  0
LINE
  5
3B3
100
AcDbEntity
  8
_1
100
AcDbLine
 62
7
  6
BYLAYER
 10
102.9232999316
 20
185.6509135724
 11
103.6481682368
 21
186.0406952176
  0
LINE
  5
3B4
100
AcDbEntity
  8
_1
100
AcDbLine
 62
7
  6
BYLAYER
 10
102.8507489174
 20
185.6330323074
 11
102.9233279702
 21
185.6509286611
  0
LINE
  5
3B5
100
AcDbEntity
  8
_1
100
AcDbLine
 62
7
  6
BYLAYER
 10
38.6146663175
 20
180.9367869951
 11
40.2756852383
 21
181.1937481222
  0
LINE
  5
3B6
100
AcDbEntity
  8
_1
100
AcDbLine
 62
7
  6
BYLAYER
 10
93.9379133746
 20
184.6134012381
 11
94.0147632016
 21
184.6219178008
  0
LINE
  5
3B7
100
AcDbEntity
  8
_1
100
AcDbLine
 62
7
  6
BYLAYER
 10
89.5571054033
 20
187.1954895086
 11
89.4802555763
 21
187.1869729459
  0
LINE
  5
3B8
100
AcDbEntity
  8
_1
100
AcDbLine
 62
7
  6
BYLAYER
 10
84.3800237278
 20
190.1315265618
 11
84.4568735548
 21
190.1400431245
  0
LINE
  5
3B9
100
AcDbEntity
  8
_1
100
AcDbLine
 62
7
  6
BYLAYER
 10
48.8954443671
 20
244.0847635087
 11
48.1883346419
 21
244.4930042632
  0
LINE
  5
3BA
100
AcDbEntity
  8
_1
100
AcDbLine
 62
7
  6
BYLAYER
 10
48.1883346419
 20
246.7792110312
 11
48.8954443671
 21
246.3709702766
  0
LINE
  5
3BB
100
AcDbEntity
  8
_1
100
AcDbLine
 62
7
  6
BYLAYER
 10
70.5330019565
 20
234.0829287926
 11
78.4228206915
 21
229.5278428719
  0
LINE
  5
3BC
100
AcDbEntity
  8
_1
100
AcDbLine
 62
7
  6
BYLAYER
 10
57.9464488489
 20
244.207372683
 11
66.5024765232
 21
239.2676595533
  0
LINE
  5
3BD
100
AcDbEntity
  8
_1
100
AcDbLine
 62
7
  6
BYLAYER
 10
48.8954443671
 20
250.1677065163
 11
55.9665416185
 21
246.0852989711
  0
LINE
  5
3BE
100
AcDbEntity
  8
_1
100
AcDbLine
 62
7
  6
BYLAYER
 10
88.8843369191
 20
227.3255900243
 11
93.3354577075
 21
224.7557923756
  0
LINE
  5
3BF
100
AcDbEntity
  8
_1
100
AcDbLine
 62
7
  6
BYLAYER
 10
83.789476418
 20
230.4732873249
 11
88.8812192234
 21
227.5336347494
  0
LINE
  5
3C0
100
AcDbEntity
  8
_1
100
AcDbLine
 62
7
  6
BYLAYER
 10
93.3385754033
 20
224.9602371771
 11
98.5713767823
 21
221.9391462385
  0
LINE
  5
3C1
100
AcDbEntity
  8
_1
100
AcDbLine
 62
7
  6
BYLAYER
 10
93.2948896185
 20
225.0241614318
 11
89.0946337135
 21
227.4491254492
  0
LINE
  5
3C2
100
AcDbEntity
  8
_1
100
AcDbLine
 62
7
  6
BYLAYER
 10
93.3355933005
 20
225.123133908
 11
89.200699289
 21
227.5103620723
  0
LINE
  5
3C3
100
AcDbEntity
  8
_1
100
AcDbLine
 62
7
  6
BYLAYER
 10
98.6755912584
 20
222.1217708441
 11
93.4427898793
 21
225.1428617827
  0
LINE
  5
3C4
100
AcDbEntity
  8
_1
100
AcDbLine
 62
7
  6
BYLAYER
 10
88.9854336994
 20
227.716259355
 11
83.8936908941
 21
230.6559119305
  0
LINE
  5
3C5
100
AcDbEntity
  8
_1
100
AcDbLine
 62
7
  6
BYLAYER
 10
45.9963204007
 20
252.5764228236
 11
73.2200448188
 21
236.8591537746
  0
LINE
  5
3C6
100
AcDbEntity
  8
_1
100
AcDbLine
 62
7
  6
BYLAYER
 10
84.3800237278
 20
230.9566474183
 11
89.4802555763
 21
228.0120938024
  0
LINE
  5
3C7
100
AcDbEntity
  8
_1
100
AcDbLine
 62
7
  6
BYLAYER
 10
93.9379133746
 20
225.4385220945
 11
98.9655378377
 21
222.5358874238
  0
LINE
  5
3C8
100
AcDbEntity
  8
_1
100
AcDbLine
 62
7
  6
BYLAYER
 10
84.4568735548
 20
230.965163981
 11
89.5571054033
 21
228.0206103651
  0
LINE
  5
3C9
100
AcDbEntity
  8
_1
100
AcDbLine
 62
7
  6
BYLAYER
 10
94.0147632016
 20
225.4470386572
 11
98.9984436936
 21
222.569774476
  0
LINE
  5
3CA
100
AcDbEntity
  8
_1
100
AcDbLine
 62
7
  6
BYLAYER
 10
45.9963204007
 20
254.2094276578
 11
73.5735996814
 21
238.2880382316
  0
LINE
  5
3CB
100
AcDbEntity
  8
_1
100
AcDbLine
 62
7
  6
BYLAYER
 10
145.6272175029
 20
328.6325291731
 11
145.6272175029
 21
326.9995243389
  0
LINE
  5
3CC
100
AcDbEntity
  8
_1
100
AcDbLine
 62
7
  6
BYLAYER
 10
151.2840364247
 20
331.8984473866
 11
151.2840364247
 21
332.7149780225
  0
LINE
  5
3CD
100
AcDbEntity
  8
_1
100
AcDbLine
 62
7
  6
BYLAYER
 10
152.698255875
 20
331.0819658776
 11
152.698255875
 21
332.7149707118
  0
LINE
  5
3CE
100
AcDbEntity
  8
_1
100
AcDbLine
 62
7
  6
BYLAYER
 10
72.2730892345
 20
161.50452708
 11
75.9777727469
 21
163.153521351
  0
LINE
  5
3CF
100
AcDbEntity
  8
_1
100
AcDbLine
 62
7
  6
BYLAYER
 10
95.4939717213
 20
229.7149993834
 11
77.1091188675
 21
240.3292590009
  0
LINE
  5
3D0
100
AcDbEntity
  8
_1
100
AcDbLine
 62
7
  6
BYLAYER
 10
56.6028779589
 20
260.3330899659
 11
102.5650100934
 21
233.7974409221
  0
LINE
  5
3D1
100
AcDbEntity
  8
_1
100
AcDbLine
 62
7
  6
BYLAYER
 10
102.918562012
 20
234.001562999
 11
56.9564298775
 21
260.5372120429
  0
LINE
  5
3D2
100
AcDbEntity
  8
_1
100
AcDbLine
 62
7
  6
BYLAYER
 10
201.2717431214
 20
83.878058204
 11
201.0646199544
 21
84.335825565
  0
LINE
  5
3D3
100
AcDbEntity
  8
_1
100
AcDbLine
 62
7
  6
BYLAYER
 10
207.9285351595
 20
90.5090392991
 11
208.1356583265
 21
90.051271938
  0
LINE
  5
3D4
100
AcDbEntity
  8
_1
100
AcDbLine
 62
7
  6
BYLAYER
 10
158.3550865727
 20
335.9809239428
 11
158.3550865727
 21
334.3479191085
  0
LINE
  5
3D5
100
AcDbEntity
  8
_1
100
AcDbLine
 62
7
  6
BYLAYER
 10
161.0379269388
 20
285.8808698581
 11
161.0379269388
 21
280.8593799928
  0
LINE
  5
3D6
100
AcDbEntity
  8
_1
100
AcDbLine
 62
7
  6
BYLAYER
 10
164.0119054946
 20
339.2468421563
 11
164.0119054946
 21
340.0633727921
  0
LINE
  5
3D7
100
AcDbEntity
  8
_1
100
AcDbLine
 62
7
  6
BYLAYER
 10
165.4261249449
 20
338.4303606473
 11
165.4261249449
 21
340.0633654815
  0
LINE
  5
3D8
100
AcDbEntity
  8
_1
100
AcDbLine
 62
7
  6
BYLAYER
 10
48.2944152315
 20
119.0578640206
 11
46.8802075571
 21
118.2413757129
  0
LINE
  5
3D9
100
AcDbEntity
  8
_1
100
AcDbLine
 62
7
  6
BYLAYER
 10
89.0933351033
 20
150.5310908428
 11
89.1243325052
 21
150.5483730412
  0
LINE
  5
3DA
100
AcDbEntity
  8
_1
100
AcDbLine
 62
7
  6
BYLAYER
 10
89.0603295251
 20
150.4634418833
 11
89.1677268552
 21
150.5233198683
  0
LINE
  5
3DB
100
AcDbEntity
  8
_1
100
AcDbLine
 62
7
  6
BYLAYER
 10
75.9777727469
 20
151.8857879947
 11
72.2730892345
 21
150.2367937236
  0
LINE
  5
3DC
100
AcDbEntity
  8
_1
100
AcDbLine
 62
7
  6
BYLAYER
 10
102.8522607684
 20
221.9558643995
 11
98.6774429824
 21
221.9137815592
  0
LINE
  5
3DD
100
AcDbEntity
  8
_1
100
AcDbLine
 62
7
  6
BYLAYER
 10
98.6755912584
 20
222.1217708441
 11
102.8504090444
 21
222.1638536844
  0
LINE
  5
3DE
100
AcDbEntity
  8
_1
100
AcDbLine
 62
7
  6
BYLAYER
 10
103.5752773496
 20
222.5823543456
 11
98.9655378377
 21
222.5358874238
  0
LINE
  5
3DF
100
AcDbEntity
  8
_1
100
AcDbLine
 62
7
  6
BYLAYER
 10
99.0023710954
 20
222.5648596876
 11
103.5756165016
 21
222.6109587429
  0
LINE
  5
3E0
100
AcDbEntity
  8
_1
100
AcDbLine
 62
7
  6
BYLAYER
 10
84.3029837917
 20
230.9628376647
 11
84.3800237278
 21
230.9566474183
  0
LINE
  5
3E1
100
AcDbEntity
  8
_1
100
AcDbLine
 62
7
  6
BYLAYER
 10
83.8936908941
 20
230.6559119305
 11
83.816680659
 21
230.6621205289
  0
LINE
  5
3E2
100
AcDbEntity
  8
_1
100
AcDbLine
 62
7
  6
BYLAYER
 10
93.8628606767
 20
225.4459200039
 11
93.9379133746
 21
225.4385220945
  0
LINE
  5
3E3
100
AcDbEntity
  8
_1
100
AcDbLine
 62
7
  6
BYLAYER
 10
93.4427898793
 20
225.1428617827
 11
93.3677838263
 21
225.1502875101
  0
LINE
  5
3E4
100
AcDbEntity
  8
_1
100
AcDbLine
 62
7
  6
BYLAYER
 10
96.9011274294
 20
243.5610519809
 11
90.9373301029
 21
247.0041740789
  0
LINE
  5
3E5
100
AcDbEntity
  8
_1
100
AcDbLine
 62
7
  6
BYLAYER
 10
96.9011274294
 20
248.5825418463
 11
90.9373301029
 21
252.0256639443
  0
LINE
  5
3E6
100
AcDbEntity
  8
_1
100
AcDbLine
 62
7
  6
BYLAYER
 10
171.0829556426
 20
343.3293187125
 11
171.0829556426
 21
341.6963138782
  0
LINE
  5
3E7
100
AcDbEntity
  8
_1
100
AcDbLine
 62
7
  6
BYLAYER
 10
176.7397745644
 20
346.595236926
 11
176.7397745644
 21
347.4117675618
  0
LINE
  5
3E8
100
AcDbEntity
  8
_1
100
AcDbLine
 62
7
  6
BYLAYER
 10
178.1539940147
 20
345.7787554169
 11
178.1539940147
 21
347.4117602512
  0
LINE
  5
3E9
100
AcDbEntity
  8
_1
100
AcDbLine
 62
7
  6
BYLAYER
 10
78.7001407728
 20
128.9216846294
 11
78.1698128949
 21
128.615501514
  0
LINE
  5
3EA
100
AcDbEntity
  8
_1
100
AcDbLine
 62
7
  6
BYLAYER
 10
74.8110372845
 20
125.4514918594
 11
74.2807094065
 21
125.145308744
  0
LINE
  5
3EB
100
AcDbEntity
  8
_1
100
AcDbLine
 62
7
  6
BYLAYER
 10
77.0306970951
 20
126.0976788351
 11
77.561024973
 21
126.4038619505
  0
LINE
  5
3EC
100
AcDbEntity
  8
_1
100
AcDbLine
 62
7
  6
BYLAYER
 10
66.9267564892
 20
115.5675916515
 11
65.5125488147
 21
114.7511033437
  0
LINE
  5
3ED
100
AcDbEntity
  8
_1
100
AcDbLine
 62
7
  6
BYLAYER
 10
102.9564593487
 20
144.8956083249
 11
103.681327654
 21
145.2853899701
  0
LINE
  5
3EE
100
AcDbEntity
  8
_1
100
AcDbLine
 62
7
  6
BYLAYER
 10
102.9232999316
 20
144.825792716
 11
103.6481682368
 21
145.2155743612
  0
LINE
  5
3EF
100
AcDbEntity
  8
_1
100
AcDbLine
 62
7
  6
BYLAYER
 10
93.9379133746
 20
225.4385220945
 11
94.0147632016
 21
225.4470386572
  0
LINE
  5
3F0
100
AcDbEntity
  8
_1
100
AcDbLine
 62
7
  6
BYLAYER
 10
89.5571054033
 20
228.0206103651
 11
89.4802555763
 21
228.0120938024
  0
LINE
  5
3F1
100
AcDbEntity
  8
_1
100
AcDbLine
 62
7
  6
BYLAYER
 10
84.3800237278
 20
230.9566474183
 11
84.4568735548
 21
230.965163981
  0
LINE
  5
3F2
100
AcDbEntity
  8
_1
100
AcDbLine
 62
7
  6
BYLAYER
 10
113.1949972449
 20
252.9491518436
 11
112.3334115755
 21
253.4465773085
  0
LINE
  5
3F3
100
AcDbEntity
  8
_1
100
AcDbLine
 62
7
  6
BYLAYER
 10
106.369614249
 20
260.935444166
 11
112.3334115755
 21
257.4923220681
  0
LINE
  5
3F4
100
AcDbEntity
  8
_1
100
AcDbLine
 62
7
  6
BYLAYER
 10
192.9877831716
 20
85.2456788902
 11
192.9076112547
 21
90.5030446207
  0
LINE
  5
3F5
100
AcDbEntity
  8
_1
100
AcDbLine
 62
7
  6
BYLAYER
 10
194.302295286
 20
90.9676206962
 11
194.4020026219
 21
84.4291973812
  0
LINE
  5
3F6
100
AcDbEntity
  8
_1
100
AcDbLine
 62
7
  6
BYLAYER
 10
185.0840455601
 20
278.9900789537
 11
185.0840455601
 21
278.6139914199
  0
LINE
  5
3F7
100
AcDbEntity
  8
_1
100
AcDbLine
 62
7
  6
BYLAYER
 10
189.1847885571
 20
359.4958431355
 11
189.1847885571
 21
361.3737662433
  0
LINE
  5
3F8
100
AcDbEntity
  8
_1
100
AcDbLine
 62
7
  6
BYLAYER
 10
191.1647046195
 20
342.6759164255
 11
191.1647046195
 21
359.0059647681
  0
LINE
  5
3F9
100
AcDbEntity
  8
_1
100
AcDbLine
 62
7
  6
BYLAYER
 10
194.9835404966
 20
91.1945468094
 11
194.9835404966
 21
99.3595709807
  0
LINE
  5
3FA
100
AcDbEntity
  8
_1
100
AcDbLine
 62
7
  6
BYLAYER
 10
194.9835404966
 20
270.8250785779
 11
194.9835404966
 21
278.9901027492
  0
LINE
  5
3FB
100
AcDbEntity
  8
_1
100
AcDbLine
 62
7
  6
BYLAYER
 10
196.0791172092
 20
350.2597776138
 11
196.0791172092
 21
351.2696770214
  0
LINE
  5
3FC
100
AcDbEntity
  8
_1
100
AcDbLine
 62
7
  6
BYLAYER
 10
192.8622036669
 20
281.2762553937
 11
192.9877831716
 21
289.6562818135
  0
LINE
  5
3FD
100
AcDbEntity
  8
_1
100
AcDbLine
 62
7
  6
BYLAYER
 10
194.4020026219
 20
288.8398003044
 11
194.2764231172
 21
280.4597738846
  0
LINE
  5
3FE
100
AcDbEntity
  8
_1
100
AcDbLine
 62
7
  6
BYLAYER
 10
44.5114812408
 20
92.9912748276
 11
55.4715907176
 21
99.3190592126
  0
LINE
  5
3FF
100
AcDbEntity
  8
_1
100
AcDbLine
 62
7
  6
BYLAYER
 10
84.1802161189
 20
112.138484052
 11
80.6446969329
 21
110.0972632827
  0
LINE
  5
400
100
AcDbEntity
  8
_1
100
AcDbLine
 62
7
  6
BYLAYER
 10
58.8657173983
 20
97.3595035909
 11
47.9056079215
 21
91.0317192059
  0
LINE
  5
401
100
AcDbEntity
  8
_1
100
AcDbLine
 62
7
  6
BYLAYER
 10
90.8528328314
 20
115.0157396936
 11
90.1457289942
 21
114.6074955397
  0
LINE
  5
402
100
AcDbEntity
  8
_1
100
AcDbLine
 62
7
  6
BYLAYER
 10
49.3198273718
 20
88.5822328626
 11
60.2799368486
 21
94.9100172476
  0
LINE
  5
403
100
AcDbEntity
  8
_1
100
AcDbLine
 62
7
  6
BYLAYER
 10
84.1802455586
 20
103.9735474244
 11
87.7157647447
 21
106.0147681938
  0
LINE
  5
404
100
AcDbEntity
  8
_1
100
AcDbLine
 62
7
  6
BYLAYER
 10
109.1802569128
 20
275.7875610442
 11
105.7154192595
 21
277.7879407414
  0
LINE
  5
405
100
AcDbEntity
  8
_1
100
AcDbLine
 62
7
  6
BYLAYER
 10
105.7154192595
 20
279.2352064013
 11
97.5288911746
 21
283.9615936697
  0
LINE
  5
406
100
AcDbEntity
  8
_1
100
AcDbLine
 62
7
  6
BYLAYER
 10
127.8731779763
 20
270.0019353715
 11
135.3023813658
 21
265.7127798283
  0
LINE
  5
407
100
AcDbEntity
  8
_1
100
AcDbLine
 62
7
  6
BYLAYER
 10
199.9682206975
 20
349.0243528715
 11
199.9682206975
 21
348.0144534639
  0
LINE
  5
408
100
AcDbEntity
  8
_1
100
AcDbLine
 62
7
  6
BYLAYER
 10
200.5339255527
 20
334.8989201938
 11
200.5339255527
 21
348.779461285
  0
LINE
  5
409
100
AcDbEntity
  8
_1
100
AcDbLine
 62
7
  6
BYLAYER
 10
201.0646199544
 20
296.6264540187
 11
201.0646199544
 21
294.9934491845
  0
LINE
  5
40A
100
AcDbEntity
  8
_1
100
AcDbLine
 62
7
  6
BYLAYER
 10
201.0646199544
 20
85.9688303993
 11
201.0646199544
 21
84.335825565
  0
LINE
  5
40B
100
AcDbEntity
  8
_1
100
AcDbLine
 62
7
  6
BYLAYER
 10
203.3623644532
 20
347.1464982669
 11
203.3623644532
 21
333.2659571757
  0
LINE
  5
40C
100
AcDbEntity
  8
_1
100
AcDbLine
 62
7
  6
BYLAYER
 10
205.4129655812
 20
348.3304063131
 11
205.4129655812
 21
334.4498652219
  0
LINE
  5
40D
100
AcDbEntity
  8
_1
100
AcDbLine
 62
7
  6
BYLAYER
 10
206.7214388763
 20
89.2347486128
 11
206.7214388763
 21
90.0512792486
  0
LINE
  5
40E
100
AcDbEntity
  8
_1
100
AcDbLine
 62
7
  6
BYLAYER
 10
206.7214388763
 20
299.8923722322
 11
206.7214388763
 21
300.7089028681
  0
LINE
  5
40F
100
AcDbEntity
  8
_1
100
AcDbLine
 62
7
  6
BYLAYER
 10
208.1356583265
 20
88.4182671037
 11
208.1356583265
 21
90.051271938
  0
LINE
  5
410
100
AcDbEntity
  8
_1
100
AcDbLine
 62
7
  6
BYLAYER
 10
208.1356583265
 20
299.0758907232
 11
208.1356583265
 21
300.7088955574
  0
LINE
  5
411
100
AcDbEntity
  8
_1
100
AcDbLine
 62
7
  6
BYLAYER
 10
45.9963086248
 20
73.2724570045
 11
44.5821009504
 21
72.4559686967
  0
LINE
  5
412
100
AcDbEntity
  8
_1
100
AcDbLine
 62
7
  6
BYLAYER
 10
99.029520347
 20
99.4829161214
 11
95.494001161
 21
97.4416953521
  0
LINE
  5
413
100
AcDbEntity
  8
_1
100
AcDbLine
 62
7
  6
BYLAYER
 10
127.8731779763
 20
270.8184377886
 11
136.0095033102
 21
266.1210344363
  0
LINE
  5
414
100
AcDbEntity
  8
_1
100
AcDbLine
 62
7
  6
BYLAYER
 10
138.942490125
 20
268.1026497478
 11
129.8649898605
 21
273.3434284068
  0
LINE
  5
415
100
AcDbEntity
  8
_1
100
AcDbLine
 62
7
  6
BYLAYER
 10
109.1802569128
 20
289.6681021354
 11
105.7154192595
 21
291.6684818326
  0
LINE
  5
416
100
AcDbEntity
  8
_1
100
AcDbLine
 62
7
  6
BYLAYER
 10
138.942490125
 20
273.1241396132
 11
129.8649898605
 21
278.3649182722
  0
LINE
  5
417
100
AcDbEntity
  8
_1
100
AcDbLine
 62
7
  6
BYLAYER
 10
106.8285421201
 20
292.3111397796
 11
110.2933797733
 21
290.3107600824
  0
LINE
  5
418
100
AcDbEntity
  8
_1
100
AcDbLine
 62
7
  6
BYLAYER
 10
145.8343406699
 20
326.5417569778
 11
145.6272175029
 21
326.9995243389
  0
LINE
  5
419
100
AcDbEntity
  8
_1
100
AcDbLine
 62
7
  6
BYLAYER
 10
152.491132708
 20
333.1727380729
 11
152.698255875
 21
332.7149707118
  0
LINE
  5
41A
100
AcDbEntity
  8
_1
100
AcDbLine
 62
7
  6
BYLAYER
 10
213.7924890243
 20
303.9748487884
 11
213.7924890243
 21
302.3418439542
  0
LINE
  5
41B
100
AcDbEntity
  8
_1
100
AcDbLine
 62
7
  6
BYLAYER
 10
219.4493079461
 20
307.2407670019
 11
219.4493079461
 21
308.0572976378
  0
LINE
  5
41C
100
AcDbEntity
  8
_1
100
AcDbLine
 62
7
  6
BYLAYER
 10
220.8635273964
 20
306.4242854929
 11
220.8635273964
 21
308.0572903271
  0
LINE
  5
41D
100
AcDbEntity
  8
_1
100
AcDbLine
 62
7
  6
BYLAYER
 10
99.0295497867
 20
91.3179794938
 11
106.1005881588
 21
95.4004210325
  0
LINE
  5
41E
100
AcDbEntity
  8
_1
100
AcDbLine
 62
7
  6
BYLAYER
 10
44.5114812408
 20
59.8412766921
 11
48.2591627841
 21
62.0049887243
  0
LINE
  5
41F
100
AcDbEntity
  8
_1
100
AcDbLine
 62
7
  6
BYLAYER
 10
48.2591658389
 20
58.0858466107
 11
47.9056079215
 21
57.8817210704
  0
LINE
  5
420
100
AcDbEntity
  8
_1
100
AcDbLine
 62
7
  6
BYLAYER
 10
60.2799368486
 20
63.8012751549
 11
49.3198273718
 21
57.4734907699
  0
LINE
  5
421
100
AcDbEntity
  8
_1
100
AcDbLine
 62
7
  6
BYLAYER
 10
48.9056034447
 20
56.5579188867
 11
59.8657129215
 21
62.8857032717
  0
LINE
  5
422
100
AcDbEntity
  8
_1
100
AcDbLine
 62
7
  6
BYLAYER
 10
118.1327026777
 20
295.743358917
 11
119.2713993087
 21
295.0859469832
  0
LINE
  5
423
100
AcDbEntity
  8
_1
100
AcDbLine
 62
7
  6
BYLAYER
 10
119.4484089055
 20
296.6167575911
 11
120.6856431975
 21
295.9024561992
  0
LINE
  5
424
100
AcDbEntity
  8
_1
100
AcDbLine
 62
7
  6
BYLAYER
 10
158.5622097397
 20
333.8901517475
 11
158.3550865727
 21
334.3479191085
  0
LINE
  5
425
100
AcDbEntity
  8
_1
100
AcDbLine
 62
7
  6
BYLAYER
 10
165.2190017779
 20
340.5211328426
 11
165.4261249449
 21
340.0633654815
  0
LINE
  5
426
100
AcDbEntity
  8
_1
100
AcDbLine
 62
7
  6
BYLAYER
 10
226.5203580941
 20
311.3232435581
 11
226.5203580941
 21
309.6902387238
  0
LINE
  5
427
100
AcDbEntity
  8
_1
100
AcDbLine
 62
7
  6
BYLAYER
 10
228.8890255311
 20
318.5284659375
 11
228.8890255311
 21
332.4090070287
  0
LINE
  5
428
100
AcDbEntity
  8
_1
100
AcDbLine
 62
7
  6
BYLAYER
 10
231.7174644316
 20
330.7760440106
 11
231.7174644316
 21
320.0392650915
  0
LINE
  5
429
100
AcDbEntity
  8
_1
100
AcDbLine
 62
7
  6
BYLAYER
 10
232.1771770159
 20
314.5891617716
 11
232.1771770159
 21
315.4056924074
  0
LINE
  5
42A
100
AcDbEntity
  8
_1
100
AcDbLine
 62
7
  6
BYLAYER
 10
232.5659890363
 20
331.2659369953
 11
232.5659890363
 21
320.5291580762
  0
LINE
  5
42B
100
AcDbEntity
  8
_1
100
AcDbLine
 62
7
  6
BYLAYER
 10
233.5913964662
 20
313.7726802626
 11
233.5913964662
 21
315.4056850968
  0
LINE
  5
42C
100
AcDbEntity
  8
_1
100
AcDbLine
 62
7
  6
BYLAYER
 10
236.3843715426
 20
326.9900546061
 11
236.3843715426
 21
327.9999540137
  0
LINE
  5
42D
100
AcDbEntity
  8
_1
100
AcDbLine
 62
7
  6
BYLAYER
 10
201.7717237916
 20
294.5851909212
 11
201.2717431214
 21
294.5356818234
  0
LINE
  5
42E
100
AcDbEntity
  8
_1
100
AcDbLine
 62
7
  6
BYLAYER
 10
151.9604266743
 20
291.1216485171
 11
161.0379269388
 21
285.8808698581
  0
LINE
  5
42F
100
AcDbEntity
  8
_1
100
AcDbLine
 62
7
  6
BYLAYER
 10
132.5459375304
 20
303.1582036048
 11
129.0810998772
 21
305.1585833019
  0
LINE
  5
430
100
AcDbEntity
  8
_1
100
AcDbLine
 62
7
  6
BYLAYER
 10
130.1942227377
 20
305.8012412489
 11
133.659060391
 21
303.8008615518
  0
LINE
  5
431
100
AcDbEntity
  8
_1
100
AcDbLine
 62
7
  6
BYLAYER
 10
134.8792550747
 20
307.9751725247
 11
137.0005842501
 21
306.7504502611
  0
LINE
  5
432
100
AcDbEntity
  8
_1
100
AcDbLine
 62
7
  6
BYLAYER
 10
182.9627163846
 20
280.2148012173
 11
185.0840455601
 21
278.9900789537
  0
LINE
  5
433
100
AcDbEntity
  8
_1
100
AcDbLine
 62
7
  6
BYLAYER
 10
171.2900788096
 20
341.2385465172
 11
171.0829556426
 21
341.6963138782
  0
LINE
  5
434
100
AcDbEntity
  8
_1
100
AcDbLine
 62
7
  6
BYLAYER
 10
201.2717431214
 20
294.5356818234
 11
201.0646199544
 21
294.9934491845
  0
LINE
  5
435
100
AcDbEntity
  8
_1
100
AcDbLine
 62
7
  6
BYLAYER
 10
177.9468708477
 20
347.8695276123
 11
178.1539940147
 21
347.4117602512
  0
LINE
  5
436
100
AcDbEntity
  8
_1
100
AcDbLine
 62
7
  6
BYLAYER
 10
231.5497638606
 20
333.2406601664
 11
231.6549301118
 21
331.7919252112
  0
LINE
  5
437
100
AcDbEntity
  8
_1
100
AcDbLine
 62
7
  6
BYLAYER
 10
240.2734750309
 20
325.7546298639
 11
240.2734750309
 21
324.9790506276
  0
LINE
  5
438
100
AcDbEntity
  8
_1
100
AcDbLine
 62
7
  6
BYLAYER
 10
247.6627628268
 20
107.1566032195
 11
247.6627628268
 21
121.6087284542
  0
LINE
  5
439
100
AcDbEntity
  8
_1
100
AcDbLine
 62
7
  6
BYLAYER
 10
247.6627628268
 20
311.2822075019
 11
247.6627628268
 21
327.6122558445
  0
LINE
  5
43A
100
AcDbEntity
  8
_1
100
AcDbLine
 62
7
  6
BYLAYER
 10
249.2891151946
 20
326.6733021091
 11
249.2891151946
 21
310.3432537665
  0
LINE
  5
43B
100
AcDbEntity
  8
_1
100
AcDbLine
 62
7
  6
BYLAYER
 10
249.2891151946
 20
122.5476978267
 11
249.2891151946
 21
106.2176494841
  0
LINE
  5
43C
100
AcDbEntity
  8
_1
100
AcDbLine
 62
7
  6
BYLAYER
 10
207.4285544893
 20
301.1171538207
 11
207.9285351595
 21
301.1666629185
  0
LINE
  5
43D
100
AcDbEntity
  8
_1
100
AcDbLine
 62
7
  6
BYLAYER
 10
214.4995928615
 20
301.9335856909
 11
213.9996121913
 21
301.8840765931
  0
LINE
  5
43E
100
AcDbEntity
  8
_1
100
AcDbLine
 62
7
  6
BYLAYER
 10
220.1564235592
 20
308.4655485904
 11
220.6564042294
 21
308.5150576882
  0
LINE
  5
43F
100
AcDbEntity
  8
_1
100
AcDbLine
 62
7
  6
BYLAYER
 10
227.2274619313
 20
309.2819804606
 11
226.7274812611
 21
309.2324713628
  0
LINE
  5
440
100
AcDbEntity
  8
_1
100
AcDbLine
 62
7
  6
BYLAYER
 10
137.4248012153
 20
313.282330548
 11
138.8390206656
 21
312.465849039
  0
LINE
  5
441
100
AcDbEntity
  8
_1
100
AcDbLine
 62
7
  6
BYLAYER
 10
192.8622036669
 20
281.2762553937
 11
194.2764231172
 21
280.4597738846
  0
LINE
  5
442
100
AcDbEntity
  8
_1
100
AcDbLine
 62
7
  6
BYLAYER
 10
137.5503807201
 20
321.6623569679
 11
138.9646001704
 21
320.8458754588
  0
LINE
  5
443
100
AcDbEntity
  8
_1
100
AcDbLine
 62
7
  6
BYLAYER
 10
192.9877831716
 20
289.6562818135
 11
194.4020026219
 21
288.8398003044
  0
LINE
  5
444
100
AcDbEntity
  8
_1
100
AcDbLine
 62
7
  6
BYLAYER
 10
207.9285351595
 20
301.1666629185
 11
208.1356583265
 21
300.7088955574
  0
LINE
  5
445
100
AcDbEntity
  8
_1
100
AcDbLine
 62
7
  6
BYLAYER
 10
252.4710824621
 20
328.5104008015
 11
252.4710824621
 21
108.0547481765
  0
LINE
  5
446
100
AcDbEntity
  8
_1
100
AcDbLine
 62
7
  6
BYLAYER
 10
194.9835404966
 20
99.3595709807
 11
109.9896592635
 21
50.2886236853
  0
LINE
  5
447
100
AcDbEntity
  8
_1
100
AcDbLine
 62
7
  6
BYLAYER
 10
109.6361073449
 20
50.0845016084
 11
99.0295497867
 21
43.9608393003
  0
LINE
  5
448
100
AcDbEntity
  8
_1
100
AcDbLine
 62
7
  6
BYLAYER
 10
107.564987709
 20
45.5066421921
 11
96.9584301508
 21
39.3829798841
  0
LINE
  5
449
100
AcDbEntity
  8
_1
100
AcDbLine
 62
7
  6
BYLAYER
 10
107.9185396276
 20
45.7107642691
 11
188.8858445046
 21
92.456980498
  0
LINE
  5
44A
100
AcDbEntity
  8
_1
100
AcDbLine
 62
7
  6
BYLAYER
 10
194.9835404966
 20
91.1945468094
 11
249.2891151946
 21
122.5476978267
  0
LINE
  5
44B
100
AcDbEntity
  8
_1
100
AcDbLine
 62
7
  6
BYLAYER
 10
103.5549301474
 20
37.8367756469
 11
102.4942743916
 21
37.224409416
  0
LINE
  5
44C
100
AcDbEntity
  8
_1
100
AcDbLine
 62
7
  6
BYLAYER
 10
232.884292629
 20
315.8139433601
 11
233.3842732992
 21
315.8634524579
  0
LINE
  5
44D
100
AcDbEntity
  8
_1
100
AcDbLine
 62
7
  6
BYLAYER
 10
201.7717237916
 20
294.5851909212
 11
201.0646109011
 21
294.9934335032
  0
LINE
  5
44E
100
AcDbEntity
  8
_1
100
AcDbLine
 62
7
  6
BYLAYER
 10
146.3343213401
 20
326.5912660756
 11
145.6272084495
 21
326.9995086576
  0
LINE
  5
44F
100
AcDbEntity
  8
_1
100
AcDbLine
 62
7
  6
BYLAYER
 10
201.4719640406
 20
300.9441449184
 11
200.0577445903
 21
301.7606264274
  0
LINE
  5
450
100
AcDbEntity
  8
_1
100
AcDbLine
 62
7
  6
BYLAYER
 10
146.0345615891
 20
332.9502200728
 11
144.6203421388
 21
333.7667015818
  0
LINE
  5
451
100
AcDbEntity
  8
_1
100
AcDbLine
 62
7
  6
BYLAYER
 10
150.5769325875
 20
330.6737008156
 11
151.9911520378
 21
329.8572193066
  0
LINE
  5
452
100
AcDbEntity
  8
_1
100
AcDbLine
 62
7
  6
BYLAYER
 10
206.014335039
 20
298.6676256612
 11
207.4285544893
 21
297.8511441522
  0
LINE
  5
453
100
AcDbEntity
  8
_1
100
AcDbLine
 62
7
  6
BYLAYER
 10
208.1356583265
 20
299.0758907232
 11
206.7214388763
 21
299.8923722322
  0
LINE
  5
454
100
AcDbEntity
  8
_1
100
AcDbLine
 62
7
  6
BYLAYER
 10
152.698255875
 20
331.0819658776
 11
151.2840364247
 21
331.8984473866
  0
LINE
  5
455
100
AcDbEntity
  8
_1
100
AcDbLine
 62
7
  6
BYLAYER
 10
213.9996121913
 20
301.8840765931
 11
213.7924890243
 21
302.3418439542
  0
LINE
  5
456
100
AcDbEntity
  8
_1
100
AcDbLine
 62
7
  6
BYLAYER
 10
220.6564042294
 20
308.5150576882
 11
220.8635273964
 21
308.0572903271
  0
LINE
  5
457
100
AcDbEntity
  8
_1
100
AcDbLine
 62
7
  6
BYLAYER
 10
101.4587145737
 20
34.9354797079
 11
102.5193703295
 21
35.5478459387
  0
LINE
  5
458
100
AcDbEntity
  8
_1
100
AcDbLine
 62
7
  6
BYLAYER
 10
207.4285544893
 20
90.4595302013
 11
201.7717237916
 21
87.1935769703
  0
LINE
  5
459
100
AcDbEntity
  8
_1
100
AcDbLine
 62
7
  6
BYLAYER
 10
201.0646199544
 20
85.1522997634
 11
206.014335039
 21
88.0100020418
  0
LINE
  5
45A
100
AcDbEntity
  8
_1
100
AcDbLine
 62
7
  6
BYLAYER
 10
201.7717237916
 20
83.9275673018
 11
207.4285544893
 21
87.1935205327
  0
LINE
  5
45B
100
AcDbEntity
  8
_1
100
AcDbLine
 62
7
  6
BYLAYER
 10
201.4719640406
 20
80.4884922934
 11
247.6627628268
 21
107.1566032195
  0
LINE
  5
45C
100
AcDbEntity
  8
_1
100
AcDbLine
 62
7
  6
BYLAYER
 10
146.3343213401
 20
326.5912660756
 11
145.8343406699
 21
326.5417569778
  0
LINE
  5
45D
100
AcDbEntity
  8
_1
100
AcDbLine
 62
7
  6
BYLAYER
 10
151.9911520378
 20
333.1232289751
 11
152.491132708
 21
333.1727380729
  0
LINE
  5
45E
100
AcDbEntity
  8
_1
100
AcDbLine
 62
7
  6
BYLAYER
 10
159.0621904099
 20
333.9396608453
 11
158.5622097397
 21
333.8901517475
  0
LINE
  5
45F
100
AcDbEntity
  8
_1
100
AcDbLine
 62
7
  6
BYLAYER
 10
151.9911429845
 20
333.1232132939
 11
152.698255875
 21
332.7149707118
  0
LINE
  5
460
100
AcDbEntity
  8
_1
100
AcDbLine
 62
7
  6
BYLAYER
 10
207.428545436
 20
301.1171381395
 11
208.1356583265
 21
300.7088955574
  0
LINE
  5
461
100
AcDbEntity
  8
_1
100
AcDbLine
 62
7
  6
BYLAYER
 10
214.4995928615
 20
301.9335856909
 11
213.7924799709
 21
302.3418282729
  0
LINE
  5
462
100
AcDbEntity
  8
_1
100
AcDbLine
 62
7
  6
BYLAYER
 10
159.0621904099
 20
333.9396608453
 11
158.3550775194
 21
334.3479034273
  0
LINE
  5
463
100
AcDbEntity
  8
_1
100
AcDbLine
 62
7
  6
BYLAYER
 10
163.3048016574
 20
338.0220955853
 11
164.7190211077
 21
337.2056140763
  0
LINE
  5
464
100
AcDbEntity
  8
_1
100
AcDbLine
 62
7
  6
BYLAYER
 10
218.7422041089
 20
306.0160204309
 11
220.1564235592
 21
305.1995389219
  0
LINE
  5
465
100
AcDbEntity
  8
_1
100
AcDbLine
 62
7
  6
BYLAYER
 10
220.8635273964
 20
306.4242854929
 11
219.4493079461
 21
307.2407670019
  0
LINE
  5
466
100
AcDbEntity
  8
_1
100
AcDbLine
 62
7
  6
BYLAYER
 10
165.4261249449
 20
338.4303606473
 11
164.0119054946
 21
339.2468421563
  0
LINE
  5
467
100
AcDbEntity
  8
_1
100
AcDbLine
 62
7
  6
BYLAYER
 10
226.7274812611
 20
309.2324713628
 11
226.5203580941
 21
309.6902387238
  0
LINE
  5
468
100
AcDbEntity
  8
_1
100
AcDbLine
 62
7
  6
BYLAYER
 10
233.3842732992
 20
315.8634524579
 11
233.5913964662
 21
315.4056850968
  0
LINE
  5
469
100
AcDbEntity
  8
_1
100
AcDbLine
 62
7
  6
BYLAYER
 10
249.2891151946
 20
106.2176494841
 11
252.4710824621
 21
108.0547481765
  0
LINE
  5
46A
100
AcDbEntity
  8
_1
100
AcDbLine
 62
7
  6
BYLAYER
 10
164.7190211077
 20
340.4716237448
 11
165.2190017779
 21
340.5211328426
  0
LINE
  5
46B
100
AcDbEntity
  8
_1
100
AcDbLine
 62
7
  6
BYLAYER
 10
171.7900594798
 20
341.288055615
 11
171.2900788096
 21
341.2385465172
  0
LINE
  5
46C
100
AcDbEntity
  8
_1
100
AcDbLine
 62
7
  6
BYLAYER
 10
177.4468901775
 20
347.8200185145
 11
177.9468708477
 21
347.8695276123
  0
LINE
  5
46D
100
AcDbEntity
  8
_1
100
AcDbLine
 62
7
  6
BYLAYER
 10
164.7190120543
 20
340.4716080636
 11
165.4261249449
 21
340.0633654815
  0
LINE
  5
46E
100
AcDbEntity
  8
_1
100
AcDbLine
 62
7
  6
BYLAYER
 10
220.1564145058
 20
308.4655329092
 11
220.8635273964
 21
308.0572903271
  0
LINE
  5
46F
100
AcDbEntity
  8
_1
100
AcDbLine
 62
7
  6
BYLAYER
 10
227.2274619313
 20
309.2819804606
 11
226.5203490408
 21
309.6902230426
  0
LINE
  5
470
100
AcDbEntity
  8
_1
100
AcDbLine
 62
7
  6
BYLAYER
 10
171.7900594798
 20
341.288055615
 11
171.0829465892
 21
341.696298197
  0
LINE
  5
471
100
AcDbEntity
  8
_1
100
AcDbLine
 62
7
  6
BYLAYER
 10
176.0326707272
 20
345.370490355
 11
177.4468901775
 21
344.5540088459
  0
LINE
  5
472
100
AcDbEntity
  8
_1
100
AcDbLine
 62
7
  6
BYLAYER
 10
231.4700731787
 20
313.3644152006
 11
232.884292629
 21
312.5479336916
  0
LINE
  5
473
100
AcDbEntity
  8
_1
100
AcDbLine
 62
7
  6
BYLAYER
 10
233.5913964662
 20
313.7726802626
 11
232.1771770159
 21
314.5891617716
  0
LINE
  5
474
100
AcDbEntity
  8
_1
100
AcDbLine
 62
7
  6
BYLAYER
 10
178.1539940147
 20
345.7787554169
 11
176.7397745644
 21
346.595236926
  0
LINE
  5
475
100
AcDbEntity
  8
_1
100
AcDbLine
 62
7
  6
BYLAYER
 10
177.4468811242
 20
347.8200028332
 11
178.1539940147
 21
347.4117602512
  0
LINE
  5
476
100
AcDbEntity
  8
_1
100
AcDbLine
 62
7
  6
BYLAYER
 10
232.8842835757
 20
315.8139276788
 11
233.5913964662
 21
315.4056850968
  0
LINE
  5
477
100
AcDbEntity
  8
_1
100
AcDbLine
 62
7
  6
BYLAYER
 10
200.5339255527
 20
334.8989201938
 11
203.3623644532
 21
333.2659571757
  0
LINE
  5
478
100
AcDbEntity
  8
_1
100
AcDbLine
 62
7
  6
BYLAYER
 10
228.8890255311
 20
318.5284659375
 11
228.9948476051
 21
318.4673709167
  0
LINE
  5
479
100
AcDbEntity
  8
_1
100
AcDbLine
 62
7
  6
BYLAYER
 10
228.8890255311
 20
320.8962623138
 11
205.4129655812
 21
334.4498652219
  0
LINE
  5
47A
100
AcDbEntity
  8
_1
100
AcDbLine
 62
7
  6
BYLAYER
 10
200.5339255527
 20
337.2667165701
 11
191.1647046195
 21
342.6759164255
  0
LINE
  5
47B
100
AcDbEntity
  8
_1
100
AcDbLine
 62
7
  6
BYLAYER
 10
247.6627628268
 20
311.2822075019
 11
249.2891151946
 21
310.3432537665
  0
LINE
  5
47C
100
AcDbEntity
  8
_1
100
AcDbLine
 62
7
  6
BYLAYER
 10
200.5339255527
 20
348.779461285
 11
203.3623644532
 21
347.1464982669
  0
LINE
  5
47D
100
AcDbEntity
  8
_1
100
AcDbLine
 62
7
  6
BYLAYER
 10
228.8890255311
 20
332.4090070287
 11
231.7174644316
 21
330.7760440106
  0
LINE
  5
47E
100
AcDbEntity
  8
_1
100
AcDbLine
 62
7
  6
BYLAYER
 10
201.3824501573
 20
349.2693542696
 11
203.6007518563
 21
347.9886461601
  0
LINE
  5
47F
100
AcDbEntity
  8
_1
100
AcDbLine
 62
7
  6
BYLAYER
 10
230.3476873374
 20
332.5466451048
 11
232.5659890363
 21
331.2659369953
  0
LINE
  5
480
100
AcDbEntity
  8
_1
100
AcDbLine
 62
7
  6
BYLAYER
 10
204.8028283795
 20
348.6826612217
 11
205.4129655812
 21
348.3304063131
  0
LINE
  5
481
100
AcDbEntity
  8
_1
100
AcDbLine
 62
7
  6
BYLAYER
 10
230.939626659
 20
333.5929150749
 11
231.5497638606
 21
333.2406601664
  0
LINE
  5
482
100
AcDbEntity
  8
_1
100
AcDbLine
 62
7
  6
BYLAYER
 10
245.1878876207
 20
327.8163711227
 11
191.1647046195
 21
359.0059647681
  0
LINE
  5
483
100
AcDbEntity
  8
_1
100
AcDbLine
 62
7
  6
BYLAYER
 10
190.811140925
 20
360.4348125079
 11
189.1847885571
 21
361.3737662433
  0
LINE
  5
484
100
AcDbEntity
  8
_1
100
AcDbLine
 62
7
  6
BYLAYER
 10
247.6627628268
 20
327.6122558445
 11
249.2891151946
 21
326.6733021091
  0
LINE
  5
485
100
AcDbEntity
  8
_1
100
AcDbLine
 62
7
  6
BYLAYER
 10
192.3667558246
 20
363.2108649358
 11
252.4710824621
 21
328.5104008015
  0
ARC
  5
486
100
AcDbEntity
  8
_1
100
AcDbCircle
 62
7
  6
BYLAYER
 10
98.5231248095
 20
170.3329340184
 40
18.8227369106
100
AcDbArc
 50
120.0602021225
 51
120.8026215766
  0
ARC
  5
487
100
AcDbEntity
  8
_1
100
AcDbCircle
 62
7
  6
BYLAYER
 10
100.8327720665
 20
50.2877536532
 40
9.1568872383
100
AcDbArc
 50
358.4322670863
 51
0.0054438992
  0
ARC
  5
488
100
AcDbEntity
  8
_1
100
AcDbCircle
 62
7
  6
BYLAYER
 10
105.8653621435
 20
48.441968036
 40
3.3919720472
100
AcDbArc
 50
303.5265691756
 51
311.0169308286
  0
ARC
  5
489
100
AcDbEntity
  8
_1
100
AcDbCircle
 62
7
  6
BYLAYER
 10
106.246790013
 20
48.6064908971
 40
3.3435741229
100
AcDbArc
 50
296.4933666353
 51
299.9985318005
  0
ARC
  5
48A
100
AcDbEntity
  8
_1
100
AcDbCircle
 62
7
  6
BYLAYER
 10
105.8931046867
 20
48.4022914392
 40
3.3435738124
100
AcDbArc
 50
300.0011746132
 51
303.5057884278
  0
ARC
  5
48B
100
AcDbEntity
  8
_1
100
AcDbCircle
 62
7
  6
BYLAYER
 10
77.1139362201
 20
127.1959823506
 40
2.4100790359
100
AcDbArc
 50
286.5198526448
 51
292.4778187813
  0
ARC
  5
48C
100
AcDbEntity
  8
_1
100
AcDbCircle
 62
7
  6
BYLAYER
 10
40.2059287438
 20
170.3800558283
 40
0.4593683216
100
AcDbArc
 50
278.7343305485
 51
285.0003763579
  0
ARC
  5
48D
100
AcDbEntity
  8
_1
100
AcDbCircle
 62
7
  6
BYLAYER
 10
103.4203229228
 20
181.5454142785
 40
0.2645711801
100
AcDbArc
 50
28.6611947302
 51
38.5518078881
  0
ARC
  5
48E
100
AcDbEntity
  8
_1
100
AcDbCircle
 62
7
  6
BYLAYER
 10
102.8524216525
 20
145.1261181277
 40
0.2548156428
100
AcDbArc
 50
269.9638248963
 51
278.5350635294
  0
ARC
  5
48F
100
AcDbEntity
  8
_1
100
AcDbCircle
 62
7
  6
BYLAYER
 10
102.8524216525
 20
185.9512389842
 40
0.2548156428
100
AcDbArc
 50
269.9638248963
 51
278.5350635294
  0
ARC
  5
490
100
AcDbEntity
  8
_1
100
AcDbCircle
 62
7
  6
BYLAYER
 10
98.6675092092
 20
145.1203425964
 40
0.2059248722
100
AcDbArc
 50
251.5805512242
 51
255.0473599211
  0
ARC
  5
491
100
AcDbEntity
  8
_1
100
AcDbCircle
 62
7
  6
BYLAYER
 10
98.6675092092
 20
185.9454634529
 40
0.2059248722
100
AcDbArc
 50
251.5805512242
 51
255.0473599214
  0
ARC
  5
492
100
AcDbEntity
  8
_1
100
AcDbCircle
 62
7
  6
BYLAYER
 10
93.4446409789
 20
148.0210575469
 40
0.15
100
AcDbArc
 50
180.8462644002
 51
240.0005612631
  0
ARC
  5
493
100
AcDbEntity
  8
_1
100
AcDbCircle
 62
7
  6
BYLAYER
 10
93.4446409789
 20
184.1963529437
 40
0.15
100
AcDbArc
 50
120.8225633599
 51
179.1263315892
  0
ARC
  5
494
100
AcDbEntity
  8
_1
100
AcDbCircle
 62
7
  6
BYLAYER
 10
89.4821066758
 20
187.0655849633
 40
0.15
100
AcDbArc
 50
0.8585530814
 51
60.0005612631
  0
ARC
  5
495
100
AcDbEntity
  8
_1
100
AcDbCircle
 62
7
  6
BYLAYER
 10
83.8955419936
 20
189.7094030915
 40
0.15
100
AcDbArc
 50
121.7182252079
 51
180.0
  0
ARC
  5
496
100
AcDbEntity
  8
_1
100
AcDbCircle
 62
7
  6
BYLAYER
 10
84.3818748273
 20
190.0101385793
 40
0.15
100
AcDbArc
 50
59.9910745172
 51
121.7315611708
  0
ARC
  5
497
100
AcDbEntity
  8
_1
100
AcDbCircle
 62
7
  6
BYLAYER
 10
83.8955419936
 20
153.5341076947
 40
0.15
100
AcDbArc
 50
180.0
 51
240.023656126
  0
ARC
  5
498
100
AcDbEntity
  8
_1
100
AcDbCircle
 62
7
  6
BYLAYER
 10
88.9872847989
 20
150.5944551192
 40
0.15
100
AcDbArc
 50
240.0005612632
 51
299.1625803043
  0
ARC
  5
499
100
AcDbEntity
  8
_1
100
AcDbCircle
 62
7
  6
BYLAYER
 10
103.5771284492
 20
145.3476854832
 40
0.15
100
AcDbArc
 50
298.2681431637
 51
0.010385039
  0
ARC
  5
49A
100
AcDbEntity
  8
_1
100
AcDbCircle
 62
7
  6
BYLAYER
 10
103.5771284492
 20
181.6358455066
 40
0.15
100
AcDbArc
 50
0.0
 51
90.5225249286
  0
ARC
  5
49B
100
AcDbEntity
  8
_1
100
AcDbCircle
 62
7
  6
BYLAYER
 10
93.9397644741
 20
184.4920132555
 40
0.15
100
AcDbArc
 50
60.0005612632
 51
120.8433082938
  0
ARC
  5
49C
100
AcDbEntity
  8
_1
100
AcDbCircle
 62
7
  6
BYLAYER
 10
93.4446409789
 20
188.8461784034
 40
0.15
100
AcDbArc
 50
180.8462644003
 51
240.0005612631
  0
ARC
  5
49D
100
AcDbEntity
  8
_1
100
AcDbCircle
 62
7
  6
BYLAYER
 10
83.8955419936
 20
194.3592285512
 40
0.15
100
AcDbArc
 50
180.0
 51
240.023656126
  0
ARC
  5
49E
100
AcDbEntity
  8
_1
100
AcDbCircle
 62
7
  6
BYLAYER
 10
88.9872847989
 20
191.4195759757
 40
0.15
100
AcDbArc
 50
240.0005612631
 51
299.1625803043
  0
ARC
  5
49F
100
AcDbEntity
  8
_1
100
AcDbCircle
 62
7
  6
BYLAYER
 10
103.5771284492
 20
186.1728063397
 40
0.15
100
AcDbArc
 50
298.2681431635
 51
360.0
  0
ARC
  5
4A0
100
AcDbEntity
  8
_1
100
AcDbCircle
 62
7
  6
BYLAYER
 10
98.5231248091
 20
211.1580548756
 40
18.8227369098
100
AcDbArc
 50
120.0602021225
 51
120.8026215766
  0
ARC
  5
4A1
100
AcDbEntity
  8
_1
100
AcDbCircle
 62
7
  6
BYLAYER
 10
70.6656315403
 20
227.6140255498
 40
13.5495288256
100
AcDbArc
 50
12.4696577091
 51
12.8669832934
  0
ARC
  5
4A2
100
AcDbEntity
  8
_1
100
AcDbCircle
 62
7
  6
BYLAYER
 10
97.9339267771
 20
225.3824672863
 40
9.9566761186
100
AcDbArc
 50
56.818810763
 51
59.9581481122
  0
ARC
  5
4A3
100
AcDbEntity
  8
_1
100
AcDbCircle
 62
7
  6
BYLAYER
 10
97.6054569044
 20
225.2154040516
 40
9.9120393805
100
AcDbArc
 50
55.848276484
 51
59.9764123023
  0
ARC
  5
4A4
100
AcDbEntity
  8
_1
100
AcDbCircle
 62
7
  6
BYLAYER
 10
52.3774340766
 20
252.6077194699
 40
9.156639941
100
AcDbArc
 50
59.9951168028
 51
61.5683735297
  0
ARC
  5
4A5
100
AcDbEntity
  8
_1
100
AcDbCircle
 62
7
  6
BYLAYER
 10
53.2951326113
 20
257.8887566933
 40
3.3919561693
100
AcDbArc
 50
108.9844550256
 51
116.4726018801
  0
ARC
  5
4A6
100
AcDbEntity
  8
_1
100
AcDbCircle
 62
7
  6
BYLAYER
 10
53.274649958
 20
257.932606128
 40
3.3435741229
100
AcDbArc
 50
116.4933666353
 51
119.9985318005
  0
ARC
  5
4A7
100
AcDbEntity
  8
_1
100
AcDbCircle
 62
7
  6
BYLAYER
 10
53.6283352842
 20
258.136805586
 40
3.3435738123
100
AcDbArc
 50
120.0011746132
 51
123.5057884278
  0
ARC
  5
4A8
100
AcDbEntity
  8
_1
100
AcDbCircle
 62
7
  6
BYLAYER
 10
40.1487693297
 20
213.5687245031
 40
2.3820312583
100
AcDbArc
 50
107.2868449347
 51
119.9157479694
  0
ARC
  5
4A9
100
AcDbEntity
  8
_1
100
AcDbCircle
 62
7
  6
BYLAYER
 10
37.1505283684
 20
222.7340921041
 40
1.7618682227
100
AcDbArc
 50
15.3191638514
 51
17.6846853083
  0
ARC
  5
4AA
100
AcDbEntity
  8
_1
100
AcDbCircle
 62
7
  6
BYLAYER
 10
103.4203229228
 20
222.370535135
 40
0.26457118
100
AcDbArc
 50
28.6611947301
 51
38.5518078883
  0
ARC
  5
4AB
100
AcDbEntity
  8
_1
100
AcDbCircle
 62
7
  6
BYLAYER
 10
93.4446409789
 20
225.0214738001
 40
0.15
100
AcDbArc
 50
120.8225633599
 51
179.1263315892
  0
ARC
  5
4AC
100
AcDbEntity
  8
_1
100
AcDbCircle
 62
7
  6
BYLAYER
 10
89.4821066758
 20
227.8907058198
 40
0.15
100
AcDbArc
 50
0.8585530814
 51
60.0005612631
  0
ARC
  5
4AD
100
AcDbEntity
  8
_1
100
AcDbCircle
 62
7
  6
BYLAYER
 10
83.8955419936
 20
230.5345239479
 40
0.15
100
AcDbArc
 50
121.7182252079
 51
180.0
  0
ARC
  5
4AE
100
AcDbEntity
  8
_1
100
AcDbCircle
 62
7
  6
BYLAYER
 10
84.3818748273
 20
230.8352594358
 40
0.15
100
AcDbArc
 50
59.9910745172
 51
121.7315611708
  0
ARC
  5
4AF
100
AcDbEntity
  8
_1
100
AcDbCircle
 62
7
  6
BYLAYER
 10
103.5771284492
 20
222.4609663631
 40
0.15
100
AcDbArc
 50
0.0
 51
90.5225249286
  0
ARC
  5
4B0
100
AcDbEntity
  8
_1
100
AcDbCircle
 62
7
  6
BYLAYER
 10
93.9397644741
 20
225.317134112
 40
0.15
100
AcDbArc
 50
60.0005612632
 51
120.8433082938
  0
ARC
  5
4B1
100
AcDbEntity
  8
_1
100
AcDbCircle
 62
7
  6
BYLAYER
 10
192.7690142621
 20
342.2339063913
 40
9.2327297025
100
AcDbArc
 50
31.768790563
 51
38.7624528832
  0
ARC
  5
4B2
100
AcDbEntity
  8
_1
100
AcDbCircle
 62
7
  6
BYLAYER
 10
133.053640919
 20
307.5535262355
 40
0.2599224458
100
AcDbArc
 50
119.9802089278
 51
122.4764182937
  0
SPLINE
  5
4B3
100
AcDbEntity
  8
_1
100
AcDbSpline
 62
7
  6
BYLAYER
 70
0
 71
3
 72
9
 73
5
 74
0
 42
0.0000001
 43
0.0000001
 44
0.0000000001
 40
0.0
 40
0.0
 40
0.0
 40
0.0
 40
0.2359220441
 40
1.0
 40
1.0
 40
1.0
 40
1.0
 10
93.3385754033
 20
184.1351163206
 30
0.0
 10
93.3385754033
 20
184.138727198
 30
0.0
 10
93.3391768606
 20
184.1540310158
 30
0.0
 10
93.3419302984
 20
184.1692129975
 30
0.0
 10
93.3449266828
 20
184.1805171188
 30
0.0
  0
SPLINE
  5
4B4
100
AcDbEntity
  8
_1
100
AcDbSpline
 62
7
  6
BYLAYER
 70
0
 71
3
 72
9
 73
5
 74
0
 42
0.0000001
 43
0.0000001
 44
0.0000000001
 40
0.0
 40
0.0
 40
0.0
 40
0.0
 40
0.2436211959
 40
1.0
 40
1.0
 40
1.0
 40
1.0
 10
93.3449266828
 20
184.1805171188
 30
0.0
 10
93.3462353485
 20
184.185454174
 30
0.0
 10
93.3523414828
 20
184.2055204329
 30
0.0
 10
93.3611301881
 20
184.224747137
 30
0.0
 10
93.3689896594
 20
184.238520011
 30
0.0
  0
SPLINE
  5
4B5
100
AcDbEntity
  8
_1
100
AcDbSpline
 62
7
  6
BYLAYER
 70
0
 71
3
 72
9
 73
5
 74
0
 42
0.0000001
 43
0.0000001
 44
0.0000000001
 40
0.0
 40
0.0
 40
0.0
 40
0.0
 40
0.2551471735
 40
1.0
 40
1.0
 40
1.0
 40
1.0
 10
93.3689896594
 20
184.238520011
 30
0.0
 10
93.3717821104
 20
184.2434134795
 30
0.0
 10
93.3833512478
 20
184.2622235025
 30
0.0
 10
93.3973297867
 20
184.2795968095
 30
0.0
 10
93.4090324335
 20
184.2911544912
 30
0.0
  0
SPLINE
  5
4B6
100
AcDbEntity
  8
_1
100
AcDbSpline
 62
7
  6
BYLAYER
 70
0
 71
3
 72
9
 73
5
 74
0
 42
0.0000001
 43
0.0000001
 44
0.0000000001
 40
0.0
 40
0.0
 40
0.0
 40
0.0
 40
0.2624858699
 40
1.0
 40
1.0
 40
1.0
 40
1.0
 10
93.4090324335
 20
184.2911544912
 30
0.0
 10
93.4117108706
 20
184.2937997495
 30
0.0
 10
93.4221779273
 20
184.3036011846
 30
0.0
 10
93.4337100086
 20
184.3123156814
 30
0.0
 10
93.4427898793
 20
184.3177409262
 30
0.0
  0
SPLINE
  5
4B7
100
AcDbEntity
  8
_1
100
AcDbSpline
 62
7
  6
BYLAYER
 70
0
 71
3
 72
9
 73
5
 74
0
 42
0.0000001
 43
0.0000001
 44
0.0000000001
 40
0.0
 40
0.0
 40
0.0
 40
0.0
 40
0.254847545
 40
1.0
 40
1.0
 40
1.0
 40
1.0
 10
98.6774429824
 20
181.0886607027
 30
0.0
 10
98.6771759167
 20
181.1063279616
 30
0.0
 10
98.6762963039
 20
181.1756549104
 30
0.0
 10
98.6756050208
 20
181.2449865318
 30
0.0
 10
98.6755912584
 20
181.2966499876
 30
0.0
  0
SPLINE
  5
4B8
100
AcDbEntity
  8
_1
100
AcDbSpline
 62
7
  6
BYLAYER
 70
0
 71
3
 72
9
 73
5
 74
0
 42
0.0000001
 43
0.0000001
 44
0.0000000001
 40
0.0
 40
0.0
 40
0.0
 40
0.0
 40
0.2291140225
 40
1.0
 40
1.0
 40
1.0
 40
1.0
 10
98.5713767823
 20
181.114025382
 30
0.0
 10
98.5786360474
 20
181.1098343382
 30
0.0
 10
98.6119282805
 20
181.0943686339
 30
0.0
 10
98.6492398048
 20
181.0886606349
 30
0.0
 10
98.6774429824
 20
181.0886607027
 30
0.0
  0
SPLINE
  5
4B9
100
AcDbEntity
  8
_1
100
AcDbSpline
 62
7
  6
BYLAYER
 70
0
 71
3
 72
9
 73
5
 74
0
 42
0.0000001
 43
0.0000001
 44
0.0000000001
 40
0.0
 40
0.0
 40
0.0
 40
0.0
 40
0.5011255058
 40
1.0
 40
1.0
 40
1.0
 40
1.0
 10
98.6755912584
 20
181.2966499876
 30
0.0
 10
98.6446102103
 20
181.2781387363
 30
0.0
 10
98.5957533679
 20
181.2211006996
 30
0.0
 10
98.5713767823
 20
181.1499533194
 30
0.0
 10
98.5713767823
 20
181.114025382
 30
0.0
  0
SPLINE
  5
4BA
100
AcDbEntity
  8
_1
100
AcDbSpline
 62
7
  6
BYLAYER
 70
0
 71
3
 72
9
 73
5
 74
0
 42
0.0000001
 43
0.0000001
 44
0.0000000001
 40
0.0
 40
0.0
 40
0.0
 40
0.0
 40
0.2443151864
 40
1.0
 40
1.0
 40
1.0
 40
1.0
 10
88.9891066237
 20
150.6264404476
 30
0.0
 10
88.978257679
 20
150.632705774
 30
0.0
 10
88.936311504
 20
150.6625552119
 30
0.0
 10
88.9035428748
 20
150.7040073086
 30
0.0
 10
88.8843369191
 20
150.7376632976
 30
0.0
  0
SPLINE
  5
4BB
100
AcDbEntity
  8
_1
100
AcDbSpline
 62
7
  6
BYLAYER
 70
0
 71
3
 72
13
 73
9
 74
0
 42
0.0000001
 43
0.0000001
 44
0.0000000001
 40
0.0
 40
0.0
 40
0.0
 40
0.0
 40
0.0207165327
 40
0.0763645798
 40
0.1639485812
 40
0.2809410149
 40
0.5937162687
 40
1.0
 40
1.0
 40
1.0
 40
1.0
 10
93.2928125203
 20
148.1417565529
 30
0.0
 10
93.2928134901
 20
148.1421019098
 30
0.0
 10
93.2944207494
 20
148.1426030767
 30
0.0
 10
93.2962203601
 20
148.1442804947
 30
0.0
 10
93.3001654153
 20
148.1464700821
 30
0.0
 10
93.3073694183
 20
148.1510394296
 30
0.0
 10
93.3193984474
 20
148.158212358
 30
0.0
 10
93.3296439957
 20
148.1643908043
 30
0.0
 10
93.3354577075
 20
148.1678656488
 30
0.0
  0
SPLINE
  5
4BC
100
AcDbEntity
  8
_1
100
AcDbSpline
 62
7
  6
BYLAYER
 70
0
 71
3
 72
9
 73
5
 74
0
 42
0.0000001
 43
0.0000001
 44
0.0000000001
 40
0.0
 40
0.0
 40
0.0
 40
0.0
 40
0.2445918917
 40
1.0
 40
1.0
 40
1.0
 40
1.0
 10
93.2928342585
 20
184.0792909614
 30
0.0
 10
93.2926422313
 20
184.0665996259
 30
0.0
 10
93.2968508557
 20
184.0146647616
 30
0.0
 10
93.3160284488
 20
183.9647188181
 30
0.0
 10
93.3354577075
 20
183.9306715191
 30
0.0
  0
SPLINE
  5
4BD
100
AcDbEntity
  8
_1
100
AcDbSpline
 62
7
  6
BYLAYER
 70
0
 71
3
 72
14
 73
10
 74
0
 42
0.0000001
 43
0.0000001
 44
0.0000000001
 40
0.0
 40
0.0
 40
0.0
 40
0.0
 40
0.0169064719
 40
0.0671961091
 40
0.1502312859
 40
0.2647606797
 40
0.4094988612
 40
0.582476357
 40
1.0
 40
1.0
 40
1.0
 40
1.0
 10
98.6759311766
 20
144.8499787107
 30
0.0
 10
98.6762885369
 20
144.84997771
 30
0.0
 10
98.6757409302
 20
144.8522450793
 30
0.0
 10
98.6765036219
 20
144.8546026346
 30
0.0
 10
98.6763175946
 20
144.8602980391
 30
0.0
 10
98.6766547534
 20
144.8673321272
 30
0.0
 10
98.6767954802
 20
144.8765419318
 30
0.0
 10
98.677119206
 20
144.8920454303
 30
0.0
 10
98.6773095887
 20
144.9045408813
 30
0.0
 10
98.6774429824
 20
144.913365306
 30
0.0
  0
SPLINE
  5
4BE
100
AcDbEntity
  8
_1
100
AcDbSpline
 62
7
  6
BYLAYER
 70
0
 71
3
 72
13
 73
9
 74
0
 42
0.0000001
 43
0.0000001
 44
0.0000000001
 40
0.0
 40
0.0
 40
0.0
 40
0.0
 40
0.0162771657
 40
0.0647173917
 40
0.1450198921
 40
0.2566496724
 40
0.5713638791
 40
1.0
 40
1.0
 40
1.0
 40
1.0
 10
103.5756165418
 20
181.7858338987
 30
0.0
 10
103.5754614657
 20
181.7858408431
 30
0.0
 10
103.5756527561
 20
181.7848468947
 30
0.0
 10
103.5753615237
 20
181.7838282753
 30
0.0
 10
103.5754399637
 20
181.7813321457
 30
0.0
 10
103.5752923554
 20
181.776623573
 30
0.0
 10
103.5753054307
 20
181.7683781329
 30
0.0
 10
103.5752762607
 20
181.7613212908
 30
0.0
 10
103.5752773496
 20
181.7572334891
 30
0.0
  0
SPLINE
  5
4BF
100
AcDbEntity
  8
_1
100
AcDbSpline
 62
7
  6
BYLAYER
 70
0
 71
3
 72
9
 73
5
 74
0
 42
0.0000001
 43
0.0000001
 44
0.0000000001
 40
0.0
 40
0.0
 40
0.0
 40
0.0
 40
0.5522160321
 40
1.0
 40
1.0
 40
1.0
 40
1.0
 10
103.681327654
 20
181.5735499935
 30
0.0
 10
103.6942087749
 20
181.5807317508
 30
0.0
 10
103.7163527617
 20
181.5971428796
 30
0.0
 10
103.7271492893
 20
181.6238866589
 30
0.0
 10
103.7271266564
 20
181.6358455055
 30
0.0
  0
SPLINE
  5
4C0
100
AcDbEntity
  8
_1
100
AcDbSpline
 62
7
  6
BYLAYER
 70
0
 71
3
 72
9
 73
5
 74
0
 42
0.0000001
 43
0.0000001
 44
0.0000000001
 40
0.0
 40
0.0
 40
0.0
 40
0.0
 40
0.2315671867
 40
1.0
 40
1.0
 40
1.0
 40
1.0
 10
103.5752773496
 20
181.7572334891
 30
0.0
 10
103.5799291826
 20
181.7544507544
 30
0.0
 10
103.5993268824
 20
181.741285825
 30
0.0
 10
103.6160019994
 20
181.7243545078
 30
0.0
 10
103.6272294775
 20
181.7103008666
 30
0.0
  0
SPLINE
  5
4C1
100
AcDbEntity
  8
_1
100
AcDbSpline
 62
7
  6
BYLAYER
 70
0
 71
3
 72
9
 73
5
 74
0
 42
0.0000001
 43
0.0000001
 44
0.0000000001
 40
0.0
 40
0.0
 40
0.0
 40
0.0
 40
0.2554414047
 40
1.0
 40
1.0
 40
1.0
 40
1.0
 10
103.6524765158
 20
181.6723103721
 30
0.0
 10
103.6549061027
 20
181.6678749032
 30
0.0
 10
103.6639203672
 20
181.6502471417
 30
0.0
 10
103.6709813853
 20
181.6315905444
 30
0.0
 10
103.6747961642
 20
181.6173517295
 30
0.0
  0
SPLINE
  5
4C2
100
AcDbEntity
  8
_1
100
AcDbSpline
 62
7
  6
BYLAYER
 70
0
 71
3
 72
9
 73
5
 74
0
 42
0.0000001
 43
0.0000001
 44
0.0000000001
 40
0.0
 40
0.0
 40
0.0
 40
0.0
 40
0.2636555929
 40
1.0
 40
1.0
 40
1.0
 40
1.0
 10
103.6747961642
 20
181.6173517295
 30
0.0
 10
103.6758047347
 20
181.6135871995
 30
0.0
 10
103.6792442059
 20
181.5992140728
 30
0.0
 10
103.6811588727
 20
181.584433152
 30
0.0
 10
103.681327654
 20
181.5735499935
 30
0.0
  0
SPLINE
  5
4C3
100
AcDbEntity
  8
_1
100
AcDbSpline
 62
7
  6
BYLAYER
 70
0
 71
3
 72
9
 73
5
 74
0
 42
0.0000001
 43
0.0000001
 44
0.0000000001
 40
0.0
 40
0.0
 40
0.0
 40
0.0
 40
0.2046314557
 40
1.0
 40
1.0
 40
1.0
 40
1.0
 10
102.8504090444
 20
181.3387328279
 30
0.0
 10
102.8504128237
 20
181.3245451623
 30
0.0
 10
102.8507242862
 20
181.2552128233
 30
0.0
 10
102.8514272669
 20
181.18588235
 30
0.0
 10
102.8522607684
 20
181.1307435431
 30
0.0
  0
SPLINE
  5
4C4
100
AcDbEntity
  8
_1
100
AcDbSpline
 62
7
  6
BYLAYER
 70
0
 71
3
 72
9
 73
5
 74
0
 42
0.0000001
 43
0.0000001
 44
0.0000000001
 40
0.0
 40
0.0
 40
0.0
 40
0.0
 40
0.4999997576
 40
1.0
 40
1.0
 40
1.0
 40
1.0
 10
102.9564593487
 20
181.1550493323
 30
0.0
 10
102.9559014918
 20
181.1913233363
 30
0.0
 10
102.9305187947
 20
181.2625297117
 30
0.0
 10
102.8815421262
 20
181.3201089632
 30
0.0
 10
102.8504090444
 20
181.3387328279
 30
0.0
  0
SPLINE
  5
4C5
100
AcDbEntity
  8
_1
100
AcDbSpline
 62
7
  6
BYLAYER
 70
0
 71
3
 72
9
 73
5
 74
0
 42
0.0000001
 43
0.0000001
 44
0.0000000001
 40
0.0
 40
0.0
 40
0.0
 40
0.0
 40
0.2663785888
 40
1.0
 40
1.0
 40
1.0
 40
1.0
 10
102.8522607684
 20
181.1307435431
 30
0.0
 10
102.8618132695
 20
181.130743566
 30
0.0
 10
102.8975703022
 20
181.1327302486
 30
0.0
 10
102.9334813032
 20
181.1422381456
 30
0.0
 10
102.9564593487
 20
181.1550493323
 30
0.0
  0
SPLINE
  5
4C6
100
AcDbEntity
  8
_1
100
AcDbSpline
 62
7
  6
BYLAYER
 70
0
 71
3
 72
9
 73
5
 74
0
 42
0.0000001
 43
0.0000001
 44
0.0000000001
 40
0.0
 40
0.0
 40
0.0
 40
0.0
 40
0.2548993649
 40
1.0
 40
1.0
 40
1.0
 40
1.0
 10
98.6774429824
 20
144.913365306
 30
0.0
 10
98.6720328642
 20
144.913365293
 30
0.0
 10
98.6508175571
 20
144.9140353691
 30
0.0
 10
98.6296534493
 20
144.9173031421
 30
0.0
 10
98.6143763634
 20
144.9213904572
 30
0.0
  0
SPLINE
  5
4C7
100
AcDbEntity
  8
_1
100
AcDbSpline
 62
7
  6
BYLAYER
 70
0
 71
3
 72
9
 73
5
 74
0
 42
0.0000001
 43
0.0000001
 44
0.0000000001
 40
0.0
 40
0.0
 40
0.0
 40
0.0
 40
0.2605912122
 40
1.0
 40
1.0
 40
1.0
 40
1.0
 10
98.6024428987
 20
144.9249675002
 30
0.0
 10
98.5996405124
 20
144.9259022306
 30
0.0
 10
98.5889709963
 20
144.9297313222
 30
0.0
 10
98.5786360474
 20
144.9345389414
 30
0.0
 10
98.5713767823
 20
144.9387299852
 30
0.0
  0
SPLINE
  5
4C8
100
AcDbEntity
  8
_1
100
AcDbSpline
 62
7
  6
BYLAYER
 70
0
 71
3
 72
14
 73
10
 74
0
 42
0.0000001
 43
0.0000001
 44
0.0000000001
 40
0.0
 40
0.0
 40
0.0
 40
0.0
 40
0.417523643
 40
0.5905011388
 40
0.7352393203
 40
0.8497687141
 40
0.9328038909
 40
0.9830935281
 40
1.0
 40
1.0
 40
1.0
 40
1.0
 10
102.8522607684
 20
144.8713025357
 30
0.0
 10
102.8521273747
 20
144.862478111
 30
0.0
 10
102.851936992
 20
144.8499826601
 30
0.0
 10
102.8516132662
 20
144.8344791616
 30
0.0
 10
102.8514725393
 20
144.8252693569
 30
0.0
 10
102.8511353806
 20
144.8182352688
 30
0.0
 10
102.8513214079
 20
144.8125398644
 30
0.0
 10
102.8505587161
 20
144.810182309
 30
0.0
 10
102.8511063228
 20
144.8079149397
 30
0.0
 10
102.8507489626
 20
144.8079159404
 30
0.0
  0
SPLINE
  5
4C9
100
AcDbEntity
  8
_1
100
AcDbSpline
 62
7
  6
BYLAYER
 70
0
 71
3
 72
9
 73
5
 74
0
 42
0.0000001
 43
0.0000001
 44
0.0000000001
 40
0.0
 40
0.0
 40
0.0
 40
0.0
 40
0.2330707554
 40
1.0
 40
1.0
 40
1.0
 40
1.0
 10
102.9564593487
 20
144.8956083249
 30
0.0
 10
102.9517209191
 20
144.8929664735
 30
0.0
 10
102.9307539096
 20
144.8827813685
 30
0.0
 10
102.907891718
 20
144.8767888487
 30
0.0
 10
102.8902400233
 20
144.8741245114
 30
0.0
  0
SPLINE
  5
4CA
100
AcDbEntity
  8
_1
100
AcDbSpline
 62
7
  6
BYLAYER
 70
0
 71
3
 72
9
 73
5
 74
0
 42
0.0000001
 43
0.0000001
 44
0.0000000001
 40
0.0
 40
0.0
 40
0.0
 40
0.0
 40
0.2362806677
 40
1.0
 40
1.0
 40
1.0
 40
1.0
 10
89.0933351033
 20
150.5310908428
 30
0.0
 10
89.090281567
 20
150.5293278933
 30
0.0
 10
89.0770681061
 20
150.5223721478
 30
0.0
 10
89.0629093706
 20
150.5172890073
 30
0.0
 10
89.051910142
 20
150.514305601
 30
0.0
  0
SPLINE
  5
4CB
100
AcDbEntity
  8
_1
100
AcDbSpline
 62
7
  6
BYLAYER
 70
0
 71
3
 72
9
 73
5
 74
0
 42
0.0000001
 43
0.0000001
 44
0.0000000001
 40
0.0
 40
0.0
 40
0.0
 40
0.0
 40
0.2432680767
 40
1.0
 40
1.0
 40
1.0
 40
1.0
 10
89.051910142
 20
150.514305601
 30
0.0
 10
89.0468043785
 20
150.512920725
 30
0.0
 10
89.0256011291
 20
150.5080387787
 30
0.0
 10
89.0037294955
 20
150.5061839194
 30
0.0
 10
88.9872740005
 20
150.5063489782
 30
0.0
  0
SPLINE
  5
4CC
100
AcDbEntity
  8
_1
100
AcDbSpline
 62
7
  6
BYLAYER
 70
0
 71
3
 72
9
 73
5
 74
0
 42
0.0000001
 43
0.0000001
 44
0.0000000001
 40
0.0
 40
0.0
 40
0.0
 40
0.0
 40
0.2550476526
 40
1.0
 40
1.0
 40
1.0
 40
1.0
 10
88.9872740005
 20
150.5063489782
 30
0.0
 10
88.9816466996
 20
150.5064054235
 30
0.0
 10
88.9596014797
 20
150.5073632052
 30
0.0
 10
88.9376410219
 20
150.5111691664
 30
0.0
 10
88.9218772373
 20
150.5158260187
 30
0.0
  0
SPLINE
  5
4CD
100
AcDbEntity
  8
_1
100
AcDbSpline
 62
7
  6
BYLAYER
 70
0
 71
3
 72
9
 73
5
 74
0
 42
0.0000001
 43
0.0000001
 44
0.0000000001
 40
0.0
 40
0.0
 40
0.0
 40
0.0
 40
0.2626405033
 40
1.0
 40
1.0
 40
1.0
 40
1.0
 10
88.9218772373
 20
150.5158260187
 30
0.0
 10
88.9181591643
 20
150.5169243917
 30
0.0
 10
88.9041264247
 20
150.521497263
 30
0.0
 10
88.8905628319
 20
150.5276357588
 30
0.0
 10
88.8812192234
 20
150.5332184961
 30
0.0
  0
SPLINE
  5
4CE
100
AcDbEntity
  8
_1
100
AcDbSpline
 62
7
  6
BYLAYER
 70
0
 71
3
 72
9
 73
5
 74
0
 42
0.0000001
 43
0.0000001
 44
0.0000000001
 40
0.0
 40
0.0
 40
0.0
 40
0.0
 40
0.2364079103
 40
1.0
 40
1.0
 40
1.0
 40
1.0
 10
83.789476418
 20
189.6481664684
 30
0.0
 10
83.789476418
 20
189.6516010921
 30
0.0
 10
83.7900194954
 20
189.6661281231
 30
0.0
 10
83.792517047
 20
189.6805502065
 30
0.0
 10
83.7952411561
 20
189.6913043049
 30
0.0
  0
SPLINE
  5
4CF
100
AcDbEntity
  8
_1
100
AcDbSpline
 62
7
  6
BYLAYER
 70
0
 71
3
 72
9
 73
5
 74
0
 42
0.0000001
 43
0.0000001
 44
0.0000000001
 40
0.0
 40
0.0
 40
0.0
 40
0.0
 40
0.2431254879
 40
1.0
 40
1.0
 40
1.0
 40
1.0
 10
83.7952411561
 20
189.6913043049
 30
0.0
 10
83.7965391197
 20
189.6964283392
 30
0.0
 10
83.8026770225
 20
189.717296882
 30
0.0
 10
83.8117348854
 20
189.7372780204
 30
0.0
 10
83.8198906742
 20
189.7515701588
 30
0.0
  0
SPLINE
  5
4D0
100
AcDbEntity
  8
_1
100
AcDbSpline
 62
7
  6
BYLAYER
 70
0
 71
3
 72
9
 73
5
 74
0
 42
0.0000001
 43
0.0000001
 44
0.0000000001
 40
0.0
 40
0.0
 40
0.0
 40
0.0
 40
0.2547551842
 40
1.0
 40
1.0
 40
1.0
 40
1.0
 10
83.8198906742
 20
189.7515701588
 30
0.0
 10
83.8225793246
 20
189.7562817281
 30
0.0
 10
83.8337137879
 20
189.7744340502
 30
0.0
 10
83.8470863208
 20
189.7912512805
 30
0.0
 10
83.8582531189
 20
189.8025266194
 30
0.0
  0
SPLINE
  5
4D1
100
AcDbEntity
  8
_1
100
AcDbSpline
 62
7
  6
BYLAYER
 70
0
 71
3
 72
9
 73
5
 74
0
 42
0.0000001
 43
0.0000001
 44
0.0000000001
 40
0.0
 40
0.0
 40
0.0
 40
0.0
 40
0.2628900105
 40
1.0
 40
1.0
 40
1.0
 40
1.0
 10
83.8582531189
 20
189.8025266194
 30
0.0
 10
83.8610521829
 20
189.8053528902
 30
0.0
 10
83.8719924888
 20
189.8158017631
 30
0.0
 10
83.8841166327
 20
189.8250704296
 30
0.0
 10
83.8936908941
 20
189.830791074
 30
0.0
  0
SPLINE
  5
4D2
100
AcDbEntity
  8
_1
100
AcDbSpline
 62
7
  6
BYLAYER
 70
0
 71
3
 72
9
 73
5
 74
0
 42
0.0000001
 43
0.0000001
 44
0.0000000001
 40
0.0
 40
0.0
 40
0.0
 40
0.0
 40
0.5000011079
 40
1.0
 40
1.0
 40
1.0
 40
1.0
 10
89.0933351033
 20
186.7106612192
 30
0.0
 10
89.0922477354
 20
186.7466220856
 30
0.0
 10
89.0662388043
 20
186.816955281
 30
0.0
 10
89.0165958212
 20
186.8731585937
 30
0.0
 10
88.9854336994
 20
186.8911384985
 30
0.0
  0
SPLINE
  5
4D3
100
AcDbEntity
  8
_1
100
AcDbSpline
 62
7
  6
BYLAYER
 70
0
 71
3
 72
9
 73
5
 74
0
 42
0.0000001
 43
0.0000001
 44
0.0000000001
 40
0.0
 40
0.0
 40
0.0
 40
0.0
 40
0.4988588655
 40
1.0
 40
1.0
 40
1.0
 40
1.0
 10
88.8812192234
 20
186.7085138929
 30
0.0
 10
88.9128717676
 20
186.6908776721
 30
0.0
 10
88.9875461768
 20
186.6776685407
 30
0.0
 10
89.0618117258
 20
186.6924612973
 30
0.0
 10
89.0933351033
 20
186.7106612192
 30
0.0
  0
SPLINE
  5
4D4
100
AcDbEntity
  8
_1
100
AcDbSpline
 62
7
  6
BYLAYER
 70
0
 71
3
 72
9
 73
5
 74
0
 42
0.0000001
 43
0.0000001
 44
0.0000000001
 40
0.0
 40
0.0
 40
0.0
 40
0.0
 40
0.5011255058
 40
1.0
 40
1.0
 40
1.0
 40
1.0
 10
88.9854336994
 20
186.8911384985
 30
0.0
 10
88.9544526514
 20
186.8726272472
 30
0.0
 10
88.9055958089
 20
186.8155892105
 30
0.0
 10
88.8812192234
 20
186.7444418303
 30
0.0
 10
88.8812192234
 20
186.7085138929
 30
0.0
  0
SPLINE
  5
4D5
100
AcDbEntity
  8
_1
100
AcDbSpline
 62
7
  6
BYLAYER
 70
0
 71
3
 72
9
 73
5
 74
0
 42
0.0000001
 43
0.0000001
 44
0.0000000001
 40
0.0
 40
0.0
 40
0.0
 40
0.0
 40
0.2360948092
 40
1.0
 40
1.0
 40
1.0
 40
1.0
 10
89.4802555763
 20
187.1869729459
 30
0.0
 10
89.4832860575
 20
187.1852244204
 30
0.0
 10
89.4958437037
 20
187.1773389383
 30
0.0
 10
89.5073155435
 20
187.1677856686
 30
0.0
 10
89.5154387432
 20
187.1599010916
 30
0.0
  0
SPLINE
  5
4D6
100
AcDbEntity
  8
_1
100
AcDbSpline
 62
7
  6
BYLAYER
 70
0
 71
3
 72
9
 73
5
 74
0
 42
0.0000001
 43
0.0000001
 44
0.0000000001
 40
0.0
 40
0.0
 40
0.0
 40
0.0
 40
0.2434028331
 40
1.0
 40
1.0
 40
1.0
 40
1.0
 10
89.5154387432
 20
187.1599010916
 30
0.0
 10
89.5191916282
 20
187.1562584493
 30
0.0
 10
89.5340586754
 20
187.1407311376
 30
0.0
 10
89.5468097824
 20
187.1232108356
 30
0.0
 10
89.5551520674
 20
187.1092574262
 30
0.0
  0
SPLINE
  5
4D7
100
AcDbEntity
  8
_1
100
AcDbSpline
 62
7
  6
BYLAYER
 70
0
 71
3
 72
9
 73
5
 74
0
 42
0.0000001
 43
0.0000001
 44
0.0000000001
 40
0.0
 40
0.0
 40
0.0
 40
0.0
 40
0.2556011989
 40
1.0
 40
1.0
 40
1.0
 40
1.0
 10
89.5551520674
 20
187.1092574262
 30
0.0
 10
89.5580729624
 20
187.104371901
 30
0.0
 10
89.568871275
 20
187.0848949
 30
0.0
 10
89.5772338979
 20
187.0640202734
 30
0.0
 10
89.5815983992
 20
187.0480277831
 30
0.0
  0
SPLINE
  5
4D8
100
AcDbEntity
  8
_1
100
AcDbSpline
 62
7
  6
BYLAYER
 70
0
 71
3
 72
9
 73
5
 74
0
 42
0.0000001
 43
0.0000001
 44
0.0000000001
 40
0.0
 40
0.0
 40
0.0
 40
0.0
 40
0.2627854962
 40
1.0
 40
1.0
 40
1.0
 40
1.0
 10
89.5815983992
 20
187.0480277831
 30
0.0
 10
89.5825692896
 20
187.0444702279
 30
0.0
 10
89.585910259
 20
187.0308428427
 30
0.0
 10
89.5878443066
 20
187.016836243
 30
0.0
 10
89.5881569801
 20
187.0064956665
 30
0.0
  0
SPLINE
  5
4D9
100
AcDbEntity
  8
_1
100
AcDbSpline
 62
7
  6
BYLAYER
 70
0
 71
3
 72
9
 73
5
 74
0
 42
0.0000001
 43
0.0000001
 44
0.0000000001
 40
0.0
 40
0.0
 40
0.0
 40
0.0
 40
0.2359220441
 40
1.0
 40
1.0
 40
1.0
 40
1.0
 10
93.3385754033
 20
224.9602371771
 30
0.0
 10
93.3385754033
 20
224.9638480545
 30
0.0
 10
93.3391768606
 20
224.9791518723
 30
0.0
 10
93.3419302984
 20
224.994333854
 30
0.0
 10
93.3449266828
 20
225.0056379753
 30
0.0
  0
SPLINE
  5
4DA
100
AcDbEntity
  8
_1
100
AcDbSpline
 62
7
  6
BYLAYER
 70
0
 71
3
 72
9
 73
5
 74
0
 42
0.0000001
 43
0.0000001
 44
0.0000000001
 40
0.0
 40
0.0
 40
0.0
 40
0.0
 40
0.2436211959
 40
1.0
 40
1.0
 40
1.0
 40
1.0
 10
93.3449266828
 20
225.0056379753
 30
0.0
 10
93.3462353485
 20
225.0105750305
 30
0.0
 10
93.3523414828
 20
225.0306412894
 30
0.0
 10
93.3611301881
 20
225.0498679935
 30
0.0
 10
93.3689896594
 20
225.0636408675
 30
0.0
  0
SPLINE
  5
4DB
100
AcDbEntity
  8
_1
100
AcDbSpline
 62
7
  6
BYLAYER
 70
0
 71
3
 72
9
 73
5
 74
0
 42
0.0000001
 43
0.0000001
 44
0.0000000001
 40
0.0
 40
0.0
 40
0.0
 40
0.0
 40
0.2551471735
 40
1.0
 40
1.0
 40
1.0
 40
1.0
 10
93.3689896594
 20
225.0636408675
 30
0.0
 10
93.3717821104
 20
225.068534336
 30
0.0
 10
93.3833512478
 20
225.087344359
 30
0.0
 10
93.3973297867
 20
225.104717666
 30
0.0
 10
93.4090324335
 20
225.1162753477
 30
0.0
  0
SPLINE
  5
4DC
100
AcDbEntity
  8
_1
100
AcDbSpline
 62
7
  6
BYLAYER
 70
0
 71
3
 72
9
 73
5
 74
0
 42
0.0000001
 43
0.0000001
 44
0.0000000001
 40
0.0
 40
0.0
 40
0.0
 40
0.0
 40
0.2624858699
 40
1.0
 40
1.0
 40
1.0
 40
1.0
 10
93.4090324335
 20
225.1162753477
 30
0.0
 10
93.4117108706
 20
225.118920606
 30
0.0
 10
93.4221779273
 20
225.1287220411
 30
0.0
 10
93.4337100086
 20
225.1374365379
 30
0.0
 10
93.4427898793
 20
225.1428617827
 30
0.0
  0
SPLINE
  5
4DD
100
AcDbEntity
  8
_1
100
AcDbSpline
 62
7
  6
BYLAYER
 70
0
 71
3
 72
9
 73
5
 74
0
 42
0.0000001
 43
0.0000001
 44
0.0000000001
 40
0.0
 40
0.0
 40
0.0
 40
0.0
 40
0.254847545
 40
1.0
 40
1.0
 40
1.0
 40
1.0
 10
98.6774429824
 20
221.9137815592
 30
0.0
 10
98.6771759167
 20
221.9314488181
 30
0.0
 10
98.6762963039
 20
222.0007757669
 30
0.0
 10
98.6756050208
 20
222.0701073883
 30
0.0
 10
98.6755912584
 20
222.1217708441
 30
0.0
  0
SPLINE
  5
4DE
100
AcDbEntity
  8
_1
100
AcDbSpline
 62
7
  6
BYLAYER
 70
0
 71
3
 72
9
 73
5
 74
0
 42
0.0000001
 43
0.0000001
 44
0.0000000001
 40
0.0
 40
0.0
 40
0.0
 40
0.0
 40
0.2291140225
 40
1.0
 40
1.0
 40
1.0
 40
1.0
 10
98.5713767823
 20
221.9391462385
 30
0.0
 10
98.5786360474
 20
221.9349551946
 30
0.0
 10
98.6119282805
 20
221.9194894904
 30
0.0
 10
98.6492398048
 20
221.9137814914
 30
0.0
 10
98.6774429824
 20
221.9137815592
 30
0.0
  0
SPLINE
  5
4DF
100
AcDbEntity
  8
_1
100
AcDbSpline
 62
7
  6
BYLAYER
 70
0
 71
3
 72
9
 73
5
 74
0
 42
0.0000001
 43
0.0000001
 44
0.0000000001
 40
0.0
 40
0.0
 40
0.0
 40
0.0
 40
0.5011255058
 40
1.0
 40
1.0
 40
1.0
 40
1.0
 10
98.6755912584
 20
222.1217708441
 30
0.0
 10
98.6446102103
 20
222.1032595928
 30
0.0
 10
98.5957533679
 20
222.0462215561
 30
0.0
 10
98.5713767823
 20
221.9750741759
 30
0.0
 10
98.5713767823
 20
221.9391462385
 30
0.0
  0
SPLINE
  5
4E0
100
AcDbEntity
  8
_1
100
AcDbSpline
 62
7
  6
BYLAYER
 70
0
 71
3
 72
9
 73
5
 74
0
 42
0.0000001
 43
0.0000001
 44
0.0000000001
 40
0.0
 40
0.0
 40
0.0
 40
0.0
 40
0.2443151864
 40
1.0
 40
1.0
 40
1.0
 40
1.0
 10
88.9891066237
 20
191.4515613041
 30
0.0
 10
88.978257679
 20
191.4578266305
 30
0.0
 10
88.936311504
 20
191.4876760684
 30
0.0
 10
88.9035428748
 20
191.5291281651
 30
0.0
 10
88.8843369191
 20
191.5627841541
 30
0.0
  0
SPLINE
  5
4E1
100
AcDbEntity
  8
_1
100
AcDbSpline
 62
7
  6
BYLAYER
 70
0
 71
3
 72
13
 73
9
 74
0
 42
0.0000001
 43
0.0000001
 44
0.0000000001
 40
0.0
 40
0.0
 40
0.0
 40
0.0
 40
0.0207165327
 40
0.0763645798
 40
0.1639485812
 40
0.2809410149
 40
0.5937162687
 40
1.0
 40
1.0
 40
1.0
 40
1.0
 10
93.2928125203
 20
188.9668774093
 30
0.0
 10
93.2928134901
 20
188.9672227663
 30
0.0
 10
93.2944207494
 20
188.9677239331
 30
0.0
 10
93.2962203601
 20
188.9694013512
 30
0.0
 10
93.3001654153
 20
188.9715909386
 30
0.0
 10
93.3073694183
 20
188.9761602861
 30
0.0
 10
93.3193984474
 20
188.9833332145
 30
0.0
 10
93.3296439957
 20
188.9895116608
 30
0.0
 10
93.3354577075
 20
188.9929865053
 30
0.0
  0
SPLINE
  5
4E2
100
AcDbEntity
  8
_1
100
AcDbSpline
 62
7
  6
BYLAYER
 70
0
 71
3
 72
9
 73
5
 74
0
 42
0.0000001
 43
0.0000001
 44
0.0000000001
 40
0.0
 40
0.0
 40
0.0
 40
0.0
 40
0.2445918917
 40
1.0
 40
1.0
 40
1.0
 40
1.0
 10
93.2928342585
 20
224.9044118179
 30
0.0
 10
93.2926422313
 20
224.8917204824
 30
0.0
 10
93.2968508557
 20
224.8397856181
 30
0.0
 10
93.3160284488
 20
224.7898396746
 30
0.0
 10
93.3354577075
 20
224.7557923756
 30
0.0
  0
SPLINE
  5
4E3
100
AcDbEntity
  8
_1
100
AcDbSpline
 62
7
  6
BYLAYER
 70
0
 71
3
 72
14
 73
10
 74
0
 42
0.0000001
 43
0.0000001
 44
0.0000000001
 40
0.0
 40
0.0
 40
0.0
 40
0.0
 40
0.0169064719
 40
0.0671961091
 40
0.1502312859
 40
0.2647606797
 40
0.4094988612
 40
0.582476357
 40
1.0
 40
1.0
 40
1.0
 40
1.0
 10
98.6759311766
 20
185.6750995672
 30
0.0
 10
98.6762885369
 20
185.6750985665
 30
0.0
 10
98.6757409302
 20
185.6773659357
 30
0.0
 10
98.6765036219
 20
185.6797234911
 30
0.0
 10
98.6763175946
 20
185.6854188956
 30
0.0
 10
98.6766547534
 20
185.6924529837
 30
0.0
 10
98.6767954802
 20
185.7016627883
 30
0.0
 10
98.677119206
 20
185.7171662868
 30
0.0
 10
98.6773095887
 20
185.7296617377
 30
0.0
 10
98.6774429824
 20
185.7384861624
 30
0.0
  0
SPLINE
  5
4E4
100
AcDbEntity
  8
_1
100
AcDbSpline
 62
7
  6
BYLAYER
 70
0
 71
3
 72
13
 73
9
 74
0
 42
0.0000001
 43
0.0000001
 44
0.0000000001
 40
0.0
 40
0.0
 40
0.0
 40
0.0
 40
0.0162771657
 40
0.0647173917
 40
0.1450198921
 40
0.2566496724
 40
0.5713638791
 40
1.0
 40
1.0
 40
1.0
 40
1.0
 10
103.5756165418
 20
222.6109547552
 30
0.0
 10
103.5754614657
 20
222.6109616996
 30
0.0
 10
103.5756527561
 20
222.6099677512
 30
0.0
 10
103.5753615237
 20
222.6089491318
 30
0.0
 10
103.5754399637
 20
222.6064530022
 30
0.0
 10
103.5752923554
 20
222.6017444295
 30
0.0
 10
103.5753054307
 20
222.5934989893
 30
0.0
 10
103.5752762607
 20
222.5864421473
 30
0.0
 10
103.5752773496
 20
222.5823543456
 30
0.0
  0
SPLINE
  5
4E5
100
AcDbEntity
  8
_1
100
AcDbSpline
 62
7
  6
BYLAYER
 70
0
 71
3
 72
9
 73
5
 74
0
 42
0.0000001
 43
0.0000001
 44
0.0000000001
 40
0.0
 40
0.0
 40
0.0
 40
0.0
 40
0.5522160321
 40
1.0
 40
1.0
 40
1.0
 40
1.0
 10
103.681327654
 20
222.39867085
 30
0.0
 10
103.6942087749
 20
222.4058526072
 30
0.0
 10
103.7163527617
 20
222.4222637361
 30
0.0
 10
103.7271492893
 20
222.4490075154
 30
0.0
 10
103.7271266564
 20
222.4609663619
 30
0.0
  0
SPLINE
  5
4E6
100
AcDbEntity
  8
_1
100
AcDbSpline
 62
7
  6
BYLAYER
 70
0
 71
3
 72
9
 73
5
 74
0
 42
0.0000001
 43
0.0000001
 44
0.0000000001
 40
0.0
 40
0.0
 40
0.0
 40
0.0
 40
0.2315671867
 40
1.0
 40
1.0
 40
1.0
 40
1.0
 10
103.5752773496
 20
222.5823543456
 30
0.0
 10
103.5799291826
 20
222.5795716109
 30
0.0
 10
103.5993268824
 20
222.5664066815
 30
0.0
 10
103.6160019994
 20
222.5494753643
 30
0.0
 10
103.6272294775
 20
222.5354217231
 30
0.0
  0
SPLINE
  5
4E7
100
AcDbEntity
  8
_1
100
AcDbSpline
 62
7
  6
BYLAYER
 70
0
 71
3
 72
9
 73
5
 74
0
 42
0.0000001
 43
0.0000001
 44
0.0000000001
 40
0.0
 40
0.0
 40
0.0
 40
0.0
 40
0.2554414047
 40
1.0
 40
1.0
 40
1.0
 40
1.0
 10
103.6524765158
 20
222.4974312286
 30
0.0
 10
103.6549061027
 20
222.4929957597
 30
0.0
 10
103.6639203672
 20
222.4753679982
 30
0.0
 10
103.6709813853
 20
222.4567114009
 30
0.0
 10
103.6747961642
 20
222.442472586
 30
0.0
  0
SPLINE
  5
4E8
100
AcDbEntity
  8
_1
100
AcDbSpline
 62
7
  6
BYLAYER
 70
0
 71
3
 72
9
 73
5
 74
0
 42
0.0000001
 43
0.0000001
 44
0.0000000001
 40
0.0
 40
0.0
 40
0.0
 40
0.0
 40
0.2636555929
 40
1.0
 40
1.0
 40
1.0
 40
1.0
 10
103.6747961642
 20
222.442472586
 30
0.0
 10
103.6758047347
 20
222.438708056
 30
0.0
 10
103.6792442059
 20
222.4243349293
 30
0.0
 10
103.6811588727
 20
222.4095540085
 30
0.0
 10
103.681327654
 20
222.39867085
 30
0.0
  0
SPLINE
  5
4E9
100
AcDbEntity
  8
_1
100
AcDbSpline
 62
7
  6
BYLAYER
 70
0
 71
3
 72
9
 73
5
 74
0
 42
0.0000001
 43
0.0000001
 44
0.0000000001
 40
0.0
 40
0.0
 40
0.0
 40
0.0
 40
0.2046314557
 40
1.0
 40
1.0
 40
1.0
 40
1.0
 10
102.8504090444
 20
222.1638536844
 30
0.0
 10
102.8504128237
 20
222.1496660187
 30
0.0
 10
102.8507242862
 20
222.0803336798
 30
0.0
 10
102.8514272669
 20
222.0110032065
 30
0.0
 10
102.8522607684
 20
221.9558643995
 30
0.0
  0
SPLINE
  5
4EA
100
AcDbEntity
  8
_1
100
AcDbSpline
 62
7
  6
BYLAYER
 70
0
 71
3
 72
9
 73
5
 74
0
 42
0.0000001
 43
0.0000001
 44
0.0000000001
 40
0.0
 40
0.0
 40
0.0
 40
0.0
 40
0.4999997576
 40
1.0
 40
1.0
 40
1.0
 40
1.0
 10
102.9564593487
 20
221.9801701888
 30
0.0
 10
102.9559014918
 20
222.0164441928
 30
0.0
 10
102.9305187947
 20
222.0876505682
 30
0.0
 10
102.8815421262
 20
222.1452298197
 30
0.0
 10
102.8504090444
 20
222.1638536844
 30
0.0
  0
SPLINE
  5
4EB
100
AcDbEntity
  8
_1
100
AcDbSpline
 62
7
  6
BYLAYER
 70
0
 71
3
 72
9
 73
5
 74
0
 42
0.0000001
 43
0.0000001
 44
0.0000000001
 40
0.0
 40
0.0
 40
0.0
 40
0.0
 40
0.2663785888
 40
1.0
 40
1.0
 40
1.0
 40
1.0
 10
102.8522607684
 20
221.9558643995
 30
0.0
 10
102.8618132695
 20
221.9558644225
 30
0.0
 10
102.8975703022
 20
221.957851105
 30
0.0
 10
102.9334813032
 20
221.9673590021
 30
0.0
 10
102.9564593487
 20
221.9801701888
 30
0.0
  0
SPLINE
  5
4EC
100
AcDbEntity
  8
_1
100
AcDbSpline
 62
7
  6
BYLAYER
 70
0
 71
3
 72
9
 73
5
 74
0
 42
0.0000001
 43
0.0000001
 44
0.0000000001
 40
0.0
 40
0.0
 40
0.0
 40
0.0
 40
0.2548993649
 40
1.0
 40
1.0
 40
1.0
 40
1.0
 10
98.6774429824
 20
185.7384861624
 30
0.0
 10
98.6720328642
 20
185.7384861494
 30
0.0
 10
98.6508175571
 20
185.7391562256
 30
0.0
 10
98.6296534493
 20
185.7424239986
 30
0.0
 10
98.6143763634
 20
185.7465113137
 30
0.0
  0
SPLINE
  5
4ED
100
AcDbEntity
  8
_1
100
AcDbSpline
 62
7
  6
BYLAYER
 70
0
 71
3
 72
9
 73
5
 74
0
 42
0.0000001
 43
0.0000001
 44
0.0000000001
 40
0.0
 40
0.0
 40
0.0
 40
0.0
 40
0.2605912122
 40
1.0
 40
1.0
 40
1.0
 40
1.0
 10
98.6024428987
 20
185.7500883567
 30
0.0
 10
98.5996405124
 20
185.7510230871
 30
0.0
 10
98.5889709963
 20
185.7548521787
 30
0.0
 10
98.5786360474
 20
185.7596597979
 30
0.0
 10
98.5713767823
 20
185.7638508417
 30
0.0
  0
SPLINE
  5
4EE
100
AcDbEntity
  8
_1
100
AcDbSpline
 62
7
  6
BYLAYER
 70
0
 71
3
 72
14
 73
10
 74
0
 42
0.0000001
 43
0.0000001
 44
0.0000000001
 40
0.0
 40
0.0
 40
0.0
 40
0.0
 40
0.417523643
 40
0.5905011388
 40
0.7352393203
 40
0.8497687141
 40
0.9328038909
 40
0.9830935281
 40
1.0
 40
1.0
 40
1.0
 40
1.0
 10
102.8522607684
 20
185.6964233922
 30
0.0
 10
102.8521273747
 20
185.6875989675
 30
0.0
 10
102.851936992
 20
185.6751035166
 30
0.0
 10
102.8516132662
 20
185.6596000181
 30
0.0
 10
102.8514725393
 20
185.6503902134
 30
0.0
 10
102.8511353806
 20
185.6433561253
 30
0.0
 10
102.8513214079
 20
185.6376607209
 30
0.0
 10
102.8505587161
 20
185.6353031655
 30
0.0
 10
102.8511063228
 20
185.6330357962
 30
0.0
 10
102.8507489626
 20
185.6330367969
 30
0.0
  0
SPLINE
  5
4EF
100
AcDbEntity
  8
_1
100
AcDbSpline
 62
7
  6
BYLAYER
 70
0
 71
3
 72
9
 73
5
 74
0
 42
0.0000001
 43
0.0000001
 44
0.0000000001
 40
0.0
 40
0.0
 40
0.0
 40
0.0
 40
0.2330707554
 40
1.0
 40
1.0
 40
1.0
 40
1.0
 10
102.9564593487
 20
185.7207291814
 30
0.0
 10
102.9517209191
 20
185.7180873299
 30
0.0
 10
102.9307539096
 20
185.707902225
 30
0.0
 10
102.907891718
 20
185.7019097051
 30
0.0
 10
102.8902400233
 20
185.6992453679
 30
0.0
  0
SPLINE
  5
4F0
100
AcDbEntity
  8
_1
100
AcDbSpline
 62
7
  6
BYLAYER
 70
0
 71
3
 72
9
 73
5
 74
0
 42
0.0000001
 43
0.0000001
 44
0.0000000001
 40
0.0
 40
0.0
 40
0.0
 40
0.0
 40
0.2362806677
 40
1.0
 40
1.0
 40
1.0
 40
1.0
 10
89.0933351033
 20
191.3562116992
 30
0.0
 10
89.090281567
 20
191.3544487498
 30
0.0
 10
89.0770681061
 20
191.3474930043
 30
0.0
 10
89.0629093706
 20
191.3424098638
 30
0.0
 10
89.051910142
 20
191.3394264575
 30
0.0
  0
SPLINE
  5
4F1
100
AcDbEntity
  8
_1
100
AcDbSpline
 62
7
  6
BYLAYER
 70
0
 71
3
 72
9
 73
5
 74
0
 42
0.0000001
 43
0.0000001
 44
0.0000000001
 40
0.0
 40
0.0
 40
0.0
 40
0.0
 40
0.2432680767
 40
1.0
 40
1.0
 40
1.0
 40
1.0
 10
89.051910142
 20
191.3394264575
 30
0.0
 10
89.0468043785
 20
191.3380415815
 30
0.0
 10
89.0256011291
 20
191.3331596352
 30
0.0
 10
89.0037294955
 20
191.3313047759
 30
0.0
 10
88.9872740005
 20
191.3314698347
 30
0.0
  0
SPLINE
  5
4F2
100
AcDbEntity
  8
_1
100
AcDbSpline
 62
7
  6
BYLAYER
 70
0
 71
3
 72
9
 73
5
 74
0
 42
0.0000001
 43
0.0000001
 44
0.0000000001
 40
0.0
 40
0.0
 40
0.0
 40
0.0
 40
0.2550476526
 40
1.0
 40
1.0
 40
1.0
 40
1.0
 10
88.9872740005
 20
191.3314698347
 30
0.0
 10
88.9816466996
 20
191.33152628
 30
0.0
 10
88.9596014797
 20
191.3324840616
 30
0.0
 10
88.9376410219
 20
191.3362900229
 30
0.0
 10
88.9218772373
 20
191.3409468751
 30
0.0
  0
SPLINE
  5
4F3
100
AcDbEntity
  8
_1
100
AcDbSpline
 62
7
  6
BYLAYER
 70
0
 71
3
 72
9
 73
5
 74
0
 42
0.0000001
 43
0.0000001
 44
0.0000000001
 40
0.0
 40
0.0
 40
0.0
 40
0.0
 40
0.2626405033
 40
1.0
 40
1.0
 40
1.0
 40
1.0
 10
88.9218772373
 20
191.3409468751
 30
0.0
 10
88.9181591643
 20
191.3420452482
 30
0.0
 10
88.9041264247
 20
191.3466181195
 30
0.0
 10
88.8905628319
 20
191.3527566153
 30
0.0
 10
88.8812192234
 20
191.3583393526
 30
0.0
  0
SPLINE
  5
4F4
100
AcDbEntity
  8
_1
100
AcDbSpline
 62
7
  6
BYLAYER
 70
0
 71
3
 72
9
 73
5
 74
0
 42
0.0000001
 43
0.0000001
 44
0.0000000001
 40
0.0
 40
0.0
 40
0.0
 40
0.0
 40
0.2364079103
 40
1.0
 40
1.0
 40
1.0
 40
1.0
 10
83.789476418
 20
230.4732873249
 30
0.0
 10
83.789476418
 20
230.4767219485
 30
0.0
 10
83.7900194954
 20
230.4912489796
 30
0.0
 10
83.792517047
 20
230.505671063
 30
0.0
 10
83.7952411561
 20
230.5164251614
 30
0.0
  0
SPLINE
  5
4F5
100
AcDbEntity
  8
_1
100
AcDbSpline
 62
7
  6
BYLAYER
 70
0
 71
3
 72
9
 73
5
 74
0
 42
0.0000001
 43
0.0000001
 44
0.0000000001
 40
0.0
 40
0.0
 40
0.0
 40
0.0
 40
0.2431254879
 40
1.0
 40
1.0
 40
1.0
 40
1.0
 10
83.7952411561
 20
230.5164251614
 30
0.0
 10
83.7965391197
 20
230.5215491957
 30
0.0
 10
83.8026770225
 20
230.5424177385
 30
0.0
 10
83.8117348854
 20
230.5623988769
 30
0.0
 10
83.8198906742
 20
230.5766910153
 30
0.0
  0
SPLINE
  5
4F6
100
AcDbEntity
  8
_1
100
AcDbSpline
 62
7
  6
BYLAYER
 70
0
 71
3
 72
9
 73
5
 74
0
 42
0.0000001
 43
0.0000001
 44
0.0000000001
 40
0.0
 40
0.0
 40
0.0
 40
0.0
 40
0.2547551842
 40
1.0
 40
1.0
 40
1.0
 40
1.0
 10
83.8198906742
 20
230.5766910153
 30
0.0
 10
83.8225793246
 20
230.5814025846
 30
0.0
 10
83.8337137879
 20
230.5995549067
 30
0.0
 10
83.8470863208
 20
230.616372137
 30
0.0
 10
83.8582531189
 20
230.6276474759
 30
0.0
  0
SPLINE
  5
4F7
100
AcDbEntity
  8
_1
100
AcDbSpline
 62
7
  6
BYLAYER
 70
0
 71
3
 72
9
 73
5
 74
0
 42
0.0000001
 43
0.0000001
 44
0.0000000001
 40
0.0
 40
0.0
 40
0.0
 40
0.0
 40
0.2628900105
 40
1.0
 40
1.0
 40
1.0
 40
1.0
 10
83.8582531189
 20
230.6276474759
 30
0.0
 10
83.8610521829
 20
230.6304737466
 30
0.0
 10
83.8719924888
 20
230.6409226196
 30
0.0
 10
83.8841166327
 20
230.6501912861
 30
0.0
 10
83.8936908941
 20
230.6559119305
 30
0.0
  0
SPLINE
  5
4F8
100
AcDbEntity
  8
_1
100
AcDbSpline
 62
7
  6
BYLAYER
 70
0
 71
3
 72
9
 73
5
 74
0
 42
0.0000001
 43
0.0000001
 44
0.0000000001
 40
0.0
 40
0.0
 40
0.0
 40
0.0
 40
0.5000011079
 40
1.0
 40
1.0
 40
1.0
 40
1.0
 10
89.0933351033
 20
227.5357820756
 30
0.0
 10
89.0922477354
 20
227.5717429421
 30
0.0
 10
89.0662388043
 20
227.6420761375
 30
0.0
 10
89.0165958212
 20
227.6982794502
 30
0.0
 10
88.9854336994
 20
227.716259355
 30
0.0
  0
SPLINE
  5
4F9
100
AcDbEntity
  8
_1
100
AcDbSpline
 62
7
  6
BYLAYER
 70
0
 71
3
 72
9
 73
5
 74
0
 42
0.0000001
 43
0.0000001
 44
0.0000000001
 40
0.0
 40
0.0
 40
0.0
 40
0.0
 40
0.4988588655
 40
1.0
 40
1.0
 40
1.0
 40
1.0
 10
88.8812192234
 20
227.5336347494
 30
0.0
 10
88.9128717676
 20
227.5159985286
 30
0.0
 10
88.9875461768
 20
227.5027893972
 30
0.0
 10
89.0618117258
 20
227.5175821538
 30
0.0
 10
89.0933351033
 20
227.5357820756
 30
0.0
  0
SPLINE
  5
4FA
100
AcDbEntity
  8
_1
100
AcDbSpline
 62
7
  6
BYLAYER
 70
0
 71
3
 72
9
 73
5
 74
0
 42
0.0000001
 43
0.0000001
 44
0.0000000001
 40
0.0
 40
0.0
 40
0.0
 40
0.0
 40
0.5011255058
 40
1.0
 40
1.0
 40
1.0
 40
1.0
 10
88.9854336994
 20
227.716259355
 30
0.0
 10
88.9544526514
 20
227.6977481037
 30
0.0
 10
88.9055958089
 20
227.640710067
 30
0.0
 10
88.8812192234
 20
227.5695626868
 30
0.0
 10
88.8812192234
 20
227.5336347494
 30
0.0
  0
SPLINE
  5
4FB
100
AcDbEntity
  8
_1
100
AcDbSpline
 62
7
  6
BYLAYER
 70
0
 71
3
 72
9
 73
5
 74
0
 42
0.0000001
 43
0.0000001
 44
0.0000000001
 40
0.0
 40
0.0
 40
0.0
 40
0.0
 40
0.2360948092
 40
1.0
 40
1.0
 40
1.0
 40
1.0
 10
89.4802555763
 20
228.0120938024
 30
0.0
 10
89.4832860575
 20
228.0103452769
 30
0.0
 10
89.4958437037
 20
228.0024597948
 30
0.0
 10
89.5073155435
 20
227.9929065251
 30
0.0
 10
89.5154387432
 20
227.9850219481
 30
0.0
  0
SPLINE
  5
4FC
100
AcDbEntity
  8
_1
100
AcDbSpline
 62
7
  6
BYLAYER
 70
0
 71
3
 72
9
 73
5
 74
0
 42
0.0000001
 43
0.0000001
 44
0.0000000001
 40
0.0
 40
0.0
 40
0.0
 40
0.0
 40
0.2434028331
 40
1.0
 40
1.0
 40
1.0
 40
1.0
 10
89.5154387432
 20
227.9850219481
 30
0.0
 10
89.5191916282
 20
227.9813793058
 30
0.0
 10
89.5340586754
 20
227.9658519941
 30
0.0
 10
89.5468097824
 20
227.9483316921
 30
0.0
 10
89.5551520674
 20
227.9343782827
 30
0.0
  0
SPLINE
  5
4FD
100
AcDbEntity
  8
_1
100
AcDbSpline
 62
7
  6
BYLAYER
 70
0
 71
3
 72
9
 73
5
 74
0
 42
0.0000001
 43
0.0000001
 44
0.0000000001
 40
0.0
 40
0.0
 40
0.0
 40
0.0
 40
0.2556011989
 40
1.0
 40
1.0
 40
1.0
 40
1.0
 10
89.5551520674
 20
227.9343782827
 30
0.0
 10
89.5580729624
 20
227.9294927575
 30
0.0
 10
89.568871275
 20
227.9100157565
 30
0.0
 10
89.5772338979
 20
227.8891411299
 30
0.0
 10
89.5815983992
 20
227.8731486396
 30
0.0
  0
SPLINE
  5
4FE
100
AcDbEntity
  8
_1
100
AcDbSpline
 62
7
  6
BYLAYER
 70
0
 71
3
 72
9
 73
5
 74
0
 42
0.0000001
 43
0.0000001
 44
0.0000000001
 40
0.0
 40
0.0
 40
0.0
 40
0.0
 40
0.2627854962
 40
1.0
 40
1.0
 40
1.0
 40
1.0
 10
89.5815983992
 20
227.8731486396
 30
0.0
 10
89.5825692896
 20
227.8695910844
 30
0.0
 10
89.585910259
 20
227.8559636992
 30
0.0
 10
89.5878443066
 20
227.8419570995
 30
0.0
 10
89.5881569801
 20
227.831616523
 30
0.0
  0
SPLINE
  5
4FF
100
AcDbEntity
  8
_1
100
AcDbSpline
 62
7
  6
BYLAYER
 70
0
 71
3
 72
9
 73
5
 74
0
 42
0.0000001
 43
0.0000001
 44
0.0000000001
 40
0.0
 40
0.0
 40
0.0
 40
0.0
 40
0.2366632348
 40
1.0
 40
1.0
 40
1.0
 40
1.0
 10
40.4101712358
 20
169.9708432218
 30
0.0
 10
40.4038718135
 20
169.9672062704
 30
0.0
 10
40.3766612574
 20
169.9528707848
 30
0.0
 10
40.3474800728
 20
169.9424387551
 30
0.0
 10
40.3248249288
 20
169.9363408836
 30
0.0
  0
SPLINE
  5
500
100
AcDbEntity
  8
_1
100
AcDbSpline
 62
7
  6
BYLAYER
 70
0
 71
3
 72
11
 73
7
 74
0
 42
0.0000001
 43
0.0000001
 44
0.0000000001
 40
0.0
 40
0.0
 40
0.0
 40
0.0
 40
0.2191552709
 40
0.455708412
 40
0.7153664039
 40
1.0
 40
1.0
 40
1.0
 40
1.0
 10
39.4409352735
 20
215.8431571498
 30
0.0
 10
39.6607899189
 20
215.9117467398
 30
0.0
 10
40.1400467931
 20
215.9890721628
 30
0.0
 10
40.8949164411
 20
215.9242708519
 30
0.0
 10
41.6859627783
 20
215.689443101
 30
0.0
 10
42.2017289731
 20
215.4362602111
 30
0.0
 10
42.4607717749
 20
215.2867051631
 30
0.0
  0
SPLINE
  5
501
100
AcDbEntity
  8
_1
100
AcDbSpline
 62
7
  6
BYLAYER
 70
0
 71
3
 72
11
 73
7
 74
0
 42
0.0000001
 43
0.0000001
 44
0.0000000001
 40
0.0
 40
0.0
 40
0.0
 40
0.0
 40
0.289702329
 40
0.5490881649
 40
0.7822156415
 40
1.0
 40
1.0
 40
1.0
 40
1.0
 10
74.2807094065
 20
126.3700623696
 30
0.0
 10
74.522042939
 20
126.2307315418
 30
0.0
 10
75.0021331542
 20
126.0023432144
 30
0.0
 10
75.740041368
 20
125.8241516017
 30
0.0
 10
76.4324151483
 20
125.8416823801
 30
0.0
 10
76.8492611324
 20
125.9929590158
 30
0.0
 10
77.030683373
 20
126.0977026025
 30
0.0
  0
SPLINE
  5
502
100
AcDbEntity
  8
_1
100
AcDbSpline
 62
7
  6
BYLAYER
 70
0
 71
3
 72
9
 73
5
 74
0
 42
0.0000001
 43
0.0000001
 44
0.0000000001
 40
0.0
 40
0.0
 40
0.0
 40
0.0
 40
0.2453628094
 40
1.0
 40
1.0
 40
1.0
 40
1.0
 10
38.9252231492
 20
149.4020213241
 30
0.0
 10
38.9724336847
 20
149.2558052026
 30
0.0
 10
39.1812981604
 20
148.6652938759
 30
0.0
 10
39.4521377431
 20
148.096965093
 30
0.0
 10
39.6863096243
 20
147.6865037096
 30
0.0
  0
SPLINE
  5
503
100
AcDbEntity
  8
_1
100
AcDbSpline
 62
7
  6
BYLAYER
 70
0
 71
3
 72
9
 73
5
 74
0
 42
0.0000001
 43
0.0000001
 44
0.0000000001
 40
0.0
 40
0.0
 40
0.0
 40
0.0
 40
0.5255357624
 40
1.0
 40
1.0
 40
1.0
 40
1.0
 10
39.6863096243
 20
147.6865037096
 30
0.0
 10
40.0404705794
 20
147.0657229616
 30
0.0
 10
40.8461256938
 20
145.9554305322
 30
0.0
 10
41.9019681737
 20
145.063514434
 30
0.0
 10
42.4607717749
 20
144.7408963231
 30
0.0
  0
SPLINE
  5
504
100
AcDbEntity
  8
_1
100
AcDbSpline
 62
7
  6
BYLAYER
 70
0
 71
3
 72
9
 73
5
 74
0
 42
0.0000001
 43
0.0000001
 44
0.0000000001
 40
0.0
 40
0.0
 40
0.0
 40
0.0
 40
0.2634563553
 40
1.0
 40
1.0
 40
1.0
 40
1.0
 10
38.9252231492
 20
222.5959921179
 30
0.0
 10
38.9252231492
 20
222.6494954638
 30
0.0
 10
38.9193618206
 20
222.8524573735
 30
0.0
 10
38.889346954
 20
223.055314703
 30
0.0
 10
38.8497958385
 20
223.1995700295
 30
0.0
  0
SPLINE
  5
505
100
AcDbEntity
  8
_1
100
AcDbSpline
 62
7
  6
BYLAYER
 70
0
 71
3
 72
11
 73
7
 74
0
 42
0.0000001
 43
0.0000001
 44
0.0000000001
 40
0.0
 40
0.0
 40
0.0
 40
0.0
 40
0.2895396729
 40
0.5491163863
 40
0.7822545095
 40
1.0
 40
1.0
 40
1.0
 40
1.0
 10
38.2181310879
 20
223.0042853987
 30
0.0
 10
38.3496889935
 20
223.0802399375
 30
0.0
 10
38.6116184163
 20
223.2046808005
 30
0.0
 10
39.0140456404
 20
223.3020902841
 30
0.0
 10
39.3918352931
 20
223.2926032556
 30
0.0
 10
39.6190844778
 20
223.2098438795
 30
0.0
 10
39.7180217082
 20
223.1527236821
 30
0.0
  0
SPLINE
  5
506
100
AcDbEntity
  8
_1
100
AcDbSpline
 62
7
  6
BYLAYER
 70
0
 71
3
 72
11
 73
7
 74
0
 42
0.0000001
 43
0.0000001
 44
0.0000000001
 40
0.0
 40
0.0
 40
0.0
 40
0.0
 40
0.2187405374
 40
0.4548511282
 40
0.714604759
 40
1.0
 40
1.0
 40
1.0
 40
1.0
 10
52.191689879
 20
261.0962137532
 30
0.0
 10
52.5091811444
 20
261.2055205677
 30
0.0
 10
53.2056894407
 20
261.3353742517
 30
0.0
 10
54.3091669861
 20
261.2568279241
 30
0.0
 10
55.4680371562
 20
260.9212992461
 30
0.0
 10
56.2234701375
 20
260.5521362182
 30
0.0
 10
56.6028779589
 20
260.3330899659
 30
0.0
  0
SPLINE
  5
507
100
AcDbEntity
  8
_1
100
AcDbSpline
 62
7
  6
BYLAYER
 70
0
 71
3
 72
11
 73
7
 74
0
 42
0.0000001
 43
0.0000001
 44
0.0000000001
 40
0.0
 40
0.0
 40
0.0
 40
0.0
 40
0.2178438484
 40
0.4509536437
 40
0.7102754407
 40
1.0
 40
1.0
 40
1.0
 40
1.0
 10
41.9963937125
 20
252.9725212393
 30
0.0
 10
42.2602982938
 20
253.1250131294
 30
0.0
 10
42.8667133675
 20
253.3451190544
 30
0.0
 10
43.8737582731
 20
253.3703492
 30
0.0
 10
44.9470405367
 20
253.111402538
 30
0.0
 10
45.6452618436
 20
252.7791019908
 30
0.0
 10
45.9963204007
 20
252.5764228236
 30
0.0
  0
SPLINE
  5
508
100
AcDbEntity
  8
_1
100
AcDbSpline
 62
7
  6
BYLAYER
 70
0
 71
3
 72
11
 73
7
 74
0
 42
0.0000001
 43
0.0000001
 44
0.0000000001
 40
0.0
 40
0.0
 40
0.0
 40
0.0
 40
0.2895401978
 40
0.5491171512
 40
0.782255066
 40
1.0
 40
1.0
 40
1.0
 40
1.0
 10
56.3201223878
 20
213.0170333427
 30
0.0
 10
56.3201223878
 20
212.8651174732
 30
0.0
 10
56.2969262384
 20
212.5760479178
 30
0.0
 10
56.1800670307
 20
212.1788153912
 30
0.0
 10
55.9829476344
 20
211.8563718298
 30
0.0
 10
55.7976429686
 20
211.7009437909
 30
0.0
 10
55.6987025689
 20
211.6438208886
 30
0.0
  0
SPLINE
  5
509
100
AcDbEntity
  8
_1
100
AcDbSpline
 62
7
  6
BYLAYER
 70
0
 71
3
 72
11
 73
7
 74
0
 42
0.0000001
 43
0.0000001
 44
0.0000000001
 40
0.0
 40
0.0
 40
0.0
 40
0.0
 40
0.2895401978
 40
0.5491171512
 40
0.782255066
 40
1.0
 40
1.0
 40
1.0
 40
1.0
 10
78.87692262
 20
205.1789436223
 30
0.0
 10
78.87692262
 20
205.0270277528
 30
0.0
 10
78.8537264706
 20
204.7379581974
 30
0.0
 10
78.7368672629
 20
204.3407256708
 30
0.0
 10
78.5397478666
 20
204.0182821094
 30
0.0
 10
78.3544432008
 20
203.8628540705
 30
0.0
 10
78.2555028011
 20
203.8057311682
 30
0.0
  0
SPLINE
  5
50A
100
AcDbEntity
  8
_1
100
AcDbSpline
 62
7
  6
BYLAYER
 70
0
 71
3
 72
11
 73
7
 74
0
 42
0.0000001
 43
0.0000001
 44
0.0000000001
 40
0.0
 40
0.0
 40
0.0
 40
0.0
 40
0.2372278993
 40
0.4999989081
 40
0.7627705112
 40
1.0
 40
1.0
 40
1.0
 40
1.0
 10
73.2200448188
 20
236.8591537746
 30
0.0
 10
74.0231221928
 20
236.3955073256
 30
0.0
 10
75.5429411818
 20
235.1164449116
 30
0.0
 10
77.316735964
 20
232.6924238044
 30
0.0
 10
78.5291173918
 20
229.9442616838
 30
0.0
 10
78.87692262
 20
227.9885232462
 30
0.0
 10
78.87692262
 20
227.0612084014
 30
0.0
  0
SPLINE
  5
50B
100
AcDbEntity
  8
_1
100
AcDbSpline
 62
7
  6
BYLAYER
 70
0
 71
3
 72
11
 73
7
 74
0
 42
0.0000001
 43
0.0000001
 44
0.0000000001
 40
0.0
 40
0.0
 40
0.0
 40
0.0
 40
0.289775222
 40
0.5490688033
 40
0.782225076
 40
1.0
 40
1.0
 40
1.0
 40
1.0
 10
91.9584525352
 20
39.8782226742
 30
0.0
 10
92.3973543155
 20
39.6248283458
 30
0.0
 10
93.2701583312
 20
39.2094094661
 30
0.0
 10
94.6118910106
 20
38.8856961668
 30
0.0
 10
95.8706380706
 20
38.9174434331
 30
0.0
 10
96.6285466911
 20
39.1926075844
 30
0.0
 10
96.958393397
 20
39.3830435438
 30
0.0
  0
SPLINE
  5
50C
100
AcDbEntity
  8
_1
100
AcDbSpline
 62
7
  6
BYLAYER
 70
0
 71
3
 72
13
 73
9
 74
0
 42
0.0000001
 43
0.0000001
 44
0.0000000001
 40
0.0
 40
0.0
 40
0.0
 40
0.0
 40
0.114249308
 40
0.237548547
 40
0.5000010844
 40
0.7624530283
 40
0.8857515741
 40
1.0
 40
1.0
 40
1.0
 40
1.0
 10
38.9252231492
 20
78.6613034345
 30
0.0
 10
38.9252231492
 20
78.1023832613
 30
0.0
 10
39.0275930329
 20
76.939094798
 30
0.0
 10
39.5835626609
 20
74.5510330914
 30
0.0
 10
40.8749625719
 20
71.6219991261
 30
0.0
 10
42.7658903563
 20
69.039108007
 30
0.0
 10
44.5560306039
 20
67.3636118548
 30
0.0
 10
45.5122823316
 20
66.6933249055
 30
0.0
 10
45.9963204007
 20
66.413871718
 30
0.0
  0
SPLINE
  5
50D
100
AcDbEntity
  8
_1
100
AcDbSpline
 62
7
  6
BYLAYER
 70
0
 71
3
 72
11
 73
7
 74
0
 42
0.0000001
 43
0.0000001
 44
0.0000000001
 40
0.0
 40
0.0
 40
0.0
 40
0.0
 40
0.2897762172
 40
0.5490701576
 40
0.7822260326
 40
1.0
 40
1.0
 40
1.0
 40
1.0
 10
79.2304774826
 20
128.0031403822
 30
0.0
 10
79.2304774826
 20
127.6483716007
 30
0.0
 10
79.1768352446
 20
126.9738454256
 30
0.0
 10
78.9034694806
 20
126.0471352846
 30
0.0
 10
78.4436543503
 20
125.295150194
 30
0.0
 10
78.0115658624
 20
124.9319915024
 30
0.0
 10
77.7806680098
 20
124.7986833527
 30
0.0
  0
SPLINE
  5
50E
100
AcDbEntity
  8
_1
100
AcDbSpline
 62
7
  6
BYLAYER
 70
0
 71
3
 72
11
 73
7
 74
0
 42
0.0000001
 43
0.0000001
 44
0.0000000001
 40
0.0
 40
0.0
 40
0.0
 40
0.0
 40
0.2372278993
 40
0.4999989081
 40
0.7627705112
 40
1.0
 40
1.0
 40
1.0
 40
1.0
 10
74.2807094065
 20
196.9158712096
 30
0.0
 10
74.9834021088
 20
196.5101805668
 30
0.0
 10
76.3132437241
 20
195.3910009545
 30
0.0
 10
77.8653141586
 20
193.2699824858
 30
0.0
 10
78.9261479079
 20
190.8653406303
 30
0.0
 10
79.2304774826
 20
189.1540694973
 30
0.0
 10
79.2304774826
 20
188.3426690081
 30
0.0
  0
SPLINE
  5
50F
100
AcDbEntity
  8
_1
100
AcDbSpline
 62
7
  6
BYLAYER
 70
0
 71
3
 72
11
 73
7
 74
0
 42
0.0000001
 43
0.0000001
 44
0.0000000001
 40
0.0
 40
0.0
 40
0.0
 40
0.0
 40
0.217745073
 40
0.4508830113
 40
0.7104597664
 40
1.0
 40
1.0
 40
1.0
 40
1.0
 10
56.9415422087
 20
214.676021644
 30
0.0
 10
56.8426017748
 20
214.6188986515
 30
0.0
 10
56.6572969813
 20
214.4634706262
 30
0.0
 10
56.4601777491
 20
214.1410269732
 30
0.0
 10
56.3433183562
 20
213.7437945841
 30
0.0
 10
56.3201223878
 20
213.4547250794
 30
0.0
 10
56.3201223878
 20
213.3028091887
 30
0.0
  0
SPLINE
  5
510
100
AcDbEntity
  8
_1
100
AcDbSpline
 62
7
  6
BYLAYER
 70
0
 71
3
 72
11
 73
7
 74
0
 42
0.0000001
 43
0.0000001
 44
0.0000000001
 40
0.0
 40
0.0
 40
0.0
 40
0.0
 40
0.2177442246
 40
0.4508817658
 40
0.7104588047
 40
1.0
 40
1.0
 40
1.0
 40
1.0
 10
33.1827095056
 20
222.4475961626
 30
0.0
 10
33.0837689294
 20
222.5047182916
 30
0.0
 10
32.8984635969
 20
222.660145298
 30
0.0
 10
32.7013440673
 20
222.9825888005
 30
0.0
 10
32.5844845575
 20
223.3798221526
 30
0.0
 10
32.5612886143
 20
223.6688926589
 30
0.0
 10
32.5612886143
 20
223.8208092359
 30
0.0
  0
SPLINE
  5
511
100
AcDbEntity
  8
_1
100
AcDbSpline
 62
7
  6
BYLAYER
 70
0
 71
3
 72
11
 73
7
 74
0
 42
0.0000001
 43
0.0000001
 44
0.0000000001
 40
0.0
 40
0.0
 40
0.0
 40
0.0
 40
0.2177456295
 40
0.4508837762
 40
0.7104602913
 40
1.0
 40
1.0
 40
1.0
 40
1.0
 10
34.5969289539
 20
221.6311146548
 30
0.0
 10
34.6958662794
 20
221.5739944728
 30
0.0
 10
34.9231155162
 20
221.4912349792
 30
0.0
 10
35.3009051661
 20
221.4817481388
 30
0.0
 10
35.7033323638
 20
221.5791573931
 30
0.0
 10
35.9652616522
 20
221.7035983876
 30
0.0
 10
36.0968195762
 20
221.7795529371
 30
0.0
  0
SPLINE
  5
512
100
AcDbEntity
  8
_1
100
AcDbSpline
 62
7
  6
BYLAYER
 70
0
 71
3
 72
9
 73
5
 74
0
 42
0.0000001
 43
0.0000001
 44
0.0000000001
 40
0.0
 40
0.0
 40
0.0
 40
0.0
 40
0.2478895146
 40
1.0
 40
1.0
 40
1.0
 40
1.0
 10
39.7107871426
 20
214.3343298266
 30
0.0
 10
39.6704280051
 20
214.3110293465
 30
0.0
 10
39.5112114229
 20
214.2108936564
 30
0.0
 10
39.3677237206
 20
214.0861204434
 30
0.0
 10
39.271561076
 20
213.982462461
 30
0.0
  0
SPLINE
  5
513
100
AcDbEntity
  8
_1
100
AcDbSpline
 62
7
  6
BYLAYER
 70
0
 71
3
 72
9
 73
5
 74
0
 42
0.0000001
 43
0.0000001
 44
0.0000000001
 40
0.0
 40
0.0
 40
0.0
 40
0.0
 40
0.2434044291
 40
1.0
 40
1.0
 40
1.0
 40
1.0
 10
39.271561076
 20
213.982462461
 30
0.0
 10
39.2379739639
 20
213.9462574222
 30
0.0
 10
39.105475787
 20
213.7924558064
 30
0.0
 10
38.9954873854
 20
213.6197176854
 30
0.0
 10
38.9252231492
 20
213.4832340816
 30
0.0
  0
SPLINE
  5
514
100
AcDbEntity
  8
_1
100
AcDbSpline
 62
7
  6
BYLAYER
 70
0
 71
3
 72
9
 73
5
 74
0
 42
0.0000001
 43
0.0000001
 44
0.0000000001
 40
0.0
 40
0.0
 40
0.0
 40
0.0
 40
0.4492625641
 40
1.0
 40
1.0
 40
1.0
 40
1.0
 10
40.4980148374
 20
170.0933154077
 30
0.0
 10
40.4980427219
 20
170.0699473118
 30
0.0
 10
40.4776053817
 20
170.0177937344
 30
0.0
 10
40.4349796659
 20
169.9851662901
 30
0.0
 10
40.4101712358
 20
169.9708432218
 30
0.0
  0
SPLINE
  5
515
100
AcDbEntity
  8
_1
100
AcDbSpline
 62
7
  6
BYLAYER
 70
0
 71
3
 72
9
 73
5
 74
0
 42
0.0000001
 43
0.0000001
 44
0.0000000001
 40
0.0
 40
0.0
 40
0.0
 40
0.0
 40
0.2629609474
 40
1.0
 40
1.0
 40
1.0
 40
1.0
 10
72.378464347
 20
162.994219605
 30
0.0
 10
72.3528257659
 20
162.9981857846
 30
0.0
 10
72.2546412816
 20
163.0053623491
 30
0.0
 10
72.1516607091
 20
162.9857484914
 30
0.0
 10
72.0886869224
 20
162.9493907757
 30
0.0
  0
SPLINE
  5
516
100
AcDbEntity
  8
_1
100
AcDbSpline
 62
7
  6
BYLAYER
 70
0
 71
3
 72
9
 73
5
 74
0
 42
0.0000001
 43
0.0000001
 44
0.0000000001
 40
0.0
 40
0.0
 40
0.0
 40
0.0
 40
0.2798211364
 40
1.0
 40
1.0
 40
1.0
 40
1.0
 10
72.0886869224
 20
162.9493907757
 30
0.0
 10
72.0797457493
 20
162.9442286178
 30
0.0
 10
72.0489178905
 20
162.9241769844
 30
0.0
 10
72.0222278362
 20
162.8958486679
 30
0.0
 10
72.0110417688
 20
162.8717459855
 30
0.0
  0
SPLINE
  5
517
100
AcDbEntity
  8
_1
100
AcDbSpline
 62
7
  6
BYLAYER
 70
0
 71
3
 72
10
 73
6
 74
0
 42
0.0000001
 43
0.0000001
 44
0.0000000001
 40
0.0
 40
0.0
 40
0.0
 40
0.0
 40
0.2333536939
 40
0.4908880304
 40
1.0
 40
1.0
 40
1.0
 40
1.0
 10
34.849761768
 20
249.3457183509
 30
0.0
 10
34.6023093954
 20
249.2028525097
 30
0.0
 10
34.1138408044
 20
248.8442950507
 30
0.0
 10
33.257183655
 20
247.9704528018
 30
0.0
 10
32.777160385
 20
247.1108207327
 30
0.0
 10
32.6458292678
 20
246.5014229246
 30
0.0
  0
SPLINE
  5
518
100
AcDbEntity
  8
_1
100
AcDbSpline
 62
7
  6
BYLAYER
 70
0
 71
3
 72
10
 73
6
 74
0
 42
0.0000001
 43
0.0000001
 44
0.0000000001
 40
0.0
 40
0.0
 40
0.0
 40
0.0
 40
0.2504057341
 40
0.5267220281
 40
1.0
 40
1.0
 40
1.0
 40
1.0
 10
36.9710732797
 20
250.5704508125
 30
0.0
 10
37.2791114772
 20
250.7482956871
 30
0.0
 10
37.875459982
 20
251.2110336166
 30
0.0
 10
38.8521829171
 20
252.245468964
 30
0.0
 10
39.4831891985
 20
253.1065671066
 30
0.0
 10
39.8689137129
 20
253.657172999
 30
0.0
  0
SPLINE
  5
519
100
AcDbEntity
  8
_1
100
AcDbSpline
 62
7
  6
BYLAYER
 70
0
 71
3
 72
11
 73
7
 74
0
 42
0.0000001
 43
0.0000001
 44
0.0000000001
 40
0.0
 40
0.0
 40
0.0
 40
0.0
 40
0.2853953964
 40
0.5451493444
 40
0.7812600351
 40
1.0
 40
1.0
 40
1.0
 40
1.0
 10
109.6361073449
 20
50.0845016084
 30
0.0
 10
109.6361073449
 20
49.6463975973
 30
0.0
 10
109.5781040393
 20
48.8075833749
 30
0.0
 10
109.2892594636
 20
47.6361930509
 30
0.0
 10
108.8055584494
 20
46.6412631151
 30
0.0
 10
108.344856768
 20
46.1029814673
 30
0.0
 10
108.091452397
 20
45.8826719311
 30
0.0
  0
SPLINE
  5
51A
100
AcDbEntity
  8
_1
100
AcDbSpline
 62
7
  6
BYLAYER
 70
0
 71
3
 72
11
 73
7
 74
0
 42
0.0000001
 43
0.0000001
 44
0.0000000001
 40
0.0
 40
0.0
 40
0.0
 40
0.0
 40
0.2423732802
 40
0.5051644834
 40
0.7651738676
 40
1.0
 40
1.0
 40
1.0
 40
1.0
 10
103.1699399571
 20
233.418150728
 30
0.0
 10
104.1034657641
 20
232.7864819444
 30
0.0
 10
105.8491571488
 20
231.1690404583
 30
0.0
 10
107.8787950194
 20
228.2170626063
 30
0.0
 10
109.2489130496
 20
224.9451702777
 30
0.0
 10
109.6361073449
 20
222.6420651767
 30
0.0
 10
109.6361073449
 20
221.5500092056
 30
0.0
  0
SPLINE
  5
51B
100
AcDbEntity
  8
_1
100
AcDbSpline
 62
7
  6
BYLAYER
 70
0
 71
3
 72
11
 73
7
 74
0
 42
0.0000001
 43
0.0000001
 44
0.0000000001
 40
0.0
 40
0.0
 40
0.0
 40
0.0
 40
0.2895391946
 40
0.5491157945
 40
0.7822541179
 40
1.0
 40
1.0
 40
1.0
 40
1.0
 10
47.9056079215
 20
56.6569674447
 30
0.0
 10
47.9933144371
 20
56.6063312098
 30
0.0
 10
48.1679365535
 20
56.523371092
 30
0.0
 10
48.4362249246
 20
56.4584329573
 30
0.0
 10
48.688087747
 20
56.464759867
 30
0.0
 10
48.8395887212
 20
56.519934682
 30
0.0
 10
48.9055474912
 20
56.5580157998
 30
0.0
  0
SPLINE
  5
51C
100
AcDbEntity
  8
_1
100
AcDbSpline
 62
7
  6
BYLAYER
 70
0
 71
3
 72
9
 73
5
 74
0
 42
0.0000001
 43
0.0000001
 44
0.0000000001
 40
0.0
 40
0.0
 40
0.0
 40
0.0
 40
0.4999988717
 40
1.0
 40
1.0
 40
1.0
 40
1.0
 10
47.9056079215
 20
89.8069655802
 30
0.0
 10
48.0105479325
 20
89.7463798072
 30
0.0
 10
48.176352281
 20
89.555032124
 30
0.0
 10
48.2591627841
 20
89.3157681431
 30
0.0
 10
48.2591627841
 20
89.1945939943
 30
0.0
  0
SPLINE
  5
51D
100
AcDbEntity
  8
_1
100
AcDbSpline
 62
7
  6
BYLAYER
 70
0
 71
3
 72
9
 73
5
 74
0
 42
0.0000001
 43
0.0000001
 44
0.0000000001
 40
0.0
 40
0.0
 40
0.0
 40
0.0
 40
0.5507374359
 40
1.0
 40
1.0
 40
1.0
 40
1.0
 10
40.4101712358
 20
181.2385765782
 30
0.0
 10
40.4349796659
 20
181.2528996465
 30
0.0
 10
40.4776053817
 20
181.2855270908
 30
0.0
 10
40.4980427219
 20
181.3376806682
 30
0.0
 10
40.4980148374
 20
181.3610487641
 30
0.0
  0
SPLINE
  5
51E
100
AcDbEntity
  8
_1
100
AcDbSpline
 62
7
  6
BYLAYER
 70
0
 71
3
 72
11
 73
7
 74
0
 42
0.0000001
 43
0.0000001
 44
0.0000000001
 40
0.0
 40
0.0
 40
0.0
 40
0.0
 40
0.2177833598
 40
0.4509104088
 40
0.7102966711
 40
1.0
 40
1.0
 40
1.0
 40
1.0
 10
77.030683373
 20
126.0977026025
 30
0.0
 10
77.2121096309
 20
126.2024485086
 30
0.0
 10
77.5515507026
 20
126.4878159403
 30
0.0
 10
77.9129259536
 20
127.0786809304
 30
0.0
 10
78.1275616011
 20
127.8068462644
 30
0.0
 10
78.1698128949
 20
128.3368267199
 30
0.0
 10
78.1698128949
 20
128.615501514
 30
0.0
  0
SPLINE
  5
51F
100
AcDbEntity
  8
_1
100
AcDbSpline
 62
7
  6
BYLAYER
 70
0
 71
3
 72
11
 73
7
 74
0
 42
0.0000001
 43
0.0000001
 44
0.0000000001
 40
0.0
 40
0.0
 40
0.0
 40
0.0
 40
0.2177605512
 40
0.4509234437
 40
0.7102267457
 40
1.0
 40
1.0
 40
1.0
 40
1.0
 10
40.241115022
 20
214.6405129387
 30
0.0
 10
40.4225200554
 20
214.7452432249
 30
0.0
 10
40.839386103
 20
214.8965020813
 30
0.0
 10
41.5316869478
 20
214.9140503944
 30
0.0
 10
42.2696540014
 20
214.7359677398
 30
0.0
 10
42.7497054832
 20
214.5075004887
 30
0.0
 10
42.9910996528
 20
214.3681346528
 30
0.0
  0
SPLINE
  5
520
100
AcDbEntity
  8
_1
100
AcDbSpline
 62
7
  6
BYLAYER
 70
0
 71
3
 72
9
 73
5
 74
0
 42
0.0000001
 43
0.0000001
 44
0.0000000001
 40
0.0
 40
0.0
 40
0.0
 40
0.0
 40
0.2662832074
 40
1.0
 40
1.0
 40
1.0
 40
1.0
 10
40.2756852383
 20
181.1937481222
 30
0.0
 10
40.2881572549
 20
181.1956775545
 30
0.0
 10
40.3346468417
 20
181.2047468611
 30
0.0
 10
40.3800558606
 20
181.2211895621
 30
0.0
 10
40.4101712358
 20
181.2385765782
 30
0.0
  0
SPLINE
  5
521
100
AcDbEntity
  8
_1
100
AcDbSpline
 62
7
  6
BYLAYER
 70
0
 71
3
 72
11
 73
7
 74
0
 42
0.0000001
 43
0.0000001
 44
0.0000000001
 40
0.0
 40
0.0
 40
0.0
 40
0.0
 40
0.2895391946
 40
0.5491157945
 40
0.7822541179
 40
1.0
 40
1.0
 40
1.0
 40
1.0
 10
58.4414515633
 20
214.5275941765
 30
0.0
 10
58.3098917898
 20
214.6035485288
 30
0.0
 10
58.0479586153
 20
214.7279887057
 30
0.0
 10
57.6455260587
 20
214.8253959076
 30
0.0
 10
57.267731825
 20
214.8159055431
 30
0.0
 10
57.0404803638
 20
214.7331433207
 30
0.0
 10
56.9415422087
 20
214.676021644
 30
0.0
  0
SPLINE
  5
522
100
AcDbEntity
  8
_1
100
AcDbSpline
 62
7
  6
BYLAYER
 70
0
 71
3
 72
10
 73
6
 74
0
 42
0.0000001
 43
0.0000001
 44
0.0000000001
 40
0.0
 40
0.0
 40
0.0
 40
0.0
 40
0.515836818
 40
0.7695200818
 40
1.0
 40
1.0
 40
1.0
 40
1.0
 10
34.1752273955
 20
245.7514394591
 30
0.0
 10
34.3462578852
 20
246.2827393998
 30
0.0
 10
34.8067922916
 20
247.0132575931
 30
0.0
 10
35.5854962589
 20
247.764532926
 30
0.0
 10
36.0145742755
 20
248.0708701359
 30
0.0
 10
36.2305488899
 20
248.1955623933
 30
0.0
  0
SPLINE
  5
523
100
AcDbEntity
  8
_1
100
AcDbSpline
 62
7
  6
BYLAYER
 70
0
 71
3
 72
11
 73
7
 74
0
 42
0.0000001
 43
0.0000001
 44
0.0000000001
 40
0.0
 40
0.0
 40
0.0
 40
0.0
 40
0.2520191566
 40
0.5300602169
 40
0.7937242804
 40
1.0
 40
1.0
 40
1.0
 40
1.0
 10
38.3518604015
 20
249.420294855
 30
0.0
 10
38.6618073357
 20
249.5992417326
 30
0.0
 10
39.2612444298
 20
250.0654489414
 30
0.0
 10
40.0390818414
 20
250.8829572662
 30
0.0
 10
40.7150753236
 20
251.7024694069
 30
0.0
 10
41.1379294665
 20
252.21921214
 30
0.0
 10
41.3347528526
 20
252.4361711569
 30
0.0
  0
SPLINE
  5
524
100
AcDbEntity
  8
_1
100
AcDbSpline
 62
7
  6
BYLAYER
 70
0
 71
3
 72
11
 73
7
 74
0
 42
0.0000001
 43
0.0000001
 44
0.0000000001
 40
0.0
 40
0.0
 40
0.0
 40
0.0
 40
0.2897937515
 40
0.5490625163
 40
0.7822398048
 40
1.0
 40
1.0
 40
1.0
 40
1.0
 10
45.9963204007
 20
254.2094276578
 30
0.0
 10
45.5573876529
 20
254.462839865
 30
0.0
 10
44.6846012457
 20
254.8782993094
 30
0.0
 10
43.3428212215
 20
255.2019421285
 30
0.0
 10
42.0840976146
 20
255.170256425
 30
0.0
 10
41.3261732013
 20
254.895088008
 30
0.0
 10
40.9963399533
 20
254.7046752222
 30
0.0
  0
SPLINE
  5
525
100
AcDbEntity
  8
_1
100
AcDbSpline
 62
7
  6
BYLAYER
 70
0
 71
3
 72
13
 73
9
 74
0
 42
0.0000001
 43
0.0000001
 44
0.0000000001
 40
0.0
 40
0.0
 40
0.0
 40
0.0
 40
0.114249308
 40
0.237548547
 40
0.5000010844
 40
0.7624530283
 40
0.8857515741
 40
1.0
 40
1.0
 40
1.0
 40
1.0
 10
80.6446969329
 20
226.0406065151
 30
0.0
 10
80.6446969329
 20
226.5995266883
 30
0.0
 10
80.5423270492
 20
227.7628151516
 30
0.0
 10
79.9863574212
 20
230.1508768582
 30
0.0
 10
78.6949575102
 20
233.0799108235
 30
0.0
 10
76.8040297258
 20
235.6628019426
 30
0.0
 10
75.0138894781
 20
237.3382980948
 30
0.0
 10
74.0576377505
 20
238.0085850441
 30
0.0
 10
73.5735996814
 20
238.2880382316
 30
0.0
  0
SPLINE
  5
526
100
AcDbEntity
  8
_1
100
AcDbSpline
 62
7
  6
BYLAYER
 70
0
 71
3
 72
11
 73
7
 74
0
 42
0.0000001
 43
0.0000001
 44
0.0000000001
 40
0.0
 40
0.0
 40
0.0
 40
0.0
 40
0.237239768
 40
0.4999988393
 40
0.7627585384
 40
1.0
 40
1.0
 40
1.0
 40
1.0
 10
84.1802455586
 20
103.9735474244
 30
0.0
 10
83.6782972577
 20
104.2633408551
 30
0.0
 10
82.7284283896
 20
105.0627755703
 30
0.0
 10
81.6198023291
 20
106.5777466568
 30
0.0
 10
80.8621022881
 20
108.2953308269
 30
0.0
 10
80.6446969329
 20
109.5176624499
 30
0.0
 10
80.6446969329
 20
110.0972632827
 30
0.0
  0
SPLINE
  5
527
100
AcDbEntity
  8
_1
100
AcDbSpline
 62
7
  6
BYLAYER
 70
0
 71
3
 72
11
 73
7
 74
0
 42
0.0000001
 43
0.0000001
 44
0.0000000001
 40
0.0
 40
0.0
 40
0.0
 40
0.0
 40
0.2372413576
 40
0.5000010231
 40
0.762760128
 40
1.0
 40
1.0
 40
1.0
 40
1.0
 10
99.0295497867
 20
91.3179794938
 30
0.0
 10
99.0295497867
 20
91.8975800725
 30
0.0
 10
98.8121445869
 20
93.1199113607
 30
0.0
 10
98.0544448197
 20
94.8374953763
 30
0.0
 10
96.9458187622
 20
96.3524667771
 30
0.0
 10
95.9959496819
 20
97.1519017944
 30
0.0
 10
95.494001161
 20
97.4416953521
 30
0.0
  0
SPLINE
  5
528
100
AcDbEntity
  8
_1
100
AcDbSpline
 62
7
  6
BYLAYER
 70
0
 71
3
 72
9
 73
5
 74
0
 42
0.0000001
 43
0.0000001
 44
0.0000000001
 40
0.0
 40
0.0
 40
0.0
 40
0.0
 40
0.4744382731
 40
1.0
 40
1.0
 40
1.0
 40
1.0
 10
42.4607717749
 20
143.5161426974
 30
0.0
 10
41.7483951415
 20
143.927424234
 30
0.0
 10
40.4025651443
 20
145.0649396985
 30
0.0
 10
39.3761748542
 20
146.4810303329
 30
0.0
 10
38.9252231492
 20
147.2728347984
 30
0.0
  0
SPLINE
  5
529
100
AcDbEntity
  8
_1
100
AcDbSpline
 62
7
  6
BYLAYER
 70
0
 71
3
 72
9
 73
5
 74
0
 42
0.0000001
 43
0.0000001
 44
0.0000000001
 40
0.0
 40
0.0
 40
0.0
 40
0.0
 40
0.5226154427
 40
1.0
 40
1.0
 40
1.0
 40
1.0
 10
99.029520347
 20
226.5798897943
 30
0.0
 10
98.5116305108
 20
227.2241477877
 30
0.0
 10
97.4255728997
 20
228.3841916984
 30
0.0
 10
96.1478817712
 20
229.3374727809
 30
0.0
 10
95.4939717213
 20
229.7149993834
 30
0.0
  0
SPLINE
  5
52A
100
AcDbEntity
  8
_1
100
AcDbSpline
 62
7
  6
BYLAYER
 70
0
 71
3
 72
11
 73
7
 74
0
 42
0.0000001
 43
0.0000001
 44
0.0000000001
 40
0.0
 40
0.0
 40
0.0
 40
0.0
 40
0.2372413576
 40
0.5000010231
 40
0.762760128
 40
1.0
 40
1.0
 40
1.0
 40
1.0
 10
84.1802161189
 20
112.138484052
 30
0.0
 10
84.1802161189
 20
111.5588834733
 30
0.0
 10
84.3976213187
 20
110.3365521852
 30
0.0
 10
85.1553210859
 20
108.6189681695
 30
0.0
 10
86.2639471435
 20
107.1039967687
 30
0.0
 10
87.2138162237
 20
106.3045617515
 30
0.0
 10
87.7157647447
 20
106.0147681938
 30
0.0
  0
SPLINE
  5
52B
100
AcDbEntity
  8
_1
100
AcDbSpline
 62
7
  6
BYLAYER
 70
0
 71
3
 72
11
 73
7
 74
0
 42
0.0000001
 43
0.0000001
 44
0.0000000001
 40
0.0
 40
0.0
 40
0.0
 40
0.0
 40
0.2304334694
 40
0.4846839358
 40
0.7470455872
 40
1.0
 40
1.0
 40
1.0
 40
1.0
 10
77.1091188675
 20
240.3292590009
 30
0.0
 10
77.9143943836
 20
239.8643434827
 30
0.0
 10
79.4687642796
 20
238.6407993555
 30
0.0
 10
81.4168800897
 20
236.3191241938
 30
0.0
 10
82.959818062
 20
233.6057847385
 30
0.0
 10
83.6476301539
 20
231.6264422481
 30
0.0
 10
83.8749273649
 20
230.6313480735
 30
0.0
  0
SPLINE
  5
52C
100
AcDbEntity
  8
_1
100
AcDbSpline
 62
7
  6
BYLAYER
 70
0
 71
3
 72
11
 73
7
 74
0
 42
0.0000001
 43
0.0000001
 44
0.0000000001
 40
0.0
 40
0.0
 40
0.0
 40
0.0
 40
0.217774924
 40
0.4509311967
 40
0.710224778
 40
1.0
 40
1.0
 40
1.0
 40
1.0
 10
77.7806680098
 20
124.7986833527
 30
0.0
 10
77.5497753156
 20
124.6653781811
 30
0.0
 10
77.0192392813
 20
124.4727632752
 30
0.0
 10
76.1381163393
 20
124.4505401888
 30
0.0
 10
75.1989034637
 20
124.6771394983
 30
0.0
 10
74.5879406527
 20
124.9679327141
 30
0.0
 10
74.2807094065
 20
125.145308744
 30
0.0
  0
SPLINE
  5
52D
100
AcDbEntity
  8
_1
100
AcDbSpline
 62
7
  6
BYLAYER
 70
0
 71
3
 72
11
 73
7
 74
0
 42
0.0000001
 43
0.0000001
 44
0.0000000001
 40
0.0
 40
0.0
 40
0.0
 40
0.0
 40
0.2177739674
 40
0.4509298424
 40
0.7102237828
 40
1.0
 40
1.0
 40
1.0
 40
1.0
 10
96.958393397
 20
39.3830435438
 30
0.0
 10
97.2882474721
 20
39.5734837578
 30
0.0
 10
97.9055167407
 20
40.0922818885
 30
0.0
 10
98.5623954982
 20
41.1665463037
 30
0.0
 10
98.9529180182
 20
42.4904179337
 30
0.0
 10
99.0295497867
 20
43.4540267553
 30
0.0
 10
99.0295497867
 20
43.9608393003
 30
0.0
  0
SPLINE
  5
52E
100
AcDbEntity
  8
_1
100
AcDbSpline
 62
7
  6
BYLAYER
 70
0
 71
3
 72
11
 73
7
 74
0
 42
0.0000001
 43
0.0000001
 44
0.0000000001
 40
0.0
 40
0.0
 40
0.0
 40
0.0
 40
0.2177460211
 40
0.4508843679
 40
0.7104607696
 40
1.0
 40
1.0
 40
1.0
 40
1.0
 10
55.6987025689
 20
211.6438208886
 30
0.0
 10
55.5997643187
 20
211.5866992273
 30
0.0
 10
55.3725128054
 20
211.5039368875
 30
0.0
 10
54.9947185744
 20
211.494446711
 30
0.0
 10
54.5922860443
 20
211.5918536836
 30
0.0
 10
54.3303530042
 20
211.716293992
 30
0.0
 10
54.1987932124
 20
211.7922483549
 30
0.0
  0
SPLINE
  5
52F
100
AcDbEntity
  8
_1
100
AcDbSpline
 62
7
  6
BYLAYER
 70
0
 71
3
 72
11
 73
7
 74
0
 42
0.0000001
 43
0.0000001
 44
0.0000000001
 40
0.0
 40
0.0
 40
0.0
 40
0.0
 40
0.2372539654
 40
0.5000012591
 40
0.7627478695
 40
1.0
 40
1.0
 40
1.0
 40
1.0
 10
49.3198273718
 20
88.5822328626
 30
0.0
 10
49.3198273718
 20
88.8140846288
 30
0.0
 10
49.2328988406
 20
89.3030306779
 30
0.0
 10
48.9296873301
 20
89.9899832748
 30
0.0
 10
48.4863728538
 20
90.5960448736
 30
0.0
 10
48.1063970237
 20
90.9157961862
 30
0.0
 10
47.9056079215
 20
91.0317192059
 30
0.0
  0
SPLINE
  5
530
100
AcDbEntity
  8
_1
100
AcDbSpline
 62
7
  6
BYLAYER
 70
0
 71
3
 72
11
 73
7
 74
0
 42
0.0000001
 43
0.0000001
 44
0.0000000001
 40
0.0
 40
0.0
 40
0.0
 40
0.0
 40
0.2895401978
 40
0.5491171512
 40
0.782255066
 40
1.0
 40
1.0
 40
1.0
 40
1.0
 10
60.2799368486
 20
63.8012751549
 30
0.0
 10
60.2799368486
 20
63.6999979086
 30
0.0
 10
60.264472749
 20
63.5072848717
 30
0.0
 10
60.1865666106
 20
63.2424631873
 30
0.0
 10
60.0551536797
 20
63.027500813
 30
0.0
 10
59.9316172358
 20
62.9238821204
 30
0.0
 10
59.8656569694
 20
62.8858001855
 30
0.0
  0
SPLINE
  5
531
100
AcDbEntity
  8
_1
100
AcDbSpline
 62
7
  6
BYLAYER
 70
0
 71
3
 72
11
 73
7
 74
0
 42
0.0000001
 43
0.0000001
 44
0.0000000001
 40
0.0
 40
0.0
 40
0.0
 40
0.0
 40
0.2372523758
 40
0.4999990758
 40
0.7627462798
 40
1.0
 40
1.0
 40
1.0
 40
1.0
 10
58.8657173983
 20
97.3595035909
 30
0.0
 10
59.0665067081
 20
97.2435804514
 30
0.0
 10
59.4464827503
 20
96.9238288521
 30
0.0
 10
59.889797217
 20
96.3177669495
 30
0.0
 10
60.1930084595
 20
95.6308144962
 30
0.0
 10
60.2799368486
 20
95.1418687741
 30
0.0
 10
60.2799368486
 20
94.9100172476
 30
0.0
  0
SPLINE
  5
532
100
AcDbEntity
  8
_1
100
AcDbSpline
 62
7
  6
BYLAYER
 70
0
 71
3
 72
11
 73
7
 74
0
 42
0.0000001
 43
0.0000001
 44
0.0000000001
 40
0.0
 40
0.0
 40
0.0
 40
0.0
 40
0.2177460211
 40
0.4508843679
 40
0.7104607696
 40
1.0
 40
1.0
 40
1.0
 40
1.0
 10
64.0125805788
 20
218.7584631815
 30
0.0
 10
64.1115188291
 20
218.8155848428
 30
0.0
 10
64.3387703423
 20
218.8983471827
 30
0.0
 10
64.7165645734
 20
218.9078373592
 30
0.0
 10
65.1189971035
 20
218.8104303865
 30
0.0
 10
65.3809301436
 20
218.6859900781
 30
0.0
 10
65.5124899354
 20
218.6100357152
 30
0.0
  0
SPLINE
  5
533
100
AcDbEntity
  8
_1
100
AcDbSpline
 62
7
  6
BYLAYER
 70
0
 71
3
 72
11
 73
7
 74
0
 42
0.0000001
 43
0.0000001
 44
0.0000000001
 40
0.0
 40
0.0
 40
0.0
 40
0.0
 40
0.217745073
 40
0.4508830113
 40
0.7104597664
 40
1.0
 40
1.0
 40
1.0
 40
1.0
 10
48.9055474912
 20
56.5580157998
 30
0.0
 10
48.9715077805
 20
56.5960977947
 30
0.0
 10
49.0950443095
 20
56.6997164782
 30
0.0
 10
49.226457131
 20
56.9146789136
 30
0.0
 10
49.3043633929
 20
57.1795005063
 30
0.0
 10
49.3198273718
 20
57.3722135095
 30
0.0
 10
49.3198273718
 20
57.4734907699
 30
0.0
  0
SPLINE
  5
534
100
AcDbEntity
  8
_1
100
AcDbSpline
 62
7
  6
BYLAYER
 70
0
 71
3
 72
11
 73
7
 74
0
 42
0.0000001
 43
0.0000001
 44
0.0000000001
 40
0.0
 40
0.0
 40
0.0
 40
0.0
 40
0.2897732783
 40
0.5490766185
 40
0.7822394813
 40
1.0
 40
1.0
 40
1.0
 40
1.0
 10
42.4607717749
 20
214.0619515374
 30
0.0
 10
42.2193775859
 20
214.2013173845
 30
0.0
 10
41.7393260336
 20
214.4297846184
 30
0.0
 10
41.0013589523
 20
214.6078673009
 30
0.0
 10
40.3090581368
 20
214.5903189239
 30
0.0
 10
39.8921921449
 20
214.439060103
 30
0.0
 10
39.7107871426
 20
214.3343298266
 30
0.0
  0
SPLINE
  5
535
100
AcDbEntity
  8
_1
100
AcDbSpline
 62
7
  6
BYLAYER
 70
0
 71
3
 72
11
 73
7
 74
0
 42
0.0000001
 43
0.0000001
 44
0.0000000001
 40
0.0
 40
0.0
 40
0.0
 40
0.0
 40
0.2372413576
 40
0.5000010231
 40
0.762760128
 40
1.0
 40
1.0
 40
1.0
 40
1.0
 10
78.1698128949
 20
188.9550301399
 30
0.0
 10
78.1698128949
 20
189.5925907765
 30
0.0
 10
77.9306671751
 20
190.9371551934
 30
0.0
 10
77.0971974312
 20
192.8264976106
 30
0.0
 10
75.8777087679
 20
194.4929661515
 30
0.0
 10
74.8328527796
 20
195.3723446705
 30
0.0
 10
74.2807094065
 20
195.6911175839
 30
0.0
  0
SPLINE
  5
536
100
AcDbEntity
  8
_1
100
AcDbSpline
 62
7
  6
BYLAYER
 70
0
 71
3
 72
9
 73
5
 74
0
 42
0.0000001
 43
0.0000001
 44
0.0000000001
 40
0.0
 40
0.0
 40
0.0
 40
0.0
 40
0.5163116166
 40
1.0
 40
1.0
 40
1.0
 40
1.0
 10
39.4555510271
 20
147.5790179138
 30
0.0
 10
39.8187936814
 20
146.9412175629
 30
0.0
 10
40.6344285415
 20
145.7665654502
 30
0.0
 10
41.6599888993
 20
144.7643114286
 30
0.0
 10
42.2067771559
 20
144.347384714
 30
0.0
  0
SPLINE
  5
537
100
AcDbEntity
  8
_1
100
AcDbSpline
 62
7
  6
BYLAYER
 70
0
 71
3
 72
9
 73
5
 74
0
 42
0.0000001
 43
0.0000001
 44
0.0000000001
 40
0.0
 40
0.0
 40
0.0
 40
0.0
 40
0.2569752394
 40
1.0
 40
1.0
 40
1.0
 40
1.0
 10
42.2067771559
 20
144.347384714
 30
0.0
 10
42.2710921977
 20
144.298344416
 30
0.0
 10
42.5241659198
 20
144.1112275569
 30
0.0
 10
42.7885741904
 20
143.9392512978
 30
0.0
 10
42.9910996528
 20
143.8223258128
 30
0.0
  0
SPLINE
  5
538
100
AcDbEntity
  8
_1
100
AcDbSpline
 62
7
  6
BYLAYER
 70
0
 71
3
 72
11
 73
7
 74
0
 42
0.0000001
 43
0.0000001
 44
0.0000000001
 40
0.0
 40
0.0
 40
0.0
 40
0.0
 40
0.2897033281
 40
0.5490895198
 40
0.7822165953
 40
1.0
 40
1.0
 40
1.0
 40
1.0
 10
78.7001407728
 20
128.9216846294
 30
0.0
 10
78.7001407728
 20
128.6430098352
 30
0.0
 10
78.6578895739
 20
128.1130294392
 30
0.0
 10
78.443253872
 20
127.384864148
 30
0.0
 10
78.0818786333
 20
126.793999193
 30
0.0
 10
77.7424375956
 20
126.5086315615
 30
0.0
 10
77.561011251
 20
126.403885718
 30
0.0
  0
SPLINE
  5
539
100
AcDbEntity
  8
_1
100
AcDbSpline
 62
7
  6
BYLAYER
 70
0
 71
3
 72
11
 73
7
 74
0
 42
0.0000001
 43
0.0000001
 44
0.0000000001
 40
0.0
 40
0.0
 40
0.0
 40
0.0
 40
0.237239768
 40
0.4999988393
 40
0.7627585384
 40
1.0
 40
1.0
 40
1.0
 40
1.0
 10
74.8110372845
 20
195.9973006994
 30
0.0
 10
75.3631804155
 20
195.6785279256
 30
0.0
 10
76.4080361703
 20
194.7991497388
 30
0.0
 10
77.627524837
 20
193.1326815437
 30
0.0
 10
78.460994882
 20
191.2433389566
 30
0.0
 10
78.7001407728
 20
189.8987741713
 30
0.0
 10
78.7001407728
 20
189.2612132553
 30
0.0
  0
SPLINE
  5
53A
100
AcDbEntity
  8
_1
100
AcDbSpline
 62
7
  6
BYLAYER
 70
0
 71
3
 72
11
 73
7
 74
0
 42
0.0000001
 43
0.0000001
 44
0.0000000001
 40
0.0
 40
0.0
 40
0.0
 40
0.0
 40
0.2895411595
 40
0.5491183966
 40
0.7822559144
 40
1.0
 40
1.0
 40
1.0
 40
1.0
 10
33.9755080646
 20
223.0043277268
 30
0.0
 10
33.9755080646
 20
222.8524111711
 30
0.0
 10
33.9987041889
 20
222.5633406141
 30
0.0
 10
34.1155635134
 20
222.1661071244
 30
0.0
 10
34.3126832071
 20
221.8436637137
 30
0.0
 10
34.497988412
 20
221.6882366937
 30
0.0
 10
34.5969289539
 20
221.6311146548
 30
0.0
  0
SPLINE
  5
53B
100
AcDbEntity
  8
_1
100
AcDbSpline
 62
7
  6
BYLAYER
 70
0
 71
3
 72
11
 73
7
 74
0
 42
0.0000001
 43
0.0000001
 44
0.0000000001
 40
0.0
 40
0.0
 40
0.0
 40
0.0
 40
0.2842326281
 40
0.543940055
 40
0.780710047
 40
1.0
 40
1.0
 40
1.0
 40
1.0
 10
74.8110372845
 20
125.4514918594
 30
0.0
 10
75.0670201658
 20
125.3037034173
 30
0.0
 10
75.5768631025
 20
125.0530345634
 30
0.0
 10
76.358621696
 20
124.8181321738
 30
0.0
 10
77.1054257284
 20
124.7491721919
 30
0.0
 10
77.580622183
 20
124.8204815377
 30
0.0
 10
77.7992362964
 20
124.8853883221
 30
0.0
  0
SPLINE
  5
53C
100
AcDbEntity
  8
_1
100
AcDbSpline
 62
7
  6
BYLAYER
 70
0
 71
3
 72
11
 73
7
 74
0
 42
0.0000001
 43
0.0000001
 44
0.0000000001
 40
0.0
 40
0.0
 40
0.0
 40
0.0
 40
0.2177460211
 40
0.4508843679
 40
0.7104607696
 40
1.0
 40
1.0
 40
1.0
 40
1.0
 10
78.2555028011
 20
203.8057311682
 30
0.0
 10
78.1565645509
 20
203.7486095069
 30
0.0
 10
77.9293130376
 20
203.665847167
 30
0.0
 10
77.5515188066
 20
203.6563569905
 30
0.0
 10
77.1490862765
 20
203.7537639632
 30
0.0
 10
76.8871532363
 20
203.8782042716
 30
0.0
 10
76.7555934446
 20
203.9541586345
 30
0.0
  0
SPLINE
  5
53D
100
AcDbEntity
  8
_1
100
AcDbSpline
 62
7
  6
BYLAYER
 70
0
 71
3
 72
11
 73
7
 74
0
 42
0.0000001
 43
0.0000001
 44
0.0000000001
 40
0.0
 40
0.0
 40
0.0
 40
0.0
 40
0.2177442246
 40
0.4508817658
 40
0.7104588047
 40
1.0
 40
1.0
 40
1.0
 40
1.0
 10
39.7180217082
 20
223.1527236821
 30
0.0
 10
39.8169622843
 20
223.0956015531
 30
0.0
 10
40.0022676169
 20
222.9401745467
 30
0.0
 10
40.1993871465
 20
222.6177310443
 30
0.0
 10
40.3162466562
 20
222.2204976921
 30
0.0
 10
40.3394425995
 20
221.9314271858
 30
0.0
 10
40.3394425995
 20
221.7795106089
 30
0.0
  0
SPLINE
  5
53E
100
AcDbEntity
  8
_1
100
AcDbSpline
 62
7
  6
BYLAYER
 70
0
 71
3
 72
9
 73
5
 74
0
 42
0.0000001
 43
0.0000001
 44
0.0000000001
 40
0.0
 40
0.0
 40
0.0
 40
0.0
 40
0.232867724
 40
1.0
 40
1.0
 40
1.0
 40
1.0
 10
198.3771884884
 20
349.9427895168
 30
0.0
 10
198.3771884884
 20
349.7544271292
 30
0.0
 10
198.4217551353
 20
348.9456711237
 30
0.0
 10
198.621763943
 20
348.1497453762
 30
0.0
 10
198.8342374007
 20
347.5667368298
 30
0.0
  0
SPLINE
  5
53F
100
AcDbEntity
  8
_1
100
AcDbSpline
 62
7
  6
BYLAYER
 70
0
 71
3
 72
9
 73
5
 74
0
 42
0.0000001
 43
0.0000001
 44
0.0000000001
 40
0.0
 40
0.0
 40
0.0
 40
0.0
 40
0.2489270395
 40
1.0
 40
1.0
 40
1.0
 40
1.0
 10
198.8342374007
 20
347.5667368298
 30
0.0
 10
198.9290697338
 20
347.306525219
 30
0.0
 10
199.3595999092
 20
346.2800489595
 30
0.0
 10
199.9715889369
 20
345.3287112893
 30
0.0
 10
200.5175100232
 20
344.6960525614
 30
0.0
  0
SPLINE
  5
540
100
AcDbEntity
  8
_1
100
AcDbSpline
 62
7
  6
BYLAYER
 70
0
 71
3
 72
9
 73
5
 74
0
 42
0.0000001
 43
0.0000001
 44
0.0000000001
 40
0.0
 40
0.0
 40
0.0
 40
0.0
 40
0.2332052958
 40
1.0
 40
1.0
 40
1.0
 40
1.0
 10
238.6824428217
 20
326.6730665091
 30
0.0
 10
238.6824428217
 20
326.4911291864
 30
0.0
 10
238.723982581
 20
325.7110848022
 30
0.0
 10
238.9110082262
 20
324.9426028354
 30
0.0
 10
239.1102411452
 20
324.378531922
 30
0.0
  0
SPLINE
  5
541
100
AcDbEntity
  8
_1
100
AcDbSpline
 62
7
  6
BYLAYER
 70
0
 71
3
 72
10
 73
6
 74
0
 42
0.0000001
 43
0.0000001
 44
0.0000000001
 40
0.0
 40
0.0
 40
0.0
 40
0.0
 40
0.2184031616
 40
0.452246679
 40
1.0
 40
1.0
 40
1.0
 40
1.0
 10
134.2664695542
 20
302.954081527
 30
0.0
 10
134.2664695297
 20
303.0330690818
 30
0.0
 10
134.237458659
 20
303.1978103092
 30
0.0
 10
134.062186273
 20
303.5194386105
 30
0.0
 10
133.8306211094
 20
303.7018131656
 30
0.0
 10
133.659060391
 20
303.8008615518
 30
0.0
  0
SPLINE
  5
542
100
AcDbEntity
  8
_1
100
AcDbSpline
 62
7
  6
BYLAYER
 70
0
 71
3
 72
9
 73
5
 74
0
 42
0.0000001
 43
0.0000001
 44
0.0000000001
 40
0.0
 40
0.0
 40
0.0
 40
0.0
 40
0.4499598415
 40
1.0
 40
1.0
 40
1.0
 40
1.0
 10
132.6924317579
 20
302.9540815165
 30
0.0
 10
132.6924317776
 20
302.9150845953
 30
0.0
 10
132.6579622642
 20
302.8283772809
 30
0.0
 10
132.5872245195
 20
302.7737963629
 30
0.0
 10
132.5459404744
 20
302.7499611506
 30
0.0
  0
SPLINE
  5
543
100
AcDbEntity
  8
_1
100
AcDbSpline
 62
7
  6
BYLAYER
 70
0
 71
3
 72
11
 73
7
 74
0
 42
0.0000001
 43
0.0000001
 44
0.0000000001
 40
0.0
 40
0.0
 40
0.0
 40
0.0
 40
0.2187419736
 40
0.45230678
 40
0.711235382
 40
1.0
 40
1.0
 40
1.0
 40
1.0
 10
195.0578641936
 20
80.8097552509
 30
0.0
 10
194.7354443462
 20
80.9958890456
 30
0.0
 10
194.1314259365
 20
81.4993394008
 30
0.0
 10
193.480599837
 20
82.5389766484
 30
0.0
 10
193.0836403415
 20
83.8201961625
 30
0.0
 10
192.995276894
 20
84.7542694207
 30
0.0
 10
192.9877831716
 20
85.2456788902
 30
0.0
  0
SPLINE
  5
544
100
AcDbEntity
  8
_1
100
AcDbSpline
 62
7
  6
BYLAYER
 70
0
 71
3
 72
11
 73
7
 74
0
 42
0.0000001
 43
0.0000001
 44
0.0000000001
 40
0.0
 40
0.0
 40
0.0
 40
0.0
 40
0.2177740413
 40
0.4509325126
 40
0.7102211593
 40
1.0
 40
1.0
 40
1.0
 40
1.0
 10
196.4720836439
 20
79.9932737419
 30
0.0
 10
196.8019318103
 20
79.8028515599
 30
0.0
 10
197.5598261682
 20
79.5276708435
 30
0.0
 10
198.818558511
 20
79.4959619722
 30
0.0
 10
200.1602765538
 20
79.8196641751
 30
0.0
 10
201.0330633082
 20
80.23509435
 30
0.0
 10
201.4719640406
 20
80.4884922934
 30
0.0
  0
SPLINE
  5
545
100
AcDbEntity
  8
_1
100
AcDbSpline
 62
7
  6
BYLAYER
 70
0
 71
3
 72
9
 73
5
 74
0
 42
0.0000001
 43
0.0000001
 44
0.0000000001
 40
0.0
 40
0.0
 40
0.0
 40
0.0
 40
0.2275971906
 40
1.0
 40
1.0
 40
1.0
 40
1.0
 10
198.7586780007
 20
351.6621347813
 30
0.0
 10
198.6943300452
 20
351.5441044988
 30
0.0
 10
198.4538775516
 20
351.0022651041
 30
0.0
 10
198.3771884884
 20
350.3990131066
 30
0.0
 10
198.3771884884
 20
349.9427895168
 30
0.0
  0
SPLINE
  5
546
100
AcDbEntity
  8
_1
100
AcDbSpline
 62
7
  6
BYLAYER
 70
0
 71
3
 72
15
 73
11
 74
0
 42
0.0000001
 43
0.0000001
 44
0.0000000001
 40
0.0
 40
0.0
 40
0.0
 40
0.0
 40
0.0869257504
 40
0.1863961276
 40
0.3037898083
 40
0.4375995959
 40
0.5820964428
 40
0.7293801614
 40
0.8712017292
 40
1.0
 40
1.0
 40
1.0
 40
1.0
 10
196.6487336374
 20
352.528486826
 30
0.0
 10
196.7861411478
 20
352.6076891888
 30
0.0
 10
197.131115941
 20
352.6966251659
 30
0.0
 10
197.6866588556
 20
352.5852826669
 30
0.0
 10
198.2541128429
 20
352.2752930663
 30
0.0
 10
198.798301193
 20
351.7934451833
 30
0.0
 10
199.2785819004
 20
351.1784600094
 30
0.0
 10
199.6570729852
 20
350.4794076473
 30
0.0
 10
199.9023234417
 20
349.7536474033
 30
0.0
 10
199.9682206975
 20
349.2593506276
 30
0.0
 10
199.9682206975
 20
349.0243528715
 30
0.0
  0
SPLINE
  5
547
100
AcDbEntity
  8
_1
100
AcDbSpline
 62
7
  6
BYLAYER
 70
0
 71
3
 72
15
 73
11
 74
0
 42
0.0000001
 43
0.0000001
 44
0.0000000001
 40
0.0
 40
0.0
 40
0.0
 40
0.0
 40
0.0869257504
 40
0.1863961276
 40
0.3037898083
 40
0.4375995959
 40
0.5820964428
 40
0.7293801614
 40
0.8712017292
 40
1.0
 40
1.0
 40
1.0
 40
1.0
 10
236.9539879708
 20
329.2587638183
 30
0.0
 10
237.0913954811
 20
329.3379661811
 30
0.0
 10
237.4363702743
 20
329.4269021582
 30
0.0
 10
237.991913189
 20
329.3155596592
 30
0.0
 10
238.5593671763
 20
329.0055700586
 30
0.0
 10
239.1035555264
 20
328.5237221756
 30
0.0
 10
239.5838362338
 20
327.9087370018
 30
0.0
 10
239.9623273186
 20
327.2096846396
 30
0.0
 10
240.2075777751
 20
326.4839243957
 30
0.0
 10
240.2734750309
 20
325.9896276199
 30
0.0
 10
240.2734750309
 20
325.7546298639
 30
0.0
  0
SPLINE
  5
548
100
AcDbEntity
  8
_1
100
AcDbSpline
 62
7
  6
BYLAYER
 70
0
 71
3
 72
9
 73
5
 74
0
 42
0.0000001
 43
0.0000001
 44
0.0000000001
 40
0.0
 40
0.0
 40
0.0
 40
0.0
 40
0.2275971906
 40
1.0
 40
1.0
 40
1.0
 40
1.0
 10
239.063932334
 20
328.3924117737
 30
0.0
 10
238.9995843785
 20
328.2743814911
 30
0.0
 10
238.759131885
 20
327.7325420965
 30
0.0
 10
238.6824428217
 20
327.129290099
 30
0.0
 10
238.6824428217
 20
326.6730665091
 30
0.0
  0
SPLINE
  5
549
100
AcDbEntity
  8
_1
100
AcDbSpline
 62
7
  6
BYLAYER
 70
0
 71
3
 72
11
 73
7
 74
0
 42
0.0000001
 43
0.0000001
 44
0.0000000001
 40
0.0
 40
0.0
 40
0.0
 40
0.0
 40
0.2897048043
 40
0.5490913404
 40
0.7822177947
 40
1.0
 40
1.0
 40
1.0
 40
1.0
 10
134.8792138591
 20
313.6905668834
 30
0.0
 10
134.5720635723
 20
313.5132346412
 30
0.0
 10
134.0148155252
 20
313.1294193794
 30
0.0
 10
133.3488264705
 20
312.4294952283
 30
0.0
 10
132.9275436287
 20
311.6552095389
 30
0.0
 10
132.8290168148
 20
311.0994976822
 30
0.0
 10
132.8290168642
 20
310.8328816018
 30
0.0
  0
SPLINE
  5
54A
100
AcDbEntity
  8
_1
100
AcDbSpline
 62
7
  6
BYLAYER
 70
0
 71
3
 72
9
 73
5
 74
0
 42
0.0000001
 43
0.0000001
 44
0.0000000001
 40
0.0
 40
0.0
 40
0.0
 40
0.0
 40
0.240612372
 40
1.0
 40
1.0
 40
1.0
 40
1.0
 10
96.2131849467
 20
284.5786126598
 30
0.0
 10
96.3229789648
 20
284.5392334078
 30
0.0
 10
96.775153869
 20
284.3641113896
 30
0.0
 10
97.2100788247
 20
284.1456559017
 30
0.0
 10
97.5288911746
 20
283.9615936697
 30
0.0
  0
SPLINE
  5
54B
100
AcDbEntity
  8
_1
100
AcDbSpline
 62
7
  6
BYLAYER
 70
0
 71
3
 72
9
 73
5
 74
0
 42
0.0000001
 43
0.0000001
 44
0.0000000001
 40
0.0
 40
0.0
 40
0.0
 40
0.0
 40
0.5000016721
 40
1.0
 40
1.0
 40
1.0
 40
1.0
 10
213.7924890243
 20
303.9748487884
 30
0.0
 10
213.7924890243
 20
304.2171972404
 30
0.0
 10
213.9581083863
 20
304.6957249893
 30
0.0
 10
214.289714036
 20
305.0784224863
 30
0.0
 10
214.4995928615
 20
305.1995953594
 30
0.0
  0
SPLINE
  5
54C
100
AcDbEntity
  8
_1
100
AcDbSpline
 62
7
  6
BYLAYER
 70
0
 71
3
 72
9
 73
5
 74
0
 42
0.0000001
 43
0.0000001
 44
0.0000000001
 40
0.0
 40
0.0
 40
0.0
 40
0.0
 40
0.5000016721
 40
1.0
 40
1.0
 40
1.0
 40
1.0
 10
201.0646199544
 20
296.6264540187
 30
0.0
 10
201.0646199544
 20
296.8688024707
 30
0.0
 10
201.2302393164
 20
297.3473302196
 30
0.0
 10
201.5618449662
 20
297.7300277167
 30
0.0
 10
201.7717237916
 20
297.8512005897
 30
0.0
  0
SPLINE
  5
54D
100
AcDbEntity
  8
_1
100
AcDbSpline
 62
7
  6
BYLAYER
 70
0
 71
3
 72
9
 73
5
 74
0
 42
0.0000001
 43
0.0000001
 44
0.0000000001
 40
0.0
 40
0.0
 40
0.0
 40
0.0
 40
0.5000016721
 40
1.0
 40
1.0
 40
1.0
 40
1.0
 10
226.5203580941
 20
311.3232435581
 30
0.0
 10
226.5203580941
 20
311.5655920101
 30
0.0
 10
226.6859774561
 20
312.044119759
 30
0.0
 10
227.0175831059
 20
312.426817256
 30
0.0
 10
227.2274619313
 20
312.5479901291
 30
0.0
  0
SPLINE
  5
54E
100
AcDbEntity
  8
_1
100
AcDbSpline
 62
7
  6
BYLAYER
 70
0
 71
3
 72
11
 73
7
 74
0
 42
0.0000001
 43
0.0000001
 44
0.0000000001
 40
0.0
 40
0.0
 40
0.0
 40
0.0
 40
0.2383047976
 40
0.5010932313
 40
0.7632879088
 40
1.0
 40
1.0
 40
1.0
 40
1.0
 10
192.9877831716
 20
289.6562818135
 30
0.0
 10
193.0050618642
 20
290.8093035631
 30
0.0
 10
193.4601832948
 20
293.2294772364
 30
0.0
 10
194.9821213946
 20
296.6243077219
 30
0.0
 10
197.1859998609
 20
299.6120425611
 30
0.0
 10
199.0657593861
 20
301.1879069214
 30
0.0
 10
200.0577445903
 20
301.7606264274
 30
0.0
  0
SPLINE
  5
54F
100
AcDbEntity
  8
_1
100
AcDbSpline
 62
7
  6
BYLAYER
 70
0
 71
3
 72
9
 73
5
 74
0
 42
0.0000001
 43
0.0000001
 44
0.0000000001
 40
0.0
 40
0.0
 40
0.0
 40
0.0
 40
0.4999983279
 40
1.0
 40
1.0
 40
1.0
 40
1.0
 10
218.7422041089
 20
306.0160204309
 30
0.0
 10
218.9520829343
 20
306.137193304
 30
0.0
 10
219.2836885841
 20
306.519890801
 30
0.0
 10
219.4493079461
 20
306.9984185499
 30
0.0
 10
219.4493079461
 20
307.2407670019
 30
0.0
  0
SPLINE
  5
550
100
AcDbEntity
  8
_1
100
AcDbSpline
 62
7
  6
BYLAYER
 70
0
 71
3
 72
9
 73
5
 74
0
 42
0.0000001
 43
0.0000001
 44
0.0000000001
 40
0.0
 40
0.0
 40
0.0
 40
0.0
 40
0.4999983279
 40
1.0
 40
1.0
 40
1.0
 40
1.0
 10
206.014335039
 20
298.6676256612
 30
0.0
 10
206.2242138645
 20
298.7887985343
 30
0.0
 10
206.5558195142
 20
299.1714960313
 30
0.0
 10
206.7214388763
 20
299.6500237803
 30
0.0
 10
206.7214388763
 20
299.8923722322
 30
0.0
  0
SPLINE
  5
551
100
AcDbEntity
  8
_1
100
AcDbSpline
 62
7
  6
BYLAYER
 70
0
 71
3
 72
9
 73
5
 74
0
 42
0.0000001
 43
0.0000001
 44
0.0000000001
 40
0.0
 40
0.0
 40
0.0
 40
0.0
 40
0.4999983279
 40
1.0
 40
1.0
 40
1.0
 40
1.0
 10
231.4700731787
 20
313.3644152006
 30
0.0
 10
231.6799520042
 20
313.4855880737
 30
0.0
 10
232.0115576539
 20
313.8682855707
 30
0.0
 10
232.1771770159
 20
314.3468133196
 30
0.0
 10
232.1771770159
 20
314.5891617716
 30
0.0
  0
SPLINE
  5
552
100
AcDbEntity
  8
_1
100
AcDbSpline
 62
7
  6
BYLAYER
 70
0
 71
3
 72
9
 73
5
 74
0
 42
0.0000001
 43
0.0000001
 44
0.0000000001
 40
0.0
 40
0.0
 40
0.0
 40
0.0
 40
0.5000016721
 40
1.0
 40
1.0
 40
1.0
 40
1.0
 10
158.3550865727
 20
335.9809239428
 30
0.0
 10
158.3550865727
 20
336.2232723948
 30
0.0
 10
158.5207059347
 20
336.7018001437
 30
0.0
 10
158.8523115845
 20
337.0844976407
 30
0.0
 10
159.0621904099
 20
337.2056705138
 30
0.0
  0
SPLINE
  5
553
100
AcDbEntity
  8
_1
100
AcDbSpline
 62
7
  6
BYLAYER
 70
0
 71
3
 72
9
 73
5
 74
0
 42
0.0000001
 43
0.0000001
 44
0.0000000001
 40
0.0
 40
0.0
 40
0.0
 40
0.0
 40
0.5000016721
 40
1.0
 40
1.0
 40
1.0
 40
1.0
 10
145.6272175029
 20
328.6325291731
 30
0.0
 10
145.6272175029
 20
328.8748776251
 30
0.0
 10
145.7928368649
 20
329.353405374
 30
0.0
 10
146.1244425147
 20
329.7361028711
 30
0.0
 10
146.3343213401
 20
329.8572757441
 30
0.0
  0
SPLINE
  5
554
100
AcDbEntity
  8
_1
100
AcDbSpline
 62
7
  6
BYLAYER
 70
0
 71
3
 72
9
 73
5
 74
0
 42
0.0000001
 43
0.0000001
 44
0.0000000001
 40
0.0
 40
0.0
 40
0.0
 40
0.0
 40
0.5000016721
 40
1.0
 40
1.0
 40
1.0
 40
1.0
 10
171.0829556426
 20
343.3293187125
 30
0.0
 10
171.0829556426
 20
343.5716671644
 30
0.0
 10
171.2485750046
 20
344.0501949134
 30
0.0
 10
171.5801806544
 20
344.4328924104
 30
0.0
 10
171.7900594798
 20
344.5540652835
 30
0.0
  0
SPLINE
  5
555
100
AcDbEntity
  8
_1
100
AcDbSpline
 62
7
  6
BYLAYER
 70
0
 71
3
 72
11
 73
7
 74
0
 42
0.0000001
 43
0.0000001
 44
0.0000000001
 40
0.0
 40
0.0
 40
0.0
 40
0.0
 40
0.2383047976
 40
0.5010932313
 40
0.7632879088
 40
1.0
 40
1.0
 40
1.0
 40
1.0
 10
137.5503807201
 20
321.6623569679
 30
0.0
 10
137.5676594126
 20
322.8153787175
 30
0.0
 10
138.0227808433
 20
325.2355523908
 30
0.0
 10
139.5447189431
 20
328.6303828762
 30
0.0
 10
141.7485974094
 20
331.6181177155
 30
0.0
 10
143.6283569346
 20
333.1939820758
 30
0.0
 10
144.6203421388
 20
333.7667015818
 30
0.0
  0
SPLINE
  5
556
100
AcDbEntity
  8
_1
100
AcDbSpline
 62
7
  6
BYLAYER
 70
0
 71
3
 72
9
 73
5
 74
0
 42
0.0000001
 43
0.0000001
 44
0.0000000001
 40
0.0
 40
0.0
 40
0.0
 40
0.0
 40
0.4999983279
 40
1.0
 40
1.0
 40
1.0
 40
1.0
 10
163.3048016574
 20
338.0220955853
 30
0.0
 10
163.5146804828
 20
338.1432684584
 30
0.0
 10
163.8462861326
 20
338.5259659554
 30
0.0
 10
164.0119054946
 20
339.0044937043
 30
0.0
 10
164.0119054946
 20
339.2468421563
 30
0.0
  0
SPLINE
  5
557
100
AcDbEntity
  8
_1
100
AcDbSpline
 62
7
  6
BYLAYER
 70
0
 71
3
 72
9
 73
5
 74
0
 42
0.0000001
 43
0.0000001
 44
0.0000000001
 40
0.0
 40
0.0
 40
0.0
 40
0.0
 40
0.4999983279
 40
1.0
 40
1.0
 40
1.0
 40
1.0
 10
150.5769325875
 20
330.6737008156
 30
0.0
 10
150.786811413
 20
330.7948736887
 30
0.0
 10
151.1184170627
 20
331.1775711857
 30
0.0
 10
151.2840364247
 20
331.6560989347
 30
0.0
 10
151.2840364247
 20
331.8984473866
 30
0.0
  0
SPLINE
  5
558
100
AcDbEntity
  8
_1
100
AcDbSpline
 62
7
  6
BYLAYER
 70
0
 71
3
 72
9
 73
5
 74
0
 42
0.0000001
 43
0.0000001
 44
0.0000000001
 40
0.0
 40
0.0
 40
0.0
 40
0.0
 40
0.4999983279
 40
1.0
 40
1.0
 40
1.0
 40
1.0
 10
176.0326707272
 20
345.370490355
 30
0.0
 10
176.2425495527
 20
345.491663228
 30
0.0
 10
176.5741552024
 20
345.8743607251
 30
0.0
 10
176.7397745644
 20
346.352888474
 30
0.0
 10
176.7397745644
 20
346.595236926
 30
0.0
  0
SPLINE
  5
559
100
AcDbEntity
  8
_1
100
AcDbSpline
 62
7
  6
BYLAYER
 70
0
 71
3
 72
9
 73
5
 74
0
 42
0.0000001
 43
0.0000001
 44
0.0000000001
 40
0.0
 40
0.0
 40
0.0
 40
0.0
 40
0.4999983279
 40
1.0
 40
1.0
 40
1.0
 40
1.0
 10
206.014335039
 20
88.0100020418
 30
0.0
 10
206.2242138645
 20
88.1311749149
 30
0.0
 10
206.5558195142
 20
88.5138724119
 30
0.0
 10
206.7214388763
 20
88.9924001608
 30
0.0
 10
206.7214388763
 20
89.2347486128
 30
0.0
  0
SPLINE
  5
55A
100
AcDbEntity
  8
_1
100
AcDbSpline
 62
7
  6
BYLAYER
 70
0
 71
3
 72
11
 73
7
 74
0
 42
0.0000001
 43
0.0000001
 44
0.0000000001
 40
0.0
 40
0.0
 40
0.0
 40
0.0
 40
0.2328308485
 40
0.4903616987
 40
0.7530554323
 40
1.0
 40
1.0
 40
1.0
 40
1.0
 10
194.9835404966
 20
91.1945468094
 30
0.0
 10
194.3608355756
 20
90.8350301017
 30
0.0
 10
192.9279022072
 20
90.2853717672
 30
0.0
 10
190.6126643157
 20
89.9456877897
 30
0.0
 10
188.2320618819
 20
90.064934322
 30
0.0
 10
186.6929753521
 20
90.4658830022
 30
0.0
 10
185.9871536239
 20
90.754690428
 30
0.0
  0
SPLINE
  5
55B
100
AcDbEntity
  8
_1
100
AcDbSpline
 62
7
  6
BYLAYER
 70
0
 71
3
 72
9
 73
5
 74
0
 42
0.0000001
 43
0.0000001
 44
0.0000000001
 40
0.0
 40
0.0
 40
0.0
 40
0.0
 40
0.5000016721
 40
1.0
 40
1.0
 40
1.0
 40
1.0
 10
201.0646199544
 20
85.9688303993
 30
0.0
 10
201.0646199544
 20
86.2111788513
 30
0.0
 10
201.2302393164
 20
86.6897066002
 30
0.0
 10
201.5618449662
 20
87.0724040972
 30
0.0
 10
201.7717237916
 20
87.1935769703
 30
0.0
  0
SPLINE
  5
55C
100
AcDbEntity
  8
_1
100
AcDbSpline
 62
7
  6
BYLAYER
 70
0
 71
3
 72
11
 73
7
 74
0
 42
0.0000001
 43
0.0000001
 44
0.0000000001
 40
0.0
 40
0.0
 40
0.0
 40
0.0
 40
0.289702329
 40
0.5490881649
 40
0.7822156415
 40
1.0
 40
1.0
 40
1.0
 40
1.0
 10
98.9587257659
 20
35.183101103
 30
0.0
 10
99.1781198862
 20
35.0564367141
 30
0.0
 10
99.6145655365
 20
34.8488109619
 30
0.0
 10
100.2853911854
 20
34.6868185867
 30
0.0
 10
100.9148218947
 20
34.702755658
 30
0.0
 10
101.2937727893
 20
34.8402798722
 30
0.0
 10
101.458702099
 20
34.9355013147
 30
0.0
  0
SPLINE
  5
55D
100
AcDbEntity
  8
_1
100
AcDbSpline
 62
7
  6
BYLAYER
 70
0
 71
3
 72
9
 73
5
 74
0
 42
0.0000001
 43
0.0000001
 44
0.0000000001
 40
0.0
 40
0.0
 40
0.0
 40
0.0
 40
0.2666859692
 40
1.0
 40
1.0
 40
1.0
 40
1.0
 10
57.20032203
 20
59.9149613598
 30
0.0
 10
57.3382291592
 20
59.7355091613
 30
0.0
 10
57.8824404998
 20
59.0851275025
 30
0.0
 10
58.5387867106
 20
58.5190358678
 30
0.0
 10
59.0777372676
 20
58.2078796579
 30
0.0
  0
SPLINE
  5
55E
100
AcDbEntity
  8
_1
100
AcDbSpline
 62
7
  6
BYLAYER
 70
0
 71
3
 72
11
 73
7
 74
0
 42
0.0000001
 43
0.0000001
 44
0.0000000001
 40
0.0
 40
0.0
 40
0.0
 40
0.0
 40
0.2897033281
 40
0.5490895198
 40
0.7822165953
 40
1.0
 40
1.0
 40
1.0
 40
1.0
 10
103.5549301474
 20
37.8367756469
 30
0.0
 10
103.5549301474
 20
37.5834349249
 30
0.0
 10
103.5165199667
 20
37.1016345648
 30
0.0
 10
103.3213966013
 20
36.4396661183
 30
0.0
 10
102.992873657
 20
35.9025161592
 30
0.0
 10
102.6842908955
 20
35.6430910397
 30
0.0
 10
102.5193578549
 20
35.5478675456
 30
0.0
  0
SPLINE
  5
55F
100
AcDbEntity
  8
_1
100
AcDbSpline
 62
7
  6
BYLAYER
 70
0
 71
3
 72
9
 73
5
 74
0
 42
0.0000001
 43
0.0000001
 44
0.0000000001
 40
0.0
 40
0.0
 40
0.0
 40
0.0
 40
0.4999975881
 40
1.0
 40
1.0
 40
1.0
 40
1.0
 10
111.0004865545
 20
290.3107617821
 30
0.0
 10
110.8955451856
 20
290.2501742162
 30
0.0
 10
110.6469340534
 20
290.2021955667
 30
0.0
 10
110.3983225915
 20
290.2501726888
 30
0.0
 10
110.2933797733
 20
290.3107600824
 30
0.0
  0
SPLINE
  5
560
100
AcDbEntity
  8
_1
100
AcDbSpline
 62
7
  6
BYLAYER
 70
0
 71
3
 72
9
 73
5
 74
0
 42
0.0000001
 43
0.0000001
 44
0.0000000001
 40
0.0
 40
0.0
 40
0.0
 40
0.0
 40
0.2655467488
 40
1.0
 40
1.0
 40
1.0
 40
1.0
 10
234.867882661
 20
321.9283059267
 30
0.0
 10
234.7988641331
 20
322.1236685124
 30
0.0
 10
234.5656750247
 20
322.8678987652
 30
0.0
 10
234.4398197985
 20
323.6505362957
 30
0.0
 10
234.4398197985
 20
324.2236015859
 30
0.0
  0
SPLINE
  5
561
100
AcDbEntity
  8
_1
100
AcDbSpline
 62
7
  6
BYLAYER
 70
0
 71
3
 72
11
 73
7
 74
0
 42
0.0000001
 43
0.0000001
 44
0.0000000001
 40
0.0
 40
0.0
 40
0.0
 40
0.0
 40
0.2372405738
 40
0.5000004574
 40
0.7627600882
 40
1.0
 40
1.0
 40
1.0
 40
1.0
 10
185.0840455601
 20
278.9900789537
 30
0.0
 10
185.7867743391
 20
278.5843674824
 30
0.0
 10
187.4209554155
 20
277.9923411518
 30
0.0
 10
190.0338002097
 20
277.7087027144
 30
0.0
 10
192.6466414401
 20
277.9923528517
 30
0.0
 10
194.280816604
 20
278.5843873424
 30
0.0
 10
194.9835404966
 20
278.9901027492
 30
0.0
  0
SPLINE
  5
562
100
AcDbEntity
  8
_1
100
AcDbSpline
 62
7
  6
BYLAYER
 70
0
 71
3
 72
11
 73
7
 74
0
 42
0.0000001
 43
0.0000001
 44
0.0000000001
 40
0.0
 40
0.0
 40
0.0
 40
0.0
 40
0.2372524156
 40
0.4999996414
 40
0.7627470637
 40
1.0
 40
1.0
 40
1.0
 40
1.0
 10
112.1136186838
 20
275.7875680951
 30
0.0
 10
111.9053812869
 20
275.6673428956
 30
0.0
 10
111.4211572338
 20
275.4918774832
 30
0.0
 10
110.6469396786
 20
275.4079880328
 30
0.0
 10
109.8727212238
 20
275.4918741162
 30
0.0
 10
109.3884956337
 20
275.6673370824
 30
0.0
 10
109.1802569128
 20
275.7875610442
 30
0.0
  0
SPLINE
  5
563
100
AcDbEntity
  8
_1
100
AcDbSpline
 62
7
  6
BYLAYER
 70
0
 71
3
 72
9
 73
5
 74
0
 42
0.0000001
 43
0.0000001
 44
0.0000000001
 40
0.0
 40
0.0
 40
0.0
 40
0.0
 40
0.2595825222
 40
1.0
 40
1.0
 40
1.0
 40
1.0
 10
119.4484089055
 20
296.6167575911
 30
0.0
 10
119.3394329794
 20
296.679673448
 30
0.0
 10
118.9148616971
 20
296.9135906052
 30
0.0
 10
118.4705503165
 20
297.1126025179
 30
0.0
 10
118.1327026777
 20
297.2337765811
 30
0.0
  0
SPLINE
  5
564
100
AcDbEntity
  8
_1
100
AcDbSpline
 62
7
  6
BYLAYER
 70
0
 71
3
 72
11
 73
7
 74
0
 42
0.0000001
 43
0.0000001
 44
0.0000000001
 40
0.0
 40
0.0
 40
0.0
 40
0.0
 40
0.2353523885
 40
0.4959820881
 40
0.7587787973
 40
1.0
 40
1.0
 40
1.0
 40
1.0
 10
109.9896592635
 20
221.7541312825
 30
0.0
 10
109.9896592635
 20
222.8617410768
 30
0.0
 10
109.5916541809
 20
225.197744893
 30
0.0
 10
108.1881673752
 20
228.5081423536
 30
0.0
 10
106.1149927558
 20
231.4798177775
 30
0.0
 10
104.3333696036
 20
233.0945720946
 30
0.0
 10
103.3831008771
 20
233.7156480091
 30
0.0
  0
SPLINE
  5
565
100
AcDbEntity
  8
_1
100
AcDbSpline
 62
7
  6
BYLAYER
 70
0
 71
3
 72
11
 73
7
 74
0
 42
0.0000001
 43
0.0000001
 44
0.0000000001
 40
0.0
 40
0.0
 40
0.0
 40
0.0
 40
0.2880460319
 40
0.5466367917
 40
0.7805153714
 40
1.0
 40
1.0
 40
1.0
 40
1.0
 10
56.7369990832
 20
260.6599395341
 30
0.0
 10
56.3150720243
 20
260.8883231714
 30
0.0
 10
55.4774530637
 20
261.2600170958
 30
0.0
 10
54.1956287367
 20
261.536283082
 30
0.0
 10
52.9956340691
 20
261.4835282122
 30
0.0
 10
52.27308742
 20
261.2151782673
 30
0.0
 10
51.9564890157
 20
261.0323911733
 30
0.0
  0
SPLINE
  5
566
100
AcDbEntity
  8
_1
100
AcDbSpline
 62
7
  6
BYLAYER
 70
0
 71
3
 72
9
 73
5
 74
0
 42
0.0000001
 43
0.0000001
 44
0.0000000001
 40
0.0
 40
0.0
 40
0.0
 40
0.0
 40
0.2380694925
 40
1.0
 40
1.0
 40
1.0
 40
1.0
 10
182.9627163846
 20
280.2148012173
 30
0.0
 10
183.1455912787
 20
280.1092207365
 30
0.0
 10
183.8987800591
 20
279.6399314258
 30
0.0
 10
184.5917392899
 20
279.0769930665
 30
0.0
 10
185.0840455601
 20
278.6139914199
 30
0.0
  0
SPLINE
  5
567
100
AcDbEntity
  8
_1
100
AcDbSpline
 62
7
  6
BYLAYER
 70
0
 71
3
 72
12
 73
8
 74
0
 42
0.0000001
 43
0.0000001
 44
0.0000000001
 40
0.0
 40
0.0
 40
0.0
 40
0.0
 40
0.1414816343
 40
0.2874777759
 40
0.5650606835
 40
0.8052143999
 40
1.0
 40
1.0
 40
1.0
 40
1.0
 10
185.0840455601
 20
278.61399142
 30
0.0
 10
185.51692284
 20
278.2068812418
 30
0.0
 10
186.428362735
 20
277.413700756
 30
0.0
 10
188.2763539662
 20
275.9243445395
 30
0.0
 10
190.497890912
 20
274.2395314453
 30
0.0
 10
192.894512125
 20
272.4475648172
 30
0.0
 10
194.3455657212
 20
271.3372446682
 30
0.0
 10
194.9835404966
 20
270.8250785779
 30
0.0
  0
SPLINE
  5
568
100
AcDbEntity
  8
_1
100
AcDbSpline
 62
7
  6
BYLAYER
 70
0
 71
3
 72
11
 73
7
 74
0
 42
0.0000001
 43
0.0000001
 44
0.0000000001
 40
0.0
 40
0.0
 40
0.0
 40
0.0
 40
0.2367120912
 40
0.4989067687
 40
0.7616952024
 40
1.0
 40
1.0
 40
1.0
 40
1.0
 10
201.4719640406
 20
300.9441449184
 30
0.0
 10
200.4799788364
 20
300.3714254124
 30
0.0
 10
198.6002193112
 20
298.795561052
 30
0.0
 10
196.3963408449
 20
295.8078262128
 30
0.0
 10
194.8744027451
 20
292.4129957274
 30
0.0
 10
194.4192813145
 20
289.992822054
 30
0.0
 10
194.4020026219
 20
288.8398003044
 30
0.0
  0
SPLINE
  5
569
100
AcDbEntity
  8
_1
100
AcDbSpline
 62
7
  6
BYLAYER
 70
0
 71
3
 72
9
 73
5
 74
0
 42
0.0000001
 43
0.0000001
 44
0.0000000001
 40
0.0
 40
0.0
 40
0.0
 40
0.0
 40
0.5000016721
 40
1.0
 40
1.0
 40
1.0
 40
1.0
 10
220.8635273964
 20
306.4242854929
 30
0.0
 10
220.8635273964
 20
306.1819370409
 30
0.0
 10
220.6979080344
 20
305.703409292
 30
0.0
 10
220.3663023846
 20
305.3207117949
 30
0.0
 10
220.1564235592
 20
305.1995389219
 30
0.0
  0
SPLINE
  5
56A
100
AcDbEntity
  8
_1
100
AcDbSpline
 62
7
  6
BYLAYER
 70
0
 71
3
 72
9
 73
5
 74
0
 42
0.0000001
 43
0.0000001
 44
0.0000000001
 40
0.0
 40
0.0
 40
0.0
 40
0.0
 40
0.5000016721
 40
1.0
 40
1.0
 40
1.0
 40
1.0
 10
208.1356583265
 20
299.0758907232
 30
0.0
 10
208.1356583265
 20
298.8335422712
 30
0.0
 10
207.9700389645
 20
298.3550145223
 30
0.0
 10
207.6384333148
 20
297.9723170252
 30
0.0
 10
207.4285544893
 20
297.8511441522
 30
0.0
  0
SPLINE
  5
56B
100
AcDbEntity
  8
_1
100
AcDbSpline
 62
7
  6
BYLAYER
 70
0
 71
3
 72
9
 73
5
 74
0
 42
0.0000001
 43
0.0000001
 44
0.0000000001
 40
0.0
 40
0.0
 40
0.0
 40
0.0
 40
0.5000016721
 40
1.0
 40
1.0
 40
1.0
 40
1.0
 10
233.5913964662
 20
313.7726802626
 30
0.0
 10
233.5913964662
 20
313.5303318106
 30
0.0
 10
233.4257771042
 20
313.0518040617
 30
0.0
 10
233.0941714545
 20
312.6691065646
 30
0.0
 10
232.884292629
 20
312.5479336916
 30
0.0
  0
SPLINE
  5
56C
100
AcDbEntity
  8
_1
100
AcDbSpline
 62
7
  6
BYLAYER
 70
0
 71
3
 72
11
 73
7
 74
0
 42
0.0000001
 43
0.0000001
 44
0.0000000001
 40
0.0
 40
0.0
 40
0.0
 40
0.0
 40
0.2893966051
 40
0.5491278405
 40
0.7823136736
 40
1.0
 40
1.0
 40
1.0
 40
1.0
 10
236.3843715426
 20
327.9999540137
 30
0.0
 10
236.3843715426
 20
328.1391401019
 30
0.0
 10
236.4057627443
 20
328.404094905
 30
0.0
 10
236.5126714712
 20
328.7683343477
 30
0.0
 10
236.6935388378
 20
329.0638564057
 30
0.0
 10
236.8632807445
 20
329.2064797282
 30
0.0
 10
236.9539879708
 20
329.2587638183
 30
0.0
  0
SPLINE
  5
56D
100
AcDbEntity
  8
_1
100
AcDbSpline
 62
7
  6
BYLAYER
 70
0
 71
3
 72
11
 73
7
 74
0
 42
0.0000001
 43
0.0000001
 44
0.0000000001
 40
0.0
 40
0.0
 40
0.0
 40
0.0
 40
0.2896986602
 40
0.5490859192
 40
0.7821981867
 40
1.0
 40
1.0
 40
1.0
 40
1.0
 10
234.4398197985
 20
324.2236015859
 30
0.0
 10
234.4398197985
 20
324.5022725876
 30
0.0
 10
234.4820429712
 20
325.0322585234
 30
0.0
 10
234.6967550239
 20
325.7603804961
 30
0.0
 10
235.0580306234
 20
326.3512947977
 30
0.0
 10
235.3974733293
 20
326.6367041936
 30
0.0
 10
235.5789422277
 20
326.7414127825
 30
0.0
  0
SPLINE
  5
56E
100
AcDbEntity
  8
_1
100
AcDbSpline
 62
7
  6
BYLAYER
 70
0
 71
3
 72
11
 73
7
 74
0
 42
0.0000001
 43
0.0000001
 44
0.0000000001
 40
0.0
 40
0.0
 40
0.0
 40
0.0
 40
0.2893966051
 40
0.5491278405
 40
0.7823136736
 40
1.0
 40
1.0
 40
1.0
 40
1.0
 10
196.0791172092
 20
351.2696770214
 30
0.0
 10
196.0791172092
 20
351.4088631096
 30
0.0
 10
196.100508411
 20
351.6738179127
 30
0.0
 10
196.2074171378
 20
352.0380573554
 30
0.0
 10
196.3882845045
 20
352.3335794133
 30
0.0
 10
196.5580264111
 20
352.4762027359
 30
0.0
 10
196.6487336374
 20
352.528486826
 30
0.0
  0
SPLINE
  5
56F
100
AcDbEntity
  8
_1
100
AcDbSpline
 62
7
  6
BYLAYER
 70
0
 71
3
 72
11
 73
7
 74
0
 42
0.0000001
 43
0.0000001
 44
0.0000000001
 40
0.0
 40
0.0
 40
0.0
 40
0.0
 40
0.2896986602
 40
0.5490859192
 40
0.7821981867
 40
1.0
 40
1.0
 40
1.0
 40
1.0
 10
194.1345654651
 20
347.4933245935
 30
0.0
 10
194.1345654651
 20
347.7719955953
 30
0.0
 10
194.1767886378
 20
348.3019815311
 30
0.0
 10
194.3915006905
 20
349.0301035037
 30
0.0
 10
194.75277629
 20
349.6210178054
 30
0.0
 10
195.0922189959
 20
349.9064272012
 30
0.0
 10
195.2736878944
 20
350.0111357902
 30
0.0
  0
SPLINE
  5
570
100
AcDbEntity
  8
_1
100
AcDbSpline
 62
7
  6
BYLAYER
 70
0
 71
3
 72
11
 73
7
 74
0
 42
0.0000001
 43
0.0000001
 44
0.0000000001
 40
0.0
 40
0.0
 40
0.0
 40
0.0
 40
0.2367120912
 40
0.4989067687
 40
0.7616952024
 40
1.0
 40
1.0
 40
1.0
 40
1.0
 10
146.0345615891
 20
332.9502200728
 30
0.0
 10
145.0425763849
 20
332.3775005668
 30
0.0
 10
143.1628168597
 20
330.8016362064
 30
0.0
 10
140.9589383934
 20
327.8139013672
 30
0.0
 10
139.4370002936
 20
324.4190708818
 30
0.0
 10
138.9818788629
 20
321.9988972084
 30
0.0
 10
138.9646001704
 20
320.8458754588
 30
0.0
  0
SPLINE
  5
571
100
AcDbEntity
  8
_1
100
AcDbSpline
 62
7
  6
BYLAYER
 70
0
 71
3
 72
9
 73
5
 74
0
 42
0.0000001
 43
0.0000001
 44
0.0000000001
 40
0.0
 40
0.0
 40
0.0
 40
0.0
 40
0.5000016721
 40
1.0
 40
1.0
 40
1.0
 40
1.0
 10
165.4261249449
 20
338.4303606473
 30
0.0
 10
165.4261249449
 20
338.1880121953
 30
0.0
 10
165.2605055829
 20
337.7094844464
 30
0.0
 10
164.9288999331
 20
337.3267869493
 30
0.0
 10
164.7190211077
 20
337.2056140763
 30
0.0
  0
SPLINE
  5
572
100
AcDbEntity
  8
_1
100
AcDbSpline
 62
7
  6
BYLAYER
 70
0
 71
3
 72
9
 73
5
 74
0
 42
0.0000001
 43
0.0000001
 44
0.0000000001
 40
0.0
 40
0.0
 40
0.0
 40
0.0
 40
0.5000016721
 40
1.0
 40
1.0
 40
1.0
 40
1.0
 10
152.698255875
 20
331.0819658776
 30
0.0
 10
152.698255875
 20
330.8396174256
 30
0.0
 10
152.532636513
 20
330.3610896767
 30
0.0
 10
152.2010308633
 20
329.9783921796
 30
0.0
 10
151.9911520378
 20
329.8572193066
 30
0.0
  0
SPLINE
  5
573
100
AcDbEntity
  8
_1
100
AcDbSpline
 62
7
  6
BYLAYER
 70
0
 71
3
 72
9
 73
5
 74
0
 42
0.0000001
 43
0.0000001
 44
0.0000000001
 40
0.0
 40
0.0
 40
0.0
 40
0.0
 40
0.5000016721
 40
1.0
 40
1.0
 40
1.0
 40
1.0
 10
178.1539940147
 20
345.7787554169
 30
0.0
 10
178.1539940147
 20
345.536406965
 30
0.0
 10
177.9883746527
 20
345.0578792161
 30
0.0
 10
177.656769003
 20
344.675181719
 30
0.0
 10
177.4468901775
 20
344.5540088459
 30
0.0
  0
SPLINE
  5
574
100
AcDbEntity
  8
_1
100
AcDbSpline
 62
7
  6
BYLAYER
 70
0
 71
3
 72
16
 73
12
 74
0
 42
0.0000001
 43
0.0000001
 44
0.0000000001
 40
0.0
 40
0.0
 40
0.0
 40
0.0
 40
0.0881733361
 40
0.190288196
 40
0.3096827528
 40
0.4440470298
 40
0.5152060288
 40
0.5877948788
 40
0.7332759614
 40
0.8729170072
 40
1.0
 40
1.0
 40
1.0
 40
1.0
 10
200.5419067553
 20
340.3719434126
 30
0.0
 10
200.2504147533
 20
340.2542522736
 30
0.0
 10
199.5502498677
 20
340.1668353481
 30
0.0
 10
198.4693806802
 20
340.4701734498
 30
0.0
 10
197.3751095285
 20
341.134666721
 30
0.0
 10
196.5256330144
 20
341.9329897225
 30
0.0
 10
195.8957013138
 20
342.6998482759
 30
0.0
 10
195.3097933363
 20
343.5496278727
 30
0.0
 10
194.7161595184
 20
344.6854914552
 30
0.0
 10
194.2568416772
 20
346.0882058356
 30
0.0
 10
194.1345654651
 20
347.04024977
 30
0.0
 10
194.1345654651
 20
347.4933245935
 30
0.0
  0
SPLINE
  5
575
100
AcDbEntity
  8
_1
100
AcDbSpline
 62
7
  6
BYLAYER
 70
0
 71
3
 72
9
 73
5
 74
0
 42
0.0000001
 43
0.0000001
 44
0.0000000001
 40
0.0
 40
0.0
 40
0.0
 40
0.0
 40
0.2435891735
 40
1.0
 40
1.0
 40
1.0
 40
1.0
 10
101.458702099
 20
34.9355013147
 30
0.0
 10
101.5258788943
 20
34.974285636
 30
0.0
 10
101.7905900433
 20
35.1526584326
 30
0.0
 10
102.0009882554
 20
35.4061116813
 30
0.0
 10
102.1213492356
 20
35.6147571889
 30
0.0
  0
SPLINE
  5
576
100
AcDbEntity
  8
_1
100
AcDbSpline
 62
7
  6
BYLAYER
 70
0
 71
3
 72
9
 73
5
 74
0
 42
0.0000001
 43
0.0000001
 44
0.0000000001
 40
0.0
 40
0.0
 40
0.0
 40
0.0
 40
0.2268616146
 40
1.0
 40
1.0
 40
1.0
 40
1.0
 10
102.1213492356
 20
35.6147571889
 30
0.0
 10
102.1842052438
 20
35.7237179478
 30
0.0
 10
102.4198588084
 20
36.2281375326
 30
0.0
 10
102.4942743916
 20
36.7957177034
 30
0.0
 10
102.4942743916
 20
37.224409416
 30
0.0
  0
SPLINE
  5
577
100
AcDbEntity
  8
_1
100
AcDbSpline
 62
7
  6
BYLAYER
 70
0
 71
3
 72
11
 73
7
 74
0
 42
0.0000001
 43
0.0000001
 44
0.0000000001
 40
0.0
 40
0.0
 40
0.0
 40
0.0
 40
0.2194836055
 40
0.4533617457
 40
0.7119528808
 40
1.0
 40
1.0
 40
1.0
 40
1.0
 10
107.9185028738
 20
45.7108279288
 30
0.0
 10
108.2351090685
 20
45.8936195207
 30
0.0
 10
108.8287967473
 20
46.3852010167
 30
0.0
 10
109.4744933293
 20
47.3980818458
 30
0.0
 10
109.8761528447
 20
48.646349384
 30
0.0
 10
109.9730591426
 20
49.5576258766
 30
0.0
 10
109.9862317086
 20
50.0372332413
 30
0.0
  0
SPLINE
  5
578
100
AcDbEntity
  8
_1
100
AcDbSpline
 62
7
  6
BYLAYER
 70
0
 71
3
 72
11
 73
7
 74
0
 42
0.0000001
 43
0.0000001
 44
0.0000000001
 40
0.0
 40
0.0
 40
0.0
 40
0.0
 40
0.1193569462
 40
0.3167956383
 40
0.6081975582
 40
1.0
 40
1.0
 40
1.0
 40
1.0
 10
132.9140749272
 20
307.7728000638
 30
0.0
 10
132.9810041053
 20
307.8154283978
 30
0.0
 10
133.1978663668
 20
307.8532651542
 30
0.0
 10
133.5989601456
 20
307.8330905419
 30
0.0
 10
134.1800946905
 20
307.7448701924
 30
0.0
 10
134.6245519033
 20
307.6536423095
 30
0.0
 10
134.8792550747
 20
307.5990849909
 30
0.0
  0
SPLINE
  5
579
100
AcDbEntity
  8
_1
100
AcDbSpline
 62
7
  6
BYLAYER
 70
0
 71
3
 72
10
 73
6
 74
0
 42
0.0000001
 43
0.0000001
 44
0.0000000001
 40
0.0
 40
0.0
 40
0.0
 40
0.0
 40
0.5134858752
 40
0.7622511051
 40
1.0
 40
1.0
 40
1.0
 40
1.0
 10
194.9835404966
 20
99.3595709807
 30
0.0
 10
194.258412063
 20
97.9401367471
 30
0.0
 10
192.9367068339
 20
95.9399501052
 30
0.0
 10
190.7507695366
 20
93.7266618158
 30
0.0
 10
189.5249776582
 20
92.8259769192
 30
0.0
 10
188.8858442225
 20
92.4569810269
 30
0.0
  0
SPLINE
  5
57A
100
AcDbEntity
  8
_1
100
AcDbSpline
 62
7
  6
BYLAYER
 70
0
 71
3
 72
9
 73
5
 74
0
 42
0.0000001
 43
0.0000001
 44
0.0000000001
 40
0.0
 40
0.0
 40
0.0
 40
0.0
 40
0.5373633876
 40
1.0
 40
1.0
 40
1.0
 40
1.0
 10
194.4020026219
 20
84.4291973812
 30
0.0
 10
194.4120789293
 20
83.7684319244
 30
0.0
 10
194.5586902898
 20
82.5330184373
 30
0.0
 10
195.0822791169
 20
81.3853827435
 30
0.0
 10
195.4245050903
 20
80.9308731226
 30
0.0
  0
SPLINE
  5
57B
100
AcDbEntity
  8
_1
100
AcDbSpline
 62
7
  6
BYLAYER
 70
0
 71
3
 72
9
 73
5
 74
0
 42
0.0000001
 43
0.0000001
 44
0.0000000001
 40
0.0
 40
0.0
 40
0.0
 40
0.0
 40
0.2566305396
 40
1.0
 40
1.0
 40
1.0
 40
1.0
 10
195.4245050903
 20
80.9308731226
 30
0.0
 10
195.4971194841
 20
80.8344340936
 30
0.0
 10
195.7969102552
 20
80.4717381976
 30
0.0
 10
196.1692420779
 20
80.1681049451
 30
0.0
 10
196.4720836439
 20
79.9932737419
 30
0.0
  0
SPLINE
  5
57C
100
AcDbEntity
  8
_1
100
AcDbSpline
 62
7
  6
BYLAYER
 70
0
 71
3
 72
9
 73
5
 74
0
 42
0.0000001
 43
0.0000001
 44
0.0000000001
 40
0.0
 40
0.0
 40
0.0
 40
0.0
 40
0.5000016721
 40
1.0
 40
1.0
 40
1.0
 40
1.0
 10
208.1356583265
 20
88.4182671037
 30
0.0
 10
208.1356583265
 20
88.1759186518
 30
0.0
 10
207.9700389645
 20
87.6973909029
 30
0.0
 10
207.6384333148
 20
87.3146934058
 30
0.0
 10
207.4285544893
 20
87.1935205327
 30
0.0
  0
SPLINE
  5
57D
100
AcDbEntity
  8
_1
100
AcDbSpline
 62
7
  6
BYLAYER
 70
0
 71
3
 72
9
 73
5
 74
0
 42
0.0000001
 43
0.0000001
 44
0.0000000001
 40
0.0
 40
0.0
 40
0.0
 40
0.0
 40
0.234470682
 40
1.0
 40
1.0
 40
1.0
 40
1.0
 10
134.8792550747
 20
307.5990849909
 30
0.0
 10
135.0542789852
 20
307.5615949384
 30
0.0
 10
135.793162245
 20
307.3664104376
 30
0.0
 10
136.4944741708
 20
307.0426464412
 30
0.0
 10
137.0005842501
 20
306.7504502611
 30
0.0
  0
SPLINE
  5
57E
100
AcDbEntity
  8
_1
100
AcDbSpline
 62
7
  6
BYLAYER
 70
0
 71
3
 72
11
 73
7
 74
0
 42
0.0000001
 43
0.0000001
 44
0.0000000001
 40
0.0
 40
0.0
 40
0.0
 40
0.0
 40
0.2177817009
 40
0.4509079353
 40
0.7102947134
 40
1.0
 40
1.0
 40
1.0
 40
1.0
 10
132.8290168642
 20
310.8328816018
 30
0.0
 10
132.8290169136
 20
310.5662627055
 30
0.0
 10
132.9275458003
 20
310.0105445312
 30
0.0
 10
133.3488377473
 20
309.2362513047
 30
0.0
 10
134.014840414
 20
308.5363219992
 30
0.0
 10
134.5720990422
 20
308.1525051309
 30
0.0
 10
134.8792550747
 20
307.9751725247
 30
0.0
  0
SPLINE
  5
57F
100
AcDbEntity
  8
_1
100
AcDbSpline
 62
7
  6
BYLAYER
 70
0
 71
3
 72
9
 73
5
 74
0
 42
0.0000001
 43
0.0000001
 44
0.0000000001
 40
0.0
 40
0.0
 40
0.0
 40
0.0
 40
0.5500415763
 40
1.0
 40
1.0
 40
1.0
 40
1.0
 10
132.5459375304
 20
303.1582036048
 30
0.0
 10
132.587222423
 20
303.1343683002
 30
0.0
 10
132.6579622779
 20
303.0797877061
 30
0.0
 10
132.6924317381
 20
302.9930788525
 30
0.0
 10
132.6924317579
 20
302.9540815165
 30
0.0
  0
SPLINE
  5
580
100
AcDbEntity
  8
_1
100
AcDbSpline
 62
7
  6
BYLAYER
 70
0
 71
3
 72
10
 73
6
 74
0
 42
0.0000001
 43
0.0000001
 44
0.0000000001
 40
0.0
 40
0.0
 40
0.0
 40
0.0
 40
0.547752844
 40
0.7815965272
 40
1.0
 40
1.0
 40
1.0
 40
1.0
 10
133.6590726037
 20
302.1073085548
 30
0.0
 10
133.8306302518
 20
302.2063568179
 30
0.0
 10
134.0621909719
 20
302.3887305865
 30
0.0
 10
134.2374593223
 20
302.7103556155
 30
0.0
 10
134.2664695787
 20
302.8750948756
 30
0.0
 10
134.2664695542
 20
302.954081527
 30
0.0
  0
SPLINE
  5
581
100
AcDbEntity
  8
_1
100
AcDbSpline
 62
7
  6
BYLAYER
 70
0
 71
3
 72
11
 73
7
 74
0
 42
0.0000001
 43
0.0000001
 44
0.0000000001
 40
0.0
 40
0.0
 40
0.0
 40
0.0
 40
0.2372531816
 40
0.5000006935
 40
0.7627478297
 40
1.0
 40
1.0
 40
1.0
 40
1.0
 10
109.1802569128
 20
289.6681021354
 30
0.0
 10
109.388495849
 20
289.5478780494
 30
0.0
 10
109.8727218065
 20
289.3724150412
 30
0.0
 10
110.6469405292
 20
289.288529124
 30
0.0
 10
111.4211578165
 20
289.3724187405
 30
0.0
 10
111.9053815022
 20
289.5478841111
 30
0.0
 10
112.1136186838
 20
289.6681091863
 30
0.0
  0
SPLINE
  5
582
100
AcDbEntity
  8
_1
100
AcDbSpline
 62
7
  6
BYLAYER
 70
0
 71
3
 72
10
 73
6
 74
0
 42
0.0000001
 43
0.0000001
 44
0.0000000001
 40
0.0
 40
0.0
 40
0.0
 40
0.0
 40
0.2184036142
 40
0.4522473232
 40
1.0
 40
1.0
 40
1.0
 40
1.0
 10
134.2664695542
 20
289.0735404374
 30
0.0
 10
134.2664695366
 20
288.9945537343
 30
0.0
 10
134.2374593268
 20
288.8298144076
 30
0.0
 10
134.0621908525
 20
288.5081894231
 30
0.0
 10
133.8306302005
 20
288.3258156971
 30
0.0
 10
133.6590726037
 20
288.2267674636
 30
0.0
  0
ELLIPSE
  5
583
100
AcDbEntity
  8
_1
100
AcDbEllipse
 62
7
  6
BYLAYER
 10
34.6826001259
 20
246.9761432091
 30
0.0
 11
1.4636867364
 21
2.6609799214
 31
0.0
 40
0.5770214523
 41
-4.2341804647
 42
-3.9509117853
  0
ELLIPSE
  5
584
100
AcDbEntity
  8
_1
100
AcDbEllipse
 62
7
  6
BYLAYER
 10
36.0968195762
 20
245.7981390836
 30
0.0
 11
1.4636867364
 21
2.6609799214
 31
0.0
 40
0.5770214523
 41
-4.3883236694
 42
-3.9509117853
  0
ELLIPSE
  5
585
100
AcDbEntity
  8
_1
100
AcDbEllipse
 62
7
  6
BYLAYER
 10
99.029520347
 20
95.4004040358
 30
0.0
 11
7.0710678118
 21
0.0000254953
 31
0.0
 40
0.577354396
 41
-0.0000020817
 42
1.5707942451
  0
ELLIPSE
  5
586
100
AcDbEntity
  8
_1
100
AcDbEllipse
 62
7
  6
BYLAYER
 10
91.9584525352
 20
219.5087544427
 30
0.0
 11
14.1421356236
 21
0.0000509906
 31
0.0
 40
0.577354396
 41
-0.0000020817
 42
1.0471954695
  0
ENDSEC
  0
SECTION
  2
OBJECTS
  0
DICTIONARY
  5
C
100
AcDbDictionary
280
0
281
1
  3
ACAD_GROUP
350
D
  3
ACAD_MLINESTYLE
350
17
  3
ACAD_LAYOUT
350
1A
  3
ACAD_PLOTSETTINGS
350
19
  3
ACAD_PLOTSTYLENAME
350
E
  0
DICTIONARY
  5
D
102
{ACAD_REACTORS
330
C
102
}
100
AcDbDictionary
280
0
281
1
  0
ACDBDICTIONARYWDFLT
  5
E
102
{ACAD_REACTORS
330
C
102
}
100
AcDbDictionary
281
1
  3
Normal
350
F
100
AcDbDictionaryWithDefault
340
F
  0
DICTIONARY
  5
17
102
{ACAD_REACTORS
330
C
102
}
100
AcDbDictionary
280
0
281
1
  3
Standard
350
18
  0
DICTIONARY
  5
19
102
{ACAD_REACTORS
330
C
102
}
100
AcDbDictionary
281
1
  0
DICTIONARY
  5
1A
102
{ACAD_REACTORS
330
C
102
}
100
AcDbDictionary
281
1
  3
Model
350
587
  3
Layout1
350
588
  0
ACDBPLACEHOLDER
  5
F
102
{ACAD_REACTORS
330
E
102
}
  0
MLINESTYLE
  5
18
102
{ACAD_REACTORS
330
17
102
}
100
AcDbMlineStyle
  2
STANDARD
 70
0
  3

 62
256
 51
90.0
 52
90.0
 71
2
 49
0.5
 62
256
  6
BYLAYER
 49
-0.5
 62
256
  6
BYLAYER
  0
LAYOUT
  5
587
102
{ACAD_REACTORS
330
1A
102
}
100
AcDbPlotSettings
  1

  2
none_device
  4

  6

 40
0.0
 41
0.0
 42
0.0
 43
0.0
 44
210.0
 45
297.0
 46
0.0
 47
0.0
 48
0.0
 49
0.0
140
0.0
141
0.0
142
1.0
143
1.0
 70
1024
 72
1
 73
0
 74
0
  7

 75
0
147
1.0
148
0.0
149
0.0
100
AcDbLayout
  1
Model
 70
0
 71
0
 10
0.0
 20
0.0
 11
210.0
 21
297.0
 12
0.0
 22
0.0
 32
0.0
 14
0.0
 24
0.0
 34
0.0
 15
0.0
 25
0.0
 35
0.0
146
0.0
 13
0.0
 23
0.0
 33
0.0
 16
1.0
 26
0.0
 36
0.0
 17
0.0
 27
1.0
 37
0.0
 76
0
330
213
345
0
346
0
  0
LAYOUT
  5
588
102
{ACAD_REACTORS
330
1A
102
}
100
AcDbPlotSettings
  1

  2
none_device
  4

  6

 40
0.0
 41
0.0
 42
0.0
 43
0.0
 44
210.0
 45
297.0
 46
0.0
 47
0.0
 48
0.0
 49
0.0
140
0.0
141
0.0
142
1.0
143
1.0
 70
0
 72
1
 73
0
 74
0
  7

 75
0
147
1.0
148
0.0
149
0.0
100
AcDbLayout
  1
Layout1
 70
0
 71
1
 10
0.0
 20
0.0
 11
210.0
 21
297.0
 12
0.0
 22
0.0
 32
0.0
 14
0.0
 24
0.0
 34
0.0
 15
0.0
 25
0.0
 35
0.0
146
0.0
 13
0.0
 23
0.0
 33
0.0
 16
1.0
 26
0.0
 36
0.0
 17
0.0
 27
1.0
 37
0.0
 76
0
330
214
345
0
346
0
  0
ENDSEC
  0
EOF
