  0
SECTION
  2
HEADER
  9
$ACADVER
  1
AC1009
  9
$DWGCODEPAGE
  3
ansi_1250
  9
$INSBASE
 10
0.0
 20
0.0
 30
0.0
  9
$EXTMIN
 10
-2.873906
 20
-2.873906
 30
0.0
  9
$EXTMAX
 10
2.873906
 20
2.873906
 30
0.0
  9
$LIMMIN
 10
0.0
 20
0.0
  9
$LIMMAX
 10
0.0
 20
0.0
  9
$ORTHOMODE
 70
     0
  9
$REGENMODE
 70
     1
  9
$FILLMODE
 70
     1
  9
$QTEXTMODE
 70
     0
  9
$MIRRTEXT
 70
     1
  9
$DRAGMODE
 70
     2
  9
$LTSCALE
 40
1.0
  9
$OSMODE
 70
     0
  9
$ATTMODE
 70
     1
  9
$TEXTSIZE
 40
0.2
  9
$TRACEWID
 40
0.05
  9
$TEXTSTYLE
  7
STANDARD
  9
$CLAYER
  8
0
  9
$CELTYPE
  6
CONTINUOUS
  9
$CECOLOR
 62
   256
  9
$DIMSCALE
 40
1.0
  9
$DIMASZ
 40
0.18
  9
$DIMEXO
 40
0.0625
  9
$DIMDLI
 40
0.38
  9
$DIMRND
 40
0.0
  9
$DIMDLE
 40
0.0
  9
$DIMEXE
 40
0.18
  9
$DIMTP
 40
0.0
  9
$DIMTM
 40
0.0
  9
$DIMTXT
 40
0.18
  9
$DIMCEN
 40
0.09
  9
$DIMTSZ
 40
0.0
  9
$DIMTOL
 70
     0
  9
$DIMLIM
 70
     0
  9
$DIMTIH
 70
     1
  9
$DIMTOH
 70
     1
  9
$DIMSE1
 70
     0
  9
$DIMSE2
 70
     0
  9
$DIMTAD
 70
     0
  9
$DIMZIN
 70
     0
  9
$DIMBLK
  1

  9
$DIMASO
 70
     1
  9
$DIMSHO
 70
     1
  9
$DIMPOST
  1

  9
$DIMAPOST
  1

  9
$DIMALT
 70
     0
  9
$DIMALTD
 70
     2
  9
$DIMALTF
 40
25.4
  9
$DIMLFAC
 40
1.0
  9
$DIMTOFL
 70
     0
  9
$DIMTVP
 40
0.0
  9
$DIMTIX
 70
     0
  9
$DIMSOXD
 70
     0
  9
$DIMSAH
 70
     0
  9
$DIMBLK1
  1

  9
$DIMBLK2
  1

  9
$DIMSTYLE
  2
STANDARD
  9
$DIMCLRD
 70
     0
  9
$DIMCLRE
 70
     0
  9
$DIMCLRT
 70
     0
  9
$DIMTFAC
 40
1.0
  9
$DIMGAP
 40
0.09
  9
$LUNITS
 70
     2
  9
$LUPREC
 70
     4
  9
$AXISMODE
 70
     0
  9
$AXISUNIT
 10
0.0
 20
0.0
  9
$SKETCHINC
 40
0.1
  9
$FILLETRAD
 40
0.0
  9
$AUNITS
 70
     0
  9
$AUPREC
 70
     0
  9
$MENU
  1
acad
  9
$ELEVATION
 40
0.0
  9
$PELEVATION
 40
0.0
  9
$THICKNESS
 40
0.0
  9
$LIMCHECK
 70
     0
  9
$BLIPMODE
 70
     1
  9
$CHAMFERA
 40
0.0
  9
$CHAMFERB
 40
0.0
  9
$SKPOLY
 70
     0
  9
$TDCREATE
 40
0.000000000
  9
$TDUPDATE
 40
0.000000000
  9
$TDINDWG
 40
0.0000000000
  9
$TDUSRTIMER
 40
0.0000000000
  9
$USRTIMER
 70
     1
  9
$ANGBASE
 50
0.0
  9
$ANGDIR
 70
     0
  9
$PDMODE
 70
     0
  9
$PDSIZE
 40
0.0
  9
$PLINEWID
 40
0.0
  9
$COORDS
 70
     0
  9
$SPLFRAME
 70
     0
  9
$SPLINETYPE
 70
     6
  9
$SPLINESEGS
 70
     8
  9
$ATTDIA
 70
     0
  9
$ATTREQ
 70
     1
  9
$HANDLING
 70
     1
  9
$HANDSEED
  5
420
  9
$SURFTAB1
 70
     6
  9
$SURFTAB2
 70
     6
  9
$SURFTYPE
 70
     6
  9
$SURFU
 70
     6
  9
$SURFV
 70
     6
  9
$UCSNAME
  2

  9
$UCSORG
 10
0.0
 20
0.0
 30
0.0
  9
$UCSXDIR
 10
1.0
 20
0.0
 30
0.0
  9
$UCSYDIR
 10
0.0
 20
1.0
 30
0.0
  9
$PUCSNAME
  2

  9
$PUCSORG
 10
0.0
 20
0.0
 30
0.0
  9
$PUCSXDIR
 10
1.0
 20
0.0
 30
0.0
  9
$PUCSYDIR
 10
0.0
 20
1.0
 30
0.0
  9
$USERI1
 70
     0
  9
$USERI2
 70
     0
  9
$USERI3
 70
     0
  9
$USERI4
 70
     0
  9
$USERI5
 70
     0
  9
$USERR1
 40
0.0
  9
$USERR2
 40
0.0
  9
$USERR3
 40
0.0
  9
$USERR4
 40
0.0
  9
$USERR5
 40
0.0
  9
$WORLDVIEW
 70
     1
  9
$SHADEDGE
 70
     3
  9
$SHADEDIF
 70
    70
  9
$TILEMODE
 70
     1
  9
$MAXACTVP
 70
    16
  9
$PINSBASE
 10
0.0
 20
0.0
 30
0.0
  9
$PLIMCHECK
 70
     0
  9
$PEXTMIN
 10
1.000000E+20
 20
1.000000E+20
 30
1.000000E+20
  9
$PEXTMAX
 10
-1.000000E+20
 20
-1.000000E+20
 30
-1.000000E+20
  9
$PLIMMIN
 10
0.0
 20
0.0
  9
$PLIMMAX
 10
12.0
 20
9.0
  9
$UNITMODE
 70
     0
  9
$VISRETAIN
 70
     0
  9
$PLINEGEN
 70
     1
  9
$PSLTSCALE
 70
     0
  9
$TREEDEPTH
 70
  3020
  0
ENDSEC
  0
SECTION
  2
TABLES
  0
TABLE
  2
VPORT
 70
     1
  0
VPORT
  2
*ACTIVE
 70
     0
 10
0.0
 20
0.0
 11
1.0
 21
1.0
 12
6.591288
 22
4.579184
 13
0.0
 23
0.0
 14
1.0
 24
1.0
 15
0.0
 25
0.0
 16
0.0
 26
0.0
 36
1.0
 17
0.0
 27
0.0
 37
0.0
 40
9.158369
 41
0.688564
 42
50.0
 43
0.0
 44
0.0
 50
0.0
 51
0.0
 71
     0
 72
   100
 73
     1
 74
     1
 75
     0
 76
     0
 77
     0
 78
     0
  0
ENDTAB
  0
TABLE
  2
LTYPE
 70
     5
  0
LTYPE
  2
CONTINUOUS
 70
    64
  3
Solid line
 72
    65
 73
     0
 40
0.0
  0
LTYPE
  2
CENTER
 70
    64
  3
Center ____ _ ____ _ ____ _ ____ _ ____ _ ____
 72
    65
 73
     4
 40
50.8
 49
31.75
 49
-6.35
 49
6.35
 49
-6.35
  0
LTYPE
  2
HIDDEN
 70
    64
  3
Hidden __ __ __ __ __ __ __ __ __ __ __ __ __ __
 72
    65
 73
     2
 40
9.525
 49
6.35
 49
-3.175
  0
LTYPE
  2
CENTER2
 70
    64
  3
Center (.5x) ___ _ ___ _ ___ _ ___ _ ___ _ ___
 72
    65
 73
     4
 40
28.575
 49
19.05
 49
-3.175
 49
3.175
 49
-3.175
  0
LTYPE
  2
HIDDEN2
 70
    64
  3
Hidden (.5x) _ _ _ _ _ _ _ _ _ _ _ _ _ _ _ _ _
 72
    65
 73
     2
 40
4.7625
 49
3.175
 49
-1.5875
  0
ENDTAB
  0
TABLE
  2
LAYER
 70
     1
  0
LAYER
  2
0
 70
     0
 62
     7
  6
CONTINUOUS
  0
ENDTAB
  0
TABLE
  2
STYLE
 70
     1
  0
STYLE
  2
STANDARD
 70
     0
 40
0.0
 41
1.0
 50
0.0
 71
     0
 42
0.0
  3
txt
  4

  0
ENDTAB
  0
TABLE
  2
VIEW
 70
     0
  0
ENDTAB
  0
TABLE
  2
UCS
 70
     0
  0
ENDTAB
  0
TABLE
  2
APPID
 70
     1
  0
APPID
  2
ACAD
 70
     0
  0
ENDTAB
  0
TABLE
  2
DIMSTYLE
 70
     1
  0
DIMSTYLE
  2
STANDARD
 70
     0
  3

  4

  5

  6

  7

 40
1.0
 41
0.18
 42
0.0625
 43
0.38
 44
0.18
 45
0.0
 46
0.0
 47
0.0
 48
0.0
 71
     0
 72
     0
 73
     1
 74
     1
 75
     0
 76
     0
 77
     0
 78
     0
140
0.18
141
0.09
142
0.0
143
25.4
144
1.0
145
0.0
146
1.0
147
0.09
170
     0
171
     2
172
     0
173
     0
174
     0
175
     0
176
     0
177
     0
178
     0
  0
ENDTAB
  0
ENDSEC
  0
SECTION
  2
BLOCKS
  0
ENDSEC
  0
SECTION
  2
ENTITIES
  0
CIRCLE
  8
0
  6
CONTINUOUS
 62
     7
  5
22F
 10
0.0
 20
0.0
 30
0.0
 40
0.314961
  0
CIRCLE
  8
0
  6
CONTINUOUS
 62
     7
  5
230
 10
-0.393701
 20
-0.68191
 30
0.0
 40
0.137795
  0
CIRCLE
  8
0
  6
CONTINUOUS
 62
     7
  5
231
 10
-0.787402
 20
0.0
 30
0.0
 40
0.137795
  0
CIRCLE
  8
0
  6
CONTINUOUS
 62
     7
  5
232
 10
-0.393701
 20
0.68191
 30
0.0
 40
0.137795
  0
CIRCLE
  8
0
  6
CONTINUOUS
 62
     7
  5
233
 10
0.393701
 20
0.68191
 30
0.0
 40
0.137795
  0
CIRCLE
  8
0
  6
CONTINUOUS
 62
     7
  5
234
 10
0.787402
 20
0.0
 30
0.0
 40
0.137795
  0
CIRCLE
  8
0
  6
CONTINUOUS
 62
     7
  5
235
 10
0.393701
 20
-0.68191
 30
0.0
 40
0.137795
  0
CIRCLE
  8
0
  6
CONTINUOUS
 62
     7
  5
236
 10
-1.193342
 20
-0.688976
 30
0.0
 40
0.137795
  0
CIRCLE
  8
0
  6
CONTINUOUS
 62
     7
  5
237
 10
0.0
 20
1.377953
 30
0.0
 40
0.137795
  0
CIRCLE
  8
0
  6
CONTINUOUS
 62
     7
  5
238
 10
1.193342
 20
-0.688976
 30
0.0
 40
0.137795
  0
CIRCLE
  8
0
  6
CONTINUOUS
 62
     7
  5
239
 10
0.0
 20
0.0
 30
0.0
 40
2.027559
  0
LINE
  8
0
  6
CONTINUOUS
 62
     7
  5
23A
 10
0.516993
 20
-0.628348
 30
0.0
 11
0.516966
 21
-0.628318
 31
0.0
  0
LINE
  8
0
  6
CONTINUOUS
 62
     7
  5
23B
 10
0.516966
 20
-0.628318
 30
0.0
 11
0.516944
 21
-0.628283
 31
0.0
  0
LINE
  8
0
  6
CONTINUOUS
 62
     7
  5
23C
 10
0.516944
 20
-0.628283
 30
0.0
 11
0.516926
 21
-0.628246
 31
0.0
  0
LINE
  8
0
  6
CONTINUOUS
 62
     7
  5
23D
 10
0.516926
 20
-0.628246
 30
0.0
 11
0.516913
 21
-0.628204
 31
0.0
  0
LINE
  8
0
  6
CONTINUOUS
 62
     7
  5
23E
 10
0.516913
 20
-0.628204
 30
0.0
 11
0.516904
 21
-0.628158
 31
0.0
  0
LINE
  8
0
  6
CONTINUOUS
 62
     7
  5
23F
 10
0.516904
 20
-0.628158
 30
0.0
 11
0.516899
 21
-0.628109
 31
0.0
  0
LINE
  8
0
  6
CONTINUOUS
 62
     7
  5
240
 10
0.516899
 20
-0.628109
 30
0.0
 11
0.516899
 21
-0.628056
 31
0.0
  0
LINE
  8
0
  6
CONTINUOUS
 62
     7
  5
241
 10
0.516899
 20
-0.628056
 30
0.0
 11
0.516903
 21
-0.627999
 31
0.0
  0
LINE
  8
0
  6
CONTINUOUS
 62
     7
  5
242
 10
0.516903
 20
-0.627999
 30
0.0
 11
0.516912
 21
-0.627938
 31
0.0
  0
LINE
  8
0
  6
CONTINUOUS
 62
     7
  5
243
 10
0.516912
 20
-0.627938
 30
0.0
 11
0.516926
 21
-0.627874
 31
0.0
  0
LINE
  8
0
  6
CONTINUOUS
 62
     7
  5
244
 10
0.516926
 20
-0.627874
 30
0.0
 11
0.516944
 21
-0.627805
 31
0.0
  0
LINE
  8
0
  6
CONTINUOUS
 62
     7
  5
245
 10
0.516944
 20
-0.627805
 30
0.0
 11
0.516967
 21
-0.627733
 31
0.0
  0
LINE
  8
0
  6
CONTINUOUS
 62
     7
  5
246
 10
0.516967
 20
-0.627733
 30
0.0
 11
0.516995
 21
-0.627656
 31
0.0
  0
LINE
  8
0
  6
CONTINUOUS
 62
     7
  5
247
 10
0.516995
 20
-0.627656
 30
0.0
 11
0.517027
 21
-0.627576
 31
0.0
  0
LINE
  8
0
  6
CONTINUOUS
 62
     7
  5
248
 10
0.517027
 20
-0.627576
 30
0.0
 11
0.517064
 21
-0.627492
 31
0.0
  0
LINE
  8
0
  6
CONTINUOUS
 62
     7
  5
249
 10
0.517064
 20
-0.627492
 30
0.0
 11
0.517106
 21
-0.627404
 31
0.0
  0
LINE
  8
0
  6
CONTINUOUS
 62
     7
  5
24A
 10
0.517106
 20
-0.627404
 30
0.0
 11
0.517152
 21
-0.627311
 31
0.0
  0
LINE
  8
0
  6
CONTINUOUS
 62
     7
  5
24B
 10
0.517152
 20
-0.627311
 30
0.0
 11
0.517204
 21
-0.627215
 31
0.0
  0
LINE
  8
0
  6
CONTINUOUS
 62
     7
  5
24C
 10
0.517204
 20
-0.627215
 30
0.0
 11
0.51726
 21
-0.627115
 31
0.0
  0
LINE
  8
0
  6
CONTINUOUS
 62
     7
  5
24D
 10
0.51726
 20
-0.627115
 30
0.0
 11
0.517321
 21
-0.627011
 31
0.0
  0
LINE
  8
0
  6
CONTINUOUS
 62
     7
  5
24E
 10
0.517321
 20
-0.627011
 30
0.0
 11
0.517386
 21
-0.626903
 31
0.0
  0
LINE
  8
0
  6
CONTINUOUS
 62
     7
  5
24F
 10
0.517386
 20
-0.626903
 30
0.0
 11
0.517457
 21
-0.62679
 31
0.0
  0
LINE
  8
0
  6
CONTINUOUS
 62
     7
  5
250
 10
0.517457
 20
-0.62679
 30
0.0
 11
0.517532
 21
-0.626674
 31
0.0
  0
LINE
  8
0
  6
CONTINUOUS
 62
     7
  5
251
 10
0.517532
 20
-0.626674
 30
0.0
 11
0.517613
 21
-0.626554
 31
0.0
  0
LINE
  8
0
  6
CONTINUOUS
 62
     7
  5
252
 10
0.517613
 20
-0.626554
 30
0.0
 11
0.517698
 21
-0.62643
 31
0.0
  0
LINE
  8
0
  6
CONTINUOUS
 62
     7
  5
253
 10
0.517698
 20
-0.62643
 30
0.0
 11
0.517788
 21
-0.626302
 31
0.0
  0
LINE
  8
0
  6
CONTINUOUS
 62
     7
  5
254
 10
0.517788
 20
-0.626302
 30
0.0
 11
0.517882
 21
-0.626169
 31
0.0
  0
LINE
  8
0
  6
CONTINUOUS
 62
     7
  5
255
 10
0.517882
 20
-0.626169
 30
0.0
 11
0.517982
 21
-0.626033
 31
0.0
  0
LINE
  8
0
  6
CONTINUOUS
 62
     7
  5
256
 10
0.517982
 20
-0.626033
 30
0.0
 11
0.518087
 21
-0.625893
 31
0.0
  0
LINE
  8
0
  6
CONTINUOUS
 62
     7
  5
257
 10
0.518087
 20
-0.625893
 30
0.0
 11
0.518196
 21
-0.625749
 31
0.0
  0
LINE
  8
0
  6
CONTINUOUS
 62
     7
  5
258
 10
0.518196
 20
-0.625749
 30
0.0
 11
0.51831
 21
-0.625601
 31
0.0
  0
LINE
  8
0
  6
CONTINUOUS
 62
     7
  5
259
 10
0.51831
 20
-0.625601
 30
0.0
 11
0.518429
 21
-0.625449
 31
0.0
  0
LINE
  8
0
  6
CONTINUOUS
 62
     7
  5
25A
 10
0.518429
 20
-0.625449
 30
0.0
 11
0.518553
 21
-0.625292
 31
0.0
  0
LINE
  8
0
  6
CONTINUOUS
 62
     7
  5
25B
 10
0.518553
 20
-0.625292
 30
0.0
 11
0.518682
 21
-0.625132
 31
0.0
  0
LINE
  8
0
  6
CONTINUOUS
 62
     7
  5
25C
 10
0.518682
 20
-0.625132
 30
0.0
 11
0.518815
 21
-0.624969
 31
0.0
  0
LINE
  8
0
  6
CONTINUOUS
 62
     7
  5
25D
 10
0.519953
 20
-0.627509
 30
0.0
 11
0.51981
 21
-0.627583
 31
0.0
  0
LINE
  8
0
  6
CONTINUOUS
 62
     7
  5
25E
 10
0.51981
 20
-0.627583
 30
0.0
 11
0.519669
 21
-0.627653
 31
0.0
  0
LINE
  8
0
  6
CONTINUOUS
 62
     7
  5
25F
 10
0.519669
 20
-0.627653
 30
0.0
 11
0.519532
 21
-0.62772
 31
0.0
  0
LINE
  8
0
  6
CONTINUOUS
 62
     7
  5
260
 10
0.519532
 20
-0.62772
 30
0.0
 11
0.519399
 21
-0.627785
 31
0.0
  0
LINE
  8
0
  6
CONTINUOUS
 62
     7
  5
261
 10
0.519399
 20
-0.627785
 30
0.0
 11
0.519269
 21
-0.627846
 31
0.0
  0
LINE
  8
0
  6
CONTINUOUS
 62
     7
  5
262
 10
0.519269
 20
-0.627846
 30
0.0
 11
0.519143
 21
-0.627905
 31
0.0
  0
LINE
  8
0
  6
CONTINUOUS
 62
     7
  5
263
 10
0.519143
 20
-0.627905
 30
0.0
 11
0.51902
 21
-0.62796
 31
0.0
  0
LINE
  8
0
  6
CONTINUOUS
 62
     7
  5
264
 10
0.51902
 20
-0.62796
 30
0.0
 11
0.5189
 21
-0.628013
 31
0.0
  0
LINE
  8
0
  6
CONTINUOUS
 62
     7
  5
265
 10
0.5189
 20
-0.628013
 30
0.0
 11
0.518784
 21
-0.628062
 31
0.0
  0
LINE
  8
0
  6
CONTINUOUS
 62
     7
  5
266
 10
0.518784
 20
-0.628062
 30
0.0
 11
0.518672
 21
-0.628109
 31
0.0
  0
LINE
  8
0
  6
CONTINUOUS
 62
     7
  5
267
 10
0.518672
 20
-0.628109
 30
0.0
 11
0.518563
 21
-0.628153
 31
0.0
  0
LINE
  8
0
  6
CONTINUOUS
 62
     7
  5
268
 10
0.518563
 20
-0.628153
 30
0.0
 11
0.518458
 21
-0.628194
 31
0.0
  0
LINE
  8
0
  6
CONTINUOUS
 62
     7
  5
269
 10
0.518458
 20
-0.628194
 30
0.0
 11
0.518356
 21
-0.628232
 31
0.0
  0
LINE
  8
0
  6
CONTINUOUS
 62
     7
  5
26A
 10
0.518356
 20
-0.628232
 30
0.0
 11
0.518257
 21
-0.628267
 31
0.0
  0
LINE
  8
0
  6
CONTINUOUS
 62
     7
  5
26B
 10
0.518257
 20
-0.628267
 30
0.0
 11
0.518162
 21
-0.628299
 31
0.0
  0
LINE
  8
0
  6
CONTINUOUS
 62
     7
  5
26C
 10
0.518162
 20
-0.628299
 30
0.0
 11
0.518071
 21
-0.628328
 31
0.0
  0
LINE
  8
0
  6
CONTINUOUS
 62
     7
  5
26D
 10
0.518071
 20
-0.628328
 30
0.0
 11
0.517983
 21
-0.628354
 31
0.0
  0
LINE
  8
0
  6
CONTINUOUS
 62
     7
  5
26E
 10
0.517983
 20
-0.628354
 30
0.0
 11
0.517899
 21
-0.628378
 31
0.0
  0
LINE
  8
0
  6
CONTINUOUS
 62
     7
  5
26F
 10
0.517899
 20
-0.628378
 30
0.0
 11
0.517818
 21
-0.628398
 31
0.0
  0
LINE
  8
0
  6
CONTINUOUS
 62
     7
  5
270
 10
0.517818
 20
-0.628398
 30
0.0
 11
0.517741
 21
-0.628416
 31
0.0
  0
LINE
  8
0
  6
CONTINUOUS
 62
     7
  5
271
 10
0.517741
 20
-0.628416
 30
0.0
 11
0.517667
 21
-0.628431
 31
0.0
  0
LINE
  8
0
  6
CONTINUOUS
 62
     7
  5
272
 10
0.517667
 20
-0.628431
 30
0.0
 11
0.517596
 21
-0.628443
 31
0.0
  0
LINE
  8
0
  6
CONTINUOUS
 62
     7
  5
273
 10
0.517596
 20
-0.628443
 30
0.0
 11
0.517529
 21
-0.628452
 31
0.0
  0
LINE
  8
0
  6
CONTINUOUS
 62
     7
  5
274
 10
0.517529
 20
-0.628452
 30
0.0
 11
0.517466
 21
-0.628458
 31
0.0
  0
LINE
  8
0
  6
CONTINUOUS
 62
     7
  5
275
 10
0.517466
 20
-0.628458
 30
0.0
 11
0.517406
 21
-0.628462
 31
0.0
  0
LINE
  8
0
  6
CONTINUOUS
 62
     7
  5
276
 10
0.517406
 20
-0.628462
 30
0.0
 11
0.517349
 21
-0.628463
 31
0.0
  0
LINE
  8
0
  6
CONTINUOUS
 62
     7
  5
277
 10
0.517349
 20
-0.628463
 30
0.0
 11
0.517296
 21
-0.628461
 31
0.0
  0
LINE
  8
0
  6
CONTINUOUS
 62
     7
  5
278
 10
0.517296
 20
-0.628461
 30
0.0
 11
0.517247
 21
-0.628456
 31
0.0
  0
LINE
  8
0
  6
CONTINUOUS
 62
     7
  5
279
 10
0.517247
 20
-0.628456
 30
0.0
 11
0.5172
 21
-0.628449
 31
0.0
  0
LINE
  8
0
  6
CONTINUOUS
 62
     7
  5
27A
 10
0.5172
 20
-0.628449
 30
0.0
 11
0.517157
 21
-0.628439
 31
0.0
  0
LINE
  8
0
  6
CONTINUOUS
 62
     7
  5
27B
 10
0.517157
 20
-0.628439
 30
0.0
 11
0.517118
 21
-0.628426
 31
0.0
  0
LINE
  8
0
  6
CONTINUOUS
 62
     7
  5
27C
 10
0.517118
 20
-0.628426
 30
0.0
 11
0.517081
 21
-0.62841
 31
0.0
  0
LINE
  8
0
  6
CONTINUOUS
 62
     7
  5
27D
 10
0.517081
 20
-0.62841
 30
0.0
 11
0.517049
 21
-0.628392
 31
0.0
  0
LINE
  8
0
  6
CONTINUOUS
 62
     7
  5
27E
 10
0.517049
 20
-0.628392
 30
0.0
 11
0.517019
 21
-0.628371
 31
0.0
  0
LINE
  8
0
  6
CONTINUOUS
 62
     7
  5
27F
 10
0.517019
 20
-0.628371
 30
0.0
 11
0.516993
 21
-0.628348
 31
0.0
  0
LINE
  8
0
  6
CONTINUOUS
 62
     7
  5
280
 10
-0.518811
 20
-0.624974
 30
0.0
 11
-0.51868
 21
-0.625134
 31
0.0
  0
LINE
  8
0
  6
CONTINUOUS
 62
     7
  5
281
 10
-0.51868
 20
-0.625134
 30
0.0
 11
-0.518554
 21
-0.625291
 31
0.0
  0
LINE
  8
0
  6
CONTINUOUS
 62
     7
  5
282
 10
-0.518554
 20
-0.625291
 30
0.0
 11
-0.518433
 21
-0.625444
 31
0.0
  0
LINE
  8
0
  6
CONTINUOUS
 62
     7
  5
283
 10
-0.518433
 20
-0.625444
 30
0.0
 11
-0.518316
 21
-0.625593
 31
0.0
  0
LINE
  8
0
  6
CONTINUOUS
 62
     7
  5
284
 10
-0.518316
 20
-0.625593
 30
0.0
 11
-0.518204
 21
-0.625738
 31
0.0
  0
LINE
  8
0
  6
CONTINUOUS
 62
     7
  5
285
 10
-0.518204
 20
-0.625738
 30
0.0
 11
-0.518096
 21
-0.62588
 31
0.0
  0
LINE
  8
0
  6
CONTINUOUS
 62
     7
  5
286
 10
-0.518096
 20
-0.62588
 30
0.0
 11
-0.517994
 21
-0.626018
 31
0.0
  0
LINE
  8
0
  6
CONTINUOUS
 62
     7
  5
287
 10
-0.517994
 20
-0.626018
 30
0.0
 11
-0.517895
 21
-0.626151
 31
0.0
  0
LINE
  8
0
  6
CONTINUOUS
 62
     7
  5
288
 10
-0.517895
 20
-0.626151
 30
0.0
 11
-0.517802
 21
-0.626281
 31
0.0
  0
LINE
  8
0
  6
CONTINUOUS
 62
     7
  5
289
 10
-0.517802
 20
-0.626281
 30
0.0
 11
-0.517713
 21
-0.626408
 31
0.0
  0
LINE
  8
0
  6
CONTINUOUS
 62
     7
  5
28A
 10
-0.517713
 20
-0.626408
 30
0.0
 11
-0.517629
 21
-0.62653
 31
0.0
  0
LINE
  8
0
  6
CONTINUOUS
 62
     7
  5
28B
 10
-0.517629
 20
-0.62653
 30
0.0
 11
-0.517549
 21
-0.626648
 31
0.0
  0
LINE
  8
0
  6
CONTINUOUS
 62
     7
  5
28C
 10
-0.517549
 20
-0.626648
 30
0.0
 11
-0.517474
 21
-0.626763
 31
0.0
  0
LINE
  8
0
  6
CONTINUOUS
 62
     7
  5
28D
 10
-0.517474
 20
-0.626763
 30
0.0
 11
-0.517404
 21
-0.626874
 31
0.0
  0
LINE
  8
0
  6
CONTINUOUS
 62
     7
  5
28E
 10
-0.517404
 20
-0.626874
 30
0.0
 11
-0.517338
 21
-0.626981
 31
0.0
  0
LINE
  8
0
  6
CONTINUOUS
 62
     7
  5
28F
 10
-0.517338
 20
-0.626981
 30
0.0
 11
-0.517277
 21
-0.627084
 31
0.0
  0
LINE
  8
0
  6
CONTINUOUS
 62
     7
  5
290
 10
-0.517277
 20
-0.627084
 30
0.0
 11
-0.517221
 21
-0.627184
 31
0.0
  0
LINE
  8
0
  6
CONTINUOUS
 62
     7
  5
291
 10
-0.517221
 20
-0.627184
 30
0.0
 11
-0.517169
 21
-0.627279
 31
0.0
  0
LINE
  8
0
  6
CONTINUOUS
 62
     7
  5
292
 10
-0.517169
 20
-0.627279
 30
0.0
 11
-0.517122
 21
-0.627371
 31
0.0
  0
LINE
  8
0
  6
CONTINUOUS
 62
     7
  5
293
 10
-0.517122
 20
-0.627371
 30
0.0
 11
-0.517079
 21
-0.627459
 31
0.0
  0
LINE
  8
0
  6
CONTINUOUS
 62
     7
  5
294
 10
-0.517079
 20
-0.627459
 30
0.0
 11
-0.517041
 21
-0.627543
 31
0.0
  0
LINE
  8
0
  6
CONTINUOUS
 62
     7
  5
295
 10
-0.517041
 20
-0.627543
 30
0.0
 11
-0.517008
 21
-0.627623
 31
0.0
  0
LINE
  8
0
  6
CONTINUOUS
 62
     7
  5
296
 10
-0.517008
 20
-0.627623
 30
0.0
 11
-0.516979
 21
-0.627699
 31
0.0
  0
LINE
  8
0
  6
CONTINUOUS
 62
     7
  5
297
 10
-0.516979
 20
-0.627699
 30
0.0
 11
-0.516954
 21
-0.627772
 31
0.0
  0
LINE
  8
0
  6
CONTINUOUS
 62
     7
  5
298
 10
-0.516954
 20
-0.627772
 30
0.0
 11
-0.516934
 21
-0.627841
 31
0.0
  0
LINE
  8
0
  6
CONTINUOUS
 62
     7
  5
299
 10
-0.516934
 20
-0.627841
 30
0.0
 11
-0.516919
 21
-0.627906
 31
0.0
  0
LINE
  8
0
  6
CONTINUOUS
 62
     7
  5
29A
 10
-0.516919
 20
-0.627906
 30
0.0
 11
-0.516908
 21
-0.627968
 31
0.0
  0
LINE
  8
0
  6
CONTINUOUS
 62
     7
  5
29B
 10
-0.516908
 20
-0.627968
 30
0.0
 11
-0.516901
 21
-0.628025
 31
0.0
  0
LINE
  8
0
  6
CONTINUOUS
 62
     7
  5
29C
 10
-0.516901
 20
-0.628025
 30
0.0
 11
-0.516898
 21
-0.628079
 31
0.0
  0
LINE
  8
0
  6
CONTINUOUS
 62
     7
  5
29D
 10
-0.516898
 20
-0.628079
 30
0.0
 11
-0.5169
 21
-0.62813
 31
0.0
  0
LINE
  8
0
  6
CONTINUOUS
 62
     7
  5
29E
 10
-0.5169
 20
-0.62813
 30
0.0
 11
-0.516907
 21
-0.628177
 31
0.0
  0
LINE
  8
0
  6
CONTINUOUS
 62
     7
  5
29F
 10
-0.516907
 20
-0.628177
 30
0.0
 11
-0.516917
 21
-0.62822
 31
0.0
  0
LINE
  8
0
  6
CONTINUOUS
 62
     7
  5
2A0
 10
-0.516917
 20
-0.62822
 30
0.0
 11
-0.516932
 21
-0.628259
 31
0.0
  0
LINE
  8
0
  6
CONTINUOUS
 62
     7
  5
2A1
 10
-0.516932
 20
-0.628259
 30
0.0
 11
-0.516951
 21
-0.628295
 31
0.0
  0
LINE
  8
0
  6
CONTINUOUS
 62
     7
  5
2A2
 10
-0.516951
 20
-0.628295
 30
0.0
 11
-0.516974
 21
-0.628327
 31
0.0
  0
LINE
  8
0
  6
CONTINUOUS
 62
     7
  5
2A3
 10
-0.516993
 20
-0.628348
 30
0.0
 11
-0.517019
 21
-0.628371
 31
0.0
  0
LINE
  8
0
  6
CONTINUOUS
 62
     7
  5
2A4
 10
-0.517019
 20
-0.628371
 30
0.0
 11
-0.517048
 21
-0.628392
 31
0.0
  0
LINE
  8
0
  6
CONTINUOUS
 62
     7
  5
2A5
 10
-0.517048
 20
-0.628392
 30
0.0
 11
-0.517081
 21
-0.62841
 31
0.0
  0
LINE
  8
0
  6
CONTINUOUS
 62
     7
  5
2A6
 10
-0.517081
 20
-0.62841
 30
0.0
 11
-0.517117
 21
-0.628426
 31
0.0
  0
LINE
  8
0
  6
CONTINUOUS
 62
     7
  5
2A7
 10
-0.517117
 20
-0.628426
 30
0.0
 11
-0.517156
 21
-0.628438
 31
0.0
  0
LINE
  8
0
  6
CONTINUOUS
 62
     7
  5
2A8
 10
-0.517156
 20
-0.628438
 30
0.0
 11
-0.517199
 21
-0.628448
 31
0.0
  0
LINE
  8
0
  6
CONTINUOUS
 62
     7
  5
2A9
 10
-0.517199
 20
-0.628448
 30
0.0
 11
-0.517245
 21
-0.628456
 31
0.0
  0
LINE
  8
0
  6
CONTINUOUS
 62
     7
  5
2AA
 10
-0.517245
 20
-0.628456
 30
0.0
 11
-0.517295
 21
-0.628461
 31
0.0
  0
LINE
  8
0
  6
CONTINUOUS
 62
     7
  5
2AB
 10
-0.517295
 20
-0.628461
 30
0.0
 11
-0.517347
 21
-0.628463
 31
0.0
  0
LINE
  8
0
  6
CONTINUOUS
 62
     7
  5
2AC
 10
-0.517347
 20
-0.628463
 30
0.0
 11
-0.517404
 21
-0.628462
 31
0.0
  0
LINE
  8
0
  6
CONTINUOUS
 62
     7
  5
2AD
 10
-0.517404
 20
-0.628462
 30
0.0
 11
-0.517463
 21
-0.628459
 31
0.0
  0
LINE
  8
0
  6
CONTINUOUS
 62
     7
  5
2AE
 10
-0.517463
 20
-0.628459
 30
0.0
 11
-0.517526
 21
-0.628452
 31
0.0
  0
LINE
  8
0
  6
CONTINUOUS
 62
     7
  5
2AF
 10
-0.517526
 20
-0.628452
 30
0.0
 11
-0.517593
 21
-0.628443
 31
0.0
  0
LINE
  8
0
  6
CONTINUOUS
 62
     7
  5
2B0
 10
-0.517593
 20
-0.628443
 30
0.0
 11
-0.517662
 21
-0.628431
 31
0.0
  0
LINE
  8
0
  6
CONTINUOUS
 62
     7
  5
2B1
 10
-0.517662
 20
-0.628431
 30
0.0
 11
-0.517736
 21
-0.628417
 31
0.0
  0
LINE
  8
0
  6
CONTINUOUS
 62
     7
  5
2B2
 10
-0.517736
 20
-0.628417
 30
0.0
 11
-0.517813
 21
-0.628399
 31
0.0
  0
LINE
  8
0
  6
CONTINUOUS
 62
     7
  5
2B3
 10
-0.517813
 20
-0.628399
 30
0.0
 11
-0.517893
 21
-0.628379
 31
0.0
  0
LINE
  8
0
  6
CONTINUOUS
 62
     7
  5
2B4
 10
-0.517893
 20
-0.628379
 30
0.0
 11
-0.517977
 21
-0.628356
 31
0.0
  0
LINE
  8
0
  6
CONTINUOUS
 62
     7
  5
2B5
 10
-0.517977
 20
-0.628356
 30
0.0
 11
-0.518064
 21
-0.62833
 31
0.0
  0
LINE
  8
0
  6
CONTINUOUS
 62
     7
  5
2B6
 10
-0.518064
 20
-0.62833
 30
0.0
 11
-0.518155
 21
-0.628301
 31
0.0
  0
LINE
  8
0
  6
CONTINUOUS
 62
     7
  5
2B7
 10
-0.518155
 20
-0.628301
 30
0.0
 11
-0.518249
 21
-0.62827
 31
0.0
  0
LINE
  8
0
  6
CONTINUOUS
 62
     7
  5
2B8
 10
-0.518249
 20
-0.62827
 30
0.0
 11
-0.518346
 21
-0.628235
 31
0.0
  0
LINE
  8
0
  6
CONTINUOUS
 62
     7
  5
2B9
 10
-0.518346
 20
-0.628235
 30
0.0
 11
-0.518447
 21
-0.628198
 31
0.0
  0
LINE
  8
0
  6
CONTINUOUS
 62
     7
  5
2BA
 10
-0.518447
 20
-0.628198
 30
0.0
 11
-0.518552
 21
-0.628157
 31
0.0
  0
LINE
  8
0
  6
CONTINUOUS
 62
     7
  5
2BB
 10
-0.518552
 20
-0.628157
 30
0.0
 11
-0.51866
 21
-0.628114
 31
0.0
  0
LINE
  8
0
  6
CONTINUOUS
 62
     7
  5
2BC
 10
-0.51866
 20
-0.628114
 30
0.0
 11
-0.518772
 21
-0.628068
 31
0.0
  0
LINE
  8
0
  6
CONTINUOUS
 62
     7
  5
2BD
 10
-0.518772
 20
-0.628068
 30
0.0
 11
-0.518887
 21
-0.628019
 31
0.0
  0
LINE
  8
0
  6
CONTINUOUS
 62
     7
  5
2BE
 10
-0.518887
 20
-0.628019
 30
0.0
 11
-0.519005
 21
-0.627967
 31
0.0
  0
LINE
  8
0
  6
CONTINUOUS
 62
     7
  5
2BF
 10
-0.519005
 20
-0.627967
 30
0.0
 11
-0.519127
 21
-0.627912
 31
0.0
  0
LINE
  8
0
  6
CONTINUOUS
 62
     7
  5
2C0
 10
-0.519127
 20
-0.627912
 30
0.0
 11
-0.519253
 21
-0.627854
 31
0.0
  0
LINE
  8
0
  6
CONTINUOUS
 62
     7
  5
2C1
 10
-0.519253
 20
-0.627854
 30
0.0
 11
-0.519382
 21
-0.627793
 31
0.0
  0
LINE
  8
0
  6
CONTINUOUS
 62
     7
  5
2C2
 10
-0.519382
 20
-0.627793
 30
0.0
 11
-0.519514
 21
-0.627729
 31
0.0
  0
LINE
  8
0
  6
CONTINUOUS
 62
     7
  5
2C3
 10
-0.519514
 20
-0.627729
 30
0.0
 11
-0.51965
 21
-0.627663
 31
0.0
  0
LINE
  8
0
  6
CONTINUOUS
 62
     7
  5
2C4
 10
-0.51965
 20
-0.627663
 30
0.0
 11
-0.519789
 21
-0.627593
 31
0.0
  0
LINE
  8
0
  6
CONTINUOUS
 62
     7
  5
2C5
 10
-0.519789
 20
-0.627593
 30
0.0
 11
-0.519932
 21
-0.62752
 31
0.0
  0
CIRCLE
  8
0
  6
CONTINUOUS
 62
     7
  5
2C6
 10
-1.586814
 20
-1.586814
 30
0.0
 40
0.206693
  0
CIRCLE
  8
0
  6
CONTINUOUS
 62
     7
  5
2C7
 10
-1.586814
 20
1.586814
 30
0.0
 40
0.206693
  0
CIRCLE
  8
0
  6
CONTINUOUS
 62
     7
  5
2C8
 10
1.586814
 20
1.586814
 30
0.0
 40
0.206693
  0
CIRCLE
  8
0
  6
CONTINUOUS
 62
     7
  5
2C9
 10
1.586814
 20
-1.586814
 30
0.0
 40
0.206693
  0
LINE
  8
0
  6
CONTINUOUS
 62
     7
  5
2CA
 10
-0.993617
 20
-1.767408
 30
0.0
 11
-0.996291
 21
-1.775969
 31
0.0
  0
LINE
  8
0
  6
CONTINUOUS
 62
     7
  5
2CB
 10
-0.996291
 20
-1.775969
 30
0.0
 11
-0.999082
 21
-1.784471
 31
0.0
  0
LINE
  8
0
  6
CONTINUOUS
 62
     7
  5
2CC
 10
-0.999082
 20
-1.784471
 30
0.0
 11
-1.001988
 21
-1.79291
 31
0.0
  0
LINE
  8
0
  6
CONTINUOUS
 62
     7
  5
2CD
 10
-1.001988
 20
-1.79291
 30
0.0
 11
-1.005006
 21
-1.801282
 31
0.0
  0
LINE
  8
0
  6
CONTINUOUS
 62
     7
  5
2CE
 10
-1.005006
 20
-1.801282
 30
0.0
 11
-1.008133
 21
-1.809583
 31
0.0
  0
LINE
  8
0
  6
CONTINUOUS
 62
     7
  5
2CF
 10
-1.008133
 20
-1.809583
 30
0.0
 11
-1.011368
 21
-1.81781
 31
0.0
  0
LINE
  8
0
  6
CONTINUOUS
 62
     7
  5
2D0
 10
-1.011368
 20
-1.81781
 30
0.0
 11
-1.014706
 21
-1.825958
 31
0.0
  0
LINE
  8
0
  6
CONTINUOUS
 62
     7
  5
2D1
 10
-1.014706
 20
-1.825958
 30
0.0
 11
-1.018145
 21
-1.834025
 31
0.0
  0
LINE
  8
0
  6
CONTINUOUS
 62
     7
  5
2D2
 10
-1.018145
 20
-1.834025
 30
0.0
 11
-1.021682
 21
-1.842007
 31
0.0
  0
LINE
  8
0
  6
CONTINUOUS
 62
     7
  5
2D3
 10
-1.021682
 20
-1.842007
 30
0.0
 11
-1.025313
 21
-1.849899
 31
0.0
  0
LINE
  8
0
  6
CONTINUOUS
 62
     7
  5
2D4
 10
-1.025313
 20
-1.849899
 30
0.0
 11
-1.029034
 21
-1.8577
 31
0.0
  0
LINE
  8
0
  6
CONTINUOUS
 62
     7
  5
2D5
 10
-1.029034
 20
-1.8577
 30
0.0
 11
-1.032843
 21
-1.865405
 31
0.0
  0
LINE
  8
0
  6
CONTINUOUS
 62
     7
  5
2D6
 10
-1.032843
 20
-1.865405
 30
0.0
 11
-1.036734
 21
-1.873012
 31
0.0
  0
LINE
  8
0
  6
CONTINUOUS
 62
     7
  5
2D7
 10
-1.036734
 20
-1.873012
 30
0.0
 11
-1.040705
 21
-1.880518
 31
0.0
  0
LINE
  8
0
  6
CONTINUOUS
 62
     7
  5
2D8
 10
-1.040705
 20
-1.880518
 30
0.0
 11
-1.044751
 21
-1.887921
 31
0.0
  0
LINE
  8
0
  6
CONTINUOUS
 62
     7
  5
2D9
 10
-1.044751
 20
-1.887921
 30
0.0
 11
-1.048896
 21
-1.895264
 31
0.0
  0
LINE
  8
0
  6
CONTINUOUS
 62
     7
  5
2DA
 10
-1.048896
 20
-1.895264
 30
0.0
 11
-1.053153
 21
-1.902573
 31
0.0
  0
LINE
  8
0
  6
CONTINUOUS
 62
     7
  5
2DB
 10
-1.053153
 20
-1.902573
 30
0.0
 11
-1.057524
 21
-1.909845
 31
0.0
  0
LINE
  8
0
  6
CONTINUOUS
 62
     7
  5
2DC
 10
-1.057524
 20
-1.909845
 30
0.0
 11
-1.062007
 21
-1.917078
 31
0.0
  0
LINE
  8
0
  6
CONTINUOUS
 62
     7
  5
2DD
 10
-1.062007
 20
-1.917078
 30
0.0
 11
-1.066601
 21
-1.92427
 31
0.0
  0
LINE
  8
0
  6
CONTINUOUS
 62
     7
  5
2DE
 10
-1.066601
 20
-1.92427
 30
0.0
 11
-1.071308
 21
-1.931416
 31
0.0
  0
LINE
  8
0
  6
CONTINUOUS
 62
     7
  5
2DF
 10
-1.071308
 20
-1.931416
 30
0.0
 11
-1.076124
 21
-1.938515
 31
0.0
  0
LINE
  8
0
  6
CONTINUOUS
 62
     7
  5
2E0
 10
-1.076124
 20
-1.938515
 30
0.0
 11
-1.081051
 21
-1.945563
 31
0.0
  0
LINE
  8
0
  6
CONTINUOUS
 62
     7
  5
2E1
 10
-1.081051
 20
-1.945563
 30
0.0
 11
-1.086086
 21
-1.952558
 31
0.0
  0
LINE
  8
0
  6
CONTINUOUS
 62
     7
  5
2E2
 10
-1.086086
 20
-1.952558
 30
0.0
 11
-1.091229
 21
-1.959498
 31
0.0
  0
LINE
  8
0
  6
CONTINUOUS
 62
     7
  5
2E3
 10
-1.091229
 20
-1.959498
 30
0.0
 11
-1.096479
 21
-1.966379
 31
0.0
  0
LINE
  8
0
  6
CONTINUOUS
 62
     7
  5
2E4
 10
-1.096479
 20
-1.966379
 30
0.0
 11
-1.101836
 21
-1.973199
 31
0.0
  0
LINE
  8
0
  6
CONTINUOUS
 62
     7
  5
2E5
 10
-1.101836
 20
-1.973199
 30
0.0
 11
-1.107297
 21
-1.979956
 31
0.0
  0
LINE
  8
0
  6
CONTINUOUS
 62
     7
  5
2E6
 10
-1.107297
 20
-1.979956
 30
0.0
 11
-1.112861
 21
-1.986647
 31
0.0
  0
LINE
  8
0
  6
CONTINUOUS
 62
     7
  5
2E7
 10
-1.112861
 20
-1.986647
 30
0.0
 11
-1.118528
 21
-1.993269
 31
0.0
  0
LINE
  8
0
  6
CONTINUOUS
 62
     7
  5
2E8
 10
-1.118528
 20
-1.993269
 30
0.0
 11
-1.124296
 21
-1.999821
 31
0.0
  0
LINE
  8
0
  6
CONTINUOUS
 62
     7
  5
2E9
 10
-1.124296
 20
-1.999821
 30
0.0
 11
-1.130164
 21
-2.0063
 31
0.0
  0
LINE
  8
0
  6
CONTINUOUS
 62
     7
  5
2EA
 10
-1.130164
 20
-2.0063
 30
0.0
 11
-1.13613
 21
-2.012703
 31
0.0
  0
LINE
  8
0
  6
CONTINUOUS
 62
     7
  5
2EB
 10
-1.13613
 20
-2.012703
 30
0.0
 11
-1.142194
 21
-2.01903
 31
0.0
  0
LINE
  8
0
  6
CONTINUOUS
 62
     7
  5
2EC
 10
-1.142194
 20
-2.01903
 30
0.0
 11
-1.148353
 21
-2.025276
 31
0.0
  0
LINE
  8
0
  6
CONTINUOUS
 62
     7
  5
2ED
 10
-2.025276
 20
-1.148353
 30
0.0
 11
-2.01903
 21
-1.142194
 31
0.0
  0
LINE
  8
0
  6
CONTINUOUS
 62
     7
  5
2EE
 10
-2.01903
 20
-1.142194
 30
0.0
 11
-2.012703
 21
-1.13613
 31
0.0
  0
LINE
  8
0
  6
CONTINUOUS
 62
     7
  5
2EF
 10
-2.012703
 20
-1.13613
 30
0.0
 11
-2.0063
 21
-1.130164
 31
0.0
  0
LINE
  8
0
  6
CONTINUOUS
 62
     7
  5
2F0
 10
-2.0063
 20
-1.130164
 30
0.0
 11
-1.999821
 21
-1.124296
 31
0.0
  0
LINE
  8
0
  6
CONTINUOUS
 62
     7
  5
2F1
 10
-1.999821
 20
-1.124296
 30
0.0
 11
-1.993269
 21
-1.118528
 31
0.0
  0
LINE
  8
0
  6
CONTINUOUS
 62
     7
  5
2F2
 10
-1.993269
 20
-1.118528
 30
0.0
 11
-1.986647
 21
-1.112861
 31
0.0
  0
LINE
  8
0
  6
CONTINUOUS
 62
     7
  5
2F3
 10
-1.986647
 20
-1.112861
 30
0.0
 11
-1.979956
 21
-1.107297
 31
0.0
  0
LINE
  8
0
  6
CONTINUOUS
 62
     7
  5
2F4
 10
-1.979956
 20
-1.107297
 30
0.0
 11
-1.973199
 21
-1.101836
 31
0.0
  0
LINE
  8
0
  6
CONTINUOUS
 62
     7
  5
2F5
 10
-1.973199
 20
-1.101836
 30
0.0
 11
-1.966379
 21
-1.096479
 31
0.0
  0
LINE
  8
0
  6
CONTINUOUS
 62
     7
  5
2F6
 10
-1.966379
 20
-1.096479
 30
0.0
 11
-1.959498
 21
-1.091229
 31
0.0
  0
LINE
  8
0
  6
CONTINUOUS
 62
     7
  5
2F7
 10
-1.959498
 20
-1.091229
 30
0.0
 11
-1.952558
 21
-1.086086
 31
0.0
  0
LINE
  8
0
  6
CONTINUOUS
 62
     7
  5
2F8
 10
-1.952558
 20
-1.086086
 30
0.0
 11
-1.945563
 21
-1.081051
 31
0.0
  0
LINE
  8
0
  6
CONTINUOUS
 62
     7
  5
2F9
 10
-1.945563
 20
-1.081051
 30
0.0
 11
-1.938515
 21
-1.076124
 31
0.0
  0
LINE
  8
0
  6
CONTINUOUS
 62
     7
  5
2FA
 10
-1.938515
 20
-1.076124
 30
0.0
 11
-1.931416
 21
-1.071308
 31
0.0
  0
LINE
  8
0
  6
CONTINUOUS
 62
     7
  5
2FB
 10
-1.931416
 20
-1.071308
 30
0.0
 11
-1.92427
 21
-1.066601
 31
0.0
  0
LINE
  8
0
  6
CONTINUOUS
 62
     7
  5
2FC
 10
-1.92427
 20
-1.066601
 30
0.0
 11
-1.917078
 21
-1.062007
 31
0.0
  0
LINE
  8
0
  6
CONTINUOUS
 62
     7
  5
2FD
 10
-1.917078
 20
-1.062007
 30
0.0
 11
-1.909845
 21
-1.057524
 31
0.0
  0
LINE
  8
0
  6
CONTINUOUS
 62
     7
  5
2FE
 10
-1.909845
 20
-1.057524
 30
0.0
 11
-1.902573
 21
-1.053153
 31
0.0
  0
LINE
  8
0
  6
CONTINUOUS
 62
     7
  5
2FF
 10
-1.902573
 20
-1.053153
 30
0.0
 11
-1.895264
 21
-1.048896
 31
0.0
  0
LINE
  8
0
  6
CONTINUOUS
 62
     7
  5
300
 10
-1.895264
 20
-1.048896
 30
0.0
 11
-1.887921
 21
-1.044751
 31
0.0
  0
LINE
  8
0
  6
CONTINUOUS
 62
     7
  5
301
 10
-1.887921
 20
-1.044751
 30
0.0
 11
-1.880518
 21
-1.040705
 31
0.0
  0
LINE
  8
0
  6
CONTINUOUS
 62
     7
  5
302
 10
-1.880518
 20
-1.040705
 30
0.0
 11
-1.873012
 21
-1.036734
 31
0.0
  0
LINE
  8
0
  6
CONTINUOUS
 62
     7
  5
303
 10
-1.873012
 20
-1.036734
 30
0.0
 11
-1.865405
 21
-1.032843
 31
0.0
  0
LINE
  8
0
  6
CONTINUOUS
 62
     7
  5
304
 10
-1.865405
 20
-1.032843
 30
0.0
 11
-1.8577
 21
-1.029034
 31
0.0
  0
LINE
  8
0
  6
CONTINUOUS
 62
     7
  5
305
 10
-1.8577
 20
-1.029034
 30
0.0
 11
-1.849899
 21
-1.025313
 31
0.0
  0
LINE
  8
0
  6
CONTINUOUS
 62
     7
  5
306
 10
-1.849899
 20
-1.025313
 30
0.0
 11
-1.842007
 21
-1.021682
 31
0.0
  0
LINE
  8
0
  6
CONTINUOUS
 62
     7
  5
307
 10
-1.842007
 20
-1.021682
 30
0.0
 11
-1.834025
 21
-1.018145
 31
0.0
  0
LINE
  8
0
  6
CONTINUOUS
 62
     7
  5
308
 10
-1.834025
 20
-1.018145
 30
0.0
 11
-1.825958
 21
-1.014706
 31
0.0
  0
LINE
  8
0
  6
CONTINUOUS
 62
     7
  5
309
 10
-1.825958
 20
-1.014706
 30
0.0
 11
-1.81781
 21
-1.011368
 31
0.0
  0
LINE
  8
0
  6
CONTINUOUS
 62
     7
  5
30A
 10
-1.81781
 20
-1.011368
 30
0.0
 11
-1.809583
 21
-1.008133
 31
0.0
  0
LINE
  8
0
  6
CONTINUOUS
 62
     7
  5
30B
 10
-1.809583
 20
-1.008133
 30
0.0
 11
-1.801282
 21
-1.005006
 31
0.0
  0
LINE
  8
0
  6
CONTINUOUS
 62
     7
  5
30C
 10
-1.801282
 20
-1.005006
 30
0.0
 11
-1.79291
 21
-1.001988
 31
0.0
  0
LINE
  8
0
  6
CONTINUOUS
 62
     7
  5
30D
 10
-1.79291
 20
-1.001988
 30
0.0
 11
-1.784471
 21
-0.999082
 31
0.0
  0
LINE
  8
0
  6
CONTINUOUS
 62
     7
  5
30E
 10
-1.784471
 20
-0.999082
 30
0.0
 11
-1.775969
 21
-0.996291
 31
0.0
  0
LINE
  8
0
  6
CONTINUOUS
 62
     7
  5
30F
 10
-1.775969
 20
-0.996291
 30
0.0
 11
-1.767408
 21
-0.993617
 31
0.0
  0
LINE
  8
0
  6
CONTINUOUS
 62
     7
  5
310
 10
-1.148353
 20
-2.025276
 30
0.0
 11
-1.398215
 21
-2.275139
 31
0.0
  0
LINE
  8
0
  6
CONTINUOUS
 62
     7
  5
311
 10
-1.398215
 20
-2.275139
 30
0.0
 11
-1.422605
 21
-2.299529
 31
0.0
  0
LINE
  8
0
  6
CONTINUOUS
 62
     7
  5
312
 10
-2.275139
 20
-1.398215
 30
0.0
 11
-2.025276
 21
-1.148353
 31
0.0
  0
LINE
  8
0
  6
CONTINUOUS
 62
     7
  5
313
 10
-2.299529
 20
-1.422605
 30
0.0
 11
-2.275139
 21
-1.398215
 31
0.0
  0
ARC
  8
0
  6
CONTINUOUS
 62
     7
  5
314
 10
0.0
 20
0.0
 30
0.0
 40
2.704004
 50
211.743036
 51
238.256964
  0
ARC
  8
0
  6
CONTINUOUS
 62
     7
  5
315
 10
0.0
 20
0.0
 30
0.0
 40
2.670443
 50
238.426673
 51
301.573327
  0
LINE
  8
0
  6
CONTINUOUS
 62
     7
  5
316
 10
1.398215
 20
-2.275139
 30
0.0
 11
1.148353
 21
-2.025276
 31
0.0
  0
LINE
  8
0
  6
CONTINUOUS
 62
     7
  5
317
 10
1.767408
 20
-0.993617
 30
0.0
 11
1.775969
 21
-0.996291
 31
0.0
  0
LINE
  8
0
  6
CONTINUOUS
 62
     7
  5
318
 10
1.775969
 20
-0.996291
 30
0.0
 11
1.784471
 21
-0.999082
 31
0.0
  0
LINE
  8
0
  6
CONTINUOUS
 62
     7
  5
319
 10
1.784471
 20
-0.999082
 30
0.0
 11
1.79291
 21
-1.001988
 31
0.0
  0
LINE
  8
0
  6
CONTINUOUS
 62
     7
  5
31A
 10
1.79291
 20
-1.001988
 30
0.0
 11
1.801282
 21
-1.005006
 31
0.0
  0
LINE
  8
0
  6
CONTINUOUS
 62
     7
  5
31B
 10
1.801282
 20
-1.005006
 30
0.0
 11
1.809583
 21
-1.008133
 31
0.0
  0
LINE
  8
0
  6
CONTINUOUS
 62
     7
  5
31C
 10
1.809583
 20
-1.008133
 30
0.0
 11
1.81781
 21
-1.011368
 31
0.0
  0
LINE
  8
0
  6
CONTINUOUS
 62
     7
  5
31D
 10
1.81781
 20
-1.011368
 30
0.0
 11
1.825958
 21
-1.014706
 31
0.0
  0
LINE
  8
0
  6
CONTINUOUS
 62
     7
  5
31E
 10
1.825958
 20
-1.014706
 30
0.0
 11
1.834025
 21
-1.018145
 31
0.0
  0
LINE
  8
0
  6
CONTINUOUS
 62
     7
  5
31F
 10
1.834025
 20
-1.018145
 30
0.0
 11
1.842007
 21
-1.021682
 31
0.0
  0
LINE
  8
0
  6
CONTINUOUS
 62
     7
  5
320
 10
1.842007
 20
-1.021682
 30
0.0
 11
1.849899
 21
-1.025313
 31
0.0
  0
LINE
  8
0
  6
CONTINUOUS
 62
     7
  5
321
 10
1.849899
 20
-1.025313
 30
0.0
 11
1.8577
 21
-1.029034
 31
0.0
  0
LINE
  8
0
  6
CONTINUOUS
 62
     7
  5
322
 10
1.8577
 20
-1.029034
 30
0.0
 11
1.865405
 21
-1.032843
 31
0.0
  0
LINE
  8
0
  6
CONTINUOUS
 62
     7
  5
323
 10
1.865405
 20
-1.032843
 30
0.0
 11
1.873012
 21
-1.036734
 31
0.0
  0
LINE
  8
0
  6
CONTINUOUS
 62
     7
  5
324
 10
1.873012
 20
-1.036734
 30
0.0
 11
1.880518
 21
-1.040705
 31
0.0
  0
LINE
  8
0
  6
CONTINUOUS
 62
     7
  5
325
 10
1.880518
 20
-1.040705
 30
0.0
 11
1.887921
 21
-1.044751
 31
0.0
  0
LINE
  8
0
  6
CONTINUOUS
 62
     7
  5
326
 10
1.887921
 20
-1.044751
 30
0.0
 11
1.895264
 21
-1.048896
 31
0.0
  0
LINE
  8
0
  6
CONTINUOUS
 62
     7
  5
327
 10
1.895264
 20
-1.048896
 30
0.0
 11
1.902573
 21
-1.053153
 31
0.0
  0
LINE
  8
0
  6
CONTINUOUS
 62
     7
  5
328
 10
1.902573
 20
-1.053153
 30
0.0
 11
1.909845
 21
-1.057524
 31
0.0
  0
LINE
  8
0
  6
CONTINUOUS
 62
     7
  5
329
 10
1.909845
 20
-1.057524
 30
0.0
 11
1.917078
 21
-1.062007
 31
0.0
  0
LINE
  8
0
  6
CONTINUOUS
 62
     7
  5
32A
 10
1.917078
 20
-1.062007
 30
0.0
 11
1.92427
 21
-1.066601
 31
0.0
  0
LINE
  8
0
  6
CONTINUOUS
 62
     7
  5
32B
 10
1.92427
 20
-1.066601
 30
0.0
 11
1.931416
 21
-1.071308
 31
0.0
  0
LINE
  8
0
  6
CONTINUOUS
 62
     7
  5
32C
 10
1.931416
 20
-1.071308
 30
0.0
 11
1.938515
 21
-1.076124
 31
0.0
  0
LINE
  8
0
  6
CONTINUOUS
 62
     7
  5
32D
 10
1.938515
 20
-1.076124
 30
0.0
 11
1.945563
 21
-1.081051
 31
0.0
  0
LINE
  8
0
  6
CONTINUOUS
 62
     7
  5
32E
 10
1.945563
 20
-1.081051
 30
0.0
 11
1.952558
 21
-1.086086
 31
0.0
  0
LINE
  8
0
  6
CONTINUOUS
 62
     7
  5
32F
 10
1.952558
 20
-1.086086
 30
0.0
 11
1.959498
 21
-1.091229
 31
0.0
  0
LINE
  8
0
  6
CONTINUOUS
 62
     7
  5
330
 10
1.959498
 20
-1.091229
 30
0.0
 11
1.966379
 21
-1.096479
 31
0.0
  0
LINE
  8
0
  6
CONTINUOUS
 62
     7
  5
331
 10
1.966379
 20
-1.096479
 30
0.0
 11
1.973199
 21
-1.101836
 31
0.0
  0
LINE
  8
0
  6
CONTINUOUS
 62
     7
  5
332
 10
1.973199
 20
-1.101836
 30
0.0
 11
1.979956
 21
-1.107297
 31
0.0
  0
LINE
  8
0
  6
CONTINUOUS
 62
     7
  5
333
 10
1.979956
 20
-1.107297
 30
0.0
 11
1.986647
 21
-1.112861
 31
0.0
  0
LINE
  8
0
  6
CONTINUOUS
 62
     7
  5
334
 10
1.986647
 20
-1.112861
 30
0.0
 11
1.993269
 21
-1.118528
 31
0.0
  0
LINE
  8
0
  6
CONTINUOUS
 62
     7
  5
335
 10
1.993269
 20
-1.118528
 30
0.0
 11
1.999821
 21
-1.124296
 31
0.0
  0
LINE
  8
0
  6
CONTINUOUS
 62
     7
  5
336
 10
1.999821
 20
-1.124296
 30
0.0
 11
2.0063
 21
-1.130164
 31
0.0
  0
LINE
  8
0
  6
CONTINUOUS
 62
     7
  5
337
 10
2.0063
 20
-1.130164
 30
0.0
 11
2.012703
 21
-1.13613
 31
0.0
  0
LINE
  8
0
  6
CONTINUOUS
 62
     7
  5
338
 10
2.012703
 20
-1.13613
 30
0.0
 11
2.01903
 21
-1.142194
 31
0.0
  0
LINE
  8
0
  6
CONTINUOUS
 62
     7
  5
339
 10
2.01903
 20
-1.142194
 30
0.0
 11
2.025276
 21
-1.148353
 31
0.0
  0
LINE
  8
0
  6
CONTINUOUS
 62
     7
  5
33A
 10
1.148353
 20
-2.025276
 30
0.0
 11
1.142194
 21
-2.01903
 31
0.0
  0
LINE
  8
0
  6
CONTINUOUS
 62
     7
  5
33B
 10
1.142194
 20
-2.01903
 30
0.0
 11
1.13613
 21
-2.012703
 31
0.0
  0
LINE
  8
0
  6
CONTINUOUS
 62
     7
  5
33C
 10
1.13613
 20
-2.012703
 30
0.0
 11
1.130164
 21
-2.0063
 31
0.0
  0
LINE
  8
0
  6
CONTINUOUS
 62
     7
  5
33D
 10
1.130164
 20
-2.0063
 30
0.0
 11
1.124296
 21
-1.999821
 31
0.0
  0
LINE
  8
0
  6
CONTINUOUS
 62
     7
  5
33E
 10
1.124296
 20
-1.999821
 30
0.0
 11
1.118528
 21
-1.993269
 31
0.0
  0
LINE
  8
0
  6
CONTINUOUS
 62
     7
  5
33F
 10
1.118528
 20
-1.993269
 30
0.0
 11
1.112861
 21
-1.986647
 31
0.0
  0
LINE
  8
0
  6
CONTINUOUS
 62
     7
  5
340
 10
1.112861
 20
-1.986647
 30
0.0
 11
1.107297
 21
-1.979956
 31
0.0
  0
LINE
  8
0
  6
CONTINUOUS
 62
     7
  5
341
 10
1.107297
 20
-1.979956
 30
0.0
 11
1.101836
 21
-1.973199
 31
0.0
  0
LINE
  8
0
  6
CONTINUOUS
 62
     7
  5
342
 10
1.101836
 20
-1.973199
 30
0.0
 11
1.096479
 21
-1.966379
 31
0.0
  0
LINE
  8
0
  6
CONTINUOUS
 62
     7
  5
343
 10
1.096479
 20
-1.966379
 30
0.0
 11
1.091229
 21
-1.959498
 31
0.0
  0
LINE
  8
0
  6
CONTINUOUS
 62
     7
  5
344
 10
1.091229
 20
-1.959498
 30
0.0
 11
1.086086
 21
-1.952558
 31
0.0
  0
LINE
  8
0
  6
CONTINUOUS
 62
     7
  5
345
 10
1.086086
 20
-1.952558
 30
0.0
 11
1.081051
 21
-1.945563
 31
0.0
  0
LINE
  8
0
  6
CONTINUOUS
 62
     7
  5
346
 10
1.081051
 20
-1.945563
 30
0.0
 11
1.076124
 21
-1.938515
 31
0.0
  0
LINE
  8
0
  6
CONTINUOUS
 62
     7
  5
347
 10
1.076124
 20
-1.938515
 30
0.0
 11
1.071308
 21
-1.931416
 31
0.0
  0
LINE
  8
0
  6
CONTINUOUS
 62
     7
  5
348
 10
1.071308
 20
-1.931416
 30
0.0
 11
1.066601
 21
-1.92427
 31
0.0
  0
LINE
  8
0
  6
CONTINUOUS
 62
     7
  5
349
 10
1.066601
 20
-1.92427
 30
0.0
 11
1.062007
 21
-1.917078
 31
0.0
  0
LINE
  8
0
  6
CONTINUOUS
 62
     7
  5
34A
 10
1.062007
 20
-1.917078
 30
0.0
 11
1.057524
 21
-1.909845
 31
0.0
  0
LINE
  8
0
  6
CONTINUOUS
 62
     7
  5
34B
 10
1.057524
 20
-1.909845
 30
0.0
 11
1.053153
 21
-1.902573
 31
0.0
  0
LINE
  8
0
  6
CONTINUOUS
 62
     7
  5
34C
 10
1.053153
 20
-1.902573
 30
0.0
 11
1.048896
 21
-1.895264
 31
0.0
  0
LINE
  8
0
  6
CONTINUOUS
 62
     7
  5
34D
 10
1.048896
 20
-1.895264
 30
0.0
 11
1.044751
 21
-1.887921
 31
0.0
  0
LINE
  8
0
  6
CONTINUOUS
 62
     7
  5
34E
 10
1.044751
 20
-1.887921
 30
0.0
 11
1.040705
 21
-1.880518
 31
0.0
  0
LINE
  8
0
  6
CONTINUOUS
 62
     7
  5
34F
 10
1.040705
 20
-1.880518
 30
0.0
 11
1.036734
 21
-1.873012
 31
0.0
  0
LINE
  8
0
  6
CONTINUOUS
 62
     7
  5
350
 10
1.036734
 20
-1.873012
 30
0.0
 11
1.032843
 21
-1.865405
 31
0.0
  0
LINE
  8
0
  6
CONTINUOUS
 62
     7
  5
351
 10
1.032843
 20
-1.865405
 30
0.0
 11
1.029034
 21
-1.8577
 31
0.0
  0
LINE
  8
0
  6
CONTINUOUS
 62
     7
  5
352
 10
1.029034
 20
-1.8577
 30
0.0
 11
1.025313
 21
-1.849899
 31
0.0
  0
LINE
  8
0
  6
CONTINUOUS
 62
     7
  5
353
 10
1.025313
 20
-1.849899
 30
0.0
 11
1.021682
 21
-1.842007
 31
0.0
  0
LINE
  8
0
  6
CONTINUOUS
 62
     7
  5
354
 10
1.021682
 20
-1.842007
 30
0.0
 11
1.018145
 21
-1.834025
 31
0.0
  0
LINE
  8
0
  6
CONTINUOUS
 62
     7
  5
355
 10
1.018145
 20
-1.834025
 30
0.0
 11
1.014706
 21
-1.825958
 31
0.0
  0
LINE
  8
0
  6
CONTINUOUS
 62
     7
  5
356
 10
1.014706
 20
-1.825958
 30
0.0
 11
1.011368
 21
-1.81781
 31
0.0
  0
LINE
  8
0
  6
CONTINUOUS
 62
     7
  5
357
 10
1.011368
 20
-1.81781
 30
0.0
 11
1.008133
 21
-1.809583
 31
0.0
  0
LINE
  8
0
  6
CONTINUOUS
 62
     7
  5
358
 10
1.008133
 20
-1.809583
 30
0.0
 11
1.005006
 21
-1.801282
 31
0.0
  0
LINE
  8
0
  6
CONTINUOUS
 62
     7
  5
359
 10
1.005006
 20
-1.801282
 30
0.0
 11
1.001988
 21
-1.79291
 31
0.0
  0
LINE
  8
0
  6
CONTINUOUS
 62
     7
  5
35A
 10
1.001988
 20
-1.79291
 30
0.0
 11
0.999082
 21
-1.784471
 31
0.0
  0
LINE
  8
0
  6
CONTINUOUS
 62
     7
  5
35B
 10
0.999082
 20
-1.784471
 30
0.0
 11
0.996291
 21
-1.775969
 31
0.0
  0
LINE
  8
0
  6
CONTINUOUS
 62
     7
  5
35C
 10
0.996291
 20
-1.775969
 30
0.0
 11
0.993617
 21
-1.767408
 31
0.0
  0
LINE
  8
0
  6
CONTINUOUS
 62
     7
  5
35D
 10
2.025276
 20
-1.148353
 30
0.0
 11
2.275139
 21
-1.398215
 31
0.0
  0
ARC
  8
0
  6
CONTINUOUS
 62
     7
  5
35E
 10
0.0
 20
0.0
 30
0.0
 40
2.670443
 50
328.426673
 51
31.573327
  0
LINE
  8
0
  6
CONTINUOUS
 62
     7
  5
35F
 10
2.275139
 20
1.398215
 30
0.0
 11
2.025276
 21
1.148353
 31
0.0
  0
LINE
  8
0
  6
CONTINUOUS
 62
     7
  5
360
 10
0.993617
 20
1.767408
 30
0.0
 11
0.996291
 21
1.775969
 31
0.0
  0
LINE
  8
0
  6
CONTINUOUS
 62
     7
  5
361
 10
0.996291
 20
1.775969
 30
0.0
 11
0.999082
 21
1.784471
 31
0.0
  0
LINE
  8
0
  6
CONTINUOUS
 62
     7
  5
362
 10
0.999082
 20
1.784471
 30
0.0
 11
1.001988
 21
1.79291
 31
0.0
  0
LINE
  8
0
  6
CONTINUOUS
 62
     7
  5
363
 10
1.001988
 20
1.79291
 30
0.0
 11
1.005006
 21
1.801282
 31
0.0
  0
LINE
  8
0
  6
CONTINUOUS
 62
     7
  5
364
 10
1.005006
 20
1.801282
 30
0.0
 11
1.008133
 21
1.809583
 31
0.0
  0
LINE
  8
0
  6
CONTINUOUS
 62
     7
  5
365
 10
1.008133
 20
1.809583
 30
0.0
 11
1.011368
 21
1.81781
 31
0.0
  0
LINE
  8
0
  6
CONTINUOUS
 62
     7
  5
366
 10
1.011368
 20
1.81781
 30
0.0
 11
1.014706
 21
1.825958
 31
0.0
  0
LINE
  8
0
  6
CONTINUOUS
 62
     7
  5
367
 10
1.014706
 20
1.825958
 30
0.0
 11
1.018145
 21
1.834025
 31
0.0
  0
LINE
  8
0
  6
CONTINUOUS
 62
     7
  5
368
 10
1.018145
 20
1.834025
 30
0.0
 11
1.021682
 21
1.842007
 31
0.0
  0
LINE
  8
0
  6
CONTINUOUS
 62
     7
  5
369
 10
1.021682
 20
1.842007
 30
0.0
 11
1.025313
 21
1.849899
 31
0.0
  0
LINE
  8
0
  6
CONTINUOUS
 62
     7
  5
36A
 10
1.025313
 20
1.849899
 30
0.0
 11
1.029034
 21
1.8577
 31
0.0
  0
LINE
  8
0
  6
CONTINUOUS
 62
     7
  5
36B
 10
1.029034
 20
1.8577
 30
0.0
 11
1.032843
 21
1.865405
 31
0.0
  0
LINE
  8
0
  6
CONTINUOUS
 62
     7
  5
36C
 10
1.032843
 20
1.865405
 30
0.0
 11
1.036734
 21
1.873012
 31
0.0
  0
LINE
  8
0
  6
CONTINUOUS
 62
     7
  5
36D
 10
1.036734
 20
1.873012
 30
0.0
 11
1.040705
 21
1.880518
 31
0.0
  0
LINE
  8
0
  6
CONTINUOUS
 62
     7
  5
36E
 10
1.040705
 20
1.880518
 30
0.0
 11
1.044751
 21
1.887921
 31
0.0
  0
LINE
  8
0
  6
CONTINUOUS
 62
     7
  5
36F
 10
1.044751
 20
1.887921
 30
0.0
 11
1.048896
 21
1.895264
 31
0.0
  0
LINE
  8
0
  6
CONTINUOUS
 62
     7
  5
370
 10
1.048896
 20
1.895264
 30
0.0
 11
1.053153
 21
1.902573
 31
0.0
  0
LINE
  8
0
  6
CONTINUOUS
 62
     7
  5
371
 10
1.053153
 20
1.902573
 30
0.0
 11
1.057524
 21
1.909845
 31
0.0
  0
LINE
  8
0
  6
CONTINUOUS
 62
     7
  5
372
 10
1.057524
 20
1.909845
 30
0.0
 11
1.062007
 21
1.917078
 31
0.0
  0
LINE
  8
0
  6
CONTINUOUS
 62
     7
  5
373
 10
1.062007
 20
1.917078
 30
0.0
 11
1.066601
 21
1.92427
 31
0.0
  0
LINE
  8
0
  6
CONTINUOUS
 62
     7
  5
374
 10
1.066601
 20
1.92427
 30
0.0
 11
1.071308
 21
1.931416
 31
0.0
  0
LINE
  8
0
  6
CONTINUOUS
 62
     7
  5
375
 10
1.071308
 20
1.931416
 30
0.0
 11
1.076124
 21
1.938515
 31
0.0
  0
LINE
  8
0
  6
CONTINUOUS
 62
     7
  5
376
 10
1.076124
 20
1.938515
 30
0.0
 11
1.081051
 21
1.945563
 31
0.0
  0
LINE
  8
0
  6
CONTINUOUS
 62
     7
  5
377
 10
1.081051
 20
1.945563
 30
0.0
 11
1.086086
 21
1.952558
 31
0.0
  0
LINE
  8
0
  6
CONTINUOUS
 62
     7
  5
378
 10
1.086086
 20
1.952558
 30
0.0
 11
1.091229
 21
1.959498
 31
0.0
  0
LINE
  8
0
  6
CONTINUOUS
 62
     7
  5
379
 10
1.091229
 20
1.959498
 30
0.0
 11
1.096479
 21
1.966379
 31
0.0
  0
LINE
  8
0
  6
CONTINUOUS
 62
     7
  5
37A
 10
1.096479
 20
1.966379
 30
0.0
 11
1.101836
 21
1.973199
 31
0.0
  0
LINE
  8
0
  6
CONTINUOUS
 62
     7
  5
37B
 10
1.101836
 20
1.973199
 30
0.0
 11
1.107297
 21
1.979956
 31
0.0
  0
LINE
  8
0
  6
CONTINUOUS
 62
     7
  5
37C
 10
1.107297
 20
1.979956
 30
0.0
 11
1.112861
 21
1.986647
 31
0.0
  0
LINE
  8
0
  6
CONTINUOUS
 62
     7
  5
37D
 10
1.112861
 20
1.986647
 30
0.0
 11
1.118528
 21
1.993269
 31
0.0
  0
LINE
  8
0
  6
CONTINUOUS
 62
     7
  5
37E
 10
1.118528
 20
1.993269
 30
0.0
 11
1.124296
 21
1.999821
 31
0.0
  0
LINE
  8
0
  6
CONTINUOUS
 62
     7
  5
37F
 10
1.124296
 20
1.999821
 30
0.0
 11
1.130164
 21
2.0063
 31
0.0
  0
LINE
  8
0
  6
CONTINUOUS
 62
     7
  5
380
 10
1.130164
 20
2.0063
 30
0.0
 11
1.13613
 21
2.012703
 31
0.0
  0
LINE
  8
0
  6
CONTINUOUS
 62
     7
  5
381
 10
1.13613
 20
2.012703
 30
0.0
 11
1.142194
 21
2.01903
 31
0.0
  0
LINE
  8
0
  6
CONTINUOUS
 62
     7
  5
382
 10
1.142194
 20
2.01903
 30
0.0
 11
1.148353
 21
2.025276
 31
0.0
  0
LINE
  8
0
  6
CONTINUOUS
 62
     7
  5
383
 10
2.025276
 20
1.148353
 30
0.0
 11
2.01903
 21
1.142194
 31
0.0
  0
LINE
  8
0
  6
CONTINUOUS
 62
     7
  5
384
 10
2.01903
 20
1.142194
 30
0.0
 11
2.012703
 21
1.13613
 31
0.0
  0
LINE
  8
0
  6
CONTINUOUS
 62
     7
  5
385
 10
2.012703
 20
1.13613
 30
0.0
 11
2.0063
 21
1.130164
 31
0.0
  0
LINE
  8
0
  6
CONTINUOUS
 62
     7
  5
386
 10
2.0063
 20
1.130164
 30
0.0
 11
1.999821
 21
1.124296
 31
0.0
  0
LINE
  8
0
  6
CONTINUOUS
 62
     7
  5
387
 10
1.999821
 20
1.124296
 30
0.0
 11
1.993269
 21
1.118528
 31
0.0
  0
LINE
  8
0
  6
CONTINUOUS
 62
     7
  5
388
 10
1.993269
 20
1.118528
 30
0.0
 11
1.986647
 21
1.112861
 31
0.0
  0
LINE
  8
0
  6
CONTINUOUS
 62
     7
  5
389
 10
1.986647
 20
1.112861
 30
0.0
 11
1.979956
 21
1.107297
 31
0.0
  0
LINE
  8
0
  6
CONTINUOUS
 62
     7
  5
38A
 10
1.979956
 20
1.107297
 30
0.0
 11
1.973199
 21
1.101836
 31
0.0
  0
LINE
  8
0
  6
CONTINUOUS
 62
     7
  5
38B
 10
1.973199
 20
1.101836
 30
0.0
 11
1.966379
 21
1.096479
 31
0.0
  0
LINE
  8
0
  6
CONTINUOUS
 62
     7
  5
38C
 10
1.966379
 20
1.096479
 30
0.0
 11
1.959498
 21
1.091229
 31
0.0
  0
LINE
  8
0
  6
CONTINUOUS
 62
     7
  5
38D
 10
1.959498
 20
1.091229
 30
0.0
 11
1.952558
 21
1.086086
 31
0.0
  0
LINE
  8
0
  6
CONTINUOUS
 62
     7
  5
38E
 10
1.952558
 20
1.086086
 30
0.0
 11
1.945563
 21
1.081051
 31
0.0
  0
LINE
  8
0
  6
CONTINUOUS
 62
     7
  5
38F
 10
1.945563
 20
1.081051
 30
0.0
 11
1.938515
 21
1.076124
 31
0.0
  0
LINE
  8
0
  6
CONTINUOUS
 62
     7
  5
390
 10
1.938515
 20
1.076124
 30
0.0
 11
1.931416
 21
1.071308
 31
0.0
  0
LINE
  8
0
  6
CONTINUOUS
 62
     7
  5
391
 10
1.931416
 20
1.071308
 30
0.0
 11
1.92427
 21
1.066601
 31
0.0
  0
LINE
  8
0
  6
CONTINUOUS
 62
     7
  5
392
 10
1.92427
 20
1.066601
 30
0.0
 11
1.917078
 21
1.062007
 31
0.0
  0
LINE
  8
0
  6
CONTINUOUS
 62
     7
  5
393
 10
1.917078
 20
1.062007
 30
0.0
 11
1.909845
 21
1.057524
 31
0.0
  0
LINE
  8
0
  6
CONTINUOUS
 62
     7
  5
394
 10
1.909845
 20
1.057524
 30
0.0
 11
1.902573
 21
1.053153
 31
0.0
  0
LINE
  8
0
  6
CONTINUOUS
 62
     7
  5
395
 10
1.902573
 20
1.053153
 30
0.0
 11
1.895264
 21
1.048896
 31
0.0
  0
LINE
  8
0
  6
CONTINUOUS
 62
     7
  5
396
 10
1.895264
 20
1.048896
 30
0.0
 11
1.887921
 21
1.044751
 31
0.0
  0
LINE
  8
0
  6
CONTINUOUS
 62
     7
  5
397
 10
1.887921
 20
1.044751
 30
0.0
 11
1.880518
 21
1.040705
 31
0.0
  0
LINE
  8
0
  6
CONTINUOUS
 62
     7
  5
398
 10
1.880518
 20
1.040705
 30
0.0
 11
1.873012
 21
1.036734
 31
0.0
  0
LINE
  8
0
  6
CONTINUOUS
 62
     7
  5
399
 10
1.873012
 20
1.036734
 30
0.0
 11
1.865405
 21
1.032843
 31
0.0
  0
LINE
  8
0
  6
CONTINUOUS
 62
     7
  5
39A
 10
1.865405
 20
1.032843
 30
0.0
 11
1.8577
 21
1.029034
 31
0.0
  0
LINE
  8
0
  6
CONTINUOUS
 62
     7
  5
39B
 10
1.8577
 20
1.029034
 30
0.0
 11
1.849899
 21
1.025313
 31
0.0
  0
LINE
  8
0
  6
CONTINUOUS
 62
     7
  5
39C
 10
1.849899
 20
1.025313
 30
0.0
 11
1.842007
 21
1.021682
 31
0.0
  0
LINE
  8
0
  6
CONTINUOUS
 62
     7
  5
39D
 10
1.842007
 20
1.021682
 30
0.0
 11
1.834025
 21
1.018145
 31
0.0
  0
LINE
  8
0
  6
CONTINUOUS
 62
     7
  5
39E
 10
1.834025
 20
1.018145
 30
0.0
 11
1.825958
 21
1.014706
 31
0.0
  0
LINE
  8
0
  6
CONTINUOUS
 62
     7
  5
39F
 10
1.825958
 20
1.014706
 30
0.0
 11
1.81781
 21
1.011368
 31
0.0
  0
LINE
  8
0
  6
CONTINUOUS
 62
     7
  5
3A0
 10
1.81781
 20
1.011368
 30
0.0
 11
1.809583
 21
1.008133
 31
0.0
  0
LINE
  8
0
  6
CONTINUOUS
 62
     7
  5
3A1
 10
1.809583
 20
1.008133
 30
0.0
 11
1.801282
 21
1.005006
 31
0.0
  0
LINE
  8
0
  6
CONTINUOUS
 62
     7
  5
3A2
 10
1.801282
 20
1.005006
 30
0.0
 11
1.79291
 21
1.001988
 31
0.0
  0
LINE
  8
0
  6
CONTINUOUS
 62
     7
  5
3A3
 10
1.79291
 20
1.001988
 30
0.0
 11
1.784471
 21
0.999082
 31
0.0
  0
LINE
  8
0
  6
CONTINUOUS
 62
     7
  5
3A4
 10
1.784471
 20
0.999082
 30
0.0
 11
1.775969
 21
0.996291
 31
0.0
  0
LINE
  8
0
  6
CONTINUOUS
 62
     7
  5
3A5
 10
1.775969
 20
0.996291
 30
0.0
 11
1.767408
 21
0.993617
 31
0.0
  0
LINE
  8
0
  6
CONTINUOUS
 62
     7
  5
3A6
 10
1.148353
 20
2.025276
 30
0.0
 11
1.398215
 21
2.275139
 31
0.0
  0
ARC
  8
0
  6
CONTINUOUS
 62
     7
  5
3A7
 10
0.0
 20
0.0
 30
0.0
 40
2.670443
 50
58.426673
 51
121.573327
  0
LINE
  8
0
  6
CONTINUOUS
 62
     7
  5
3A8
 10
-1.398215
 20
2.275139
 30
0.0
 11
-1.148353
 21
2.025276
 31
0.0
  0
LINE
  8
0
  6
CONTINUOUS
 62
     7
  5
3A9
 10
-1.767408
 20
0.993617
 30
0.0
 11
-1.775969
 21
0.996291
 31
0.0
  0
LINE
  8
0
  6
CONTINUOUS
 62
     7
  5
3AA
 10
-1.775969
 20
0.996291
 30
0.0
 11
-1.784471
 21
0.999082
 31
0.0
  0
LINE
  8
0
  6
CONTINUOUS
 62
     7
  5
3AB
 10
-1.784471
 20
0.999082
 30
0.0
 11
-1.79291
 21
1.001988
 31
0.0
  0
LINE
  8
0
  6
CONTINUOUS
 62
     7
  5
3AC
 10
-1.79291
 20
1.001988
 30
0.0
 11
-1.801282
 21
1.005006
 31
0.0
  0
LINE
  8
0
  6
CONTINUOUS
 62
     7
  5
3AD
 10
-1.801282
 20
1.005006
 30
0.0
 11
-1.809583
 21
1.008133
 31
0.0
  0
LINE
  8
0
  6
CONTINUOUS
 62
     7
  5
3AE
 10
-1.809583
 20
1.008133
 30
0.0
 11
-1.81781
 21
1.011368
 31
0.0
  0
LINE
  8
0
  6
CONTINUOUS
 62
     7
  5
3AF
 10
-1.81781
 20
1.011368
 30
0.0
 11
-1.825958
 21
1.014706
 31
0.0
  0
LINE
  8
0
  6
CONTINUOUS
 62
     7
  5
3B0
 10
-1.825958
 20
1.014706
 30
0.0
 11
-1.834025
 21
1.018145
 31
0.0
  0
LINE
  8
0
  6
CONTINUOUS
 62
     7
  5
3B1
 10
-1.834025
 20
1.018145
 30
0.0
 11
-1.842007
 21
1.021682
 31
0.0
  0
LINE
  8
0
  6
CONTINUOUS
 62
     7
  5
3B2
 10
-1.842007
 20
1.021682
 30
0.0
 11
-1.849899
 21
1.025313
 31
0.0
  0
LINE
  8
0
  6
CONTINUOUS
 62
     7
  5
3B3
 10
-1.849899
 20
1.025313
 30
0.0
 11
-1.8577
 21
1.029034
 31
0.0
  0
LINE
  8
0
  6
CONTINUOUS
 62
     7
  5
3B4
 10
-1.8577
 20
1.029034
 30
0.0
 11
-1.865405
 21
1.032843
 31
0.0
  0
LINE
  8
0
  6
CONTINUOUS
 62
     7
  5
3B5
 10
-1.865405
 20
1.032843
 30
0.0
 11
-1.873012
 21
1.036734
 31
0.0
  0
LINE
  8
0
  6
CONTINUOUS
 62
     7
  5
3B6
 10
-1.873012
 20
1.036734
 30
0.0
 11
-1.880518
 21
1.040705
 31
0.0
  0
LINE
  8
0
  6
CONTINUOUS
 62
     7
  5
3B7
 10
-1.880518
 20
1.040705
 30
0.0
 11
-1.887921
 21
1.044751
 31
0.0
  0
LINE
  8
0
  6
CONTINUOUS
 62
     7
  5
3B8
 10
-1.887921
 20
1.044751
 30
0.0
 11
-1.895264
 21
1.048896
 31
0.0
  0
LINE
  8
0
  6
CONTINUOUS
 62
     7
  5
3B9
 10
-1.895264
 20
1.048896
 30
0.0
 11
-1.902573
 21
1.053153
 31
0.0
  0
LINE
  8
0
  6
CONTINUOUS
 62
     7
  5
3BA
 10
-1.902573
 20
1.053153
 30
0.0
 11
-1.909845
 21
1.057524
 31
0.0
  0
LINE
  8
0
  6
CONTINUOUS
 62
     7
  5
3BB
 10
-1.909845
 20
1.057524
 30
0.0
 11
-1.917078
 21
1.062007
 31
0.0
  0
LINE
  8
0
  6
CONTINUOUS
 62
     7
  5
3BC
 10
-1.917078
 20
1.062007
 30
0.0
 11
-1.92427
 21
1.066601
 31
0.0
  0
LINE
  8
0
  6
CONTINUOUS
 62
     7
  5
3BD
 10
-1.92427
 20
1.066601
 30
0.0
 11
-1.931416
 21
1.071308
 31
0.0
  0
LINE
  8
0
  6
CONTINUOUS
 62
     7
  5
3BE
 10
-1.931416
 20
1.071308
 30
0.0
 11
-1.938515
 21
1.076124
 31
0.0
  0
LINE
  8
0
  6
CONTINUOUS
 62
     7
  5
3BF
 10
-1.938515
 20
1.076124
 30
0.0
 11
-1.945563
 21
1.081051
 31
0.0
  0
LINE
  8
0
  6
CONTINUOUS
 62
     7
  5
3C0
 10
-1.945563
 20
1.081051
 30
0.0
 11
-1.952558
 21
1.086086
 31
0.0
  0
LINE
  8
0
  6
CONTINUOUS
 62
     7
  5
3C1
 10
-1.952558
 20
1.086086
 30
0.0
 11
-1.959498
 21
1.091229
 31
0.0
  0
LINE
  8
0
  6
CONTINUOUS
 62
     7
  5
3C2
 10
-1.959498
 20
1.091229
 30
0.0
 11
-1.966379
 21
1.096479
 31
0.0
  0
LINE
  8
0
  6
CONTINUOUS
 62
     7
  5
3C3
 10
-1.966379
 20
1.096479
 30
0.0
 11
-1.973199
 21
1.101836
 31
0.0
  0
LINE
  8
0
  6
CONTINUOUS
 62
     7
  5
3C4
 10
-1.973199
 20
1.101836
 30
0.0
 11
-1.979956
 21
1.107297
 31
0.0
  0
LINE
  8
0
  6
CONTINUOUS
 62
     7
  5
3C5
 10
-1.979956
 20
1.107297
 30
0.0
 11
-1.986647
 21
1.112861
 31
0.0
  0
LINE
  8
0
  6
CONTINUOUS
 62
     7
  5
3C6
 10
-1.986647
 20
1.112861
 30
0.0
 11
-1.993269
 21
1.118528
 31
0.0
  0
LINE
  8
0
  6
CONTINUOUS
 62
     7
  5
3C7
 10
-1.993269
 20
1.118528
 30
0.0
 11
-1.999821
 21
1.124296
 31
0.0
  0
LINE
  8
0
  6
CONTINUOUS
 62
     7
  5
3C8
 10
-1.999821
 20
1.124296
 30
0.0
 11
-2.0063
 21
1.130164
 31
0.0
  0
LINE
  8
0
  6
CONTINUOUS
 62
     7
  5
3C9
 10
-2.0063
 20
1.130164
 30
0.0
 11
-2.012703
 21
1.13613
 31
0.0
  0
LINE
  8
0
  6
CONTINUOUS
 62
     7
  5
3CA
 10
-2.012703
 20
1.13613
 30
0.0
 11
-2.01903
 21
1.142194
 31
0.0
  0
LINE
  8
0
  6
CONTINUOUS
 62
     7
  5
3CB
 10
-2.01903
 20
1.142194
 30
0.0
 11
-2.025276
 21
1.148353
 31
0.0
  0
LINE
  8
0
  6
CONTINUOUS
 62
     7
  5
3CC
 10
-1.148353
 20
2.025276
 30
0.0
 11
-1.142194
 21
2.01903
 31
0.0
  0
LINE
  8
0
  6
CONTINUOUS
 62
     7
  5
3CD
 10
-1.142194
 20
2.01903
 30
0.0
 11
-1.13613
 21
2.012703
 31
0.0
  0
LINE
  8
0
  6
CONTINUOUS
 62
     7
  5
3CE
 10
-1.13613
 20
2.012703
 30
0.0
 11
-1.130164
 21
2.0063
 31
0.0
  0
LINE
  8
0
  6
CONTINUOUS
 62
     7
  5
3CF
 10
-1.130164
 20
2.0063
 30
0.0
 11
-1.124296
 21
1.999821
 31
0.0
  0
LINE
  8
0
  6
CONTINUOUS
 62
     7
  5
3D0
 10
-1.124296
 20
1.999821
 30
0.0
 11
-1.118528
 21
1.993269
 31
0.0
  0
LINE
  8
0
  6
CONTINUOUS
 62
     7
  5
3D1
 10
-1.118528
 20
1.993269
 30
0.0
 11
-1.112861
 21
1.986647
 31
0.0
  0
LINE
  8
0
  6
CONTINUOUS
 62
     7
  5
3D2
 10
-1.112861
 20
1.986647
 30
0.0
 11
-1.107297
 21
1.979956
 31
0.0
  0
LINE
  8
0
  6
CONTINUOUS
 62
     7
  5
3D3
 10
-1.107297
 20
1.979956
 30
0.0
 11
-1.101836
 21
1.973199
 31
0.0
  0
LINE
  8
0
  6
CONTINUOUS
 62
     7
  5
3D4
 10
-1.101836
 20
1.973199
 30
0.0
 11
-1.096479
 21
1.966379
 31
0.0
  0
LINE
  8
0
  6
CONTINUOUS
 62
     7
  5
3D5
 10
-1.096479
 20
1.966379
 30
0.0
 11
-1.091229
 21
1.959498
 31
0.0
  0
LINE
  8
0
  6
CONTINUOUS
 62
     7
  5
3D6
 10
-1.091229
 20
1.959498
 30
0.0
 11
-1.086086
 21
1.952558
 31
0.0
  0
LINE
  8
0
  6
CONTINUOUS
 62
     7
  5
3D7
 10
-1.086086
 20
1.952558
 30
0.0
 11
-1.081051
 21
1.945563
 31
0.0
  0
LINE
  8
0
  6
CONTINUOUS
 62
     7
  5
3D8
 10
-1.081051
 20
1.945563
 30
0.0
 11
-1.076124
 21
1.938515
 31
0.0
  0
LINE
  8
0
  6
CONTINUOUS
 62
     7
  5
3D9
 10
-1.076124
 20
1.938515
 30
0.0
 11
-1.071308
 21
1.931416
 31
0.0
  0
LINE
  8
0
  6
CONTINUOUS
 62
     7
  5
3DA
 10
-1.071308
 20
1.931416
 30
0.0
 11
-1.066601
 21
1.92427
 31
0.0
  0
LINE
  8
0
  6
CONTINUOUS
 62
     7
  5
3DB
 10
-1.066601
 20
1.92427
 30
0.0
 11
-1.062007
 21
1.917078
 31
0.0
  0
LINE
  8
0
  6
CONTINUOUS
 62
     7
  5
3DC
 10
-1.062007
 20
1.917078
 30
0.0
 11
-1.057524
 21
1.909845
 31
0.0
  0
LINE
  8
0
  6
CONTINUOUS
 62
     7
  5
3DD
 10
-1.057524
 20
1.909845
 30
0.0
 11
-1.053153
 21
1.902573
 31
0.0
  0
LINE
  8
0
  6
CONTINUOUS
 62
     7
  5
3DE
 10
-1.053153
 20
1.902573
 30
0.0
 11
-1.048896
 21
1.895264
 31
0.0
  0
LINE
  8
0
  6
CONTINUOUS
 62
     7
  5
3DF
 10
-1.048896
 20
1.895264
 30
0.0
 11
-1.044751
 21
1.887921
 31
0.0
  0
LINE
  8
0
  6
CONTINUOUS
 62
     7
  5
3E0
 10
-1.044751
 20
1.887921
 30
0.0
 11
-1.040705
 21
1.880518
 31
0.0
  0
LINE
  8
0
  6
CONTINUOUS
 62
     7
  5
3E1
 10
-1.040705
 20
1.880518
 30
0.0
 11
-1.036734
 21
1.873012
 31
0.0
  0
LINE
  8
0
  6
CONTINUOUS
 62
     7
  5
3E2
 10
-1.036734
 20
1.873012
 30
0.0
 11
-1.032843
 21
1.865405
 31
0.0
  0
LINE
  8
0
  6
CONTINUOUS
 62
     7
  5
3E3
 10
-1.032843
 20
1.865405
 30
0.0
 11
-1.029034
 21
1.8577
 31
0.0
  0
LINE
  8
0
  6
CONTINUOUS
 62
     7
  5
3E4
 10
-1.029034
 20
1.8577
 30
0.0
 11
-1.025313
 21
1.849899
 31
0.0
  0
LINE
  8
0
  6
CONTINUOUS
 62
     7
  5
3E5
 10
-1.025313
 20
1.849899
 30
0.0
 11
-1.021682
 21
1.842007
 31
0.0
  0
LINE
  8
0
  6
CONTINUOUS
 62
     7
  5
3E6
 10
-1.021682
 20
1.842007
 30
0.0
 11
-1.018145
 21
1.834025
 31
0.0
  0
LINE
  8
0
  6
CONTINUOUS
 62
     7
  5
3E7
 10
-1.018145
 20
1.834025
 30
0.0
 11
-1.014706
 21
1.825958
 31
0.0
  0
LINE
  8
0
  6
CONTINUOUS
 62
     7
  5
3E8
 10
-1.014706
 20
1.825958
 30
0.0
 11
-1.011368
 21
1.81781
 31
0.0
  0
LINE
  8
0
  6
CONTINUOUS
 62
     7
  5
3E9
 10
-1.011368
 20
1.81781
 30
0.0
 11
-1.008133
 21
1.809583
 31
0.0
  0
LINE
  8
0
  6
CONTINUOUS
 62
     7
  5
3EA
 10
-1.008133
 20
1.809583
 30
0.0
 11
-1.005006
 21
1.801282
 31
0.0
  0
LINE
  8
0
  6
CONTINUOUS
 62
     7
  5
3EB
 10
-1.005006
 20
1.801282
 30
0.0
 11
-1.001988
 21
1.79291
 31
0.0
  0
LINE
  8
0
  6
CONTINUOUS
 62
     7
  5
3EC
 10
-1.001988
 20
1.79291
 30
0.0
 11
-0.999082
 21
1.784471
 31
0.0
  0
LINE
  8
0
  6
CONTINUOUS
 62
     7
  5
3ED
 10
-0.999082
 20
1.784471
 30
0.0
 11
-0.996291
 21
1.775969
 31
0.0
  0
LINE
  8
0
  6
CONTINUOUS
 62
     7
  5
3EE
 10
-0.996291
 20
1.775969
 30
0.0
 11
-0.993617
 21
1.767408
 31
0.0
  0
LINE
  8
0
  6
CONTINUOUS
 62
     7
  5
3EF
 10
-2.025276
 20
1.148353
 30
0.0
 11
-2.275139
 21
1.398215
 31
0.0
  0
ARC
  8
0
  6
CONTINUOUS
 62
     7
  5
3F0
 10
0.0
 20
0.0
 30
0.0
 40
2.670443
 50
148.426673
 51
211.573327
  0
LINE
  8
0
  6
CONTINUOUS
 62
     7
  5
3F1
 10
-2.275139
 20
1.398215
 30
0.0
 11
-2.299529
 21
1.422605
 31
0.0
  0
ARC
  8
0
  6
CONTINUOUS
 62
     7
  5
3F2
 10
0.0
 20
0.0
 30
0.0
 40
2.704004
 50
121.743036
 51
148.256964
  0
LINE
  8
0
  6
CONTINUOUS
 62
     7
  5
3F3
 10
-1.422605
 20
2.299529
 30
0.0
 11
-1.398215
 21
2.275139
 31
0.0
  0
LINE
  8
0
  6
CONTINUOUS
 62
     7
  5
3F4
 10
1.398215
 20
2.275139
 30
0.0
 11
1.422605
 21
2.299529
 31
0.0
  0
ARC
  8
0
  6
CONTINUOUS
 62
     7
  5
3F5
 10
0.0
 20
0.0
 30
0.0
 40
2.704004
 50
31.743036
 51
58.256964
  0
LINE
  8
0
  6
CONTINUOUS
 62
     7
  5
3F6
 10
2.299529
 20
1.422605
 30
0.0
 11
2.275139
 21
1.398215
 31
0.0
  0
LINE
  8
0
  6
CONTINUOUS
 62
     7
  5
3F7
 10
2.275139
 20
-1.398215
 30
0.0
 11
2.299529
 21
-1.422605
 31
0.0
  0
ARC
  8
0
  6
CONTINUOUS
 62
     7
  5
3F8
 10
0.0
 20
0.0
 30
0.0
 40
2.704004
 50
301.743036
 51
328.256964
  0
LINE
  8
0
  6
CONTINUOUS
 62
     7
  5
3F9
 10
1.422605
 20
-2.299529
 30
0.0
 11
1.398215
 21
-2.275139
 31
0.0
  0
ARC
  8
0
  6
CONTINUOUS
 62
     7
  5
3FA
 10
0.0
 20
0.0
 30
0.0
 40
0.787402
 50
49.9604
 51
70.0396
  0
ARC
  8
0
  6
CONTINUOUS
 62
     7
  5
3FB
 10
0.0
 20
0.0
 30
0.0
 40
0.787402
 50
109.9604
 51
130.0396
  0
ARC
  8
0
  6
CONTINUOUS
 62
     7
  5
3FC
 10
0.0
 20
0.0
 30
0.0
 40
0.787402
 50
169.9604
 51
190.0396
  0
ARC
  8
0
  6
CONTINUOUS
 62
     7
  5
3FD
 10
0.0
 20
0.0
 30
0.0
 40
0.787402
 50
229.9604
 51
250.0396
  0
ARC
  8
0
  6
CONTINUOUS
 62
     7
  5
3FE
 10
0.0
 20
0.0
 30
0.0
 40
0.787402
 50
289.9604
 51
310.0396
  0
ARC
  8
0
  6
CONTINUOUS
 62
     7
  5
3FF
 10
0.0
 20
0.0
 30
0.0
 40
0.787402
 50
349.9604
 51
10.0396
  0
CIRCLE
  8
0
  6
CONTINUOUS
 62
     7
  5
400
 10
0.0
 20
0.0
 30
0.0
 40
2.755906
  0
LINE
  8
0
  6
CONTINUOUS
 62
     3
  5
401
 10
-1.948719
 20
-1.948719
 30
0.0
 11
1.948719
 21
1.948719
 31
0.0
  0
LINE
  8
0
  6
CONTINUOUS
 62
     3
  5
402
 10
-1.948719
 20
1.948719
 30
0.0
 11
1.948719
 21
-1.948719
 31
0.0
  0
LINE
  8
0
  6
CONTINUOUS
 62
     3
  5
403
 10
1.44066
 20
-1.732968
 30
0.0
 11
1.732968
 21
-1.44066
 31
0.0
  0
LINE
  8
0
  6
CONTINUOUS
 62
     3
  5
404
 10
1.44066
 20
-1.44066
 30
0.0
 11
1.732968
 21
-1.732968
 31
0.0
  0
LINE
  8
0
  6
CONTINUOUS
 62
     3
  5
405
 10
1.732968
 20
1.44066
 30
0.0
 11
1.44066
 21
1.732968
 31
0.0
  0
LINE
  8
0
  6
CONTINUOUS
 62
     3
  5
406
 10
1.44066
 20
1.44066
 30
0.0
 11
1.732968
 21
1.732968
 31
0.0
  0
LINE
  8
0
  6
CONTINUOUS
 62
     3
  5
407
 10
-1.44066
 20
1.732968
 30
0.0
 11
-1.732968
 21
1.44066
 31
0.0
  0
LINE
  8
0
  6
CONTINUOUS
 62
     3
  5
408
 10
-1.44066
 20
1.44066
 30
0.0
 11
-1.732968
 21
1.732968
 31
0.0
  0
LINE
  8
0
  6
CONTINUOUS
 62
     3
  5
409
 10
-1.732968
 20
-1.44066
 30
0.0
 11
-1.44066
 21
-1.732968
 31
0.0
  0
LINE
  8
0
  6
CONTINUOUS
 62
     3
  5
40A
 10
-1.44066
 20
-1.44066
 30
0.0
 11
-1.732968
 21
-1.732968
 31
0.0
  0
LINE
  8
0
  6
CONTINUOUS
 62
     3
  5
40B
 10
-2.873906
 20
0.0
 30
0.0
 11
2.873906
 21
0.0
 31
0.0
  0
LINE
  8
0
  6
CONTINUOUS
 62
     3
  5
40C
 10
0.0
 20
-2.873906
 30
0.0
 11
0.0
 21
2.873906
 31
0.0
  0
LINE
  8
0
  6
CONTINUOUS
 62
     3
  5
40D
 10
1.124444
 20
-0.808311
 30
0.0
 11
1.26224
 21
-0.569642
 31
0.0
  0
LINE
  8
0
  6
CONTINUOUS
 62
     3
  5
40E
 10
1.074008
 20
-0.620079
 30
0.0
 11
1.312676
 21
-0.757874
 31
0.0
  0
LINE
  8
0
  6
CONTINUOUS
 62
     3
  5
40F
 10
0.137795
 20
1.377953
 30
0.0
 11
-0.137795
 21
1.377953
 31
0.0
  0
LINE
  8
0
  6
CONTINUOUS
 62
     3
  5
410
 10
-1.26224
 20
-0.569642
 30
0.0
 11
-1.124444
 21
-0.808311
 31
0.0
  0
LINE
  8
0
  6
CONTINUOUS
 62
     3
  5
411
 10
-1.074008
 20
-0.620079
 30
0.0
 11
-1.312676
 21
-0.757874
 31
0.0
  0
LINE
  8
0
  6
CONTINUOUS
 62
     3
  5
412
 10
0.274367
 20
-0.750807
 30
0.0
 11
0.513035
 21
-0.613012
 31
0.0
  0
LINE
  8
0
  6
CONTINUOUS
 62
     3
  5
413
 10
0.324803
 20
-0.562576
 30
0.0
 11
0.462598
 21
-0.801244
 31
0.0
  0
LINE
  8
0
  6
CONTINUOUS
 62
     3
  5
414
 10
0.787402
 20
-0.137795
 30
0.0
 11
0.787402
 21
0.137795
 31
0.0
  0
LINE
  8
0
  6
CONTINUOUS
 62
     3
  5
415
 10
0.513035
 20
0.613012
 30
0.0
 11
0.274367
 21
0.750807
 31
0.0
  0
LINE
  8
0
  6
CONTINUOUS
 62
     3
  5
416
 10
0.324803
 20
0.562576
 30
0.0
 11
0.462598
 21
0.801244
 31
0.0
  0
LINE
  8
0
  6
CONTINUOUS
 62
     3
  5
417
 10
-0.274367
 20
0.750807
 30
0.0
 11
-0.513035
 21
0.613012
 31
0.0
  0
LINE
  8
0
  6
CONTINUOUS
 62
     3
  5
418
 10
-0.324803
 20
0.562576
 30
0.0
 11
-0.462598
 21
0.801244
 31
0.0
  0
LINE
  8
0
  6
CONTINUOUS
 62
     3
  5
419
 10
-0.787402
 20
0.137795
 30
0.0
 11
-0.787402
 21
-0.137795
 31
0.0
  0
LINE
  8
0
  6
CONTINUOUS
 62
     3
  5
41A
 10
-0.513035
 20
-0.613012
 30
0.0
 11
-0.274367
 21
-0.750807
 31
0.0
  0
LINE
  8
0
  6
CONTINUOUS
 62
     3
  5
41B
 10
-0.324803
 20
-0.562576
 30
0.0
 11
-0.462598
 21
-0.801244
 31
0.0
  0
CIRCLE
  8
0
  6
CONTINUOUS
 62
     3
  5
41C
 10
0.0
 20
0.0
 30
0.0
 40
2.244094
  0
CIRCLE
  8
0
  6
CONTINUOUS
 62
     3
  5
41D
 10
0.0
 20
0.0
 30
0.0
 40
1.377953
  0
ENDSEC
  0
EOF
