999
DXF file: C:\Users\sesa63760\Dev\_Creo\CAD\MCADID0001238_3D-CAD\drw0001_2.dxf
999
Pro/ENGINEER 2019471 by Parametric Technology Corporation
  0
SECTION
  2
HEADER
  9
$ACADVER
  1
AC1024
  9
$DWGCODEPAGE
  3
ANSI_1252
  9
$EXTMAX
 10
147.5026517902
 20
208.6108932462
 30
0.0
  9
$EXTMIN
 10
0.0
 20
0.0
 30
0.0
  9
$LIMMIN
 10
0.0
 20
0.0
  9
$LIMMAX
 10
147.5026517902
 20
208.6108932462
  9
$VIEWCTR
 10
73.7513258951
 20
104.3054466231
  9
$VIEWSIZE
 40
208.6108932462
  9
$CLAYER
  8
0
  9
$LTSCALE
 40
13.5983397079
  9
$CELTYPE
  6
BYLAYER
  9
$DIMSCALE
 40
1.0
  9
$DIMASZ
 40
1.7559839499
  9
$DIMEXO
 40
1.0
  9
$DIMDLI
 40
9.3952165255
  9
$DIMEXE
 40
1.0
  9
$DIMCEN
 40
2.2251828613
  9
$DIMLFAC
 40
1.0
  9
$DIMBLK
  1
_FILLED
  9
$DIMALT
 70
0
  9
$DIMALTF
 40
0.0393700787
  9
$DIMTXT
 40
2.4583775298
  9
$DIMTOL
 70
1
  9
$DIMLIM
 70
0
  9
$DIMTFAC
 40
1.0
  9
$DIMTP
 40
0.01
  9
$DIMTM
 40
0.01
  9
$DIMGAP
 40
0.625
  9
$DIMDSEP
 70
46
  9
$AUNITS
 70
0
  9
$PDMODE
 70
3
  9
$PDSIZE
 40
0.3125
  9
$HANDSEED
  5
350
  9
$TILEMODE
 70
1
  9
$MEASUREMENT
 70
1
  9
$INSUNITS
 70
4
  0
ENDSEC
  0
SECTION
  2
CLASSES
  0
CLASS
  1
ACDBDICTIONARYWDFLT
  2
AcDbDictionaryWithDefault
  3
AutoCAD 2000
 90
0
 91
1
280
0
281
0
  0
CLASS
  1
ACDBPLACEHOLDER
  2
AcDbPlaceHolder
  3
AutoCAD 2000
 90
0
 91
1
280
0
281
0
  0
CLASS
  1
LAYOUT
  2
AcDbLayout
  3
AutoCAD 2000
 90
0
 91
0
280
0
281
0
  0
ENDSEC
  0
SECTION
  2
TABLES
  0
TABLE
  2
VPORT
  5
8
100
AcDbSymbolTable
 70
2
  0
VPORT
  5
1F4
100
AcDbSymbolTableRecord
100
AcDbViewportTableRecord
  2
*ACTIVE
 70
0
 10
0.0
 20
0.0
 11
1.0
 21
1.0
 12
73.7513258951
 22
104.3054466231
 13
0.0
 23
0.0
 14
1.0
 24
1.0
 15
0.0
 25
0.0
 16
0.0
 26
0.0
 36
1.0
 17
0.0
 27
0.0
 37
0.0
 40
208.6108932462
 41
0.7070707071
 42
50.0
 43
0.0
 44
0.0
 50
0.0
 51
0.0
 71
0
 72
100
 73
1
 74
1
 75
0
 76
0
 77
0
 78
0
  0
ENDTAB
  0
TABLE
  2
LTYPE
  5
5
100
AcDbSymbolTable
 70
6
  0
LTYPE
  5
14
100
AcDbSymbolTableRecord
100
AcDbLinetypeTableRecord
  2
BYBLOCK
 70
0
  3

 72
65
 73
0
 40
0.0
  0
LTYPE
  5
15
100
AcDbSymbolTableRecord
100
AcDbLinetypeTableRecord
  2
BYLAYER
 70
0
  3

 72
65
 73
0
 40
0.0
  0
LTYPE
  5
16
100
AcDbSymbolTableRecord
100
AcDbLinetypeTableRecord
  2
CONTINUOUS
 70
64
  3
Solid line
 72
65
 73
0
 40
0.0
  0
LTYPE
  5
1F5
100
AcDbSymbolTableRecord
100
AcDbLinetypeTableRecord
  2
CENTER
 70
64
  3
____ _ ____ _ ____ _ ____ _ ____ _ ____ _ ____
 72
65
 73
4
 40
0.6
 49
0.375
 74
0
 49
-0.075
 74
0
 49
0.075
 74
0
 49
-0.075
 74
0
  0
LTYPE
  5
1F6
100
AcDbSymbolTableRecord
100
AcDbLinetypeTableRecord
  2
HIDDEN
 70
64
  3
- - - - - - - - - - - - - - - - - - - -
 72
65
 73
2
 40
0.2
 49
0.1
 74
0
 49
-0.1
 74
0
  0
LTYPE
  5
1F7
100
AcDbSymbolTableRecord
100
AcDbLinetypeTableRecord
  2
PHANTOM
 70
64
  3
_____ _ _ _____ _ _ _____ _ _ _____
 72
65
 73
6
 40
0.8
 49
0.45
 74
0
 49
-0.05
 74
0
 49
0.1
 74
0
 49
-0.05
 74
0
 49
0.1
 74
0
 49
-0.05
 74
0
  0
LTYPE
  5
1F8
100
AcDbSymbolTableRecord
100
AcDbLinetypeTableRecord
  2
DOT
 70
64
  3
. . . . . . . . . . . . . . . . . . . .
 72
65
 73
2
 40
0.2
 49
0.1
 74
0
 49
-0.1
 74
0
  0
LTYPE
  5
1F9
100
AcDbSymbolTableRecord
100
AcDbLinetypeTableRecord
  2
DASHED
 70
64
  3
- - - - - - - - - - - - - - - - - - - -
 72
65
 73
2
 40
0.2
 49
0.1
 74
0
 49
-0.1
 74
0
  0
ENDTAB
  0
TABLE
  2
LAYER
  5
2
100
AcDbSymbolTable
 70
36
  0
LAYER
  5
10
100
AcDbSymbolTableRecord
100
AcDbLayerTableRecord
  2
0
 70
0
 62
7
  6
CONTINUOUS
370
-3
390
F
  0
LAYER
  5
1FA
100
AcDbSymbolTableRecord
100
AcDbLayerTableRecord
  2
DEFAULT_1
 70
0
 62
7
  6
CENTER
370
-3
390
F
  0
LAYER
  5
1FB
100
AcDbSymbolTableRecord
100
AcDbLayerTableRecord
  2
DEFAULT_2
 70
0
 62
8
  6
HIDDEN
370
-3
390
F
  0
LAYER
  5
1FC
100
AcDbSymbolTableRecord
100
AcDbLayerTableRecord
  2
DEFAULT_3
 70
0
 62
7
  6
PHANTOM
370
-3
390
F
  0
LAYER
  5
1FD
100
AcDbSymbolTableRecord
100
AcDbLayerTableRecord
  2
00_COMPONENTS
 70
0
 62
7
  6
CONTINUOUS
370
-3
390
F
  0
LAYER
  5
1FE
100
AcDbSymbolTableRecord
100
AcDbLayerTableRecord
  2
01_1_DEFAULT_DATUMS
 70
0
 62
7
  6
CONTINUOUS
370
-3
390
F
  0
LAYER
  5
1FF
100
AcDbSymbolTableRecord
100
AcDbLayerTableRecord
  2
01_PLANES
 70
0
 62
7
  6
CONTINUOUS
370
-3
390
F
  0
LAYER
  5
200
100
AcDbSymbolTableRecord
100
AcDbLayerTableRecord
  2
02_COORD_SYS
 70
0
 62
7
  6
CONTINUOUS
370
-3
390
F
  0
LAYER
  5
201
100
AcDbSymbolTableRecord
100
AcDbLayerTableRecord
  2
03_AXES
 70
0
 62
7
  6
CONTINUOUS
370
-3
390
F
  0
LAYER
  5
202
100
AcDbSymbolTableRecord
100
AcDbLayerTableRecord
  2
04_POINTS
 70
0
 62
7
  6
CONTINUOUS
370
-3
390
F
  0
LAYER
  5
203
100
AcDbSymbolTableRecord
100
AcDbLayerTableRecord
  2
05_CURVES
 70
0
 62
7
  6
CONTINUOUS
370
-3
390
F
  0
LAYER
  5
204
100
AcDbSymbolTableRecord
100
AcDbLayerTableRecord
  2
06_SURFS
 70
0
 62
7
  6
CONTINUOUS
370
-3
390
F
  0
LAYER
  5
205
100
AcDbSymbolTableRecord
100
AcDbLayerTableRecord
  2
07_COSMETICS
 70
0
 62
7
  6
CONTINUOUS
370
-3
390
F
  0
LAYER
  5
206
100
AcDbSymbolTableRecord
100
AcDbLayerTableRecord
  2
10_NOTES
 70
0
 62
7
  6
CONTINUOUS
370
-3
390
F
  0
LAYER
  5
207
100
AcDbSymbolTableRecord
100
AcDbLayerTableRecord
  2
11_NOTES_PUB
 70
0
 62
7
  6
CONTINUOUS
370
-3
390
F
  0
LAYER
  5
208
100
AcDbSymbolTableRecord
100
AcDbLayerTableRecord
  2
13_REF_GTOL
 70
0
 62
7
  6
CONTINUOUS
370
-3
390
F
  0
LAYER
  5
209
100
AcDbSymbolTableRecord
100
AcDbLayerTableRecord
  2
16_MISC
 70
0
 62
7
  6
CONTINUOUS
370
-3
390
F
  0
LAYER
  5
20A
100
AcDbSymbolTableRecord
100
AcDbLayerTableRecord
  2
17_NO_PRINT
 70
0
 62
7
  6
CONTINUOUS
370
-3
390
F
  0
LAYER
  5
20B
100
AcDbSymbolTableRecord
100
AcDbLayerTableRecord
  2
18_DATUM_CAMS_JOINTS
 70
0
 62
7
  6
CONTINUOUS
370
-3
390
F
  0
LAYER
  5
20C
100
AcDbSymbolTableRecord
100
AcDbLayerTableRecord
  2
19_DATUM_FUNCTIONAL
 70
0
 62
7
  6
CONTINUOUS
370
-3
390
F
  0
LAYER
  5
20D
100
AcDbSymbolTableRecord
100
AcDbLayerTableRecord
  2
20_DATUM_KINEMATIC_SCHEME
 70
0
 62
7
  6
CONTINUOUS
370
-3
390
F
  0
ENDTAB
  0
TABLE
  2
STYLE
  5
3
100
AcDbSymbolTable
 70
1
  0
STYLE
  5
11
100
AcDbSymbolTableRecord
100
AcDbTextStyleTableRecord
  2
STANDARD
 70
0
 40
0.0
 41
0.8
 50
0.0
 71
0
 42
0.2
  3
txt
  4

  0
STYLE
  5
20E
100
AcDbSymbolTableRecord
100
AcDbTextStyleTableRecord
  2
TEXTSTYLE_1
 70
0
 40
0.0
 41
0.8
 50
0.0
 71
0
 42
0.2
  3
gdt
  4

  0
ENDTAB
  0
TABLE
  2
VIEW
  5
6
100
AcDbSymbolTable
 70
0
  0
ENDTAB
  0
TABLE
  2
UCS
  5
7
100
AcDbSymbolTable
 70
0
  0
ENDTAB
  0
TABLE
  2
APPID
  5
9
100
AcDbSymbolTable
 70
1
  0
APPID
  5
20F
100
AcDbSymbolTableRecord
100
AcDbRegAppTableRecord
  2
ACAD
 70
0
  0
ENDTAB
  0
TABLE
  2
BLOCK_RECORD
  5
1
100
AcDbSymbolTable
 70
0
  0
BLOCK_RECORD
  5
210
100
AcDbSymbolTableRecord
100
AcDbBlockTableRecord
  2
*Model_Space
  0
BLOCK_RECORD
  5
211
100
AcDbSymbolTableRecord
100
AcDbBlockTableRecord
  2
*Paper_Space
  0
BLOCK_RECORD
  5
212
100
AcDbSymbolTableRecord
100
AcDbBlockTableRecord
  2
_FILLED
  0
ENDTAB
  0
TABLE
  2
DIMSTYLE
  5
A
100
AcDbSymbolTable
 70
1
100
AcDbDimStyleTable
 71
0
  0
DIMSTYLE
105
213
100
AcDbSymbolTableRecord
100
AcDbDimStyleTableRecord
  2
STANDARD
 70
0
  3

  4

 40
1.0
 41
1.7559839499
 42
1.0
 43
0.38
 44
1.0
 45
0.0
 46
0.0
 47
0.01
 48
0.01
140
2.4583775298
141
0.09
142
0.0
143
25.4
144
1.0
145
0.0
146
1.0
147
0.625
 71
1
 72
0
 73
0
 74
0
 75
0
 76
0
 77
1
 78
8
 79
2
170
0
171
1
172
0
173
0
174
0
175
0
176
0
177
0
178
0
270
2
179
2
271
2
272
2
273
2
274
2
275
0
280
0
281
0
282
0
283
1
284
8
285
0
286
0
287
3
288
0
340
11
278
46
341
212
342
212
343
212
344
212
  0
ENDTAB
  0
ENDSEC
  0
SECTION
  2
BLOCKS
  0
BLOCK
  5
20
100
AcDbEntity
  8
0
100
AcDbBlockBegin
  2
*Model_Space
 70
0
 10
0.0
 20
0.0
 30
0.0
  3
*Model_Space
  1

  0
ENDBLK
  5
21
100
AcDbEntity
  8
0
100
AcDbBlockEnd
  0
BLOCK
  5
1C
100
AcDbEntity
  8
0
100
AcDbBlockBegin
  2
*Paper_Space
 70
0
 10
0.0
 20
0.0
 30
0.0
  3
*Paper_Space
  1

  0
ENDBLK
  5
1D
100
AcDbEntity
  8
0
100
AcDbBlockEnd
  0
BLOCK
  5
214
100
AcDbEntity
  8
0
100
AcDbBlockBegin
  2
_FILLED
 70
64
 10
0.0
 20
0.0
  3
_FILLED
  1

  0
SOLID
  5
215
100
AcDbEntity
  8
0
  6
BYBLOCK
 62
0
100
AcDbTrace
 10
0.0
 20
0.0
 11
-1.0
 21
0.25
 12
-1.0
 22
-0.25
 13
-1.0
 23
-0.25
  0
ENDBLK
  5
216
100
AcDbEntity
  8
0
  6
BYBLOCK
 62
0
100
AcDbBlockEnd
  0
ENDSEC
  0
SECTION
  2
ENTITIES
  0
LINE
  5
217
100
AcDbEntity
  8
0
100
AcDbLine
 62
7
  6
CONTINUOUS
 10
16.1726766576
 20
92.6724400871
 11
16.1726766576
 21
98.1224400871
  0
LINE
  5
218
100
AcDbEntity
  8
0
100
AcDbLine
 62
7
  6
CONTINUOUS
 10
16.1726766576
 20
109.6724400871
 11
16.1726766576
 21
115.1724400871
  0
LINE
  5
219
100
AcDbEntity
  8
0
100
AcDbLine
 62
7
  6
CONTINUOUS
 10
17.2726766576
 20
111.1456378015
 11
17.2726766576
 21
96.6992423728
  0
LINE
  5
21A
100
AcDbEntity
  8
0
100
AcDbLine
 62
7
  6
CONTINUOUS
 10
18.1726766576
 20
94.6724400871
 11
18.1726766576
 21
96.6835328144
  0
LINE
  5
21B
100
AcDbEntity
  8
0
100
AcDbLine
 62
7
  6
CONTINUOUS
 10
18.1726766576
 20
111.1613473599
 11
18.1726766576
 21
113.1724400871
  0
LINE
  5
21C
100
AcDbEntity
  8
0
100
AcDbLine
 62
7
  6
CONTINUOUS
 10
21.6726766576
 20
94.6724400871
 11
21.7075867875
 21
92.6724400871
  0
LINE
  5
21D
100
AcDbEntity
  8
0
100
AcDbLine
 62
7
  6
CONTINUOUS
 10
21.7726766576
 20
96.6206945807
 11
21.7726766576
 21
111.2241855936
  0
LINE
  5
21E
100
AcDbEntity
  8
0
100
AcDbLine
 62
7
  6
CONTINUOUS
 10
21.7075867875
 20
115.1724400871
 11
21.6726766576
 21
113.1724400871
  0
LINE
  5
21F
100
AcDbEntity
  8
0
100
AcDbLine
 62
7
  6
CONTINUOUS
 10
126.8726766576
 20
92.8724400871
 11
133.3726766576
 21
93.0426485773
  0
LINE
  5
220
100
AcDbEntity
  8
0
100
AcDbLine
 62
7
  6
CONTINUOUS
 10
126.8726766576
 20
92.7597154118
 11
121.8726766576
 21
92.6724400871
  0
LINE
  5
221
100
AcDbEntity
  8
0
100
AcDbLine
 62
7
  6
CONTINUOUS
 10
121.8726766576
 20
92.6724400871
 11
16.1726766576
 21
92.6724400871
  0
LINE
  5
222
100
AcDbEntity
  8
0
100
AcDbLine
 62
7
  6
CONTINUOUS
 10
117.6000548025
 20
93.5324400871
 11
72.1548842164
 21
93.5324400871
  0
LINE
  5
223
100
AcDbEntity
  8
0
100
AcDbLine
 62
7
  6
CONTINUOUS
 10
75.7740984748
 20
93.9824400871
 11
78.444913476
 21
93.9824400871
  0
LINE
  5
224
100
AcDbEntity
  8
0
100
AcDbLine
 62
7
  6
CONTINUOUS
 10
97.3740984748
 20
93.9824400871
 11
100.044913476
 21
93.9824400871
  0
LINE
  5
225
100
AcDbEntity
  8
0
100
AcDbLine
 62
7
  6
CONTINUOUS
 10
100.0239467118
 20
94.1324400871
 11
97.1215839076
 21
94.1324400871
  0
LINE
  5
226
100
AcDbEntity
  8
0
100
AcDbLine
 62
7
  6
CONTINUOUS
 10
78.4239467118
 20
94.1324400871
 11
75.5215839076
 21
94.1324400871
  0
LINE
  5
227
100
AcDbEntity
  8
0
100
AcDbLine
 62
7
  6
CONTINUOUS
 10
21.6726766576
 20
94.6724400871
 11
18.1726766576
 21
94.6724400871
  0
LINE
  5
228
100
AcDbEntity
  8
0
100
AcDbLine
 62
7
  6
CONTINUOUS
 10
82.4705322022
 20
94.8824400871
 11
83.3511362985
 21
94.8824400871
  0
LINE
  5
229
100
AcDbEntity
  8
0
100
AcDbLine
 62
7
  6
CONTINUOUS
 10
104.0705322022
 20
94.8824400871
 11
104.9511362985
 21
94.8824400871
  0
LINE
  5
22A
100
AcDbEntity
  8
0
100
AcDbLine
 62
7
  6
CONTINUOUS
 10
17.2726766576
 20
96.6992423728
 11
21.7726766576
 21
96.6206945807
  0
LINE
  5
22B
100
AcDbEntity
  8
0
100
AcDbLine
 62
7
  6
CONTINUOUS
 10
133.3726766576
 20
96.8724400871
 11
126.8726766576
 21
96.8724400871
  0
LINE
  5
22C
100
AcDbEntity
  8
0
100
AcDbLine
 62
7
  6
CONTINUOUS
 10
104.9511362985
 20
97.1824400871
 11
104.0705322022
 21
97.1824400871
  0
LINE
  5
22D
100
AcDbEntity
  8
0
100
AcDbLine
 62
7
  6
CONTINUOUS
 10
83.3511362985
 20
97.1824400871
 11
82.4705322022
 21
97.1824400871
  0
LINE
  5
22E
100
AcDbEntity
  8
0
100
AcDbLine
 62
7
  6
CONTINUOUS
 10
83.0743750111
 20
97.7924400871
 11
84.3156074516
 21
97.7924400871
  0
LINE
  5
22F
100
AcDbEntity
  8
0
100
AcDbLine
 62
7
  6
CONTINUOUS
 10
104.6743750111
 20
97.7924400871
 11
105.9156074516
 21
97.7924400871
  0
LINE
  5
230
100
AcDbEntity
  8
0
100
AcDbLine
 62
7
  6
CONTINUOUS
 10
75.5215839076
 20
97.9324400871
 11
78.4239467118
 21
97.9324400871
  0
LINE
  5
231
100
AcDbEntity
  8
0
100
AcDbLine
 62
7
  6
CONTINUOUS
 10
97.1215839076
 20
97.9324400871
 11
100.0239467118
 21
97.9324400871
  0
LINE
  5
232
100
AcDbEntity
  8
0
100
AcDbLine
 62
7
  6
CONTINUOUS
 10
100.044913476
 20
98.0824400871
 11
97.3740984748
 21
98.0824400871
  0
LINE
  5
233
100
AcDbEntity
  8
0
100
AcDbLine
 62
7
  6
CONTINUOUS
 10
78.444913476
 20
98.0824400871
 11
75.7740984748
 21
98.0824400871
  0
LINE
  5
234
100
AcDbEntity
  8
0
100
AcDbLine
 62
7
  6
CONTINUOUS
 10
16.1726766576
 20
98.1224400871
 11
17.2726766576
 21
98.1224400871
  0
LINE
  5
235
100
AcDbEntity
  8
0
100
AcDbLine
 62
7
  6
CONTINUOUS
 10
121.8726766576
 20
98.9224400871
 11
126.8726766576
 21
98.9224400871
  0
LINE
  5
236
100
AcDbEntity
  8
0
100
AcDbLine
 62
7
  6
CONTINUOUS
 10
75.7740984748
 20
98.9824400871
 11
78.444913476
 21
98.9824400871
  0
LINE
  5
237
100
AcDbEntity
  8
0
100
AcDbLine
 62
7
  6
CONTINUOUS
 10
97.3740984748
 20
98.9824400871
 11
100.044913476
 21
98.9824400871
  0
LINE
  5
238
100
AcDbEntity
  8
0
100
AcDbLine
 62
7
  6
CONTINUOUS
 10
133.289399259
 20
99.0624400871
 11
124.2369249298
 21
99.0624400871
  0
LINE
  5
239
100
AcDbEntity
  8
0
100
AcDbLine
 62
7
  6
CONTINUOUS
 10
123.8726766576
 20
99.0624400871
 11
122.757814552
 21
99.0624400871
  0
LINE
  5
23A
100
AcDbEntity
  8
0
100
AcDbLine
 62
7
  6
CONTINUOUS
 10
100.0239467118
 20
99.1324400871
 11
97.1215839076
 21
99.1324400871
  0
LINE
  5
23B
100
AcDbEntity
  8
0
100
AcDbLine
 62
7
  6
CONTINUOUS
 10
78.4239467118
 20
99.1324400871
 11
75.5215839076
 21
99.1324400871
  0
LINE
  5
23C
100
AcDbEntity
  8
0
100
AcDbLine
 62
7
  6
CONTINUOUS
 10
105.9156074516
 20
99.2724400871
 11
104.6743750111
 21
99.2724400871
  0
LINE
  5
23D
100
AcDbEntity
  8
0
100
AcDbLine
 62
7
  6
CONTINUOUS
 10
84.3156074516
 20
99.2724400871
 11
83.0743750111
 21
99.2724400871
  0
LINE
  5
23E
100
AcDbEntity
  8
0
100
AcDbLine
 62
7
  6
CONTINUOUS
 10
82.4705322022
 20
99.8824400871
 11
83.3511362985
 21
99.8824400871
  0
LINE
  5
23F
100
AcDbEntity
  8
0
100
AcDbLine
 62
7
  6
CONTINUOUS
 10
104.0705322022
 20
99.8824400871
 11
104.9511362985
 21
99.8824400871
  0
LINE
  5
240
100
AcDbEntity
  8
0
100
AcDbLine
 62
7
  6
CONTINUOUS
 10
72.1548842164
 20
93.5324400871
 11
72.1548842164
 21
113.5324400871
  0
LINE
  5
241
100
AcDbEntity
  8
0
100
AcDbLine
 62
7
  6
CONTINUOUS
 10
74.5887615837
 20
113.5324400871
 11
74.5887615837
 21
114.3124400871
  0
LINE
  5
242
100
AcDbEntity
  8
0
100
AcDbLine
 62
7
  6
CONTINUOUS
 10
72.6025782434
 20
113.5324400871
 11
72.6026766576
 21
114.3124400871
  0
LINE
  5
243
100
AcDbEntity
  8
0
100
AcDbLine
 62
7
  6
CONTINUOUS
 10
122.7578137952
 20
100.4824400871
 11
123.8726766576
 21
100.4824400871
  0
LINE
  5
244
100
AcDbEntity
  8
0
100
AcDbLine
 62
7
  6
CONTINUOUS
 10
124.2369249298
 20
100.4824400871
 11
133.289399259
 21
100.4824400871
  0
LINE
  5
245
100
AcDbEntity
  8
0
100
AcDbLine
 62
7
  6
CONTINUOUS
 10
123.8726766576
 20
100.9224400871
 11
125.8726766577
 21
100.9224400871
  0
LINE
  5
246
100
AcDbEntity
  8
0
100
AcDbLine
 62
7
  6
CONTINUOUS
 10
104.9511362985
 20
102.1824400871
 11
104.0705322022
 21
102.1824400871
  0
LINE
  5
247
100
AcDbEntity
  8
0
100
AcDbLine
 62
7
  6
CONTINUOUS
 10
83.3511362985
 20
102.1824400871
 11
82.4705322022
 21
102.1824400871
  0
LINE
  5
248
100
AcDbEntity
  8
0
100
AcDbLine
 62
7
  6
CONTINUOUS
 10
83.0743750111
 20
102.7924400871
 11
84.3156074516
 21
102.7924400871
  0
LINE
  5
249
100
AcDbEntity
  8
0
100
AcDbLine
 62
7
  6
CONTINUOUS
 10
104.6743750111
 20
102.7924400871
 11
105.9156074516
 21
102.7924400871
  0
LINE
  5
24A
100
AcDbEntity
  8
0
100
AcDbLine
 62
7
  6
CONTINUOUS
 10
75.5215839076
 20
102.9324400871
 11
78.4239467118
 21
102.9324400871
  0
LINE
  5
24B
100
AcDbEntity
  8
0
100
AcDbLine
 62
7
  6
CONTINUOUS
 10
97.1215839076
 20
102.9324400871
 11
100.0239467118
 21
102.9324400871
  0
LINE
  5
24C
100
AcDbEntity
  8
0
100
AcDbLine
 62
7
  6
CONTINUOUS
 10
100.044913476
 20
103.0824400871
 11
97.3740984748
 21
103.0824400871
  0
LINE
  5
24D
100
AcDbEntity
  8
0
100
AcDbLine
 62
7
  6
CONTINUOUS
 10
78.444913476
 20
103.0824400871
 11
75.7740984748
 21
103.0824400871
  0
LINE
  5
24E
100
AcDbEntity
  8
0
100
AcDbLine
 62
7
  6
CONTINUOUS
 10
75.7740984748
 20
103.9824400871
 11
78.444913476
 21
103.9824400871
  0
LINE
  5
24F
100
AcDbEntity
  8
0
100
AcDbLine
 62
7
  6
CONTINUOUS
 10
97.3740984748
 20
103.9824400871
 11
100.044913476
 21
103.9824400871
  0
LINE
  5
250
100
AcDbEntity
  8
0
100
AcDbLine
 62
7
  6
CONTINUOUS
 10
100.0239467118
 20
104.1324400871
 11
97.1215839076
 21
104.1324400871
  0
LINE
  5
251
100
AcDbEntity
  8
0
100
AcDbLine
 62
7
  6
CONTINUOUS
 10
78.4239467118
 20
104.1324400871
 11
75.5215839076
 21
104.1324400871
  0
LINE
  5
252
100
AcDbEntity
  8
0
100
AcDbLine
 62
7
  6
CONTINUOUS
 10
105.9156074516
 20
104.2724400871
 11
104.6743750111
 21
104.2724400871
  0
LINE
  5
253
100
AcDbEntity
  8
0
100
AcDbLine
 62
7
  6
CONTINUOUS
 10
84.3156074516
 20
104.2724400871
 11
83.0743750111
 21
104.2724400871
  0
LINE
  5
254
100
AcDbEntity
  8
0
100
AcDbLine
 62
7
  6
CONTINUOUS
 10
75.5214590514
 20
112.9324400871
 11
75.5214590514
 21
109.1324400871
  0
LINE
  5
255
100
AcDbEntity
  8
0
100
AcDbLine
 62
7
  6
CONTINUOUS
 10
75.5214590514
 20
107.9324400871
 11
75.5214590514
 21
104.1324400871
  0
LINE
  5
256
100
AcDbEntity
  8
0
100
AcDbLine
 62
7
  6
CONTINUOUS
 10
75.5214590514
 20
102.9324400871
 11
75.5214590514
 21
99.1324400871
  0
LINE
  5
257
100
AcDbEntity
  8
0
100
AcDbLine
 62
7
  6
CONTINUOUS
 10
75.5214590514
 20
97.9324400871
 11
75.5214590514
 21
94.1324400871
  0
LINE
  5
258
100
AcDbEntity
  8
0
100
AcDbLine
 62
7
  6
CONTINUOUS
 10
75.7740984748
 20
93.9824400871
 11
75.7740984748
 21
93.5324400871
  0
LINE
  5
259
100
AcDbEntity
  8
0
100
AcDbLine
 62
7
  6
CONTINUOUS
 10
75.7740984748
 20
98.0824400871
 11
75.7740984748
 21
98.9824400871
  0
LINE
  5
25A
100
AcDbEntity
  8
0
100
AcDbLine
 62
7
  6
CONTINUOUS
 10
75.7740984748
 20
103.0824400871
 11
75.7740984748
 21
103.9824400871
  0
LINE
  5
25B
100
AcDbEntity
  8
0
100
AcDbLine
 62
7
  6
CONTINUOUS
 10
75.7740984748
 20
108.0824400871
 11
75.7740984748
 21
108.9824400871
  0
LINE
  5
25C
100
AcDbEntity
  8
0
100
AcDbLine
 62
7
  6
CONTINUOUS
 10
75.7740984748
 20
113.0824400871
 11
75.7740984748
 21
113.5324400871
  0
LINE
  5
25D
100
AcDbEntity
  8
0
100
AcDbLine
 62
7
  6
CONTINUOUS
 10
75.9802487029
 20
94.1324400871
 11
75.9802487029
 21
97.9324400871
  0
LINE
  5
25E
100
AcDbEntity
  8
0
100
AcDbLine
 62
7
  6
CONTINUOUS
 10
75.9802487029
 20
99.1324400871
 11
75.9802487029
 21
102.9324400871
  0
LINE
  5
25F
100
AcDbEntity
  8
0
100
AcDbLine
 62
7
  6
CONTINUOUS
 10
75.9802487029
 20
104.1324400871
 11
75.9802487029
 21
107.9324400871
  0
LINE
  5
260
100
AcDbEntity
  8
0
100
AcDbLine
 62
7
  6
CONTINUOUS
 10
75.9802487029
 20
109.1324400871
 11
75.9802487029
 21
112.9324400871
  0
LINE
  5
261
100
AcDbEntity
  8
0
100
AcDbLine
 62
7
  6
CONTINUOUS
 10
76.4688282095
 20
112.9324400871
 11
76.4688282095
 21
109.1324400871
  0
LINE
  5
262
100
AcDbEntity
  8
0
100
AcDbLine
 62
7
  6
CONTINUOUS
 10
76.4688282095
 20
107.9324400871
 11
76.4688282095
 21
104.1324400871
  0
LINE
  5
263
100
AcDbEntity
  8
0
100
AcDbLine
 62
7
  6
CONTINUOUS
 10
76.4688282095
 20
102.9324400871
 11
76.4688282095
 21
99.1324400871
  0
LINE
  5
264
100
AcDbEntity
  8
0
100
AcDbLine
 62
7
  6
CONTINUOUS
 10
76.4688282095
 20
97.9324400871
 11
76.4688282095
 21
94.1324400871
  0
LINE
  5
265
100
AcDbEntity
  8
0
100
AcDbLine
 62
7
  6
CONTINUOUS
 10
76.720523754
 20
112.9324400871
 11
76.720523754
 21
109.1324400871
  0
LINE
  5
266
100
AcDbEntity
  8
0
100
AcDbLine
 62
7
  6
CONTINUOUS
 10
76.720523754
 20
107.9324400871
 11
76.720523754
 21
104.1324400871
  0
LINE
  5
267
100
AcDbEntity
  8
0
100
AcDbLine
 62
7
  6
CONTINUOUS
 10
76.720523754
 20
102.9324400871
 11
76.720523754
 21
99.1324400871
  0
LINE
  5
268
100
AcDbEntity
  8
0
100
AcDbLine
 62
7
  6
CONTINUOUS
 10
76.720523754
 20
97.9324400871
 11
76.720523754
 21
94.1324400871
  0
LINE
  5
269
100
AcDbEntity
  8
0
100
AcDbLine
 62
7
  6
CONTINUOUS
 10
77.3619005935
 20
94.1324400871
 11
77.3619005935
 21
97.9324400871
  0
LINE
  5
26A
100
AcDbEntity
  8
0
100
AcDbLine
 62
7
  6
CONTINUOUS
 10
77.3619005935
 20
99.1324400871
 11
77.3619005935
 21
102.9324400871
  0
LINE
  5
26B
100
AcDbEntity
  8
0
100
AcDbLine
 62
7
  6
CONTINUOUS
 10
77.3619005935
 20
104.1324400871
 11
77.3619005935
 21
107.9324400871
  0
LINE
  5
26C
100
AcDbEntity
  8
0
100
AcDbLine
 62
7
  6
CONTINUOUS
 10
77.3619005935
 20
109.1324400871
 11
77.3619005935
 21
112.9324400871
  0
LINE
  5
26D
100
AcDbEntity
  8
0
100
AcDbLine
 62
7
  6
CONTINUOUS
 10
77.6007229718
 20
113.5324400871
 11
77.6007229718
 21
113.0824400871
  0
LINE
  5
26E
100
AcDbEntity
  8
0
100
AcDbLine
 62
7
  6
CONTINUOUS
 10
77.6007229718
 20
93.9824400871
 11
77.6007229718
 21
93.5324400871
  0
LINE
  5
26F
100
AcDbEntity
  8
0
100
AcDbLine
 62
7
  6
CONTINUOUS
 10
77.6007229718
 20
98.0824400871
 11
77.6007229718
 21
98.9824400871
  0
LINE
  5
270
100
AcDbEntity
  8
0
100
AcDbLine
 62
7
  6
CONTINUOUS
 10
77.6007229718
 20
103.0824400871
 11
77.6007229718
 21
103.9824400871
  0
LINE
  5
271
100
AcDbEntity
  8
0
100
AcDbLine
 62
7
  6
CONTINUOUS
 10
77.6007229718
 20
108.0824400871
 11
77.6007229718
 21
108.9824400871
  0
LINE
  5
272
100
AcDbEntity
  8
0
100
AcDbLine
 62
7
  6
CONTINUOUS
 10
78.4239467118
 20
94.1324400871
 11
78.4239467118
 21
97.9324400871
  0
LINE
  5
273
100
AcDbEntity
  8
0
100
AcDbLine
 62
7
  6
CONTINUOUS
 10
78.4239467118
 20
99.1324400871
 11
78.4239467118
 21
102.9324400871
  0
LINE
  5
274
100
AcDbEntity
  8
0
100
AcDbLine
 62
7
  6
CONTINUOUS
 10
78.4239467118
 20
104.1324400871
 11
78.4239467118
 21
107.9324400871
  0
LINE
  5
275
100
AcDbEntity
  8
0
100
AcDbLine
 62
7
  6
CONTINUOUS
 10
78.4239467118
 20
109.1324400871
 11
78.4239467118
 21
112.9324400871
  0
LINE
  5
276
100
AcDbEntity
  8
0
100
AcDbLine
 62
7
  6
CONTINUOUS
 10
78.444913476
 20
93.9824400871
 11
78.444913476
 21
93.5324400871
  0
LINE
  5
277
100
AcDbEntity
  8
0
100
AcDbLine
 62
7
  6
CONTINUOUS
 10
78.444913476
 20
98.0824400871
 11
78.444913476
 21
98.9824400871
  0
LINE
  5
278
100
AcDbEntity
  8
0
100
AcDbLine
 62
7
  6
CONTINUOUS
 10
78.444913476
 20
103.0824400871
 11
78.444913476
 21
103.9824400871
  0
LINE
  5
279
100
AcDbEntity
  8
0
100
AcDbLine
 62
7
  6
CONTINUOUS
 10
78.444913476
 20
108.0824400871
 11
78.444913476
 21
108.9824400871
  0
LINE
  5
27A
100
AcDbEntity
  8
0
100
AcDbLine
 62
7
  6
CONTINUOUS
 10
78.444913476
 20
113.0824400871
 11
78.444913476
 21
113.5324400871
  0
LINE
  5
27B
100
AcDbEntity
  8
0
100
AcDbLine
 62
7
  6
CONTINUOUS
 10
82.4705322022
 20
104.8824400871
 11
83.3511362985
 21
104.8824400871
  0
LINE
  5
27C
100
AcDbEntity
  8
0
100
AcDbLine
 62
7
  6
CONTINUOUS
 10
104.0705322022
 20
104.8824400871
 11
104.9511362985
 21
104.8824400871
  0
LINE
  5
27D
100
AcDbEntity
  8
0
100
AcDbLine
 62
7
  6
CONTINUOUS
 10
125.8726766576
 20
106.9224400871
 11
123.8726766577
 21
106.9224400871
  0
LINE
  5
27E
100
AcDbEntity
  8
0
100
AcDbLine
 62
7
  6
CONTINUOUS
 10
104.9511362985
 20
107.1824400871
 11
104.0705322022
 21
107.1824400871
  0
LINE
  5
27F
100
AcDbEntity
  8
0
100
AcDbLine
 62
7
  6
CONTINUOUS
 10
83.3511362985
 20
107.1824400871
 11
82.4705322022
 21
107.1824400871
  0
LINE
  5
280
100
AcDbEntity
  8
0
100
AcDbLine
 62
7
  6
CONTINUOUS
 10
133.289399259
 20
107.3624400871
 11
124.2369249298
 21
107.3624400871
  0
LINE
  5
281
100
AcDbEntity
  8
0
100
AcDbLine
 62
7
  6
CONTINUOUS
 10
123.8726766576
 20
107.3624400871
 11
122.757814552
 21
107.3624400871
  0
LINE
  5
282
100
AcDbEntity
  8
0
100
AcDbLine
 62
7
  6
CONTINUOUS
 10
83.0743750111
 20
107.7924400871
 11
84.3156074516
 21
107.7924400871
  0
LINE
  5
283
100
AcDbEntity
  8
0
100
AcDbLine
 62
7
  6
CONTINUOUS
 10
104.6743750111
 20
107.7924400871
 11
105.9156074516
 21
107.7924400871
  0
LINE
  5
284
100
AcDbEntity
  8
0
100
AcDbLine
 62
7
  6
CONTINUOUS
 10
75.5215839076
 20
107.9324400871
 11
78.4239467118
 21
107.9324400871
  0
LINE
  5
285
100
AcDbEntity
  8
0
100
AcDbLine
 62
7
  6
CONTINUOUS
 10
97.1215839076
 20
107.9324400871
 11
100.0239467118
 21
107.9324400871
  0
LINE
  5
286
100
AcDbEntity
  8
0
100
AcDbLine
 62
7
  6
CONTINUOUS
 10
100.044913476
 20
108.0824400871
 11
97.3740984748
 21
108.0824400871
  0
LINE
  5
287
100
AcDbEntity
  8
0
100
AcDbLine
 62
7
  6
CONTINUOUS
 10
78.444913476
 20
108.0824400871
 11
75.7740984748
 21
108.0824400871
  0
LINE
  5
288
100
AcDbEntity
  8
0
100
AcDbLine
 62
7
  6
CONTINUOUS
 10
82.4705322022
 20
112.1824400871
 11
82.4705322022
 21
109.8824400871
  0
LINE
  5
289
100
AcDbEntity
  8
0
100
AcDbLine
 62
7
  6
CONTINUOUS
 10
82.4705322022
 20
107.1824400871
 11
82.4705322022
 21
104.8824400871
  0
LINE
  5
28A
100
AcDbEntity
  8
0
100
AcDbLine
 62
7
  6
CONTINUOUS
 10
82.4705322022
 20
102.1824400871
 11
82.4705322022
 21
99.8824400871
  0
LINE
  5
28B
100
AcDbEntity
  8
0
100
AcDbLine
 62
7
  6
CONTINUOUS
 10
82.4705322022
 20
97.1824400871
 11
82.4705322022
 21
94.8824400871
  0
LINE
  5
28C
100
AcDbEntity
  8
0
100
AcDbLine
 62
7
  6
CONTINUOUS
 10
82.6890896119
 20
94.8824400871
 11
82.6890896119
 21
97.1824400871
  0
LINE
  5
28D
100
AcDbEntity
  8
0
100
AcDbLine
 62
7
  6
CONTINUOUS
 10
82.6890896119
 20
99.8824400871
 11
82.6890896119
 21
102.1824400871
  0
LINE
  5
28E
100
AcDbEntity
  8
0
100
AcDbLine
 62
7
  6
CONTINUOUS
 10
82.6890896119
 20
104.8824400871
 11
82.6890896119
 21
107.1824400871
  0
LINE
  5
28F
100
AcDbEntity
  8
0
100
AcDbLine
 62
7
  6
CONTINUOUS
 10
82.6890896119
 20
109.8824400871
 11
82.6890896119
 21
112.1824400871
  0
LINE
  5
290
100
AcDbEntity
  8
0
100
AcDbLine
 62
7
  6
CONTINUOUS
 10
83.0743750111
 20
109.2724400871
 11
83.0743750111
 21
107.7924400871
  0
LINE
  5
291
100
AcDbEntity
  8
0
100
AcDbLine
 62
7
  6
CONTINUOUS
 10
83.0743750111
 20
104.2724400871
 11
83.0743750111
 21
102.7924400871
  0
LINE
  5
292
100
AcDbEntity
  8
0
100
AcDbLine
 62
7
  6
CONTINUOUS
 10
83.0743750111
 20
99.2724400871
 11
83.0743750111
 21
97.7924400871
  0
LINE
  5
293
100
AcDbEntity
  8
0
100
AcDbLine
 62
7
  6
CONTINUOUS
 10
21.7726766576
 20
111.2241855936
 11
17.2726766576
 21
111.1456378015
  0
LINE
  5
294
100
AcDbEntity
  8
0
100
AcDbLine
 62
7
  6
CONTINUOUS
 10
122.7578137952
 20
108.7824400871
 11
123.8726766576
 21
108.7824400871
  0
LINE
  5
295
100
AcDbEntity
  8
0
100
AcDbLine
 62
7
  6
CONTINUOUS
 10
124.2369249298
 20
108.7824400871
 11
133.289399259
 21
108.7824400871
  0
LINE
  5
296
100
AcDbEntity
  8
0
100
AcDbLine
 62
7
  6
CONTINUOUS
 10
126.8726766576
 20
108.9224400871
 11
121.8726766576
 21
108.9224400871
  0
LINE
  5
297
100
AcDbEntity
  8
0
100
AcDbLine
 62
7
  6
CONTINUOUS
 10
75.7740984748
 20
108.9824400871
 11
78.444913476
 21
108.9824400871
  0
LINE
  5
298
100
AcDbEntity
  8
0
100
AcDbLine
 62
7
  6
CONTINUOUS
 10
97.3740984748
 20
108.9824400871
 11
100.044913476
 21
108.9824400871
  0
LINE
  5
299
100
AcDbEntity
  8
0
100
AcDbLine
 62
7
  6
CONTINUOUS
 10
100.0239467118
 20
109.1324400871
 11
97.1215839076
 21
109.1324400871
  0
LINE
  5
29A
100
AcDbEntity
  8
0
100
AcDbLine
 62
7
  6
CONTINUOUS
 10
78.4239467118
 20
109.1324400871
 11
75.5215839076
 21
109.1324400871
  0
LINE
  5
29B
100
AcDbEntity
  8
0
100
AcDbLine
 62
7
  6
CONTINUOUS
 10
105.9156074516
 20
109.2724400871
 11
104.6743750111
 21
109.2724400871
  0
LINE
  5
29C
100
AcDbEntity
  8
0
100
AcDbLine
 62
7
  6
CONTINUOUS
 10
84.3156074516
 20
109.2724400871
 11
83.0743750111
 21
109.2724400871
  0
LINE
  5
29D
100
AcDbEntity
  8
0
100
AcDbLine
 62
7
  6
CONTINUOUS
 10
17.2726766576
 20
109.6724400871
 11
16.1726766576
 21
109.6724400871
  0
LINE
  5
29E
100
AcDbEntity
  8
0
100
AcDbLine
 62
7
  6
CONTINUOUS
 10
82.4705322022
 20
109.8824400871
 11
83.3511362985
 21
109.8824400871
  0
LINE
  5
29F
100
AcDbEntity
  8
0
100
AcDbLine
 62
7
  6
CONTINUOUS
 10
104.0705322022
 20
109.8824400871
 11
104.9511362985
 21
109.8824400871
  0
LINE
  5
2A0
100
AcDbEntity
  8
0
100
AcDbLine
 62
7
  6
CONTINUOUS
 10
126.8726766576
 20
110.9724400871
 11
133.3726766576
 21
110.9724400871
  0
LINE
  5
2A1
100
AcDbEntity
  8
0
100
AcDbLine
 62
7
  6
CONTINUOUS
 10
104.9511362985
 20
112.1824400871
 11
104.0705322022
 21
112.1824400871
  0
LINE
  5
2A2
100
AcDbEntity
  8
0
100
AcDbLine
 62
7
  6
CONTINUOUS
 10
83.3511362985
 20
112.1824400871
 11
82.4705322022
 21
112.1824400871
  0
LINE
  5
2A3
100
AcDbEntity
  8
0
100
AcDbLine
 62
7
  6
CONTINUOUS
 10
83.2929324208
 20
109.2724400871
 11
83.2929324208
 21
107.7924400871
  0
LINE
  5
2A4
100
AcDbEntity
  8
0
100
AcDbLine
 62
7
  6
CONTINUOUS
 10
83.2929324208
 20
104.2724400871
 11
83.2929324208
 21
102.7924400871
  0
LINE
  5
2A5
100
AcDbEntity
  8
0
100
AcDbLine
 62
7
  6
CONTINUOUS
 10
83.2929324208
 20
99.2724400871
 11
83.2929324208
 21
97.7924400871
  0
LINE
  5
2A6
100
AcDbEntity
  8
0
100
AcDbLine
 62
7
  6
CONTINUOUS
 10
84.3156074516
 20
97.7924400871
 11
84.3156074516
 21
99.2724400871
  0
LINE
  5
2A7
100
AcDbEntity
  8
0
100
AcDbLine
 62
7
  6
CONTINUOUS
 10
84.3156074516
 20
102.7924400871
 11
84.3156074516
 21
104.2724400871
  0
LINE
  5
2A8
100
AcDbEntity
  8
0
100
AcDbLine
 62
7
  6
CONTINUOUS
 10
84.3156074516
 20
107.7924400871
 11
84.3156074516
 21
109.2724400871
  0
LINE
  5
2A9
100
AcDbEntity
  8
0
100
AcDbLine
 62
7
  6
CONTINUOUS
 10
84.7349427356
 20
113.5324400871
 11
84.7349427356
 21
93.5324400871
  0
LINE
  5
2AA
100
AcDbEntity
  8
0
100
AcDbLine
 62
7
  6
CONTINUOUS
 10
75.5215839076
 20
112.9324400871
 11
78.4239467118
 21
112.9324400871
  0
LINE
  5
2AB
100
AcDbEntity
  8
0
100
AcDbLine
 62
7
  6
CONTINUOUS
 10
97.1215839076
 20
112.9324400871
 11
100.0239467118
 21
112.9324400871
  0
LINE
  5
2AC
100
AcDbEntity
  8
0
100
AcDbLine
 62
7
  6
CONTINUOUS
 10
100.044913476
 20
113.0824400871
 11
97.3740984748
 21
113.0824400871
  0
LINE
  5
2AD
100
AcDbEntity
  8
0
100
AcDbLine
 62
7
  6
CONTINUOUS
 10
78.444913476
 20
113.0824400871
 11
75.7740984748
 21
113.0824400871
  0
LINE
  5
2AE
100
AcDbEntity
  8
0
100
AcDbLine
 62
7
  6
CONTINUOUS
 10
18.1726766576
 20
113.1724400871
 11
21.6726766576
 21
113.1724400871
  0
LINE
  5
2AF
100
AcDbEntity
  8
0
100
AcDbLine
 62
7
  6
CONTINUOUS
 10
72.1548842164
 20
113.5324400871
 11
93.0747626688
 21
113.5324400871
  0
LINE
  5
2B0
100
AcDbEntity
  8
0
100
AcDbLine
 62
7
  6
CONTINUOUS
 10
93.7548842164
 20
113.5324400871
 11
114.6747626688
 21
113.5324400871
  0
LINE
  5
2B1
100
AcDbEntity
  8
0
100
AcDbLine
 62
7
  6
CONTINUOUS
 10
117.6026766576
 20
114.3124400871
 11
72.6026766576
 21
114.3124400871
  0
LINE
  5
2B2
100
AcDbEntity
  8
0
100
AcDbLine
 62
7
  6
CONTINUOUS
 10
121.8726766576
 20
115.1724400871
 11
16.1726766576
 21
115.1724400871
  0
LINE
  5
2B3
100
AcDbEntity
  8
0
100
AcDbLine
 62
7
  6
CONTINUOUS
 10
126.8726766576
 20
115.0851647625
 11
121.8726766576
 21
115.1724400871
  0
LINE
  5
2B4
100
AcDbEntity
  8
0
100
AcDbLine
 62
7
  6
CONTINUOUS
 10
133.3726766576
 20
114.8022315969
 11
126.8726766576
 21
114.9724400871
  0
LINE
  5
2B5
100
AcDbEntity
  8
0
100
AcDbLine
 62
7
  6
CONTINUOUS
 10
93.0747626688
 20
113.5324400871
 11
93.0747626688
 21
93.5324400871
  0
LINE
  5
2B6
100
AcDbEntity
  8
0
100
AcDbLine
 62
7
  6
CONTINUOUS
 10
93.7548842164
 20
93.5324400871
 11
93.7548842164
 21
113.5324400871
  0
LINE
  5
2B7
100
AcDbEntity
  8
0
100
AcDbLine
 62
7
  6
CONTINUOUS
 10
97.1214590514
 20
112.9324400871
 11
97.1214590514
 21
109.1324400871
  0
LINE
  5
2B8
100
AcDbEntity
  8
0
100
AcDbLine
 62
7
  6
CONTINUOUS
 10
97.1214590514
 20
107.9324400871
 11
97.1214590514
 21
104.1324400871
  0
LINE
  5
2B9
100
AcDbEntity
  8
0
100
AcDbLine
 62
7
  6
CONTINUOUS
 10
97.1214590514
 20
102.9324400871
 11
97.1214590514
 21
99.1324400871
  0
LINE
  5
2BA
100
AcDbEntity
  8
0
100
AcDbLine
 62
7
  6
CONTINUOUS
 10
97.1214590514
 20
97.9324400871
 11
97.1214590514
 21
94.1324400871
  0
LINE
  5
2BB
100
AcDbEntity
  8
0
100
AcDbLine
 62
7
  6
CONTINUOUS
 10
97.3740984748
 20
93.9824400871
 11
97.3740984748
 21
93.5324400871
  0
LINE
  5
2BC
100
AcDbEntity
  8
0
100
AcDbLine
 62
7
  6
CONTINUOUS
 10
97.3740984748
 20
98.0824400871
 11
97.3740984748
 21
98.9824400871
  0
LINE
  5
2BD
100
AcDbEntity
  8
0
100
AcDbLine
 62
7
  6
CONTINUOUS
 10
97.3740984748
 20
103.0824400871
 11
97.3740984748
 21
103.9824400871
  0
LINE
  5
2BE
100
AcDbEntity
  8
0
100
AcDbLine
 62
7
  6
CONTINUOUS
 10
97.3740984748
 20
108.0824400871
 11
97.3740984748
 21
108.9824400871
  0
LINE
  5
2BF
100
AcDbEntity
  8
0
100
AcDbLine
 62
7
  6
CONTINUOUS
 10
97.3740984748
 20
113.0824400871
 11
97.3740984748
 21
113.5324400871
  0
LINE
  5
2C0
100
AcDbEntity
  8
0
100
AcDbLine
 62
7
  6
CONTINUOUS
 10
97.5802487029
 20
94.1324400871
 11
97.5802487029
 21
97.9324400871
  0
LINE
  5
2C1
100
AcDbEntity
  8
0
100
AcDbLine
 62
7
  6
CONTINUOUS
 10
97.5802487029
 20
99.1324400871
 11
97.5802487029
 21
102.9324400871
  0
LINE
  5
2C2
100
AcDbEntity
  8
0
100
AcDbLine
 62
7
  6
CONTINUOUS
 10
97.5802487029
 20
104.1324400871
 11
97.5802487029
 21
107.9324400871
  0
LINE
  5
2C3
100
AcDbEntity
  8
0
100
AcDbLine
 62
7
  6
CONTINUOUS
 10
97.5802487029
 20
109.1324400871
 11
97.5802487029
 21
112.9324400871
  0
LINE
  5
2C4
100
AcDbEntity
  8
0
100
AcDbLine
 62
7
  6
CONTINUOUS
 10
98.0688282095
 20
112.9324400871
 11
98.0688282095
 21
109.1324400871
  0
LINE
  5
2C5
100
AcDbEntity
  8
0
100
AcDbLine
 62
7
  6
CONTINUOUS
 10
98.0688282095
 20
107.9324400871
 11
98.0688282095
 21
104.1324400871
  0
LINE
  5
2C6
100
AcDbEntity
  8
0
100
AcDbLine
 62
7
  6
CONTINUOUS
 10
98.0688282095
 20
102.9324400871
 11
98.0688282095
 21
99.1324400871
  0
LINE
  5
2C7
100
AcDbEntity
  8
0
100
AcDbLine
 62
7
  6
CONTINUOUS
 10
98.0688282095
 20
97.9324400871
 11
98.0688282095
 21
94.1324400871
  0
LINE
  5
2C8
100
AcDbEntity
  8
0
100
AcDbLine
 62
7
  6
CONTINUOUS
 10
98.320523754
 20
112.9324400871
 11
98.320523754
 21
109.1324400871
  0
LINE
  5
2C9
100
AcDbEntity
  8
0
100
AcDbLine
 62
7
  6
CONTINUOUS
 10
98.320523754
 20
107.9324400871
 11
98.320523754
 21
104.1324400871
  0
LINE
  5
2CA
100
AcDbEntity
  8
0
100
AcDbLine
 62
7
  6
CONTINUOUS
 10
98.320523754
 20
102.9324400871
 11
98.320523754
 21
99.1324400871
  0
LINE
  5
2CB
100
AcDbEntity
  8
0
100
AcDbLine
 62
7
  6
CONTINUOUS
 10
98.320523754
 20
97.9324400871
 11
98.320523754
 21
94.1324400871
  0
LINE
  5
2CC
100
AcDbEntity
  8
0
100
AcDbLine
 62
7
  6
CONTINUOUS
 10
98.9619005935
 20
94.1324400871
 11
98.9619005935
 21
97.9324400871
  0
LINE
  5
2CD
100
AcDbEntity
  8
0
100
AcDbLine
 62
7
  6
CONTINUOUS
 10
98.9619005935
 20
99.1324400871
 11
98.9619005935
 21
102.9324400871
  0
LINE
  5
2CE
100
AcDbEntity
  8
0
100
AcDbLine
 62
7
  6
CONTINUOUS
 10
98.9619005935
 20
104.1324400871
 11
98.9619005935
 21
107.9324400871
  0
LINE
  5
2CF
100
AcDbEntity
  8
0
100
AcDbLine
 62
7
  6
CONTINUOUS
 10
98.9619005935
 20
109.1324400871
 11
98.9619005935
 21
112.9324400871
  0
LINE
  5
2D0
100
AcDbEntity
  8
0
100
AcDbLine
 62
7
  6
CONTINUOUS
 10
99.2007229718
 20
113.5324400871
 11
99.2007229718
 21
113.0824400871
  0
LINE
  5
2D1
100
AcDbEntity
  8
0
100
AcDbLine
 62
7
  6
CONTINUOUS
 10
99.2007229718
 20
93.9824400871
 11
99.2007229718
 21
93.5324400871
  0
LINE
  5
2D2
100
AcDbEntity
  8
0
100
AcDbLine
 62
7
  6
CONTINUOUS
 10
99.2007229718
 20
98.0824400871
 11
99.2007229718
 21
98.9824400871
  0
LINE
  5
2D3
100
AcDbEntity
  8
0
100
AcDbLine
 62
7
  6
CONTINUOUS
 10
99.2007229718
 20
103.0824400871
 11
99.2007229718
 21
103.9824400871
  0
LINE
  5
2D4
100
AcDbEntity
  8
0
100
AcDbLine
 62
7
  6
CONTINUOUS
 10
99.2007229718
 20
108.0824400871
 11
99.2007229718
 21
108.9824400871
  0
LINE
  5
2D5
100
AcDbEntity
  8
0
100
AcDbLine
 62
7
  6
CONTINUOUS
 10
100.0239467118
 20
94.1324400871
 11
100.0239467118
 21
97.9324400871
  0
LINE
  5
2D6
100
AcDbEntity
  8
0
100
AcDbLine
 62
7
  6
CONTINUOUS
 10
100.0239467118
 20
99.1324400871
 11
100.0239467118
 21
102.9324400871
  0
LINE
  5
2D7
100
AcDbEntity
  8
0
100
AcDbLine
 62
7
  6
CONTINUOUS
 10
100.0239467118
 20
104.1324400871
 11
100.0239467118
 21
107.9324400871
  0
LINE
  5
2D8
100
AcDbEntity
  8
0
100
AcDbLine
 62
7
  6
CONTINUOUS
 10
100.0239467118
 20
109.1324400871
 11
100.0239467118
 21
112.9324400871
  0
LINE
  5
2D9
100
AcDbEntity
  8
0
100
AcDbLine
 62
7
  6
CONTINUOUS
 10
100.044913476
 20
93.9824400871
 11
100.044913476
 21
93.5324400871
  0
LINE
  5
2DA
100
AcDbEntity
  8
0
100
AcDbLine
 62
7
  6
CONTINUOUS
 10
100.044913476
 20
98.0824400871
 11
100.044913476
 21
98.9824400871
  0
LINE
  5
2DB
100
AcDbEntity
  8
0
100
AcDbLine
 62
7
  6
CONTINUOUS
 10
100.044913476
 20
103.0824400871
 11
100.044913476
 21
103.9824400871
  0
LINE
  5
2DC
100
AcDbEntity
  8
0
100
AcDbLine
 62
7
  6
CONTINUOUS
 10
100.044913476
 20
108.0824400871
 11
100.044913476
 21
108.9824400871
  0
LINE
  5
2DD
100
AcDbEntity
  8
0
100
AcDbLine
 62
7
  6
CONTINUOUS
 10
100.044913476
 20
113.0824400871
 11
100.044913476
 21
113.5324400871
  0
LINE
  5
2DE
100
AcDbEntity
  8
0
100
AcDbLine
 62
7
  6
CONTINUOUS
 10
104.0705322022
 20
112.1824400871
 11
104.0705322022
 21
109.8824400871
  0
LINE
  5
2DF
100
AcDbEntity
  8
0
100
AcDbLine
 62
7
  6
CONTINUOUS
 10
104.0705322022
 20
107.1824400871
 11
104.0705322022
 21
104.8824400871
  0
LINE
  5
2E0
100
AcDbEntity
  8
0
100
AcDbLine
 62
7
  6
CONTINUOUS
 10
104.0705322022
 20
102.1824400871
 11
104.0705322022
 21
99.8824400871
  0
LINE
  5
2E1
100
AcDbEntity
  8
0
100
AcDbLine
 62
7
  6
CONTINUOUS
 10
104.0705322022
 20
97.1824400871
 11
104.0705322022
 21
94.8824400871
  0
LINE
  5
2E2
100
AcDbEntity
  8
0
100
AcDbLine
 62
7
  6
CONTINUOUS
 10
104.2890896119
 20
94.8824400871
 11
104.2890896119
 21
97.1824400871
  0
LINE
  5
2E3
100
AcDbEntity
  8
0
100
AcDbLine
 62
7
  6
CONTINUOUS
 10
104.2890896119
 20
99.8824400871
 11
104.2890896119
 21
102.1824400871
  0
LINE
  5
2E4
100
AcDbEntity
  8
0
100
AcDbLine
 62
7
  6
CONTINUOUS
 10
104.2890896119
 20
104.8824400871
 11
104.2890896119
 21
107.1824400871
  0
LINE
  5
2E5
100
AcDbEntity
  8
0
100
AcDbLine
 62
7
  6
CONTINUOUS
 10
104.2890896119
 20
109.8824400871
 11
104.2890896119
 21
112.1824400871
  0
LINE
  5
2E6
100
AcDbEntity
  8
0
100
AcDbLine
 62
7
  6
CONTINUOUS
 10
104.6743750111
 20
109.2724400871
 11
104.6743750111
 21
107.7924400871
  0
LINE
  5
2E7
100
AcDbEntity
  8
0
100
AcDbLine
 62
7
  6
CONTINUOUS
 10
104.6743750111
 20
104.2724400871
 11
104.6743750111
 21
102.7924400871
  0
LINE
  5
2E8
100
AcDbEntity
  8
0
100
AcDbLine
 62
7
  6
CONTINUOUS
 10
104.6743750111
 20
99.2724400871
 11
104.6743750111
 21
97.7924400871
  0
LINE
  5
2E9
100
AcDbEntity
  8
0
100
AcDbLine
 62
7
  6
CONTINUOUS
 10
104.8929324208
 20
109.2724400871
 11
104.8929324208
 21
107.7924400871
  0
LINE
  5
2EA
100
AcDbEntity
  8
0
100
AcDbLine
 62
7
  6
CONTINUOUS
 10
104.8929324208
 20
104.2724400871
 11
104.8929324208
 21
102.7924400871
  0
LINE
  5
2EB
100
AcDbEntity
  8
0
100
AcDbLine
 62
7
  6
CONTINUOUS
 10
104.8929324208
 20
99.2724400871
 11
104.8929324208
 21
97.7924400871
  0
LINE
  5
2EC
100
AcDbEntity
  8
0
100
AcDbLine
 62
7
  6
CONTINUOUS
 10
105.9156074516
 20
97.7924400871
 11
105.9156074516
 21
99.2724400871
  0
LINE
  5
2ED
100
AcDbEntity
  8
0
100
AcDbLine
 62
7
  6
CONTINUOUS
 10
105.9156074516
 20
102.7924400871
 11
105.9156074516
 21
104.2724400871
  0
LINE
  5
2EE
100
AcDbEntity
  8
0
100
AcDbLine
 62
7
  6
CONTINUOUS
 10
105.9156074516
 20
107.7924400871
 11
105.9156074516
 21
109.2724400871
  0
LINE
  5
2EF
100
AcDbEntity
  8
0
100
AcDbLine
 62
7
  6
CONTINUOUS
 10
106.3349427356
 20
113.5324400871
 11
106.3349427356
 21
93.5324400871
  0
LINE
  5
2F0
100
AcDbEntity
  8
0
100
AcDbLine
 62
7
  6
CONTINUOUS
 10
114.6747626688
 20
113.5324400871
 11
114.6747626688
 21
93.5324400871
  0
LINE
  5
2F1
100
AcDbEntity
  8
0
100
AcDbLine
 62
7
  6
CONTINUOUS
 10
121.7726766576
 20
92.6137906404
 11
121.8425723465
 21
92.6724400871
  0
LINE
  5
2F2
100
AcDbEntity
  8
0
100
AcDbLine
 62
7
  6
CONTINUOUS
 10
121.8419328088
 20
115.172976723
 11
121.7726766576
 21
115.2310895339
  0
LINE
  5
2F3
100
AcDbEntity
  8
0
100
AcDbLine
 62
7
  6
CONTINUOUS
 10
115.6139698765
 20
93.5324400871
 11
115.6165917316
 21
114.3124400871
  0
LINE
  5
2F4
100
AcDbEntity
  8
0
100
AcDbLine
 62
7
  6
CONTINUOUS
 10
117.6026766576
 20
114.3124400871
 11
117.6000548025
 21
93.5324400871
  0
LINE
  5
2F5
100
AcDbEntity
  8
0
100
AcDbLine
 62
7
  6
CONTINUOUS
 10
121.7726766576
 20
115.2310895339
 11
121.7726766576
 21
115.1741855936
  0
LINE
  5
2F6
100
AcDbEntity
  8
0
100
AcDbLine
 62
7
  6
CONTINUOUS
 10
121.7726766576
 20
92.6724400871
 11
121.7726766576
 21
92.6137906404
  0
LINE
  5
2F7
100
AcDbEntity
  8
0
100
AcDbLine
 62
7
  6
CONTINUOUS
 10
121.8726766576
 20
92.6724400871
 11
121.8726766576
 21
115.1724400871
  0
LINE
  5
2F8
100
AcDbEntity
  8
0
100
AcDbLine
 62
7
  6
CONTINUOUS
 10
122.7575985543
 20
100.4824400871
 11
122.7575985543
 21
99.0624400871
  0
LINE
  5
2F9
100
AcDbEntity
  8
0
100
AcDbLine
 62
7
  6
CONTINUOUS
 10
122.7575985543
 20
107.3624400871
 11
122.7575985543
 21
108.7824400871
  0
LINE
  5
2FA
100
AcDbEntity
  8
0
100
AcDbLine
 62
7
  6
CONTINUOUS
 10
123.8726766576
 20
108.9224400871
 11
123.8726766576
 21
106.9224400871
  0
LINE
  5
2FB
100
AcDbEntity
  8
0
100
AcDbLine
 62
7
  6
CONTINUOUS
 10
123.8726766576
 20
100.9224400871
 11
123.8726766576
 21
98.9224400871
  0
LINE
  5
2FC
100
AcDbEntity
  8
0
100
AcDbLine
 62
7
  6
CONTINUOUS
 10
124.236907052
 20
100.4824400871
 11
124.236907052
 21
99.0624400871
  0
LINE
  5
2FD
100
AcDbEntity
  8
0
100
AcDbLine
 62
7
  6
CONTINUOUS
 10
124.236907052
 20
107.3624400871
 11
124.236907052
 21
108.7824400871
  0
LINE
  5
2FE
100
AcDbEntity
  8
0
100
AcDbLine
 62
7
  6
CONTINUOUS
 10
124.8923468071
 20
108.7824400871
 11
124.8923468071
 21
107.3624400871
  0
LINE
  5
2FF
100
AcDbEntity
  8
0
100
AcDbLine
 62
7
  6
CONTINUOUS
 10
124.8923468071
 20
100.4824400871
 11
124.8923468071
 21
99.0624400871
  0
LINE
  5
300
100
AcDbEntity
  8
0
100
AcDbLine
 62
7
  6
CONTINUOUS
 10
125.8137222043
 20
100.4824400871
 11
125.8137222043
 21
99.0624400871
  0
LINE
  5
301
100
AcDbEntity
  8
0
100
AcDbLine
 62
7
  6
CONTINUOUS
 10
125.8137222043
 20
107.3624400871
 11
125.8137222043
 21
108.7824400871
  0
LINE
  5
302
100
AcDbEntity
  8
0
100
AcDbLine
 62
7
  6
CONTINUOUS
 10
125.8726766576
 20
108.9224400871
 11
125.8726766576
 21
108.7824400871
  0
LINE
  5
303
100
AcDbEntity
  8
0
100
AcDbLine
 62
7
  6
CONTINUOUS
 10
125.8726766576
 20
107.3624400871
 11
125.8726766576
 21
106.9224400871
  0
LINE
  5
304
100
AcDbEntity
  8
0
100
AcDbLine
 62
7
  6
CONTINUOUS
 10
125.8726766576
 20
100.9224400871
 11
125.8726766576
 21
100.4824400871
  0
LINE
  5
305
100
AcDbEntity
  8
0
100
AcDbLine
 62
7
  6
CONTINUOUS
 10
125.8726766576
 20
99.0624400871
 11
125.8726766576
 21
98.9224400871
  0
LINE
  5
306
100
AcDbEntity
  8
0
100
AcDbLine
 62
7
  6
CONTINUOUS
 10
126.8726766576
 20
107.3624400871
 11
126.8726766576
 21
100.4824400871
  0
LINE
  5
307
100
AcDbEntity
  8
0
100
AcDbLine
 62
7
  6
CONTINUOUS
 10
126.8726766576
 20
92.7597154118
 11
126.8726766576
 21
99.0624400871
  0
LINE
  5
308
100
AcDbEntity
  8
0
100
AcDbLine
 62
7
  6
CONTINUOUS
 10
126.8726766576
 20
108.7824400871
 11
126.8726766576
 21
115.0851647625
  0
LINE
  5
309
100
AcDbEntity
  8
0
100
AcDbLine
 62
7
  6
CONTINUOUS
 10
132.8930347931
 20
100.4824400871
 11
132.8930347931
 21
99.0624400871
  0
LINE
  5
30A
100
AcDbEntity
  8
0
100
AcDbLine
 62
7
  6
CONTINUOUS
 10
132.8930347931
 20
107.3624400871
 11
132.8930347931
 21
108.7824400871
  0
LINE
  5
30B
100
AcDbEntity
  8
0
100
AcDbLine
 62
7
  6
CONTINUOUS
 10
133.2893927624
 20
100.4824400871
 11
133.2893927624
 21
99.0624400871
  0
LINE
  5
30C
100
AcDbEntity
  8
0
100
AcDbLine
 62
7
  6
CONTINUOUS
 10
133.2893929162
 20
107.3624400871
 11
133.2893929162
 21
108.7824400871
  0
LINE
  5
30D
100
AcDbEntity
  8
0
100
AcDbLine
 62
7
  6
CONTINUOUS
 10
133.3726766576
 20
114.8022315969
 11
133.3726766576
 21
93.0426485773
  0
ARC
  5
30E
100
AcDbEntity
  8
0
100
AcDbCircle
 62
7
  6
CONTINUOUS
 10
98.5246807674
 20
101.2480701827
 40
1.865057202
100
AcDbArc
 50
136.8775275692
 51
141.0171490091
  0
ARC
  5
30F
100
AcDbEntity
  8
0
100
AcDbCircle
 62
7
  6
CONTINUOUS
 10
76.9246807674
 20
96.2480701828
 40
1.865057202
100
AcDbArc
 50
136.8775275692
 51
141.0171490091
  0
ARC
  5
310
100
AcDbEntity
  8
0
100
AcDbCircle
 62
7
  6
CONTINUOUS
 10
76.9246807674
 20
101.2480701828
 40
1.865057202
100
AcDbArc
 50
136.8775275692
 51
141.0171490091
  0
ARC
  5
311
100
AcDbEntity
  8
0
100
AcDbCircle
 62
7
  6
CONTINUOUS
 10
76.9246807674
 20
111.2480701828
 40
1.865057202
100
AcDbArc
 50
136.8775275692
 51
141.0171490091
  0
ARC
  5
312
100
AcDbEntity
  8
0
100
AcDbCircle
 62
7
  6
CONTINUOUS
 10
76.9246807674
 20
106.2480701828
 40
1.865057202
100
AcDbArc
 50
136.8775275692
 51
141.0171490091
  0
ARC
  5
313
100
AcDbEntity
  8
0
100
AcDbCircle
 62
7
  6
CONTINUOUS
 10
98.5246807674
 20
96.2480701828
 40
1.865057202
100
AcDbArc
 50
136.8775275692
 51
141.0171490091
  0
ARC
  5
314
100
AcDbEntity
  8
0
100
AcDbCircle
 62
7
  6
CONTINUOUS
 10
98.5246807674
 20
111.2480701827
 40
1.865057202
100
AcDbArc
 50
136.8775275692
 51
141.0171490091
  0
ARC
  5
315
100
AcDbEntity
  8
0
100
AcDbCircle
 62
7
  6
CONTINUOUS
 10
98.5246807674
 20
106.2480701828
 40
1.865057202
100
AcDbArc
 50
136.8775275691
 51
141.0171490091
  0
ARC
  5
316
100
AcDbEntity
  8
0
100
AcDbCircle
 62
7
  6
CONTINUOUS
 10
95.973581807
 20
95.7016956173
 40
1.703353591
100
AcDbArc
 50
308.4610292143
 51
311.385140375
  0
ARC
  5
317
100
AcDbEntity
  8
0
100
AcDbCircle
 62
7
  6
CONTINUOUS
 10
95.973581807
 20
100.7016956173
 40
1.703353591
100
AcDbArc
 50
308.4610292143
 51
311.385140375
  0
ARC
  5
318
100
AcDbEntity
  8
0
100
AcDbCircle
 62
7
  6
CONTINUOUS
 10
95.9735818071
 20
110.7016956173
 40
1.703353591
100
AcDbArc
 50
308.4610292143
 51
311.385140375
  0
ARC
  5
319
100
AcDbEntity
  8
0
100
AcDbCircle
 62
7
  6
CONTINUOUS
 10
95.973581807
 20
105.7016956173
 40
1.7033535911
100
AcDbArc
 50
308.4610292143
 51
311.385140375
  0
ARC
  5
31A
100
AcDbEntity
  8
0
100
AcDbCircle
 62
7
  6
CONTINUOUS
 10
74.373581807
 20
95.7016956173
 40
1.7033535911
100
AcDbArc
 50
308.4610292143
 51
311.385140375
  0
ARC
  5
31B
100
AcDbEntity
  8
0
100
AcDbCircle
 62
7
  6
CONTINUOUS
 10
74.3735818071
 20
100.7016956173
 40
1.703353591
100
AcDbArc
 50
308.4610292143
 51
311.385140375
  0
ARC
  5
31C
100
AcDbEntity
  8
0
100
AcDbCircle
 62
7
  6
CONTINUOUS
 10
74.3735818071
 20
110.7016956173
 40
1.703353591
100
AcDbArc
 50
308.4610292143
 51
311.385140375
  0
ARC
  5
31D
100
AcDbEntity
  8
0
100
AcDbCircle
 62
7
  6
CONTINUOUS
 10
74.373581807
 20
105.7016956173
 40
1.703353591
100
AcDbArc
 50
308.4610292143
 51
311.385140375
  0
ARC
  5
31E
100
AcDbEntity
  8
0
100
AcDbCircle
 62
7
  6
CONTINUOUS
 10
95.9749151775
 20
96.3648627245
 40
1.7012126729
100
AcDbArc
 50
48.8897064081
 51
51.5261176158
  0
ARC
  5
31F
100
AcDbEntity
  8
0
100
AcDbCircle
 62
7
  6
CONTINUOUS
 10
95.9749151775
 20
101.3648627245
 40
1.7012126729
100
AcDbArc
 50
48.8897064081
 51
51.5261176158
  0
ARC
  5
320
100
AcDbEntity
  8
0
100
AcDbCircle
 62
7
  6
CONTINUOUS
 10
95.9749151775
 20
111.3648627244
 40
1.7012126729
100
AcDbArc
 50
48.8897064081
 51
51.5261176158
  0
ARC
  5
321
100
AcDbEntity
  8
0
100
AcDbCircle
 62
7
  6
CONTINUOUS
 10
95.9749151775
 20
106.3648627245
 40
1.7012126729
100
AcDbArc
 50
48.8897064081
 51
51.5261176158
  0
ARC
  5
322
100
AcDbEntity
  8
0
100
AcDbCircle
 62
7
  6
CONTINUOUS
 10
74.3749151775
 20
96.3648627245
 40
1.7012126729
100
AcDbArc
 50
48.8897064081
 51
51.5261176158
  0
ARC
  5
323
100
AcDbEntity
  8
0
100
AcDbCircle
 62
7
  6
CONTINUOUS
 10
74.3749151775
 20
101.3648627245
 40
1.7012126728
100
AcDbArc
 50
48.889706408
 51
51.5261176158
  0
ARC
  5
324
100
AcDbEntity
  8
0
100
AcDbCircle
 62
7
  6
CONTINUOUS
 10
74.3749151775
 20
111.3648627244
 40
1.7012126729
100
AcDbArc
 50
48.8897064081
 51
51.5261176158
  0
ARC
  5
325
100
AcDbEntity
  8
0
100
AcDbCircle
 62
7
  6
CONTINUOUS
 10
74.3749151775
 20
106.3648627245
 40
1.7012126728
100
AcDbArc
 50
48.8897064081
 51
51.5261176158
  0
SPLINE
  5
326
100
AcDbEntity
  8
0
100
AcDbSpline
 62
7
  6
CONTINUOUS
 70
0
 71
3
 72
9
 73
5
 74
0
 42
0.0000001
 43
0.0000001
 44
0.0000000001
 40
0.0
 40
0.0
 40
0.0
 40
0.0
 40
0.4918363705
 40
1.0
 40
1.0
 40
1.0
 40
1.0
 10
96.1031618067
 20
98.0324400873
 30
0.0
 10
96.2676262355
 20
98.0324400873
 30
0.0
 10
96.6044576301
 20
97.9721528618
 30
0.0
 10
96.9002979823
 20
97.8024380189
 30
0.0
 10
97.0333379609
 20
97.6967282469
 30
0.0
  0
SPLINE
  5
327
100
AcDbEntity
  8
0
100
AcDbSpline
 62
7
  6
CONTINUOUS
 70
0
 71
3
 72
9
 73
5
 74
0
 42
0.0000001
 43
0.0000001
 44
0.0000000001
 40
0.0
 40
0.0
 40
0.0
 40
0.0
 40
0.5081745927
 40
1.0
 40
1.0
 40
1.0
 40
1.0
 10
97.0330373993
 20
94.3679162861
 30
0.0
 10
96.9000191331
 20
94.2622762232
 30
0.0
 10
96.6042636118
 20
94.0926809763
 30
0.0
 10
96.2675606029
 20
94.032440087
 30
0.0
 10
96.1031618067
 20
94.032440087
 30
0.0
  0
SPLINE
  5
328
100
AcDbEntity
  8
0
100
AcDbSpline
 62
7
  6
CONTINUOUS
 70
0
 71
3
 72
9
 73
5
 74
0
 42
0.0000001
 43
0.0000001
 44
0.0000000001
 40
0.0
 40
0.0
 40
0.0
 40
0.0
 40
0.4918363705
 40
1.0
 40
1.0
 40
1.0
 40
1.0
 10
96.1031618067
 20
103.0324400873
 30
0.0
 10
96.2676262355
 20
103.0324400873
 30
0.0
 10
96.6044576301
 20
102.9721528618
 30
0.0
 10
96.9002979823
 20
102.8024380189
 30
0.0
 10
97.0333379609
 20
102.6967282469
 30
0.0
  0
SPLINE
  5
329
100
AcDbEntity
  8
0
100
AcDbSpline
 62
7
  6
CONTINUOUS
 70
0
 71
3
 72
9
 73
5
 74
0
 42
0.0000001
 43
0.0000001
 44
0.0000000001
 40
0.0
 40
0.0
 40
0.0
 40
0.0
 40
0.5081745927
 40
1.0
 40
1.0
 40
1.0
 40
1.0
 10
97.0330373993
 20
99.3679162861
 30
0.0
 10
96.9000191331
 20
99.2622762232
 30
0.0
 10
96.6042636118
 20
99.0926809763
 30
0.0
 10
96.2675606029
 20
99.032440087
 30
0.0
 10
96.1031618067
 20
99.032440087
 30
0.0
  0
SPLINE
  5
32A
100
AcDbEntity
  8
0
100
AcDbSpline
 62
7
  6
CONTINUOUS
 70
0
 71
3
 72
15
 73
11
 74
0
 42
0.0000001
 43
0.0000001
 44
0.0000000001
 40
0.0
 40
0.0
 40
0.0
 40
0.0
 40
0.114741345
 40
0.2357168388
 40
0.36505153
 40
0.4999857803
 40
0.6349199993
 40
0.7642628771
 40
0.8852526753
 40
1.0
 40
1.0
 40
1.0
 40
1.0
 10
104.9511362985
 20
112.1824400871
 30
0.0
 10
105.0775957358
 20
112.1824400871
 30
0.0
 10
105.3407501965
 20
112.1181991945
 30
0.0
 10
105.6599464142
 20
111.8552251041
 30
0.0
 10
105.8679223554
 20
111.4745694035
 30
0.0
 10
105.9398610235
 20
111.0324889804
 30
0.0
 10
105.8679534092
 20
110.59039423
 30
0.0
 10
105.6599897735
 20
110.2097022602
 30
0.0
 10
105.3407792525
 20
109.9466917636
 30
0.0
 10
105.0776023261
 20
109.8824400871
 30
0.0
 10
104.9511362985
 20
109.8824400871
 30
0.0
  0
SPLINE
  5
32B
100
AcDbEntity
  8
0
100
AcDbSpline
 62
7
  6
CONTINUOUS
 70
0
 71
3
 72
15
 73
11
 74
0
 42
0.0000001
 43
0.0000001
 44
0.0000000001
 40
0.0
 40
0.0
 40
0.0
 40
0.0
 40
0.114741345
 40
0.2357168388
 40
0.36505153
 40
0.4999857803
 40
0.6349199993
 40
0.7642628771
 40
0.8852526753
 40
1.0
 40
1.0
 40
1.0
 40
1.0
 10
104.9511362985
 20
107.1824400871
 30
0.0
 10
105.0775957358
 20
107.1824400871
 30
0.0
 10
105.3407501965
 20
107.1181991945
 30
0.0
 10
105.6599464142
 20
106.8552251041
 30
0.0
 10
105.8679223554
 20
106.4745694035
 30
0.0
 10
105.9398610235
 20
106.0324889804
 30
0.0
 10
105.8679534092
 20
105.59039423
 30
0.0
 10
105.6599897735
 20
105.2097022602
 30
0.0
 10
105.3407792525
 20
104.9466917636
 30
0.0
 10
105.0776023261
 20
104.8824400871
 30
0.0
 10
104.9511362985
 20
104.8824400871
 30
0.0
  0
SPLINE
  5
32C
100
AcDbEntity
  8
0
100
AcDbSpline
 62
7
  6
CONTINUOUS
 70
0
 71
3
 72
15
 73
11
 74
0
 42
0.0000001
 43
0.0000001
 44
0.0000000001
 40
0.0
 40
0.0
 40
0.0
 40
0.0
 40
0.114741345
 40
0.2357168388
 40
0.36505153
 40
0.4999857803
 40
0.6349199993
 40
0.7642628771
 40
0.8852526753
 40
1.0
 40
1.0
 40
1.0
 40
1.0
 10
104.9511362985
 20
102.1824400871
 30
0.0
 10
105.0775957358
 20
102.1824400871
 30
0.0
 10
105.3407501965
 20
102.1181991945
 30
0.0
 10
105.6599464142
 20
101.8552251041
 30
0.0
 10
105.8679223554
 20
101.4745694035
 30
0.0
 10
105.9398610235
 20
101.0324889804
 30
0.0
 10
105.8679534092
 20
100.59039423
 30
0.0
 10
105.6599897735
 20
100.2097022602
 30
0.0
 10
105.3407792525
 20
99.9466917636
 30
0.0
 10
105.0776023261
 20
99.8824400871
 30
0.0
 10
104.9511362985
 20
99.8824400871
 30
0.0
  0
SPLINE
  5
32D
100
AcDbEntity
  8
0
100
AcDbSpline
 62
7
  6
CONTINUOUS
 70
0
 71
3
 72
15
 73
11
 74
0
 42
0.0000001
 43
0.0000001
 44
0.0000000001
 40
0.0
 40
0.0
 40
0.0
 40
0.0
 40
0.114741345
 40
0.2357168388
 40
0.36505153
 40
0.4999857803
 40
0.6349199993
 40
0.7642628771
 40
0.8852526753
 40
1.0
 40
1.0
 40
1.0
 40
1.0
 10
104.9511362985
 20
97.1824400871
 30
0.0
 10
105.0775957358
 20
97.1824400871
 30
0.0
 10
105.3407501965
 20
97.1181991945
 30
0.0
 10
105.6599464142
 20
96.8552251041
 30
0.0
 10
105.8679223554
 20
96.4745694035
 30
0.0
 10
105.9398610235
 20
96.0324889804
 30
0.0
 10
105.8679534092
 20
95.59039423
 30
0.0
 10
105.6599897735
 20
95.2097022602
 30
0.0
 10
105.3407792525
 20
94.9466917636
 30
0.0
 10
105.0776023261
 20
94.8824400871
 30
0.0
 10
104.9511362985
 20
94.8824400871
 30
0.0
  0
SPLINE
  5
32E
100
AcDbEntity
  8
0
100
AcDbSpline
 62
7
  6
CONTINUOUS
 70
0
 71
3
 72
9
 73
5
 74
0
 42
0.0000001
 43
0.0000001
 44
0.0000000001
 40
0.0
 40
0.0
 40
0.0
 40
0.0
 40
0.4918363705
 40
1.0
 40
1.0
 40
1.0
 40
1.0
 10
96.1031618067
 20
113.0324400873
 30
0.0
 10
96.2676262355
 20
113.0324400873
 30
0.0
 10
96.6044576301
 20
112.9721528618
 30
0.0
 10
96.9002979823
 20
112.8024380189
 30
0.0
 10
97.0333379609
 20
112.6967282469
 30
0.0
  0
SPLINE
  5
32F
100
AcDbEntity
  8
0
100
AcDbSpline
 62
7
  6
CONTINUOUS
 70
0
 71
3
 72
9
 73
5
 74
0
 42
0.0000001
 43
0.0000001
 44
0.0000000001
 40
0.0
 40
0.0
 40
0.0
 40
0.0
 40
0.5081745927
 40
1.0
 40
1.0
 40
1.0
 40
1.0
 10
97.0330373993
 20
109.3679162861
 30
0.0
 10
96.9000191331
 20
109.2622762232
 30
0.0
 10
96.6042636118
 20
109.0926809763
 30
0.0
 10
96.2675606029
 20
109.032440087
 30
0.0
 10
96.1031618067
 20
109.032440087
 30
0.0
  0
SPLINE
  5
330
100
AcDbEntity
  8
0
100
AcDbSpline
 62
7
  6
CONTINUOUS
 70
0
 71
3
 72
9
 73
5
 74
0
 42
0.0000001
 43
0.0000001
 44
0.0000000001
 40
0.0
 40
0.0
 40
0.0
 40
0.0
 40
0.4918363705
 40
1.0
 40
1.0
 40
1.0
 40
1.0
 10
96.1031618067
 20
108.0324400873
 30
0.0
 10
96.2676262355
 20
108.0324400873
 30
0.0
 10
96.6044576301
 20
107.9721528618
 30
0.0
 10
96.9002979823
 20
107.8024380189
 30
0.0
 10
97.0333379609
 20
107.6967282469
 30
0.0
  0
SPLINE
  5
331
100
AcDbEntity
  8
0
100
AcDbSpline
 62
7
  6
CONTINUOUS
 70
0
 71
3
 72
9
 73
5
 74
0
 42
0.0000001
 43
0.0000001
 44
0.0000000001
 40
0.0
 40
0.0
 40
0.0
 40
0.0
 40
0.5081745927
 40
1.0
 40
1.0
 40
1.0
 40
1.0
 10
97.0330373993
 20
104.3679162861
 30
0.0
 10
96.9000191331
 20
104.2622762232
 30
0.0
 10
96.6042636118
 20
104.0926809763
 30
0.0
 10
96.2675606029
 20
104.032440087
 30
0.0
 10
96.1031618067
 20
104.032440087
 30
0.0
  0
SPLINE
  5
332
100
AcDbEntity
  8
0
100
AcDbSpline
 62
7
  6
CONTINUOUS
 70
0
 71
3
 72
9
 73
5
 74
0
 42
0.0000001
 43
0.0000001
 44
0.0000000001
 40
0.0
 40
0.0
 40
0.0
 40
0.0
 40
0.4918363705
 40
1.0
 40
1.0
 40
1.0
 40
1.0
 10
74.5031618067
 20
98.0324400873
 30
0.0
 10
74.6676262355
 20
98.0324400873
 30
0.0
 10
75.0044576301
 20
97.9721528618
 30
0.0
 10
75.3002979823
 20
97.8024380189
 30
0.0
 10
75.4333379609
 20
97.6967282469
 30
0.0
  0
SPLINE
  5
333
100
AcDbEntity
  8
0
100
AcDbSpline
 62
7
  6
CONTINUOUS
 70
0
 71
3
 72
9
 73
5
 74
0
 42
0.0000001
 43
0.0000001
 44
0.0000000001
 40
0.0
 40
0.0
 40
0.0
 40
0.0
 40
0.5081745927
 40
1.0
 40
1.0
 40
1.0
 40
1.0
 10
75.4330373993
 20
94.3679162861
 30
0.0
 10
75.3000191331
 20
94.2622762232
 30
0.0
 10
75.0042636118
 20
94.0926809763
 30
0.0
 10
74.6675606029
 20
94.032440087
 30
0.0
 10
74.5031618067
 20
94.032440087
 30
0.0
  0
SPLINE
  5
334
100
AcDbEntity
  8
0
100
AcDbSpline
 62
7
  6
CONTINUOUS
 70
0
 71
3
 72
9
 73
5
 74
0
 42
0.0000001
 43
0.0000001
 44
0.0000000001
 40
0.0
 40
0.0
 40
0.0
 40
0.0
 40
0.4918363705
 40
1.0
 40
1.0
 40
1.0
 40
1.0
 10
74.5031618067
 20
103.0324400873
 30
0.0
 10
74.6676262355
 20
103.0324400873
 30
0.0
 10
75.0044576301
 20
102.9721528618
 30
0.0
 10
75.3002979823
 20
102.8024380189
 30
0.0
 10
75.4333379609
 20
102.6967282469
 30
0.0
  0
SPLINE
  5
335
100
AcDbEntity
  8
0
100
AcDbSpline
 62
7
  6
CONTINUOUS
 70
0
 71
3
 72
9
 73
5
 74
0
 42
0.0000001
 43
0.0000001
 44
0.0000000001
 40
0.0
 40
0.0
 40
0.0
 40
0.0
 40
0.5081745927
 40
1.0
 40
1.0
 40
1.0
 40
1.0
 10
75.4330373993
 20
99.3679162861
 30
0.0
 10
75.3000191331
 20
99.2622762232
 30
0.0
 10
75.0042636118
 20
99.0926809763
 30
0.0
 10
74.6675606029
 20
99.032440087
 30
0.0
 10
74.5031618067
 20
99.032440087
 30
0.0
  0
SPLINE
  5
336
100
AcDbEntity
  8
0
100
AcDbSpline
 62
7
  6
CONTINUOUS
 70
0
 71
3
 72
15
 73
11
 74
0
 42
0.0000001
 43
0.0000001
 44
0.0000000001
 40
0.0
 40
0.0
 40
0.0
 40
0.0
 40
0.114741345
 40
0.2357168388
 40
0.36505153
 40
0.4999857803
 40
0.6349199993
 40
0.7642628771
 40
0.8852526753
 40
1.0
 40
1.0
 40
1.0
 40
1.0
 10
83.3511362985
 20
112.1824400871
 30
0.0
 10
83.4775957358
 20
112.1824400871
 30
0.0
 10
83.7407501965
 20
112.1181991945
 30
0.0
 10
84.0599464142
 20
111.8552251041
 30
0.0
 10
84.2679223554
 20
111.4745694035
 30
0.0
 10
84.3398610235
 20
111.0324889804
 30
0.0
 10
84.2679534092
 20
110.59039423
 30
0.0
 10
84.0599897735
 20
110.2097022602
 30
0.0
 10
83.7407792525
 20
109.9466917636
 30
0.0
 10
83.4776023261
 20
109.8824400871
 30
0.0
 10
83.3511362985
 20
109.8824400871
 30
0.0
  0
SPLINE
  5
337
100
AcDbEntity
  8
0
100
AcDbSpline
 62
7
  6
CONTINUOUS
 70
0
 71
3
 72
15
 73
11
 74
0
 42
0.0000001
 43
0.0000001
 44
0.0000000001
 40
0.0
 40
0.0
 40
0.0
 40
0.0
 40
0.114741345
 40
0.2357168388
 40
0.36505153
 40
0.4999857803
 40
0.6349199993
 40
0.7642628771
 40
0.8852526753
 40
1.0
 40
1.0
 40
1.0
 40
1.0
 10
83.3511362985
 20
107.1824400871
 30
0.0
 10
83.4775957358
 20
107.1824400871
 30
0.0
 10
83.7407501965
 20
107.1181991945
 30
0.0
 10
84.0599464142
 20
106.8552251041
 30
0.0
 10
84.2679223554
 20
106.4745694035
 30
0.0
 10
84.3398610235
 20
106.0324889804
 30
0.0
 10
84.2679534092
 20
105.59039423
 30
0.0
 10
84.0599897735
 20
105.2097022602
 30
0.0
 10
83.7407792525
 20
104.9466917636
 30
0.0
 10
83.4776023261
 20
104.8824400871
 30
0.0
 10
83.3511362985
 20
104.8824400871
 30
0.0
  0
SPLINE
  5
338
100
AcDbEntity
  8
0
100
AcDbSpline
 62
7
  6
CONTINUOUS
 70
0
 71
3
 72
15
 73
11
 74
0
 42
0.0000001
 43
0.0000001
 44
0.0000000001
 40
0.0
 40
0.0
 40
0.0
 40
0.0
 40
0.114741345
 40
0.2357168388
 40
0.36505153
 40
0.4999857803
 40
0.6349199993
 40
0.7642628771
 40
0.8852526753
 40
1.0
 40
1.0
 40
1.0
 40
1.0
 10
83.3511362985
 20
102.1824400871
 30
0.0
 10
83.4775957358
 20
102.1824400871
 30
0.0
 10
83.7407501965
 20
102.1181991945
 30
0.0
 10
84.0599464142
 20
101.8552251041
 30
0.0
 10
84.2679223554
 20
101.4745694035
 30
0.0
 10
84.3398610235
 20
101.0324889804
 30
0.0
 10
84.2679534092
 20
100.59039423
 30
0.0
 10
84.0599897735
 20
100.2097022602
 30
0.0
 10
83.7407792525
 20
99.9466917636
 30
0.0
 10
83.4776023261
 20
99.8824400871
 30
0.0
 10
83.3511362985
 20
99.8824400871
 30
0.0
  0
SPLINE
  5
339
100
AcDbEntity
  8
0
100
AcDbSpline
 62
7
  6
CONTINUOUS
 70
0
 71
3
 72
15
 73
11
 74
0
 42
0.0000001
 43
0.0000001
 44
0.0000000001
 40
0.0
 40
0.0
 40
0.0
 40
0.0
 40
0.114741345
 40
0.2357168388
 40
0.36505153
 40
0.4999857803
 40
0.6349199993
 40
0.7642628771
 40
0.8852526753
 40
1.0
 40
1.0
 40
1.0
 40
1.0
 10
83.3511362985
 20
97.1824400871
 30
0.0
 10
83.4775957358
 20
97.1824400871
 30
0.0
 10
83.7407501965
 20
97.1181991945
 30
0.0
 10
84.0599464142
 20
96.8552251041
 30
0.0
 10
84.2679223554
 20
96.4745694035
 30
0.0
 10
84.3398610235
 20
96.0324889804
 30
0.0
 10
84.2679534092
 20
95.59039423
 30
0.0
 10
84.0599897735
 20
95.2097022602
 30
0.0
 10
83.7407792525
 20
94.9466917636
 30
0.0
 10
83.4776023261
 20
94.8824400871
 30
0.0
 10
83.3511362985
 20
94.8824400871
 30
0.0
  0
SPLINE
  5
33A
100
AcDbEntity
  8
0
100
AcDbSpline
 62
7
  6
CONTINUOUS
 70
0
 71
3
 72
9
 73
5
 74
0
 42
0.0000001
 43
0.0000001
 44
0.0000000001
 40
0.0
 40
0.0
 40
0.0
 40
0.0
 40
0.4918363705
 40
1.0
 40
1.0
 40
1.0
 40
1.0
 10
74.5031618067
 20
113.0324400873
 30
0.0
 10
74.6676262355
 20
113.0324400873
 30
0.0
 10
75.0044576301
 20
112.9721528618
 30
0.0
 10
75.3002979823
 20
112.8024380189
 30
0.0
 10
75.4333379609
 20
112.6967282469
 30
0.0
  0
SPLINE
  5
33B
100
AcDbEntity
  8
0
100
AcDbSpline
 62
7
  6
CONTINUOUS
 70
0
 71
3
 72
9
 73
5
 74
0
 42
0.0000001
 43
0.0000001
 44
0.0000000001
 40
0.0
 40
0.0
 40
0.0
 40
0.0
 40
0.5081745927
 40
1.0
 40
1.0
 40
1.0
 40
1.0
 10
75.4330373993
 20
109.3679162861
 30
0.0
 10
75.3000191331
 20
109.2622762232
 30
0.0
 10
75.0042636118
 20
109.0926809763
 30
0.0
 10
74.6675606029
 20
109.032440087
 30
0.0
 10
74.5031618067
 20
109.032440087
 30
0.0
  0
SPLINE
  5
33C
100
AcDbEntity
  8
0
100
AcDbSpline
 62
7
  6
CONTINUOUS
 70
0
 71
3
 72
9
 73
5
 74
0
 42
0.0000001
 43
0.0000001
 44
0.0000000001
 40
0.0
 40
0.0
 40
0.0
 40
0.0
 40
0.4918363705
 40
1.0
 40
1.0
 40
1.0
 40
1.0
 10
74.5031618067
 20
108.0324400873
 30
0.0
 10
74.6676262355
 20
108.0324400873
 30
0.0
 10
75.0044576301
 20
107.9721528618
 30
0.0
 10
75.3002979823
 20
107.8024380189
 30
0.0
 10
75.4333379609
 20
107.6967282469
 30
0.0
  0
SPLINE
  5
33D
100
AcDbEntity
  8
0
100
AcDbSpline
 62
7
  6
CONTINUOUS
 70
0
 71
3
 72
9
 73
5
 74
0
 42
0.0000001
 43
0.0000001
 44
0.0000000001
 40
0.0
 40
0.0
 40
0.0
 40
0.0
 40
0.5081745927
 40
1.0
 40
1.0
 40
1.0
 40
1.0
 10
75.4330373993
 20
104.3679162861
 30
0.0
 10
75.3000191331
 20
104.2622762232
 30
0.0
 10
75.0042636118
 20
104.0926809763
 30
0.0
 10
74.6675606029
 20
104.032440087
 30
0.0
 10
74.5031618067
 20
104.032440087
 30
0.0
  0
SPLINE
  5
33E
100
AcDbEntity
  8
0
100
AcDbSpline
 62
7
  6
CONTINUOUS
 70
0
 71
3
 72
11
 73
7
 74
0
 42
0.0000001
 43
0.0000001
 44
0.0000000001
 40
0.0
 40
0.0
 40
0.0
 40
0.0
 40
0.2449218058
 40
0.5000065814
 40
0.755084278
 40
1.0
 40
1.0
 40
1.0
 40
1.0
 10
97.0749078581
 20
102.4213548363
 30
0.0
 10
96.9220314892
 20
102.2325397932
 30
0.0
 10
96.6831355297
 20
101.7839577054
 30
0.0
 10
96.5641611756
 20
101.032031149
 30
0.0
 10
96.6833928612
 20
100.2801482193
 30
0.0
 10
96.922460801
 20
99.8316711799
 30
0.0
 10
97.0754058398
 20
99.6429195241
 30
0.0
  0
SPLINE
  5
33F
100
AcDbEntity
  8
0
100
AcDbSpline
 62
7
  6
CONTINUOUS
 70
0
 71
3
 72
17
 73
13
 74
0
 42
0.0000001
 43
0.0000001
 44
0.0000000001
 40
0.0
 40
0.0
 40
0.0
 40
0.0
 40
0.0571670889
 40
0.1153296286
 40
0.2361216271
 40
0.3652595584
 40
0.4999888993
 40
0.6347181857
 40
0.7638623661
 40
0.8846651828
 40
0.9428320116
 40
1.0
 40
1.0
 40
1.0
 40
1.0
 10
96.1031618067
 20
94.032440087
 30
0.0
 10
95.993419913
 20
94.032440087
 30
0.0
 10
95.7711904891
 20
94.0589704357
 30
0.0
 10
95.3419088862
 20
94.2148082993
 30
0.0
 10
94.8695903427
 20
94.601594988
 30
0.0
 10
94.5089605726
 20
95.2635172639
 30
0.0
 10
94.3834090783
 20
96.0323721078
 30
0.0
 10
94.508925155
 20
96.801244408
 30
0.0
 10
94.8695335498
 20
97.4632153535
 30
0.0
 10
95.3418690564
 20
97.8500540068
 30
0.0
 10
95.7711791658
 20
98.0059053405
 30
0.0
 10
95.9934181863
 20
98.0324400873
 30
0.0
 10
96.1031618067
 20
98.0324400873
 30
0.0
  0
SPLINE
  5
340
100
AcDbEntity
  8
0
100
AcDbSpline
 62
7
  6
CONTINUOUS
 70
0
 71
3
 72
17
 73
13
 74
0
 42
0.0000001
 43
0.0000001
 44
0.0000000001
 40
0.0
 40
0.0
 40
0.0
 40
0.0
 40
0.0571670889
 40
0.1153296286
 40
0.2361216271
 40
0.3652595584
 40
0.4999888993
 40
0.6347181857
 40
0.7638623661
 40
0.8846651828
 40
0.9428320116
 40
1.0
 40
1.0
 40
1.0
 40
1.0
 10
96.1031618067
 20
99.032440087
 30
0.0
 10
95.993419913
 20
99.032440087
 30
0.0
 10
95.7711904891
 20
99.0589704357
 30
0.0
 10
95.3419088862
 20
99.2148082993
 30
0.0
 10
94.8695903427
 20
99.601594988
 30
0.0
 10
94.5089605726
 20
100.2635172639
 30
0.0
 10
94.3834090783
 20
101.0323721078
 30
0.0
 10
94.508925155
 20
101.801244408
 30
0.0
 10
94.8695335498
 20
102.4632153535
 30
0.0
 10
95.3418690564
 20
102.8500540068
 30
0.0
 10
95.7711791658
 20
103.0059053405
 30
0.0
 10
95.9934181863
 20
103.0324400873
 30
0.0
 10
96.1031618067
 20
103.0324400873
 30
0.0
  0
SPLINE
  5
341
100
AcDbEntity
  8
0
100
AcDbSpline
 62
7
  6
CONTINUOUS
 70
0
 71
3
 72
17
 73
13
 74
0
 42
0.0000001
 43
0.0000001
 44
0.0000000001
 40
0.0
 40
0.0
 40
0.0
 40
0.0
 40
0.0571670889
 40
0.1153296286
 40
0.2361216271
 40
0.3652595584
 40
0.4999888993
 40
0.6347181857
 40
0.7638623661
 40
0.8846651828
 40
0.9428320116
 40
1.0
 40
1.0
 40
1.0
 40
1.0
 10
96.1031618067
 20
109.032440087
 30
0.0
 10
95.993419913
 20
109.032440087
 30
0.0
 10
95.7711904891
 20
109.0589704357
 30
0.0
 10
95.3419088862
 20
109.2148082993
 30
0.0
 10
94.8695903427
 20
109.601594988
 30
0.0
 10
94.5089605726
 20
110.2635172639
 30
0.0
 10
94.3834090783
 20
111.0323721078
 30
0.0
 10
94.508925155
 20
111.801244408
 30
0.0
 10
94.8695335498
 20
112.4632153535
 30
0.0
 10
95.3418690564
 20
112.8500540068
 30
0.0
 10
95.7711791658
 20
113.0059053405
 30
0.0
 10
95.9934181863
 20
113.0324400873
 30
0.0
 10
96.1031618067
 20
113.0324400873
 30
0.0
  0
SPLINE
  5
342
100
AcDbEntity
  8
0
100
AcDbSpline
 62
7
  6
CONTINUOUS
 70
0
 71
3
 72
17
 73
13
 74
0
 42
0.0000001
 43
0.0000001
 44
0.0000000001
 40
0.0
 40
0.0
 40
0.0
 40
0.0
 40
0.0571670889
 40
0.1153296286
 40
0.2361216271
 40
0.3652595584
 40
0.4999888993
 40
0.6347181857
 40
0.7638623661
 40
0.8846651828
 40
0.9428320116
 40
1.0
 40
1.0
 40
1.0
 40
1.0
 10
96.1031618067
 20
104.032440087
 30
0.0
 10
95.993419913
 20
104.032440087
 30
0.0
 10
95.7711904891
 20
104.0589704357
 30
0.0
 10
95.3419088862
 20
104.2148082993
 30
0.0
 10
94.8695903427
 20
104.601594988
 30
0.0
 10
94.5089605726
 20
105.2635172639
 30
0.0
 10
94.3834090783
 20
106.0323721078
 30
0.0
 10
94.508925155
 20
106.801244408
 30
0.0
 10
94.8695335498
 20
107.4632153535
 30
0.0
 10
95.3418690564
 20
107.8500540068
 30
0.0
 10
95.7711791658
 20
108.0059053405
 30
0.0
 10
95.9934181863
 20
108.0324400873
 30
0.0
 10
96.1031618067
 20
108.0324400873
 30
0.0
  0
SPLINE
  5
343
100
AcDbEntity
  8
0
100
AcDbSpline
 62
7
  6
CONTINUOUS
 70
0
 71
3
 72
11
 73
7
 74
0
 42
0.0000001
 43
0.0000001
 44
0.0000000001
 40
0.0
 40
0.0
 40
0.0
 40
0.0
 40
0.2449218058
 40
0.5000065814
 40
0.755084278
 40
1.0
 40
1.0
 40
1.0
 40
1.0
 10
75.4749078581
 20
97.4213548363
 30
0.0
 10
75.3220314892
 20
97.2325397932
 30
0.0
 10
75.0831355297
 20
96.7839577054
 30
0.0
 10
74.9641611756
 20
96.032031149
 30
0.0
 10
75.0833928612
 20
95.2801482193
 30
0.0
 10
75.322460801
 20
94.8316711799
 30
0.0
 10
75.4754058398
 20
94.6429195241
 30
0.0
  0
SPLINE
  5
344
100
AcDbEntity
  8
0
100
AcDbSpline
 62
7
  6
CONTINUOUS
 70
0
 71
3
 72
11
 73
7
 74
0
 42
0.0000001
 43
0.0000001
 44
0.0000000001
 40
0.0
 40
0.0
 40
0.0
 40
0.0
 40
0.2449218058
 40
0.5000065814
 40
0.755084278
 40
1.0
 40
1.0
 40
1.0
 40
1.0
 10
75.4749078581
 20
102.4213548363
 30
0.0
 10
75.3220314892
 20
102.2325397932
 30
0.0
 10
75.0831355297
 20
101.7839577054
 30
0.0
 10
74.9641611756
 20
101.032031149
 30
0.0
 10
75.0833928612
 20
100.2801482193
 30
0.0
 10
75.322460801
 20
99.8316711799
 30
0.0
 10
75.4754058398
 20
99.6429195241
 30
0.0
  0
SPLINE
  5
345
100
AcDbEntity
  8
0
100
AcDbSpline
 62
7
  6
CONTINUOUS
 70
0
 71
3
 72
11
 73
7
 74
0
 42
0.0000001
 43
0.0000001
 44
0.0000000001
 40
0.0
 40
0.0
 40
0.0
 40
0.0
 40
0.2449218058
 40
0.5000065814
 40
0.755084278
 40
1.0
 40
1.0
 40
1.0
 40
1.0
 10
75.4749078581
 20
112.4213548363
 30
0.0
 10
75.3220314892
 20
112.2325397932
 30
0.0
 10
75.0831355297
 20
111.7839577054
 30
0.0
 10
74.9641611756
 20
111.032031149
 30
0.0
 10
75.0833928612
 20
110.2801482193
 30
0.0
 10
75.322460801
 20
109.8316711799
 30
0.0
 10
75.4754058398
 20
109.6429195241
 30
0.0
  0
SPLINE
  5
346
100
AcDbEntity
  8
0
100
AcDbSpline
 62
7
  6
CONTINUOUS
 70
0
 71
3
 72
11
 73
7
 74
0
 42
0.0000001
 43
0.0000001
 44
0.0000000001
 40
0.0
 40
0.0
 40
0.0
 40
0.0
 40
0.2449218058
 40
0.5000065814
 40
0.755084278
 40
1.0
 40
1.0
 40
1.0
 40
1.0
 10
75.4749078581
 20
107.4213548363
 30
0.0
 10
75.3220314892
 20
107.2325397932
 30
0.0
 10
75.0831355297
 20
106.7839577054
 30
0.0
 10
74.9641611756
 20
106.032031149
 30
0.0
 10
75.0833928612
 20
105.2801482193
 30
0.0
 10
75.322460801
 20
104.8316711799
 30
0.0
 10
75.4754058398
 20
104.6429195241
 30
0.0
  0
SPLINE
  5
347
100
AcDbEntity
  8
0
100
AcDbSpline
 62
7
  6
CONTINUOUS
 70
0
 71
3
 72
17
 73
13
 74
0
 42
0.0000001
 43
0.0000001
 44
0.0000000001
 40
0.0
 40
0.0
 40
0.0
 40
0.0
 40
0.0571670889
 40
0.1153296286
 40
0.2361216271
 40
0.3652595584
 40
0.4999888993
 40
0.6347181857
 40
0.7638623661
 40
0.8846651828
 40
0.9428320116
 40
1.0
 40
1.0
 40
1.0
 40
1.0
 10
74.5031618067
 20
94.032440087
 30
0.0
 10
74.393419913
 20
94.032440087
 30
0.0
 10
74.1711904891
 20
94.0589704357
 30
0.0
 10
73.7419088862
 20
94.2148082993
 30
0.0
 10
73.2695903427
 20
94.601594988
 30
0.0
 10
72.9089605726
 20
95.2635172639
 30
0.0
 10
72.7834090783
 20
96.0323721078
 30
0.0
 10
72.908925155
 20
96.801244408
 30
0.0
 10
73.2695335498
 20
97.4632153535
 30
0.0
 10
73.7418690564
 20
97.8500540068
 30
0.0
 10
74.1711791658
 20
98.0059053405
 30
0.0
 10
74.3934181863
 20
98.0324400873
 30
0.0
 10
74.5031618067
 20
98.0324400873
 30
0.0
  0
SPLINE
  5
348
100
AcDbEntity
  8
0
100
AcDbSpline
 62
7
  6
CONTINUOUS
 70
0
 71
3
 72
17
 73
13
 74
0
 42
0.0000001
 43
0.0000001
 44
0.0000000001
 40
0.0
 40
0.0
 40
0.0
 40
0.0
 40
0.0571670889
 40
0.1153296286
 40
0.2361216271
 40
0.3652595584
 40
0.4999888993
 40
0.6347181857
 40
0.7638623661
 40
0.8846651828
 40
0.9428320116
 40
1.0
 40
1.0
 40
1.0
 40
1.0
 10
74.5031618067
 20
99.032440087
 30
0.0
 10
74.393419913
 20
99.032440087
 30
0.0
 10
74.1711904891
 20
99.0589704357
 30
0.0
 10
73.7419088862
 20
99.2148082993
 30
0.0
 10
73.2695903427
 20
99.601594988
 30
0.0
 10
72.9089605726
 20
100.2635172639
 30
0.0
 10
72.7834090783
 20
101.0323721078
 30
0.0
 10
72.908925155
 20
101.801244408
 30
0.0
 10
73.2695335498
 20
102.4632153535
 30
0.0
 10
73.7418690564
 20
102.8500540068
 30
0.0
 10
74.1711791658
 20
103.0059053405
 30
0.0
 10
74.3934181863
 20
103.0324400873
 30
0.0
 10
74.5031618067
 20
103.0324400873
 30
0.0
  0
SPLINE
  5
349
100
AcDbEntity
  8
0
100
AcDbSpline
 62
7
  6
CONTINUOUS
 70
0
 71
3
 72
17
 73
13
 74
0
 42
0.0000001
 43
0.0000001
 44
0.0000000001
 40
0.0
 40
0.0
 40
0.0
 40
0.0
 40
0.0571670889
 40
0.1153296286
 40
0.2361216271
 40
0.3652595584
 40
0.4999888993
 40
0.6347181857
 40
0.7638623661
 40
0.8846651828
 40
0.9428320116
 40
1.0
 40
1.0
 40
1.0
 40
1.0
 10
74.5031618067
 20
109.032440087
 30
0.0
 10
74.393419913
 20
109.032440087
 30
0.0
 10
74.1711904891
 20
109.0589704357
 30
0.0
 10
73.7419088862
 20
109.2148082993
 30
0.0
 10
73.2695903427
 20
109.601594988
 30
0.0
 10
72.9089605726
 20
110.2635172639
 30
0.0
 10
72.7834090783
 20
111.0323721078
 30
0.0
 10
72.908925155
 20
111.801244408
 30
0.0
 10
73.2695335498
 20
112.4632153535
 30
0.0
 10
73.7418690564
 20
112.8500540068
 30
0.0
 10
74.1711791658
 20
113.0059053405
 30
0.0
 10
74.3934181863
 20
113.0324400873
 30
0.0
 10
74.5031618067
 20
113.0324400873
 30
0.0
  0
SPLINE
  5
34A
100
AcDbEntity
  8
0
100
AcDbSpline
 62
7
  6
CONTINUOUS
 70
0
 71
3
 72
17
 73
13
 74
0
 42
0.0000001
 43
0.0000001
 44
0.0000000001
 40
0.0
 40
0.0
 40
0.0
 40
0.0
 40
0.0571670889
 40
0.1153296286
 40
0.2361216271
 40
0.3652595584
 40
0.4999888993
 40
0.6347181857
 40
0.7638623661
 40
0.8846651828
 40
0.9428320116
 40
1.0
 40
1.0
 40
1.0
 40
1.0
 10
74.5031618067
 20
104.032440087
 30
0.0
 10
74.393419913
 20
104.032440087
 30
0.0
 10
74.1711904891
 20
104.0589704357
 30
0.0
 10
73.7419088862
 20
104.2148082993
 30
0.0
 10
73.2695903427
 20
104.601594988
 30
0.0
 10
72.9089605726
 20
105.2635172639
 30
0.0
 10
72.7834090783
 20
106.0323721078
 30
0.0
 10
72.908925155
 20
106.801244408
 30
0.0
 10
73.2695335498
 20
107.4632153535
 30
0.0
 10
73.7418690564
 20
107.8500540068
 30
0.0
 10
74.1711791658
 20
108.0059053405
 30
0.0
 10
74.3934181863
 20
108.0324400873
 30
0.0
 10
74.5031618067
 20
108.0324400873
 30
0.0
  0
SPLINE
  5
34B
100
AcDbEntity
  8
0
100
AcDbSpline
 62
7
  6
CONTINUOUS
 70
0
 71
3
 72
11
 73
7
 74
0
 42
0.0000001
 43
0.0000001
 44
0.0000000001
 40
0.0
 40
0.0
 40
0.0
 40
0.0
 40
0.2449218058
 40
0.5000065814
 40
0.755084278
 40
1.0
 40
1.0
 40
1.0
 40
1.0
 10
97.0749078581
 20
97.4213548363
 30
0.0
 10
96.9220314892
 20
97.2325397932
 30
0.0
 10
96.6831355297
 20
96.7839577054
 30
0.0
 10
96.5641611756
 20
96.032031149
 30
0.0
 10
96.6833928612
 20
95.2801482193
 30
0.0
 10
96.922460801
 20
94.8316711799
 30
0.0
 10
97.0754058398
 20
94.6429195241
 30
0.0
  0
SPLINE
  5
34C
100
AcDbEntity
  8
0
100
AcDbSpline
 62
7
  6
CONTINUOUS
 70
0
 71
3
 72
11
 73
7
 74
0
 42
0.0000001
 43
0.0000001
 44
0.0000000001
 40
0.0
 40
0.0
 40
0.0
 40
0.0
 40
0.2449218058
 40
0.5000065814
 40
0.755084278
 40
1.0
 40
1.0
 40
1.0
 40
1.0
 10
97.0749078581
 20
112.4213548363
 30
0.0
 10
96.9220314892
 20
112.2325397932
 30
0.0
 10
96.6831355297
 20
111.7839577054
 30
0.0
 10
96.5641611756
 20
111.032031149
 30
0.0
 10
96.6833928612
 20
110.2801482193
 30
0.0
 10
96.922460801
 20
109.8316711799
 30
0.0
 10
97.0754058398
 20
109.6429195241
 30
0.0
  0
SPLINE
  5
34D
100
AcDbEntity
  8
0
100
AcDbSpline
 62
7
  6
CONTINUOUS
 70
0
 71
3
 72
11
 73
7
 74
0
 42
0.0000001
 43
0.0000001
 44
0.0000000001
 40
0.0
 40
0.0
 40
0.0
 40
0.0
 40
0.2449218058
 40
0.5000065814
 40
0.755084278
 40
1.0
 40
1.0
 40
1.0
 40
1.0
 10
97.0749078581
 20
107.4213548363
 30
0.0
 10
96.9220314892
 20
107.2325397932
 30
0.0
 10
96.6831355297
 20
106.7839577054
 30
0.0
 10
96.5641611756
 20
106.032031149
 30
0.0
 10
96.6833928612
 20
105.2801482193
 30
0.0
 10
96.922460801
 20
104.8316711799
 30
0.0
 10
97.0754058398
 20
104.6429195241
 30
0.0
  0
ENDSEC
  0
SECTION
  2
OBJECTS
  0
DICTIONARY
  5
C
100
AcDbDictionary
280
0
281
1
  3
ACAD_GROUP
350
D
  3
ACAD_MLINESTYLE
350
17
  3
ACAD_LAYOUT
350
1A
  3
ACAD_PLOTSETTINGS
350
19
  3
ACAD_PLOTSTYLENAME
350
E
  0
DICTIONARY
  5
D
102
{ACAD_REACTORS
330
C
102
}
100
AcDbDictionary
280
0
281
1
  0
ACDBDICTIONARYWDFLT
  5
E
102
{ACAD_REACTORS
330
C
102
}
100
AcDbDictionary
281
1
  3
Normal
350
F
100
AcDbDictionaryWithDefault
340
F
  0
DICTIONARY
  5
17
102
{ACAD_REACTORS
330
C
102
}
100
AcDbDictionary
280
0
281
1
  3
Standard
350
18
  0
DICTIONARY
  5
19
102
{ACAD_REACTORS
330
C
102
}
100
AcDbDictionary
281
1
  0
DICTIONARY
  5
1A
102
{ACAD_REACTORS
330
C
102
}
100
AcDbDictionary
281
1
  3
Model
350
34E
  3
Layout1
350
34F
  0
ACDBPLACEHOLDER
  5
F
102
{ACAD_REACTORS
330
E
102
}
  0
MLINESTYLE
  5
18
102
{ACAD_REACTORS
330
17
102
}
100
AcDbMlineStyle
  2
STANDARD
 70
0
  3

 62
256
 51
90.0
 52
90.0
 71
2
 49
0.5
 62
256
  6
BYLAYER
 49
-0.5
 62
256
  6
BYLAYER
  0
LAYOUT
  5
34E
102
{ACAD_REACTORS
330
1A
102
}
100
AcDbPlotSettings
  1

  2
none_device
  4

  6

 40
0.0
 41
0.0
 42
0.0
 43
0.0
 44
210.0
 45
297.0
 46
0.0
 47
0.0
 48
0.0
 49
0.0
140
0.0
141
0.0
142
1.0
143
1.0
 70
1024
 72
1
 73
0
 74
0
  7

 75
0
147
1.0
148
0.0
149
0.0
100
AcDbLayout
  1
Model
 70
0
 71
0
 10
0.0
 20
0.0
 11
210.0
 21
297.0
 12
0.0
 22
0.0
 32
0.0
 14
0.0
 24
0.0
 34
0.0
 15
0.0
 25
0.0
 35
0.0
146
0.0
 13
0.0
 23
0.0
 33
0.0
 16
1.0
 26
0.0
 36
0.0
 17
0.0
 27
1.0
 37
0.0
 76
0
330
210
345
0
346
0
  0
LAYOUT
  5
34F
102
{ACAD_REACTORS
330
1A
102
}
100
AcDbPlotSettings
  1

  2
none_device
  4

  6

 40
0.0
 41
0.0
 42
0.0
 43
0.0
 44
210.0
 45
297.0
 46
0.0
 47
0.0
 48
0.0
 49
0.0
140
0.0
141
0.0
142
1.0
143
1.0
 70
0
 72
1
 73
0
 74
0
  7

 75
0
147
1.0
148
0.0
149
0.0
100
AcDbLayout
  1
Layout1
 70
0
 71
1
 10
0.0
 20
0.0
 11
210.0
 21
297.0
 12
0.0
 22
0.0
 32
0.0
 14
0.0
 24
0.0
 34
0.0
 15
0.0
 25
0.0
 35
0.0
146
0.0
 13
0.0
 23
0.0
 33
0.0
 16
1.0
 26
0.0
 36
0.0
 17
0.0
 27
1.0
 37
0.0
 76
0
330
211
345
0
346
0
  0
ENDSEC
  0
EOF
