999
DXF file: C:\Users\sesa63760\Dev\_Creo\CAD\MCADUE0001295_3D-CAD\drw0001_3.dxf
999
Pro/ENGINEER 2019471 by Parametric Technology Corporation
  0
SECTION
  2
HEADER
  9
$ACADVER
  1
AC1024
  9
$DWGCODEPAGE
  3
ANSI_1252
  9
$EXTMAX
 10
505.6251795859
 20
715.0984682714
 30
0.0
  9
$EXTMIN
 10
0.0
 20
0.0
 30
0.0
  9
$LIMMIN
 10
0.0
 20
0.0
  9
$LIMMAX
 10
505.6251795859
 20
715.0984682714
  9
$VIEWCTR
 10
252.8125897929
 20
357.5492341357
  9
$VIEWSIZE
 40
715.0984682714
  9
$CLAYER
  8
0
  9
$LTSCALE
 40
46.6138260799
  9
$CELTYPE
  6
BYLAYER
  9
$DIMSCALE
 40
1.0
  9
$DIMASZ
 40
6.019347376
  9
$DIMEXO
 40
1.0
  9
$DIMDLI
 40
32.2059162007
  9
$DIMEXE
 40
1.0
  9
$DIMCEN
 40
7.6277169949
  9
$DIMLFAC
 40
1.0
  9
$DIMBLK
  1
_FILLED
  9
$DIMALT
 70
0
  9
$DIMALTF
 40
0.0393700787
  9
$DIMTXT
 40
8.4270863264
  9
$DIMTOL
 70
1
  9
$DIMLIM
 70
0
  9
$DIMTFAC
 40
1.0
  9
$DIMTP
 40
0.01
  9
$DIMTM
 40
0.01
  9
$DIMGAP
 40
0.625
  9
$DIMDSEP
 70
46
  9
$AUNITS
 70
0
  9
$PDMODE
 70
3
  9
$PDSIZE
 40
0.3125
  9
$HANDSEED
  5
302
  9
$TILEMODE
 70
1
  9
$MEASUREMENT
 70
1
  9
$INSUNITS
 70
4
  0
ENDSEC
  0
SECTION
  2
CLASSES
  0
CLASS
  1
ACDBDICTIONARYWDFLT
  2
AcDbDictionaryWithDefault
  3
AutoCAD 2000
 90
0
 91
1
280
0
281
0
  0
CLASS
  1
ACDBPLACEHOLDER
  2
AcDbPlaceHolder
  3
AutoCAD 2000
 90
0
 91
1
280
0
281
0
  0
CLASS
  1
LAYOUT
  2
AcDbLayout
  3
AutoCAD 2000
 90
0
 91
0
280
0
281
0
  0
ENDSEC
  0
SECTION
  2
TABLES
  0
TABLE
  2
VPORT
  5
8
100
AcDbSymbolTable
 70
2
  0
VPORT
  5
1F4
100
AcDbSymbolTableRecord
100
AcDbViewportTableRecord
  2
*ACTIVE
 70
0
 10
0.0
 20
0.0
 11
1.0
 21
1.0
 12
252.8125897929
 22
357.5492341357
 13
0.0
 23
0.0
 14
1.0
 24
1.0
 15
0.0
 25
0.0
 16
0.0
 26
0.0
 36
1.0
 17
0.0
 27
0.0
 37
0.0
 40
715.0984682714
 41
0.7070707071
 42
50.0
 43
0.0
 44
0.0
 50
0.0
 51
0.0
 71
0
 72
100
 73
1
 74
1
 75
0
 76
0
 77
0
 78
0
  0
ENDTAB
  0
TABLE
  2
LTYPE
  5
5
100
AcDbSymbolTable
 70
6
  0
LTYPE
  5
14
100
AcDbSymbolTableRecord
100
AcDbLinetypeTableRecord
  2
BYBLOCK
 70
0
  3

 72
65
 73
0
 40
0.0
  0
LTYPE
  5
15
100
AcDbSymbolTableRecord
100
AcDbLinetypeTableRecord
  2
BYLAYER
 70
0
  3

 72
65
 73
0
 40
0.0
  0
LTYPE
  5
16
100
AcDbSymbolTableRecord
100
AcDbLinetypeTableRecord
  2
CONTINUOUS
 70
64
  3
Solid line
 72
65
 73
0
 40
0.0
  0
LTYPE
  5
1F5
100
AcDbSymbolTableRecord
100
AcDbLinetypeTableRecord
  2
CENTER
 70
64
  3
____ _ ____ _ ____ _ ____ _ ____ _ ____ _ ____
 72
65
 73
4
 40
0.6
 49
0.375
 74
0
 49
-0.075
 74
0
 49
0.075
 74
0
 49
-0.075
 74
0
  0
LTYPE
  5
1F6
100
AcDbSymbolTableRecord
100
AcDbLinetypeTableRecord
  2
HIDDEN
 70
64
  3
- - - - - - - - - - - - - - - - - - - -
 72
65
 73
2
 40
0.2
 49
0.1
 74
0
 49
-0.1
 74
0
  0
LTYPE
  5
1F7
100
AcDbSymbolTableRecord
100
AcDbLinetypeTableRecord
  2
PHANTOM
 70
64
  3
_____ _ _ _____ _ _ _____ _ _ _____
 72
65
 73
6
 40
0.8
 49
0.45
 74
0
 49
-0.05
 74
0
 49
0.1
 74
0
 49
-0.05
 74
0
 49
0.1
 74
0
 49
-0.05
 74
0
  0
LTYPE
  5
1F8
100
AcDbSymbolTableRecord
100
AcDbLinetypeTableRecord
  2
DOT
 70
64
  3
. . . . . . . . . . . . . . . . . . . .
 72
65
 73
2
 40
0.2
 49
0.1
 74
0
 49
-0.1
 74
0
  0
LTYPE
  5
1F9
100
AcDbSymbolTableRecord
100
AcDbLinetypeTableRecord
  2
DASHED
 70
64
  3
- - - - - - - - - - - - - - - - - - - -
 72
65
 73
2
 40
0.2
 49
0.1
 74
0
 49
-0.1
 74
0
  0
ENDTAB
  0
TABLE
  2
LAYER
  5
2
100
AcDbSymbolTable
 70
36
  0
LAYER
  5
10
100
AcDbSymbolTableRecord
100
AcDbLayerTableRecord
  2
0
 70
0
 62
7
  6
CONTINUOUS
370
-3
390
F
  0
LAYER
  5
1FA
100
AcDbSymbolTableRecord
100
AcDbLayerTableRecord
  2
DEFAULT_1
 70
0
 62
7
  6
CENTER
370
-3
390
F
  0
LAYER
  5
1FB
100
AcDbSymbolTableRecord
100
AcDbLayerTableRecord
  2
DEFAULT_2
 70
0
 62
8
  6
HIDDEN
370
-3
390
F
  0
LAYER
  5
1FC
100
AcDbSymbolTableRecord
100
AcDbLayerTableRecord
  2
DEFAULT_3
 70
0
 62
7
  6
PHANTOM
370
-3
390
F
  0
LAYER
  5
1FD
100
AcDbSymbolTableRecord
100
AcDbLayerTableRecord
  2
00_COMPONENTS
 70
0
 62
7
  6
CONTINUOUS
370
-3
390
F
  0
LAYER
  5
1FE
100
AcDbSymbolTableRecord
100
AcDbLayerTableRecord
  2
01_1_DEFAULT_DATUMS
 70
0
 62
7
  6
CONTINUOUS
370
-3
390
F
  0
LAYER
  5
1FF
100
AcDbSymbolTableRecord
100
AcDbLayerTableRecord
  2
01_PLANES
 70
0
 62
7
  6
CONTINUOUS
370
-3
390
F
  0
LAYER
  5
200
100
AcDbSymbolTableRecord
100
AcDbLayerTableRecord
  2
02_COORD_SYS
 70
0
 62
7
  6
CONTINUOUS
370
-3
390
F
  0
LAYER
  5
201
100
AcDbSymbolTableRecord
100
AcDbLayerTableRecord
  2
03_AXES
 70
0
 62
7
  6
CONTINUOUS
370
-3
390
F
  0
LAYER
  5
202
100
AcDbSymbolTableRecord
100
AcDbLayerTableRecord
  2
04_POINTS
 70
0
 62
7
  6
CONTINUOUS
370
-3
390
F
  0
LAYER
  5
203
100
AcDbSymbolTableRecord
100
AcDbLayerTableRecord
  2
05_CURVES
 70
0
 62
7
  6
CONTINUOUS
370
-3
390
F
  0
LAYER
  5
204
100
AcDbSymbolTableRecord
100
AcDbLayerTableRecord
  2
06_SURFS
 70
0
 62
7
  6
CONTINUOUS
370
-3
390
F
  0
LAYER
  5
205
100
AcDbSymbolTableRecord
100
AcDbLayerTableRecord
  2
07_COSMETICS
 70
0
 62
7
  6
CONTINUOUS
370
-3
390
F
  0
LAYER
  5
206
100
AcDbSymbolTableRecord
100
AcDbLayerTableRecord
  2
10_NOTES
 70
0
 62
7
  6
CONTINUOUS
370
-3
390
F
  0
LAYER
  5
207
100
AcDbSymbolTableRecord
100
AcDbLayerTableRecord
  2
11_NOTES_PUB
 70
0
 62
7
  6
CONTINUOUS
370
-3
390
F
  0
LAYER
  5
208
100
AcDbSymbolTableRecord
100
AcDbLayerTableRecord
  2
13_REF_GTOL
 70
0
 62
7
  6
CONTINUOUS
370
-3
390
F
  0
LAYER
  5
209
100
AcDbSymbolTableRecord
100
AcDbLayerTableRecord
  2
16_MISC
 70
0
 62
7
  6
CONTINUOUS
370
-3
390
F
  0
LAYER
  5
20A
100
AcDbSymbolTableRecord
100
AcDbLayerTableRecord
  2
17_NO_PRINT
 70
0
 62
7
  6
CONTINUOUS
370
-3
390
F
  0
LAYER
  5
20B
100
AcDbSymbolTableRecord
100
AcDbLayerTableRecord
  2
18_DATUM_CAMS_JOINTS
 70
0
 62
7
  6
CONTINUOUS
370
-3
390
F
  0
LAYER
  5
20C
100
AcDbSymbolTableRecord
100
AcDbLayerTableRecord
  2
19_DATUM_FUNCTIONAL
 70
0
 62
7
  6
CONTINUOUS
370
-3
390
F
  0
LAYER
  5
20D
100
AcDbSymbolTableRecord
100
AcDbLayerTableRecord
  2
20_DATUM_KINEMATIC_SCHEME
 70
0
 62
7
  6
CONTINUOUS
370
-3
390
F
  0
ENDTAB
  0
TABLE
  2
STYLE
  5
3
100
AcDbSymbolTable
 70
1
  0
STYLE
  5
11
100
AcDbSymbolTableRecord
100
AcDbTextStyleTableRecord
  2
STANDARD
 70
0
 40
0.0
 41
0.8
 50
0.0
 71
0
 42
0.2
  3
txt
  4

  0
STYLE
  5
20E
100
AcDbSymbolTableRecord
100
AcDbTextStyleTableRecord
  2
TEXTSTYLE_1
 70
0
 40
0.0
 41
0.8
 50
0.0
 71
0
 42
0.2
  3
gdt
  4

  0
ENDTAB
  0
TABLE
  2
VIEW
  5
6
100
AcDbSymbolTable
 70
0
  0
ENDTAB
  0
TABLE
  2
UCS
  5
7
100
AcDbSymbolTable
 70
0
  0
ENDTAB
  0
TABLE
  2
APPID
  5
9
100
AcDbSymbolTable
 70
1
  0
APPID
  5
20F
100
AcDbSymbolTableRecord
100
AcDbRegAppTableRecord
  2
ACAD
 70
0
  0
ENDTAB
  0
TABLE
  2
BLOCK_RECORD
  5
1
100
AcDbSymbolTable
 70
0
  0
BLOCK_RECORD
  5
210
100
AcDbSymbolTableRecord
100
AcDbBlockTableRecord
  2
*Model_Space
  0
BLOCK_RECORD
  5
211
100
AcDbSymbolTableRecord
100
AcDbBlockTableRecord
  2
*Paper_Space
  0
BLOCK_RECORD
  5
212
100
AcDbSymbolTableRecord
100
AcDbBlockTableRecord
  2
_FILLED
  0
ENDTAB
  0
TABLE
  2
DIMSTYLE
  5
A
100
AcDbSymbolTable
 70
1
100
AcDbDimStyleTable
 71
0
  0
DIMSTYLE
105
213
100
AcDbSymbolTableRecord
100
AcDbDimStyleTableRecord
  2
STANDARD
 70
0
  3

  4

 40
1.0
 41
6.019347376
 42
1.0
 43
0.38
 44
1.0
 45
0.0
 46
0.0
 47
0.01
 48
0.01
140
8.4270863264
141
0.09
142
0.0
143
25.4
144
1.0
145
0.0
146
1.0
147
0.625
 71
1
 72
0
 73
0
 74
0
 75
0
 76
0
 77
1
 78
8
 79
2
170
0
171
1
172
0
173
0
174
0
175
0
176
0
177
0
178
0
270
2
179
2
271
2
272
2
273
2
274
2
275
0
280
0
281
0
282
0
283
1
284
8
285
0
286
0
287
3
288
0
340
11
278
46
341
212
342
212
343
212
344
212
  0
ENDTAB
  0
ENDSEC
  0
SECTION
  2
BLOCKS
  0
BLOCK
  5
20
100
AcDbEntity
  8
0
100
AcDbBlockBegin
  2
*Model_Space
 70
0
 10
0.0
 20
0.0
 30
0.0
  3
*Model_Space
  1

  0
ENDBLK
  5
21
100
AcDbEntity
  8
0
100
AcDbBlockEnd
  0
BLOCK
  5
1C
100
AcDbEntity
  8
0
100
AcDbBlockBegin
  2
*Paper_Space
 70
0
 10
0.0
 20
0.0
 30
0.0
  3
*Paper_Space
  1

  0
ENDBLK
  5
1D
100
AcDbEntity
  8
0
100
AcDbBlockEnd
  0
BLOCK
  5
214
100
AcDbEntity
  8
0
100
AcDbBlockBegin
  2
_FILLED
 70
64
 10
0.0
 20
0.0
  3
_FILLED
  1

  0
SOLID
  5
215
100
AcDbEntity
  8
0
  6
BYBLOCK
 62
0
100
AcDbTrace
 10
0.0
 20
0.0
 11
-1.0
 21
0.25
 12
-1.0
 22
-0.25
 13
-1.0
 23
-0.25
  0
ENDBLK
  5
216
100
AcDbEntity
  8
0
  6
BYBLOCK
 62
0
100
AcDbBlockEnd
  0
ENDSEC
  0
SECTION
  2
ENTITIES
  0
LINE
  5
217
100
AcDbEntity
  8
0
100
AcDbLine
 62
7
  6
CONTINUOUS
 10
59.8147779768
 20
429.1997676786
 11
59.8147779767
 21
257.5997676786
  0
LINE
  5
218
100
AcDbEntity
  8
0
100
AcDbLine
 62
7
  6
CONTINUOUS
 10
62.2893216915
 20
439.51006429
 11
62.2893216915
 21
449.7421743462
  0
LINE
  5
219
100
AcDbEntity
  8
0
100
AcDbLine
 62
7
  6
CONTINUOUS
 10
62.3147779767
 20
432.8997676786
 11
62.3147779767
 21
432.3997676786
  0
LINE
  5
21A
100
AcDbEntity
  8
0
100
AcDbLine
 62
7
  6
CONTINUOUS
 10
63.2893216915
 20
439.51006429
 11
63.2893216915
 21
449.7421743462
  0
LINE
  5
21B
100
AcDbEntity
  8
0
100
AcDbLine
 62
7
  6
CONTINUOUS
 10
64.3147779767
 20
432.3997676786
 11
64.3147779767
 21
433.8997676786
  0
LINE
  5
21C
100
AcDbEntity
  8
0
100
AcDbLine
 62
7
  6
CONTINUOUS
 10
65.7026455425
 20
434.2563362211
 11
65.7026455425
 21
434.5997676786
  0
LINE
  5
21D
100
AcDbEntity
  8
0
100
AcDbLine
 62
7
  6
CONTINUOUS
 10
71.4445095308
 20
434.5997676786
 11
71.4445095308
 21
434.2563362211
  0
LINE
  5
21E
100
AcDbEntity
  8
0
100
AcDbLine
 62
7
  6
CONTINUOUS
 10
71.5953698133
 20
434.5997676786
 11
71.5953698133
 21
434.5492505638
  0
LINE
  5
21F
100
AcDbEntity
  8
0
100
AcDbLine
 62
7
  6
CONTINUOUS
 10
75.3147779767
 20
255.1997676786
 11
75.3147779767
 21
255.3997676786
  0
LINE
  5
220
100
AcDbEntity
  8
0
100
AcDbLine
 62
7
  6
CONTINUOUS
 10
80.3334655189
 20
434.7813856694
 11
80.0127530361
 21
434.3997677256
  0
LINE
  5
221
100
AcDbEntity
  8
0
100
AcDbLine
 62
7
  6
CONTINUOUS
 10
64.1511751852
 20
433.8997675759
 11
64.3856363747
 21
434.1049211168
  0
LINE
  5
222
100
AcDbEntity
  8
0
100
AcDbLine
 62
7
  6
CONTINUOUS
 10
63.6538770952
 20
452.3634608879
 11
71.4628332196
 21
457.8313508318
  0
LINE
  5
223
100
AcDbEntity
  8
0
100
AcDbLine
 62
7
  6
CONTINUOUS
 10
69.4626948655
 20
455.21006429
 11
64.2274535315
 21
451.5443088436
  0
LINE
  5
224
100
AcDbEntity
  8
0
100
AcDbLine
 62
7
  6
CONTINUOUS
 10
88.3147779767
 20
255.3997676786
 11
88.3147779767
 21
255.1997676786
  0
LINE
  5
225
100
AcDbEntity
  8
0
100
AcDbLine
 62
7
  6
CONTINUOUS
 10
76.9380651271
 20
438.41006429
 11
77.5833081561
 21
435.090576674
  0
LINE
  5
226
100
AcDbEntity
  8
0
100
AcDbLine
 62
7
  6
CONTINUOUS
 10
75.5913490903
 20
434.1997676786
 11
75.6442471845
 21
433.8997676786
  0
LINE
  5
227
100
AcDbEntity
  8
0
100
AcDbLine
 62
7
  6
CONTINUOUS
 10
71.5463854575
 20
433.8997676786
 11
71.4445095253
 21
434.2563362196
  0
LINE
  5
228
100
AcDbEntity
  8
0
100
AcDbLine
 62
7
  6
CONTINUOUS
 10
71.7876746029
 20
434.4547119042
 11
71.803372953
 21
434.3997676786
  0
LINE
  5
229
100
AcDbEntity
  8
0
100
AcDbLine
 62
7
  6
CONTINUOUS
 10
71.8291191098
 20
434.3096561298
 11
71.9462300959
 21
433.8997676786
  0
LINE
  5
22A
100
AcDbEntity
  8
0
100
AcDbLine
 62
7
  6
CONTINUOUS
 10
79.0557489313
 20
435.3767901671
 11
78.4661401696
 21
438.41006429
  0
LINE
  5
22B
100
AcDbEntity
  8
0
100
AcDbLine
 62
7
  6
CONTINUOUS
 10
79.3518383354
 20
434.7813856694
 11
78.6464946634
 21
438.41006429
  0
LINE
  5
22C
100
AcDbEntity
  8
0
100
AcDbLine
 62
7
  6
CONTINUOUS
 10
79.6281218469
 20
438.41006429
 11
80.3334655189
 21
434.7813856694
  0
LINE
  5
22D
100
AcDbEntity
  8
0
100
AcDbLine
 62
7
  6
CONTINUOUS
 10
444.3147779767
 20
255.1997676786
 11
431.3147779767
 21
255.1997676786
  0
LINE
  5
22E
100
AcDbEntity
  8
0
100
AcDbLine
 62
7
  6
CONTINUOUS
 10
88.3147779767
 20
255.1997676786
 11
75.3147779767
 21
255.1997676786
  0
LINE
  5
22F
100
AcDbEntity
  8
0
100
AcDbLine
 62
7
  6
CONTINUOUS
 10
62.0147779767
 20
255.3997676786
 11
457.6147779767
 21
255.3997676786
  0
LINE
  5
230
100
AcDbEntity
  8
0
100
AcDbLine
 62
7
  6
CONTINUOUS
 10
459.8147779767
 20
257.5997676786
 11
59.8147779767
 21
257.5997676786
  0
LINE
  5
231
100
AcDbEntity
  8
0
100
AcDbLine
 62
7
  6
CONTINUOUS
 10
75.423529164
 20
434.3997676786
 11
75.5913490903
 21
434.1997676786
  0
LINE
  5
232
100
AcDbEntity
  8
0
100
AcDbLine
 62
7
  6
CONTINUOUS
 10
68.2928245063
 20
454.3909122457
 11
67.7192480699
 21
455.21006429
  0
LINE
  5
233
100
AcDbEntity
  8
0
100
AcDbLine
 62
7
  6
CONTINUOUS
 10
71.6672462561
 20
457.5394187612
 11
71.4628332197
 21
457.8313508317
  0
LWPOLYLINE
  5
234
100
AcDbEntity
  8
0
100
AcDbPolyline
 62
7
  6
CONTINUOUS
 90
4
 70
0
 10
420.7437138035
 20
464.375239795
 10
420.7358082953
 20
464.3723456606
 10
420.6800485454
 20
464.3527172059
 10
420.5504181258
 20
464.3098678368
  0
LINE
  5
235
100
AcDbEntity
  8
0
100
AcDbLine
 62
7
  6
CONTINUOUS
 10
420.7437286432
 20
464.3752383844
 11
420.5504181258
 21
464.3098678368
  0
LINE
  5
236
100
AcDbEntity
  8
0
100
AcDbLine
 62
7
  6
CONTINUOUS
 10
59.8147779768
 20
429.1997676786
 11
459.8147779767
 21
429.1997676786
  0
LINE
  5
237
100
AcDbEntity
  8
0
100
AcDbLine
 62
7
  6
CONTINUOUS
 10
456.6147779767
 20
432.3997676786
 11
63.0147779767
 21
432.3997676786
  0
LINE
  5
238
100
AcDbEntity
  8
0
100
AcDbLine
 62
7
  6
CONTINUOUS
 10
443.8147779767
 20
432.5997676786
 11
453.8147779767
 21
432.5997676786
  0
LINE
  5
239
100
AcDbEntity
  8
0
100
AcDbLine
 62
7
  6
CONTINUOUS
 10
448.0647779767
 20
433.5997676786
 11
449.5647779768
 21
433.5997676786
  0
LINE
  5
23A
100
AcDbEntity
  8
0
100
AcDbLine
 62
7
  6
CONTINUOUS
 10
64.1147779767
 20
433.8997676786
 11
76.6016809727
 21
433.8997676786
  0
LINE
  5
23B
100
AcDbEntity
  8
0
100
AcDbLine
 62
7
  6
CONTINUOUS
 10
71.8605158102
 20
434.1997676786
 11
75.5913490903
 21
434.1997676786
  0
LINE
  5
23C
100
AcDbEntity
  8
0
100
AcDbLine
 62
7
  6
CONTINUOUS
 10
65.7023259307
 20
434.2563430994
 11
71.4445095253
 21
434.2563362196
  0
LINE
  5
23D
100
AcDbEntity
  8
0
100
AcDbLine
 62
7
  6
CONTINUOUS
 10
71.7672819441
 20
434.3997676786
 11
75.423529164
 21
434.3997676786
  0
LINE
  5
23E
100
AcDbEntity
  8
0
100
AcDbLine
 62
7
  6
CONTINUOUS
 10
71.5953698133
 20
434.5997676786
 11
65.7026455365
 21
434.5997676786
  0
LINE
  5
23F
100
AcDbEntity
  8
0
100
AcDbLine
 62
7
  6
CONTINUOUS
 10
439.2960904346
 20
434.7813856695
 11
80.3334655189
 21
434.7813856694
  0
LINE
  5
240
100
AcDbEntity
  8
0
100
AcDbLine
 62
7
  6
CONTINUOUS
 10
456.3975684076
 20
438.41006429
 11
64.1810749755
 21
438.41006429
  0
LINE
  5
241
100
AcDbEntity
  8
0
100
AcDbLine
 62
7
  6
CONTINUOUS
 10
458.2893216915
 20
439.51006429
 11
62.2893216915
 21
439.51006429
  0
LINE
  5
242
100
AcDbEntity
  8
0
100
AcDbLine
 62
7
  6
CONTINUOUS
 10
448.911397127
 20
457.5394187612
 11
449.1158101634
 21
457.8313508317
  0
LINE
  5
243
100
AcDbEntity
  8
0
100
AcDbLine
 62
7
  6
CONTINUOUS
 10
452.8593953131
 20
455.21006429
 11
452.2858188768
 21
454.3909122457
  0
LINE
  5
244
100
AcDbEntity
  8
0
100
AcDbLine
 62
7
  6
CONTINUOUS
 10
69.4626948655
 20
455.21006429
 11
451.1159485175
 21
455.21006429
  0
LINE
  5
245
100
AcDbEntity
  8
0
100
AcDbLine
 62
7
  6
CONTINUOUS
 10
447.2803655671
 20
458.41006429
 11
73.2982778159
 21
458.41006429
  0
LINE
  5
246
100
AcDbEntity
  8
0
100
AcDbLine
 62
7
  6
CONTINUOUS
 10
396.6683910194
 20
459.2486795739
 11
419.9102612808
 21
459.2486795739
  0
LINE
  5
247
100
AcDbEntity
  8
0
100
AcDbLine
 62
7
  6
CONTINUOUS
 10
396.7480396981
 20
459.991131482
 11
419.8306113053
 21
459.991131482
  0
LINE
  5
248
100
AcDbEntity
  8
0
100
AcDbLine
 62
7
  6
CONTINUOUS
 10
392.3640381059
 20
460.5496624549
 11
393.7214133785
 21
460.5496624549
  0
LINE
  5
249
100
AcDbEntity
  8
0
100
AcDbLine
 62
7
  6
CONTINUOUS
 10
422.8572302715
 20
460.5496624549
 11
424.2146052772
 21
460.5496624549
  0
LINE
  5
24A
100
AcDbEntity
  8
0
100
AcDbLine
 62
7
  6
CONTINUOUS
 10
80.3334655188
 20
434.9721946648
 11
79.351838321
 21
434.7813856666
  0
LWPOLYLINE
  5
24B
100
AcDbEntity
  8
0
100
AcDbPolyline
 62
7
  6
CONTINUOUS
 90
3
 70
0
 10
420.7437745187
 20
464.3755286803
 10
420.7236134396
 20
464.3771652881
 10
420.6589782076
 20
464.3684943897
  0
LWPOLYLINE
  5
24C
100
AcDbEntity
  8
0
100
AcDbPolyline
 62
7
  6
CONTINUOUS
 90
3
 70
0
 10
395.9196651755
 20
464.3684943897
 10
395.8549646824
 20
464.3771632923
 10
395.8348688644
 20
464.3755286803
  0
LINE
  5
24D
100
AcDbEntity
  8
0
100
AcDbLine
 62
7
  6
CONTINUOUS
 10
440.2777176324
 20
434.7813856666
 11
439.2960904346
 21
434.9721946647
  0
LINE
  5
24E
100
AcDbEntity
  8
0
100
AcDbLine
 62
7
  6
CONTINUOUS
 10
392.3640380996
 20
460.5496622769
 11
392.2893216915
 21
458.4100642901
  0
LINE
  5
24F
100
AcDbEntity
  8
0
100
AcDbLine
 62
7
  6
CONTINUOUS
 10
396.5087498324
 20
464.1822532186
 11
396.5034859507
 21
464.1833300201
  0
LINE
  5
250
100
AcDbEntity
  8
0
100
AcDbLine
 62
7
  6
CONTINUOUS
 10
396.5074481003
 20
464.1824382481
 11
396.5034859507
 21
464.1833300201
  0
LINE
  5
251
100
AcDbEntity
  8
0
100
AcDbLine
 62
7
  6
CONTINUOUS
 10
400.8365281874
 20
464.3941800255
 11
400.8380090719
 21
464.3938143394
  0
LINE
  5
252
100
AcDbEntity
  8
0
100
AcDbLine
 62
7
  6
CONTINUOUS
 10
401.0038326453
 20
464.3428352538
 11
400.8375632333
 21
464.392132297
  0
LINE
  5
253
100
AcDbEntity
  8
0
100
AcDbLine
 62
7
  6
CONTINUOUS
 10
401.004198117
 20
464.3428268922
 11
400.8502447917
 21
464.3903260779
  0
LINE
  5
254
100
AcDbEntity
  8
0
100
AcDbLine
 62
7
  6
CONTINUOUS
 10
415.7961913608
 20
464.3987686073
 11
415.8479377387
 21
464.3828035535
  0
LINE
  5
255
100
AcDbEntity
  8
0
100
AcDbLine
 62
7
  6
CONTINUOUS
 10
410.7907693442
 20
464.3995470819
 11
410.7932465385
 21
464.3987686175
  0
LINE
  5
256
100
AcDbEntity
  8
0
100
AcDbLine
 62
7
  6
CONTINUOUS
 10
400.8500942395
 20
464.3903741924
 11
400.8502447917
 21
464.3903260779
  0
LINE
  5
257
100
AcDbEntity
  8
0
100
AcDbLine
 62
7
  6
CONTINUOUS
 10
410.7907693442
 20
464.3995470819
 11
410.7922789985
 21
464.3990623117
  0
LWPOLYLINE
  5
258
100
AcDbEntity
  8
0
100
AcDbPolyline
 62
7
  6
CONTINUOUS
 90
4
 70
0
 10
396.0418572117
 20
464.3056066916
 10
395.9468305117
 20
464.336608258
 10
395.8754945944
 20
464.3606706864
 10
395.83860546
 20
464.373879708
  0
LINE
  5
259
100
AcDbEntity
  8
0
100
AcDbLine
 62
7
  6
CONTINUOUS
 10
396.0418572117
 20
464.3056066916
 11
395.83860546
 21
464.373879708
  0
LINE
  5
25A
100
AcDbEntity
  8
0
100
AcDbLine
 62
7
  6
CONTINUOUS
 10
395.83860546
 20
464.373879708
 11
395.83491472
 21
464.375238383
  0
LINE
  5
25B
100
AcDbEntity
  8
0
100
AcDbLine
 62
7
  6
CONTINUOUS
 10
439.2960904346
 20
434.7813856695
 11
440.0014341066
 21
438.41006429
  0
LINE
  5
25C
100
AcDbEntity
  8
0
100
AcDbLine
 62
7
  6
CONTINUOUS
 10
440.9830612901
 20
438.41006429
 11
440.2777176181
 21
434.7813856694
  0
LINE
  5
25D
100
AcDbEntity
  8
0
100
AcDbLine
 62
7
  6
CONTINUOUS
 10
424.2146052834
 20
460.5496622769
 11
424.2893216915
 21
458.4100642901
  0
LINE
  5
25E
100
AcDbEntity
  8
0
100
AcDbLine
 62
7
  6
CONTINUOUS
 10
431.3147779767
 20
255.1997676786
 11
431.3147779767
 21
255.3997676786
  0
LINE
  5
25F
100
AcDbEntity
  8
0
100
AcDbLine
 62
7
  6
CONTINUOUS
 10
443.8147779767
 20
432.3997676786
 11
443.8147779767
 21
432.5997676786
  0
LINE
  5
260
100
AcDbEntity
  8
0
100
AcDbLine
 62
7
  6
CONTINUOUS
 10
444.3147779767
 20
255.3997676786
 11
444.3147779767
 21
255.1997676786
  0
LINE
  5
261
100
AcDbEntity
  8
0
100
AcDbLine
 62
7
  6
CONTINUOUS
 10
453.8147779767
 20
432.5997676786
 11
453.8147779767
 21
432.3997676786
  0
LINE
  5
262
100
AcDbEntity
  8
0
100
AcDbLine
 62
7
  6
CONTINUOUS
 10
457.2893216915
 20
439.51006429
 11
457.2893216915
 21
449.7421743462
  0
LINE
  5
263
100
AcDbEntity
  8
0
100
AcDbLine
 62
7
  6
CONTINUOUS
 10
456.3511898516
 20
451.5443088436
 11
451.1159485175
 21
455.21006429
  0
LINE
  5
264
100
AcDbEntity
  8
0
100
AcDbLine
 62
7
  6
CONTINUOUS
 10
449.1158101635
 20
457.8313508318
 11
456.9247662879
 21
452.3634608879
  0
LINE
  5
265
100
AcDbEntity
  8
0
100
AcDbLine
 62
7
  6
CONTINUOUS
 10
439.6168029375
 20
434.3997677424
 11
439.2960904346
 21
434.7813856694
  0
LINE
  5
266
100
AcDbEntity
  8
0
100
AcDbLine
 62
7
  6
CONTINUOUS
 10
458.2893216915
 20
439.51006429
 11
458.2893216915
 21
449.7421743462
  0
LINE
  5
267
100
AcDbEntity
  8
0
100
AcDbLine
 62
7
  6
CONTINUOUS
 10
459.8147779767
 20
429.1997676786
 11
459.8147779767
 21
257.5997676786
  0
ARC
  5
268
100
AcDbEntity
  8
0
100
AcDbCircle
 62
7
  6
CONTINUOUS
 10
81.8147779767
 20
275.8247676786
 40
21.625
100
AcDbArc
 50
252.5076754749
 51
287.4923245251
  0
ARC
  5
269
100
AcDbEntity
  8
0
100
AcDbCircle
 62
7
  6
CONTINUOUS
 10
62.0147779767
 20
257.5997676786
 40
2.2
100
AcDbArc
 50
180.0
 51
259.7825755869
  0
ARC
  5
26A
100
AcDbEntity
  8
0
100
AcDbCircle
 62
7
  6
CONTINUOUS
 10
148.4178859259
 20
372.9115345627
 40
104.9708336899
100
AcDbArc
 50
147.2465854188
 51
147.5728136544
  0
ARC
  5
26B
100
AcDbEntity
  8
0
100
AcDbCircle
 62
7
  6
CONTINUOUS
 10
75.9763779536
 20
452.2041794948
 40
6.8442417115
100
AcDbArc
 50
128.5573735312
 51
129.1580338483
  0
CIRCLE
  5
26C
100
AcDbEntity
  8
0
100
AcDbCircle
 62
7
  6
CONTINUOUS
 10
74.8147779767
 20
417.3997676786
 40
5.15
  0
ARC
  5
26D
100
AcDbEntity
  8
0
100
AcDbCircle
 62
7
  6
CONTINUOUS
 10
65.4893216915
 20
449.7421743462
 40
3.2
100
AcDbArc
 50
125.0000000001
 51
180.0
  0
ARC
  5
26E
100
AcDbEntity
  8
0
100
AcDbCircle
 62
7
  6
CONTINUOUS
 10
73.2982778159
 20
455.21006429
 40
3.2
100
AcDbArc
 50
90.0
 51
125.0000000003
  0
ARC
  5
26F
100
AcDbEntity
  8
0
100
AcDbCircle
 62
7
  6
CONTINUOUS
 10
63.0147779767
 20
429.1997676786
 40
3.2
100
AcDbArc
 50
90.0
 51
180.0
  0
ARC
  5
270
100
AcDbEntity
  8
0
100
AcDbCircle
 62
7
  6
CONTINUOUS
 10
76.6016809727
 20
434.8997676786
 40
2.5
100
AcDbArc
 50
269.9999999999
 51
10.9999999999
  0
ARC
  5
271
100
AcDbEntity
  8
0
100
AcDbCircle
 62
7
  6
CONTINUOUS
 10
64.1147779767
 20
431.7797676786
 40
2.12
100
AcDbArc
 50
90.0
 51
148.1092081982
  0
ARC
  5
272
100
AcDbEntity
  8
0
100
AcDbCircle
 62
7
  6
CONTINUOUS
 10
65.3914406672
 20
449.7931279825
 40
2.0896507001
100
AcDbArc
 50
143.1305904464
 51
161.8694095654
  0
ARC
  5
273
100
AcDbEntity
  8
0
100
AcDbCircle
 62
7
  6
CONTINUOUS
 10
65.7026455348
 20
432.5997676786
 40
2.0
100
AcDbArc
 50
90.0000000004
 51
131.1859251657
  0
ARC
  5
274
100
AcDbEntity
  8
0
100
AcDbCircle
 62
7
  6
CONTINUOUS
 10
77.3885839685
 20
434.3997676786
 40
2.0
100
AcDbArc
 50
269.9999999999
 51
11.0
  0
ARC
  5
275
100
AcDbEntity
  8
0
100
AcDbCircle
 62
7
  6
CONTINUOUS
 10
65.7026825206
 20
432.6562672707
 40
1.6000758685
100
AcDbArc
 50
90.012768828
 51
128.9995499935
  0
ARC
  5
276
100
AcDbEntity
  8
0
100
AcDbCircle
 62
7
  6
CONTINUOUS
 10
63.3893216915
 20
439.51006429
 40
1.1
100
AcDbArc
 50
180.0
 51
296.9355324382
  0
ARC
  5
277
100
AcDbEntity
  8
0
100
AcDbCircle
 62
7
  6
CONTINUOUS
 10
76.6016809727
 20
434.8997676786
 40
1.0
100
AcDbArc
 50
270.0000000003
 51
11.0000000002
  0
ARC
  5
278
100
AcDbEntity
  8
0
100
AcDbCircle
 62
7
  6
CONTINUOUS
 10
71.4445095308
 20
434.1997676786
 40
0.4
100
AcDbArc
 50
15.9453959009
 51
90.0
  0
ARC
  5
279
100
AcDbEntity
  8
0
100
AcDbCircle
 62
7
  6
CONTINUOUS
 10
71.5953698133
 20
434.3997676786
 40
0.2
100
AcDbArc
 50
15.9453959009
 51
90.0
  0
ARC
  5
27A
100
AcDbEntity
  8
0
100
AcDbCircle
 62
7
  6
CONTINUOUS
 10
437.8147779767
 20
275.8247676786
 40
21.625
100
AcDbArc
 50
252.5076754749
 51
287.4923245251
  0
ARC
  5
27B
100
AcDbEntity
  8
0
100
AcDbCircle
 62
7
  6
CONTINUOUS
 10
457.6147779767
 20
257.5997676786
 40
2.2
100
AcDbArc
 50
270.0
 51
360.0
  0
ARC
  5
27C
100
AcDbEntity
  8
0
100
AcDbCircle
 62
7
  6
CONTINUOUS
 10
371.2037351944
 20
372.9064818223
 40
104.9802406907
100
AcDbArc
 50
32.4271918088
 51
32.7533693853
  0
ARC
  5
27D
100
AcDbEntity
  8
0
100
AcDbCircle
 62
7
  6
CONTINUOUS
 10
398.2112649973
 20
472.366097709
 40
8.3708499582
100
AcDbArc
 50
280.8383497182
 51
281.0051371648
  0
ARC
  5
27E
100
AcDbEntity
  8
0
100
AcDbCircle
 62
7
  6
CONTINUOUS
 10
398.2893216915
 20
472.02256429
 40
8.0125
100
AcDbArc
 50
252.7977724508
 51
287.7229302363
  0
ARC
  5
27F
100
AcDbEntity
  8
0
100
AcDbCircle
 62
7
  6
CONTINUOUS
 10
403.2893216915
 20
472.02256429
 40
8.0125
100
AcDbArc
 50
253.4295051457
 51
287.7228173543
  0
ARC
  5
280
100
AcDbEntity
  8
0
100
AcDbCircle
 62
7
  6
CONTINUOUS
 10
396.3616014077
 20
460.41006429
 40
4.0
100
AcDbArc
 50
97.565987854
 51
177.9999974478
  0
ARC
  5
281
100
AcDbEntity
  8
0
100
AcDbCircle
 62
7
  6
CONTINUOUS
 10
401.9781611714
 20
467.3659204232
 40
3.1899229299
100
AcDbArc
 50
251.9115783654
 51
253.4850523591
  0
ARC
  5
282
100
AcDbEntity
  8
0
100
AcDbCircle
 62
7
  6
CONTINUOUS
 10
395.8977661539
 20
461.8506916763
 40
2.409999609
100
AcDbArc
 50
75.4434128139
 51
76.2796887445
  0
ARC
  5
283
100
AcDbEntity
  8
0
100
AcDbCircle
 62
7
  6
CONTINUOUS
 10
401.0102056683
 20
463.596444404
 40
0.8341253339
100
AcDbArc
 50
105.8077839153
 51
106.2020505477
  0
ARC
  5
284
100
AcDbEntity
  8
0
100
AcDbCircle
 62
7
  6
CONTINUOUS
 10
400.7893216915
 20
464.1998309922
 40
0.2
100
AcDbArc
 50
72.3102861092
 51
75.9105217289
  0
ARC
  5
285
100
AcDbEntity
  8
0
100
AcDbCircle
 62
7
  6
CONTINUOUS
 10
400.7893216915
 20
464.1998309922
 40
0.2
100
AcDbArc
 50
76.3475082917
 51
107.7221981833
  0
ARC
  5
286
100
AcDbEntity
  8
0
100
AcDbCircle
 62
7
  6
CONTINUOUS
 10
400.7875915618
 20
464.2055483123
 40
0.19402735
100
AcDbArc
 50
101.491269864
 51
107.7380134174
  0
ARC
  5
287
100
AcDbEntity
  8
0
100
AcDbCircle
 62
7
  6
CONTINUOUS
 10
400.791775525
 20
464.2092380338
 40
0.1902796389
100
AcDbArc
 50
76.3969287585
 51
82.6220551695
  0
ARC
  5
288
100
AcDbEntity
  8
0
100
AcDbCircle
 62
7
  6
CONTINUOUS
 10
399.5937651717
 20
484.5814040358
 40
20.6523974228
100
AcDbArc
 50
263.5256001934
 51
263.6626078803
  0
ARC
  5
289
100
AcDbEntity
  8
0
100
AcDbCircle
 62
7
  6
CONTINUOUS
 10
408.2889521684
 20
472.0307584458
 40
8.0317344853
100
AcDbArc
 50
263.6848950898
 51
270.0025187169
  0
ARC
  5
28A
100
AcDbEntity
  8
0
100
AcDbCircle
 62
7
  6
CONTINUOUS
 10
408.2898168597
 20
472.0305330707
 40
8.0315091186
100
AcDbArc
 50
269.996350188
 51
276.3178805097
  0
ARC
  5
28B
100
AcDbEntity
  8
0
100
AcDbCircle
 62
7
  6
CONTINUOUS
 10
413.2893216915
 20
472.02256429
 40
8.0125
100
AcDbArc
 50
252.2771421059
 51
287.7229236181
  0
ARC
  5
28C
100
AcDbEntity
  8
0
100
AcDbCircle
 62
7
  6
CONTINUOUS
 10
408.2893216915
 20
472.02256429
 40
8.0125
100
AcDbArc
 50
252.2770898568
 51
287.7229128634
  0
ARC
  5
28D
100
AcDbEntity
  8
0
100
AcDbCircle
 62
7
  6
CONTINUOUS
 10
407.7374948223
 20
470.2244003238
 40
6.1424643758
100
AcDbArc
 50
251.4943731698
 51
251.7892637279
  0
ARC
  5
28E
100
AcDbEntity
  8
0
100
AcDbCircle
 62
7
  6
CONTINUOUS
 10
413.8291232252
 20
470.1433011101
 40
6.0706113751
100
AcDbArc
 50
287.1560848326
 51
288.4380286538
  0
ARC
  5
28F
100
AcDbEntity
  8
0
100
AcDbCircle
 62
7
  6
CONTINUOUS
 10
409.0158642796
 20
469.6929821967
 40
5.5830765088
100
AcDbArc
 50
288.2144127522
 51
288.5364607614
  0
ARC
  5
290
100
AcDbEntity
  8
0
100
AcDbCircle
 62
7
  6
CONTINUOUS
 10
405.9686777103
 20
463.7253772019
 40
0.6979897519
100
AcDbArc
 50
105.0114257174
 51
105.2106556137
  0
ARC
  5
291
100
AcDbEntity
  8
0
100
AcDbCircle
 62
7
  6
CONTINUOUS
 10
405.7893216915
 20
464.1998309922
 40
0.2
100
AcDbArc
 50
72.2770875915
 51
107.7267205523
  0
ARC
  5
292
100
AcDbEntity
  8
0
100
AcDbCircle
 62
7
  6
CONTINUOUS
 10
410.7893216915
 20
464.1998309922
 40
0.2
100
AcDbArc
 50
72.2749036063
 51
107.7229124085
  0
ARC
  5
293
100
AcDbEntity
  8
0
100
AcDbCircle
 62
7
  6
CONTINUOUS
 10
410.7878702508
 20
464.2036026088
 40
0.1959656872
100
AcDbArc
 50
89.1525947865
 51
107.6541215203
  0
ARC
  5
294
100
AcDbEntity
  8
0
100
AcDbCircle
 62
7
  6
CONTINUOUS
 10
405.790777896
 20
464.2036379696
 40
0.1959305464
100
AcDbArc
 50
72.3441652199
 51
90.8442460259
  0
ARC
  5
295
100
AcDbEntity
  8
0
100
AcDbCircle
 62
7
  6
CONTINUOUS
 10
405.7876979112
 20
464.2042668982
 40
0.1952804438
100
AcDbArc
 50
89.9433505264
 51
107.6582057357
  0
ARC
  5
296
100
AcDbEntity
  8
0
100
AcDbCircle
 62
7
  6
CONTINUOUS
 10
410.7909475941
 20
464.2042718961
 40
0.1952750493
100
AcDbArc
 50
72.345131215
 51
90.0525540642
  0
ARC
  5
297
100
AcDbEntity
  8
0
100
AcDbCircle
 62
7
  6
CONTINUOUS
 10
413.6656990896
 20
473.3013130824
 40
9.3544674387
100
AcDbArc
 50
252.3818132861
 51
252.9820913831
  0
ARC
  5
298
100
AcDbEntity
  8
0
100
AcDbCircle
 62
7
  6
CONTINUOUS
 10
448.8147779767
 20
420.8810176786
 40
12.7408438324
100
AcDbArc
 50
93.3747129725
 51
113.1063268583
  0
ARC
  5
299
100
AcDbEntity
  8
0
100
AcDbCircle
 62
7
  6
CONTINUOUS
 10
448.8147779767
 20
420.8810176786
 40
12.7408438324
100
AcDbArc
 50
66.8936731417
 51
86.6252870279
  0
ARC
  5
29A
100
AcDbEntity
  8
0
100
AcDbCircle
 62
7
  6
CONTINUOUS
 10
414.936150797
 20
477.2989848212
 40
13.5491576946
100
AcDbArc
 50
252.191304059
 51
252.3781102932
  0
ARC
  5
29B
100
AcDbEntity
  8
0
100
AcDbCircle
 62
7
  6
CONTINUOUS
 10
418.2893216915
 20
472.02256429
 40
8.0125
100
AcDbArc
 50
252.2771274623
 51
287.2022275492
  0
ARC
  5
29C
100
AcDbEntity
  8
0
100
AcDbCircle
 62
7
  6
CONTINUOUS
 10
418.3333938689
 20
471.8857449002
 40
7.8861774526
100
AcDbArc
 50
276.7492484649
 51
277.1404837661
  0
ARC
  5
29D
100
AcDbEntity
  8
0
100
AcDbCircle
 62
7
  6
CONTINUOUS
 10
444.6022653088
 20
452.2041795583
 40
6.8442417317
100
AcDbArc
 50
50.8419652481
 51
51.4426235383
  0
ARC
  5
29E
100
AcDbEntity
  8
0
100
AcDbCircle
 62
7
  6
CONTINUOUS
 10
420.2170419754
 20
460.41006429
 40
4.0
100
AcDbArc
 50
2.0000025522
 51
82.4340121461
  0
ARC
  5
29F
100
AcDbEntity
  8
0
100
AcDbCircle
 62
7
  6
CONTINUOUS
 10
447.2803655671
 20
455.21006429
 40
3.2
100
AcDbArc
 50
54.9999999997
 51
90.0
  0
ARC
  5
2A0
100
AcDbEntity
  8
0
100
AcDbCircle
 62
7
  6
CONTINUOUS
 10
455.0893216915
 20
449.7421743462
 40
3.2
100
AcDbArc
 50
0.0
 51
54.9999999986
  0
ARC
  5
2A1
100
AcDbEntity
  8
0
100
AcDbCircle
 62
7
  6
CONTINUOUS
 10
456.6147779767
 20
429.1997676786
 40
3.2
100
AcDbArc
 50
0.0
 51
90.0
  0
ARC
  5
2A2
100
AcDbEntity
  8
0
100
AcDbCircle
 62
7
  6
CONTINUOUS
 10
455.1872027153
 20
449.793127982
 40
2.0896507009
100
AcDbArc
 50
18.1305904442
 51
36.8694095621
  0
ARC
  5
2A3
100
AcDbEntity
  8
0
100
AcDbCircle
 62
7
  6
CONTINUOUS
 10
442.2409719849
 20
434.3997676786
 40
2.0
100
AcDbArc
 50
168.9999999987
 51
270.0
  0
ARC
  5
2A4
100
AcDbEntity
  8
0
100
AcDbCircle
 62
7
  6
CONTINUOUS
 10
457.1893216915
 20
439.51006429
 40
1.1
100
AcDbArc
 50
243.071077954
 51
360.0
  0
ARC
  5
2A5
100
AcDbEntity
  8
0
100
AcDbCircle
 62
7
  6
CONTINUOUS
 10
415.7893216915
 20
464.1998309922
 40
0.2
100
AcDbArc
 50
72.2754902646
 51
107.7229124086
  0
ARC
  5
2A6
100
AcDbEntity
  8
0
100
AcDbCircle
 62
7
  6
CONTINUOUS
 10
415.7882382841
 20
464.2023690895
 40
0.1972527175
100
AcDbArc
 50
88.4206564724
 51
107.6497521202
  0
ARC
  5
2A7
100
AcDbEntity
  8
0
100
AcDbCircle
 62
7
  6
CONTINUOUS
 10
415.7908704257
 20
464.2041995112
 40
0.1953674915
100
AcDbArc
 50
72.3518122271
 51
89.1775230062
  0
SPLINE
  5
2A8
100
AcDbEntity
  8
0
100
AcDbSpline
 62
7
  6
CONTINUOUS
 70
0
 71
3
 72
9
 73
5
 74
0
 42
0.0000001
 43
0.0000001
 44
0.0000000001
 40
0.0
 40
0.0
 40
0.0
 40
0.0
 40
0.2436102654
 40
1.0
 40
1.0
 40
1.0
 40
1.0
 10
419.8306293335
 20
459.9911246404
 30
0.0
 10
419.8429183966
 20
459.9316976099
 30
0.0
 10
419.8867504425
 20
459.6864202152
 30
0.0
 10
419.9071928057
 20
459.4370747964
 30
0.0
 10
419.9102452809
 20
459.2486795649
 30
0.0
  0
SPLINE
  5
2A9
100
AcDbEntity
  8
0
100
AcDbSpline
 62
7
  6
CONTINUOUS
 70
0
 71
3
 72
9
 73
5
 74
0
 42
0.0000001
 43
0.0000001
 44
0.0000000001
 40
0.0
 40
0.0
 40
0.0
 40
0.0
 40
0.2221543976
 40
1.0
 40
1.0
 40
1.0
 40
1.0
 10
419.5846937466
 20
464.0957411403
 30
0.0
 10
419.5646948457
 20
464.0926383541
 30
0.0
 10
419.4746837191
 20
464.0787104177
 30
0.0
 10
419.3843408553
 20
464.0659150654
 30
0.0
 10
419.3136684923
 20
464.0607427801
 30
0.0
  0
SPLINE
  5
2AA
100
AcDbEntity
  8
0
100
AcDbSpline
 62
7
  6
CONTINUOUS
 70
0
 71
3
 72
9
 73
5
 74
0
 42
0.0000001
 43
0.0000001
 44
0.0000000001
 40
0.0
 40
0.0
 40
0.0
 40
0.0
 40
0.2199289246
 40
1.0
 40
1.0
 40
1.0
 40
1.0
 10
420.1708007451
 20
464.2037551719
 30
0.0
 10
420.1648112622
 20
464.2031066218
 30
0.0
 10
420.1376844764
 20
464.1991444326
 30
0.0
 10
420.1110825212
 20
464.1923892651
 30
0.0
 10
420.0903492673
 20
464.1872180503
 30
0.0
  0
SPLINE
  5
2AB
100
AcDbEntity
  8
0
100
AcDbSpline
 62
7
  6
CONTINUOUS
 70
0
 71
3
 72
9
 73
5
 74
0
 42
0.0000001
 43
0.0000001
 44
0.0000000001
 40
0.0
 40
0.0
 40
0.0
 40
0.0
 40
0.2101736906
 40
1.0
 40
1.0
 40
1.0
 40
1.0
 10
420.0903492673
 20
464.1872180503
 30
0.0
 10
420.0821523381
 20
464.1851736012
 30
0.0
 10
420.0431749996
 20
464.1753600789
 30
0.0
 10
420.0039894687
 20
464.1663077897
 30
0.0
 10
419.9728417516
 20
464.160165922
 30
0.0
  0
SPLINE
  5
2AC
100
AcDbEntity
  8
0
100
AcDbSpline
 62
7
  6
CONTINUOUS
 70
0
 71
3
 72
9
 73
5
 74
0
 42
0.0000001
 43
0.0000001
 44
0.0000000001
 40
0.0
 40
0.0
 40
0.0
 40
0.0
 40
0.2000844543
 40
1.0
 40
1.0
 40
1.0
 40
1.0
 10
419.9728417516
 20
464.160165922
 30
0.0
 10
419.9470953258
 20
464.1550891089
 30
0.0
 10
419.8178729062
 20
464.1325478215
 30
0.0
 10
419.6878545967
 20
464.1148370724
 30
0.0
 10
419.5846937466
 20
464.0957411403
 30
0.0
  0
SPLINE
  5
2AD
100
AcDbEntity
  8
0
100
AcDbSpline
 62
7
  6
CONTINUOUS
 70
0
 71
3
 72
11
 73
7
 74
0
 42
0.0000001
 43
0.0000001
 44
0.0000000001
 40
0.0
 40
0.0
 40
0.0
 40
0.0
 40
0.2422832541
 40
0.4976241
 40
0.7541595829
 40
1.0
 40
1.0
 40
1.0
 40
1.0
 10
422.8572302891
 20
460.5496623711
 30
0.0
 10
422.8439005972
 20
460.9374943422
 30
0.0
 10
422.7008900681
 20
461.7346804397
 30
0.0
 10
422.1401679936
 20
462.8254637446
 30
0.0
 10
421.2705037683
 20
463.6994219565
 30
0.0
 10
420.5436426886
 20
464.0771276836
 30
0.0
 10
420.1708006754
 20
464.2037551955
 30
0.0
  0
SPLINE
  5
2AE
100
AcDbEntity
  8
0
100
AcDbSpline
 62
7
  6
CONTINUOUS
 70
0
 71
3
 72
12
 73
8
 74
0
 42
0.0000001
 43
0.0000001
 44
0.0000000001
 40
0.0
 40
0.0
 40
0.0
 40
0.0
 40
0.2442949271
 40
0.3670590665
 40
0.4906888863
 40
0.7416918135
 40
1.0
 40
1.0
 40
1.0
 40
1.0
 10
419.8306090057
 20
459.9911415727
 30
0.0
 10
420.0305859887
 20
459.975548945
 30
0.0
 10
420.3284801167
 20
459.8888446749
 30
0.0
 10
420.676992791
 20
459.6847486926
 30
0.0
 10
420.9917937195
 20
459.4218184646
 30
0.0
 10
421.3101079417
 20
459.0012473452
 30
0.0
 10
421.4691370275
 20
458.6111420413
 30
0.0
 10
421.536589547
 20
458.4100642739
 30
0.0
  0
SPLINE
  5
2AF
100
AcDbEntity
  8
0
100
AcDbSpline
 62
7
  6
CONTINUOUS
 70
0
 71
3
 72
8
 73
4
 74
0
 42
0.0000001
 43
0.0000001
 44
0.0000000001
 40
0.0
 40
0.0
 40
0.0
 40
0.0
 40
1.0
 40
1.0
 40
1.0
 40
1.0
 10
420.1708014471
 20
464.203757196
 30
0.0
 10
420.1371212065
 20
464.2150280126
 30
0.0
 10
420.0990349526
 20
464.2169759424
 30
0.0
 10
420.0643902211
 20
464.2091572152
 30
0.0
  0
LINE
  5
2B0
100
AcDbEntity
  8
0
100
AcDbLine
 62
7
  6
CONTINUOUS
 10
415.7936764754
 20
464.399546348
 11
415.7956512177
 21
464.3989386385
  0
SPLINE
  5
2B1
100
AcDbEntity
  8
0
100
AcDbSpline
 62
7
  6
CONTINUOUS
 70
0
 71
3
 72
10
 73
6
 74
0
 42
0.0000001
 43
0.0000001
 44
0.0000000001
 40
0.0
 40
0.0
 40
0.0
 40
0.0
 40
0.1751291739
 40
0.4732791165
 40
1.0
 40
1.0
 40
1.0
 40
1.0
 10
415.8465799498
 20
464.3831868812
 30
0.0
 10
416.0390366909
 20
464.3237520478
 30
0.0
 10
416.5638823775
 20
464.1775555613
 30
0.0
 10
417.6993998841
 20
463.9802713531
 30
0.0
 10
418.6586011613
 20
463.9830209568
 30
0.0
 10
419.2602119184
 20
464.0542186686
 30
0.0
  0
SPLINE
  5
2B2
100
AcDbEntity
  8
0
100
AcDbSpline
 62
7
  6
CONTINUOUS
 70
0
 71
3
 72
8
 73
4
 74
0
 42
0.0000001
 43
0.0000001
 44
0.0000000001
 40
0.0
 40
0.0
 40
0.0
 40
0.0
 40
1.0
 40
1.0
 40
1.0
 40
1.0
 10
419.3136663062
 20
464.0607301405
 30
0.0
 10
419.2958037192
 20
464.0678992999
 30
0.0
 10
419.2755758308
 20
464.0709677026
 30
0.0
 10
419.2564687838
 20
464.0686461483
 30
0.0
  0
LINE
  5
2B3
100
AcDbEntity
  8
0
100
AcDbLine
 62
7
  6
CONTINUOUS
 10
405.6263950405
 20
464.3490520891
 11
405.7428752961
 21
464.3862920969
  0
SPLINE
  5
2B4
100
AcDbEntity
  8
0
100
AcDbSpline
 62
7
  6
CONTINUOUS
 70
0
 71
3
 72
9
 73
5
 74
0
 42
0.0000001
 43
0.0000001
 44
0.0000000001
 40
0.0
 40
0.0
 40
0.0
 40
0.0
 40
0.2730644799
 40
1.0
 40
1.0
 40
1.0
 40
1.0
 10
405.7428752961
 20
464.3862920969
 30
0.0
 10
405.746741027
 20
464.3875016295
 30
0.0
 10
405.7609109098
 20
464.3918882813
 30
0.0
 10
405.7751417016
 20
464.3960858223
 30
0.0
 10
405.7855470859
 20
464.3989147793
 30
0.0
  0
SPLINE
  5
2B5
100
AcDbEntity
  8
0
100
AcDbSpline
 62
7
  6
CONTINUOUS
 70
0
 71
3
 72
10
 73
6
 74
0
 42
0.0000001
 43
0.0000001
 44
0.0000000001
 40
0.0
 40
0.0
 40
0.0
 40
0.0
 40
0.5410804178
 40
0.813974773
 40
1.0
 40
1.0
 40
1.0
 40
1.0
 10
402.1503999013
 20
464.078067118
 30
0.0
 10
402.776997782
 20
463.9890751298
 30
0.0
 10
403.7407193857
 20
463.9686628825
 30
0.0
 10
404.8978840703
 20
464.1508972568
 30
0.0
 10
405.4183023355
 20
464.285474858
 30
0.0
 10
405.6263950405
 20
464.3490520891
 30
0.0
  0
SPLINE
  5
2B6
100
AcDbEntity
  8
0
100
AcDbSpline
 62
7
  6
CONTINUOUS
 70
0
 71
3
 72
9
 73
5
 74
0
 42
0.0000001
 43
0.0000001
 44
0.0000000001
 40
0.0
 40
0.0
 40
0.0
 40
0.0
 40
0.472116361
 40
1.0
 40
1.0
 40
1.0
 40
1.0
 10
401.7119414061
 20
464.1523361523
 30
0.0
 10
401.7805950614
 20
464.1386563873
 30
0.0
 10
401.9256933452
 20
464.1076914445
 30
0.0
 10
402.0728849253
 20
464.0889283888
 30
0.0
 10
402.1503999013
 20
464.078067118
 30
0.0
  0
SPLINE
  5
2B7
100
AcDbEntity
  8
0
100
AcDbSpline
 62
7
  6
CONTINUOUS
 70
0
 71
3
 72
9
 73
5
 74
0
 42
0.0000001
 43
0.0000001
 44
0.0000000001
 40
0.0
 40
0.0
 40
0.0
 40
0.0
 40
0.2322449121
 40
1.0
 40
1.0
 40
1.0
 40
1.0
 10
401.2854581446
 20
464.2505681761
 30
0.0
 10
401.3183913964
 20
464.2426103698
 30
0.0
 10
401.4602585057
 20
464.2086127045
 30
0.0
 10
401.6024426003
 20
464.1758924577
 30
0.0
 10
401.7119414061
 20
464.1523361523
 30
0.0
  0
SPLINE
  5
2B8
100
AcDbEntity
  8
0
100
AcDbSpline
 62
7
  6
CONTINUOUS
 70
0
 71
3
 72
9
 73
5
 74
0
 42
0.0000001
 43
0.0000001
 44
0.0000000001
 40
0.0
 40
0.0
 40
0.0
 40
0.0
 40
0.2246170167
 40
1.0
 40
1.0
 40
1.0
 40
1.0
 10
401.0713762073
 20
464.3075958283
 30
0.0
 10
401.0872795994
 20
464.3028766029
 30
0.0
 10
401.158237532
 20
464.2823896337
 30
0.0
 10
401.2298060092
 20
464.2640632809
 30
0.0
 10
401.2854581446
 20
464.2505681761
 30
0.0
  0
SPLINE
  5
2B9
100
AcDbEntity
  8
0
100
AcDbSpline
 62
7
  6
CONTINUOUS
 70
0
 71
3
 72
9
 73
5
 74
0
 42
0.0000001
 43
0.0000001
 44
0.0000000001
 40
0.0
 40
0.0
 40
0.0
 40
0.0
 40
0.2246877821
 40
1.0
 40
1.0
 40
1.0
 40
1.0
 10
400.7829807798
 20
464.399023947
 30
0.0
 10
400.7872700919
 20
464.3978828518
 30
0.0
 10
400.8063123571
 20
464.3926241318
 30
0.0
 10
400.8251956705
 20
464.3868078346
 30
0.0
 10
400.8397966806
 20
464.382184242
 30
0.0
  0
SPLINE
  5
2BA
100
AcDbEntity
  8
0
100
AcDbSpline
 62
7
  6
CONTINUOUS
 70
0
 71
3
 72
9
 73
5
 74
0
 42
0.0000001
 43
0.0000001
 44
0.0000000001
 40
0.0
 40
0.0
 40
0.0
 40
0.0
 40
0.2295787996
 40
1.0
 40
1.0
 40
1.0
 40
1.0
 10
400.8397966806
 20
464.382184242
 30
0.0
 10
400.8450856116
 20
464.3805094358
 30
0.0
 10
400.8680989572
 20
464.3731378385
 30
0.0
 10
400.8910428071
 20
464.3655518117
 30
0.0
 10
400.9087146169
 20
464.3596944836
 30
0.0
  0
LINE
  5
2BB
100
AcDbEntity
  8
0
100
AcDbLine
 62
7
  6
CONTINUOUS
 10
400.9087146169
 20
464.3596944836
 11
400.9877400479
 21
464.3336482889
  0
SPLINE
  5
2BC
100
AcDbEntity
  8
0
100
AcDbSpline
 62
7
  6
CONTINUOUS
 70
0
 71
3
 72
9
 73
5
 74
0
 42
0.0000001
 43
0.0000001
 44
0.0000000001
 40
0.0
 40
0.0
 40
0.0
 40
0.0
 40
0.21206805
 40
1.0
 40
1.0
 40
1.0
 40
1.0
 10
400.7829878389
 20
464.3987821685
 30
0.0
 10
400.785317193
 20
464.3991142295
 30
0.0
 10
400.7964056996
 20
464.3998740732
 30
0.0
 10
400.8075412051
 20
464.3990717897
 30
0.0
 10
400.8162100675
 20
464.3979422842
 30
0.0
  0
SPLINE
  5
2BD
100
AcDbEntity
  8
0
100
AcDbSpline
 62
7
  6
CONTINUOUS
 70
0
 71
3
 72
10
 73
6
 74
0
 42
0.0000001
 43
0.0000001
 44
0.0000000001
 40
0.0
 40
0.0
 40
0.0
 40
0.0
 40
0.4116035403
 40
0.6833858233
 40
1.0
 40
1.0
 40
1.0
 40
1.0
 10
420.5504181258
 20
464.3098678368
 30
0.0
 10
420.4988930028
 20
464.2934126261
 30
0.0
 10
420.4127546569
 20
464.267941649
 30
0.0
 10
420.286017872
 20
464.2332031432
 30
0.0
 10
420.2107778437
 20
464.2152328737
 30
0.0
 10
420.1707929469
 20
464.20373085
 30
0.0
  0
SPLINE
  5
2BE
100
AcDbEntity
  8
0
100
AcDbSpline
 62
7
  6
CONTINUOUS
 70
0
 71
3
 72
11
 73
7
 74
0
 42
0.0000001
 43
0.0000001
 44
0.0000000001
 40
0.0
 40
0.0
 40
0.0
 40
0.0
 40
0.2785908593
 40
0.5333636516
 40
0.7694316215
 40
1.0
 40
1.0
 40
1.0
 40
1.0
 10
420.7733800937
 20
458.4100638169
 30
0.0
 10
420.7410359566
 20
458.5258717229
 30
0.0
 10
420.662639554
 20
458.7439763915
 30
0.0
 10
420.4746744436
 20
459.0239316557
 30
0.0
 10
420.2141675524
 20
459.2092766954
 30
0.0
 10
420.0097747521
 20
459.2486326191
 30
0.0
 10
419.9102614398
 20
459.2486610394
 30
0.0
  0
SPLINE
  5
2BF
100
AcDbEntity
  8
0
100
AcDbSpline
 62
7
  6
CONTINUOUS
 70
0
 71
3
 72
11
 73
7
 74
0
 42
0.0000001
 43
0.0000001
 44
0.0000000001
 40
0.0
 40
0.0
 40
0.0
 40
0.0
 40
0.2330708464
 40
0.5573662534
 40
0.8288863991
 40
1.0
 40
1.0
 40
1.0
 40
1.0
 10
410.9279215179
 20
464.3564466759
 30
0.0
 10
411.2813114167
 20
464.2484105979
 30
0.0
 10
412.1444547109
 20
464.0458809638
 30
0.0
 10
413.4642969914
 20
463.9585472606
 30
0.0
 10
414.6780182451
 20
464.0934651853
 30
0.0
 10
415.3605987468
 20
464.2627041006
 30
0.0
 10
415.6198065296
 20
464.3428032202
 30
0.0
  0
LINE
  5
2C0
100
AcDbEntity
  8
0
100
AcDbLine
 62
7
  6
CONTINUOUS
 10
415.7491286653
 20
464.3843166877
 11
415.7923350622
 21
464.3990754207
  0
LINE
  5
2C1
100
AcDbEntity
  8
0
100
AcDbLine
 62
7
  6
CONTINUOUS
 10
415.7923350622
 20
464.3990754207
 11
415.7936764754
 21
464.399546348
  0
SPLINE
  5
2C2
100
AcDbEntity
  8
0
100
AcDbSpline
 62
7
  6
CONTINUOUS
 70
0
 71
3
 72
11
 73
7
 74
0
 42
0.0000001
 43
0.0000001
 44
0.0000000001
 40
0.0
 40
0.0
 40
0.0
 40
0.0
 40
0.2305685385
 40
0.4666363882
 40
0.721409053
 40
1.0
 40
1.0
 40
1.0
 40
1.0
 10
396.6683908622
 20
459.2486610546
 30
0.0
 10
396.5688768075
 20
459.248633707
 30
0.0
 10
396.3644821188
 20
459.2092797796
 30
0.0
 10
396.1039719023
 20
459.0239354279
 30
0.0
 10
395.9160046104
 20
458.7439787964
 30
0.0
 10
395.8376076287
 20
458.525872665
 30
0.0
 10
395.8052632477
 20
458.4100639434
 30
0.0
  0
SPLINE
  5
2C3
100
AcDbEntity
  8
0
100
AcDbSpline
 62
7
  6
CONTINUOUS
 70
0
 71
3
 72
15
 73
11
 74
0
 42
0.0000001
 43
0.0000001
 44
0.0000000001
 40
0.0
 40
0.0
 40
0.0
 40
0.0
 40
0.2070581756
 40
0.3920123269
 40
0.5518542533
 40
0.6859433666
 40
0.7946954602
 40
0.8801491571
 40
0.9461473517
 40
1.0
 40
1.0
 40
1.0
 40
1.0
 10
394.5655247012
 20
458.4100631526
 30
0.0
 10
394.5509141421
 20
458.5759738425
 30
0.0
 10
394.5143947
 20
458.8894050374
 30
0.0
 10
394.4353465447
 20
459.3265356987
 30
0.0
 10
394.3390088069
 20
459.6999357643
 30
0.0
 10
394.2302398775
 20
460.005585791
 30
0.0
 10
394.1131366364
 20
460.2432177418
 30
0.0
 10
393.9902021103
 20
460.4141530325
 30
0.0
 10
393.8616273005
 20
460.5221938196
 30
0.0
 10
393.7647335967
 20
460.5496627631
 30
0.0
 10
393.7214157816
 20
460.5496635839
 30
0.0
  0
SPLINE
  5
2C4
100
AcDbEntity
  8
0
100
AcDbSpline
 62
7
  6
CONTINUOUS
 70
0
 71
3
 72
9
 73
5
 74
0
 42
0.0000001
 43
0.0000001
 44
0.0000000001
 40
0.0
 40
0.0
 40
0.0
 40
0.0
 40
0.5834956017
 40
1.0
 40
1.0
 40
1.0
 40
1.0
 10
396.4078506989
 20
464.2037308377
 30
0.0
 10
396.3365916655
 20
464.2233097469
 30
0.0
 10
396.2134678133
 20
464.253180091
 30
0.0
 10
396.0921872735
 20
464.2898116013
 30
0.0
 10
396.0418572117
 20
464.3056066916
 30
0.0
  0
SPLINE
  5
2C5
100
AcDbEntity
  8
0
100
AcDbSpline
 62
7
  6
CONTINUOUS
 70
0
 71
3
 72
8
 73
4
 74
0
 42
0.0000001
 43
0.0000001
 44
0.0000000001
 40
0.0
 40
0.0
 40
0.0
 40
0.0
 40
1.0
 40
1.0
 40
1.0
 40
1.0
 10
396.4078505924
 20
464.2037307979
 30
0.0
 10
396.4414427301
 20
464.2149818123
 30
0.0
 10
396.479417317
 20
464.2169607869
 30
0.0
 10
396.5139874184
 20
464.2092196547
 30
0.0
  0
SPLINE
  5
2C6
100
AcDbEntity
  8
0
100
AcDbSpline
 62
7
  6
CONTINUOUS
 70
0
 71
3
 72
9
 73
5
 74
0
 42
0.0000001
 43
0.0000001
 44
0.0000000001
 40
0.0
 40
0.0
 40
0.0
 40
0.0
 40
0.1357566642
 40
1.0
 40
1.0
 40
1.0
 40
1.0
 10
410.7609881332
 20
464.3896543699
 30
0.0
 10
410.6911486952
 20
464.3666705534
 30
0.0
 10
410.173878888
 20
464.2063336372
 30
0.0
 10
409.638855432
 20
464.0993622986
 30
0.0
 10
409.1736402238
 20
464.0478020227
 30
0.0
  0
SPLINE
  5
2C7
100
AcDbEntity
  8
0
100
AcDbSpline
 62
7
  6
CONTINUOUS
 70
0
 71
3
 72
9
 73
5
 74
0
 42
0.0000001
 43
0.0000001
 44
0.0000000001
 40
0.0
 40
0.0
 40
0.0
 40
0.0
 40
0.6433191258
 40
1.0
 40
1.0
 40
1.0
 40
1.0
 10
407.4054907261
 20
464.0477605928
 30
0.0
 10
407.0589358889
 20
464.0860873702
 30
0.0
 10
406.5233857079
 20
464.1811716369
 30
0.0
 10
406.0015281447
 20
464.3291784594
 30
0.0
 10
405.8178953324
 20
464.3895904378
 30
0.0
  0
SPLINE
  5
2C8
100
AcDbEntity
  8
0
100
AcDbSpline
 62
7
  6
CONTINUOUS
 70
0
 71
3
 72
13
 73
9
 74
0
 42
0.0000001
 43
0.0000001
 44
0.0000000001
 40
0.0
 40
0.0
 40
0.0
 40
0.0
 40
0.3399735307
 40
0.6246002839
 40
0.743265637
 40
0.8453563836
 40
0.930820441
 40
1.0
 40
1.0
 40
1.0
 40
1.0
 10
419.8306113053
 20
459.991131482
 30
0.0
 10
419.8099739893
 20
460.4573736485
 30
0.0
 10
419.765438037
 20
461.3136493448
 30
0.0
 10
419.6804922453
 20
462.3309155525
 30
0.0
 10
419.5881374531
 20
463.0186543257
 30
0.0
 10
419.5129442517
 20
463.4324971501
 30
0.0
 10
419.4267090769
 20
463.774471217
 30
0.0
 10
419.3540842771
 20
463.9747939778
 30
0.0
 10
419.3136662522
 20
464.0607298288
 30
0.0
  0
SPLINE
  5
2C9
100
AcDbEntity
  8
0
100
AcDbSpline
 62
7
  6
CONTINUOUS
 70
0
 71
3
 72
15
 73
11
 74
0
 42
0.0000001
 43
0.0000001
 44
0.0000000001
 40
0.0
 40
0.0
 40
0.0
 40
0.0
 40
0.0538526437
 40
0.1198508209
 40
0.2053044996
 40
0.3140565805
 40
0.4481456904
 40
0.6079876242
 40
0.7929417944
 40
1.0
 40
1.0
 40
1.0
 40
1.0
 10
422.857227868
 20
460.5496635792
 30
0.0
 10
422.8139100519
 20
460.5496628068
 30
0.0
 10
422.7170163212
 20
460.5221939625
 30
0.0
 10
422.5884414608
 20
460.4141532474
 30
0.0
 10
422.4655068968
 20
460.2432180034
 30
0.0
 10
422.3484036187
 20
460.0055860694
 30
0.0
 10
422.239634653
 20
459.6999360266
 30
0.0
 10
422.1432968814
 20
459.3265359086
 30
0.0
 10
422.0642486985
 20
458.8894051589
 30
0.0
 10
422.0277292456
 20
458.5759738922
 30
0.0
 10
422.0131186826
 20
458.4100631611
 30
0.0
  0
SPLINE
  5
2CA
100
AcDbEntity
  8
0
100
AcDbSpline
 62
7
  6
CONTINUOUS
 70
0
 71
3
 72
13
 73
9
 74
0
 42
0.0000001
 43
0.0000001
 44
0.0000000001
 40
0.0
 40
0.0
 40
0.0
 40
0.0
 40
0.0691823748
 40
0.1546491362
 40
0.2567401167
 40
0.3754049118
 40
0.6600298206
 40
1.0
 40
1.0
 40
1.0
 40
1.0
 10
397.2650159773
 20
464.0607206529
 30
0.0
 10
397.2245965741
 20
463.9747811042
 30
0.0
 10
397.15194953
 20
463.7744593172
 30
0.0
 10
397.0656872989
 20
463.4324823948
 30
0.0
 10
396.9904987843
 20
463.0186348797
 30
0.0
 10
396.8981499416
 20
462.3308980046
 30
0.0
 10
396.8132006807
 20
461.3136392301
 30
0.0
 10
396.7686769157
 20
460.4573693794
 30
0.0
 10
396.7480396981
 20
459.991131482
 30
0.0
  0
SPLINE
  5
2CB
100
AcDbEntity
  8
0
100
AcDbSpline
 62
7
  6
CONTINUOUS
 70
0
 71
3
 72
10
 73
6
 74
0
 42
0.0000001
 43
0.0000001
 44
0.0000000001
 40
0.0
 40
0.0
 40
0.0
 40
0.0
 40
0.208408021
 40
0.4486733944
 40
1.0
 40
1.0
 40
1.0
 40
1.0
 10
397.3140923697
 20
464.0552107398
 30
0.0
 10
397.4853808539
 20
464.0361969834
 30
0.0
 10
397.8550907978
 20
464.0016967019
 30
0.0
 10
398.6825342022
 20
463.9899154051
 30
0.0
 10
399.3375288342
 20
464.0588409303
 30
0.0
 10
399.7853091244
 20
464.1445702287
 30
0.0
  0
SPLINE
  5
2CC
100
AcDbEntity
  8
0
100
AcDbSpline
 62
7
  6
CONTINUOUS
 70
0
 71
3
 72
10
 73
6
 74
0
 42
0.0000001
 43
0.0000001
 44
0.0000000001
 40
0.0
 40
0.0
 40
0.0
 40
0.0
 40
0.6526801422
 40
0.8674921753
 40
1.0
 40
1.0
 40
1.0
 40
1.0
 10
399.8092352065
 20
464.1491870831
 30
0.0
 10
400.0174316398
 20
464.1896757344
 30
0.0
 10
400.2920463754
 20
464.2548328825
 30
0.0
 10
400.6046817083
 20
464.3435751073
 30
0.0
 10
400.7123272197
 20
464.3775281819
 30
0.0
 10
400.7534743434
 20
464.3902202881
 30
0.0
  0
LINE
  5
2CD
100
AcDbEntity
  8
0
100
AcDbLine
 62
7
  6
CONTINUOUS
 10
400.7534743434
 20
464.3902202881
 11
400.777463452
 21
464.3974413662
  0
SPLINE
  5
2CE
100
AcDbEntity
  8
0
100
AcDbSpline
 62
7
  6
CONTINUOUS
 70
0
 71
3
 72
8
 73
4
 74
0
 42
0.0000001
 43
0.0000001
 44
0.0000000001
 40
0.0
 40
0.0
 40
0.0
 40
0.0
 40
1.0
 40
1.0
 40
1.0
 40
1.0
 10
397.3221755338
 20
464.0686470997
 30
0.0
 10
397.3030804128
 20
464.0709668509
 30
0.0
 10
397.2828638268
 20
464.067894239
 30
0.0
 10
397.2650159524
 20
464.0607207971
 30
0.0
  0
SPLINE
  5
2CF
100
AcDbEntity
  8
0
100
AcDbSpline
 62
7
  6
CONTINUOUS
 70
0
 71
3
 72
9
 73
5
 74
0
 42
0.0000001
 43
0.0000001
 44
0.0000000001
 40
0.0
 40
0.0
 40
0.0
 40
0.0
 40
0.216669951
 40
1.0
 40
1.0
 40
1.0
 40
1.0
 10
400.7829878389
 20
464.3987821685
 30
0.0
 10
400.7805181482
 20
464.398918629
 30
0.0
 10
400.7690930695
 20
464.3991312283
 30
0.0
 10
400.7577017757
 20
464.3974629738
 30
0.0
 10
400.7489377006
 20
464.3956863978
 30
0.0
  0
SPLINE
  5
2D0
100
AcDbEntity
  8
0
100
AcDbSpline
 62
7
  6
CONTINUOUS
 70
0
 71
3
 72
8
 73
4
 74
0
 42
0.0000001
 43
0.0000001
 44
0.0000000001
 40
0.0
 40
0.0
 40
0.0
 40
0.0
 40
1.0
 40
1.0
 40
1.0
 40
1.0
 10
396.4693759914
 20
464.191922188
 30
0.0
 10
396.4588589782
 20
464.1944772382
 30
0.0
 10
396.4483136291
 20
464.1969380391
 30
0.0
 10
396.4376952221
 20
464.1990321453
 30
0.0
  0
SPLINE
  5
2D1
100
AcDbEntity
  8
0
100
AcDbSpline
 62
7
  6
CONTINUOUS
 70
0
 71
3
 72
8
 73
4
 74
0
 42
0.0000001
 43
0.0000001
 44
0.0000000001
 40
0.0
 40
0.0
 40
0.0
 40
0.0
 40
1.0
 40
1.0
 40
1.0
 40
1.0
 10
396.4376952221
 20
464.1990321453
 30
0.0
 10
396.4278110736
 20
464.200981445
 30
0.0
 10
396.4178521798
 20
464.2026100229
 30
0.0
 10
396.4078429432
 20
464.203755162
 30
0.0
  0
SPLINE
  5
2D2
100
AcDbEntity
  8
0
100
AcDbSpline
 62
7
  6
CONTINUOUS
 70
0
 71
3
 72
12
 73
8
 74
0
 42
0.0000001
 43
0.0000001
 44
0.0000000001
 40
0.0
 40
0.0
 40
0.0
 40
0.0
 40
0.1938307039
 40
0.3579347685
 40
0.6326986516
 40
0.8498011439
 40
1.0
 40
1.0
 40
1.0
 40
1.0
 10
397.2650137363
 20
464.0607336101
 30
0.0
 10
397.2154619221
 20
464.0628969311
 30
0.0
 10
397.1246153226
 20
464.0762725702
 30
0.0
 10
396.9644735171
 20
464.0995213764
 30
0.0
 10
396.7991723334
 20
464.1288146733
 30
0.0
 10
396.6363645464
 20
464.1518791136
 30
0.0
 10
396.5449308327
 20
464.1739395758
 30
0.0
 10
396.5074481003
 20
464.1824382481
 30
0.0
  0
SPLINE
  5
2D3
100
AcDbEntity
  8
0
100
AcDbSpline
 62
7
  6
CONTINUOUS
 70
0
 71
3
 72
13
 73
9
 74
0
 42
0.0000001
 43
0.0000001
 44
0.0000000001
 40
0.0
 40
0.0
 40
0.0
 40
0.0
 40
0.2580810894
 40
0.5088019243
 40
0.632386199
 40
0.7550038637
 40
0.8775045942
 40
1.0
 40
1.0
 40
1.0
 40
1.0
 10
395.0420431695
 20
458.4100642696
 30
0.0
 10
395.1088791241
 20
458.6113740599
 30
0.0
 10
395.2690285736
 20
459.0010643903
 30
0.0
 10
395.5871050433
 20
459.4218427309
 30
0.0
 10
395.9015306784
 20
459.6848746668
 30
0.0
 10
396.1643263939
 20
459.8388702309
 30
0.0
 10
396.4483359258
 20
459.9455652826
 30
0.0
 10
396.6476534473
 20
459.9835130363
 30
0.0
 10
396.7480419998
 20
459.9911416661
 30
0.0
  0
SPLINE
  5
2D4
100
AcDbEntity
  8
0
100
AcDbSpline
 62
7
  6
CONTINUOUS
 70
0
 71
3
 72
11
 73
7
 74
0
 42
0.0000001
 43
0.0000001
 44
0.0000000001
 40
0.0
 40
0.0
 40
0.0
 40
0.0
 40
0.2458414597
 40
0.5023773188
 40
0.7577177802
 40
1.0
 40
1.0
 40
1.0
 40
1.0
 10
396.4078430237
 20
464.2037551894
 30
0.0
 10
396.034999429
 20
464.0771271371
 30
0.0
 10
395.3081364256
 20
463.6994198071
 30
0.0
 10
394.438472297
 20
462.8254590539
 30
0.0
 10
393.877752618
 20
461.7346764818
 30
0.0
 10
393.7347429826
 20
460.9374926876
 30
0.0
 10
393.7214133357
 20
460.5496623711
 30
0.0
  0
SPLINE
  5
2D5
100
AcDbEntity
  8
0
100
AcDbSpline
 62
7
  6
CONTINUOUS
 70
0
 71
3
 72
9
 73
5
 74
0
 42
0.0000001
 43
0.0000001
 44
0.0000000001
 40
0.0
 40
0.0
 40
0.0
 40
0.0
 40
0.2436103482
 40
1.0
 40
1.0
 40
1.0
 40
1.0
 10
396.7480229928
 20
459.9911246064
 30
0.0
 10
396.7357336215
 20
459.9316975874
 30
0.0
 10
396.6919003122
 20
459.6864202915
 30
0.0
 10
396.6714566438
 20
459.4370748545
 30
0.0
 10
396.6684031955
 20
459.2486795646
 30
0.0
  0
SPLINE
  5
2D6
100
AcDbEntity
  8
0
100
AcDbSpline
 62
7
  6
CONTINUOUS
 70
0
 71
3
 72
13
 73
9
 74
0
 42
0.0000001
 43
0.0000001
 44
0.0000000001
 40
0.0
 40
0.0
 40
0.0
 40
0.0
 40
0.026781072
 40
0.0831175146
 40
0.1716432993
 40
0.2905714066
 40
0.6073373165
 40
1.0
 40
1.0
 40
1.0
 40
1.0
 10
64.3856420001
 20
434.1049260389
 30
0.0
 10
64.3877225483
 20
434.1067468452
 30
0.0
 10
64.3979288237
 20
434.1040675177
 30
0.0
 10
64.4117715438
 20
434.0950492664
 30
0.0
 10
64.4340463765
 20
434.0782898274
 30
0.0
 10
64.4744841951
 20
434.0427980869
 30
0.0
 10
64.5358740055
 20
433.9828655121
 30
0.0
 10
64.5861047866
 20
433.929652373
 30
0.0
 10
64.613494336
 20
433.8997681365
 30
0.0
  0
SPLINE
  5
2D7
100
AcDbEntity
  8
0
100
AcDbSpline
 62
7
  6
CONTINUOUS
 70
0
 71
3
 72
10
 73
6
 74
0
 42
0.0000001
 43
0.0000001
 44
0.0000000001
 40
0.0
 40
0.0
 40
0.0
 40
0.0
 40
0.6986097243
 40
0.8956023337
 40
1.0
 40
1.0
 40
1.0
 40
1.0
 10
71.7280761598
 20
434.4574096639
 30
0.0
 10
71.7421998666
 20
434.4593880618
 30
0.0
 10
71.7609090748
 20
434.4612697887
 30
0.0
 10
71.7806244458
 20
434.4600610131
 30
0.0
 10
71.787089117
 20
434.4567611046
 30
0.0
 10
71.7876746029
 20
434.4547119042
 30
0.0
  0
SPLINE
  5
2D8
100
AcDbEntity
  8
0
100
AcDbSpline
 62
7
  6
CONTINUOUS
 70
0
 71
3
 72
12
 73
8
 74
0
 42
0.0000001
 43
0.0000001
 44
0.0000000001
 40
0.0
 40
0.0
 40
0.0
 40
0.0
 40
0.3760266616
 40
0.6930353681
 40
0.9073835354
 40
0.9678595767
 40
1.0
 40
1.0
 40
1.0
 40
1.0
 10
71.4445091578
 20
434.2563361167
 30
0.0
 10
71.4921210534
 20
434.2696674509
 30
0.0
 10
71.5807002353
 20
434.2920607012
 30
0.0
 10
71.6971872351
 20
434.3149202344
 30
0.0
 10
71.776162181
 20
434.3227492527
 30
0.0
 10
71.8152291556
 20
434.3203282864
 30
0.0
 10
71.8279581146
 20
434.3137196131
 30
0.0
 10
71.8291191098
 20
434.3096561298
 30
0.0
  0
LINE
  5
2D9
100
AcDbEntity
  8
0
100
AcDbLine
 62
7
  6
CONTINUOUS
 10
457.2893216915
 20
439.51006429
 11
457.2392202991
 21
439.4130880261
  0
SPLINE
  5
2DA
100
AcDbEntity
  8
0
100
AcDbSpline
 62
7
  6
CONTINUOUS
 70
0
 71
3
 72
9
 73
5
 74
0
 42
0.0000001
 43
0.0000001
 44
0.0000000001
 40
0.0
 40
0.0
 40
0.0
 40
0.0
 40
0.7603479246
 40
1.0
 40
1.0
 40
1.0
 40
1.0
 10
457.2392202991
 20
439.4130880261
 30
0.0
 10
457.1798986947
 20
439.2985353621
 30
0.0
 10
457.101221055
 20
439.1481572713
 30
0.0
 10
457.0166493519
 20
439.0010541986
 30
0.0
 10
456.9958836609
 20
438.9660972145
 30
0.0
  0
SPLINE
  5
2DB
100
AcDbEntity
  8
0
100
AcDbSpline
 62
7
  6
CONTINUOUS
 70
0
 71
3
 72
9
 73
5
 74
0
 42
0.0000001
 43
0.0000001
 44
0.0000000001
 40
0.0
 40
0.0
 40
0.0
 40
0.0
 40
0.2812489282
 40
1.0
 40
1.0
 40
1.0
 40
1.0
 10
456.9958836609
 20
438.9660972145
 30
0.0
 10
456.9716551216
 20
438.9253108685
 30
0.0
 10
456.8830286941
 20
438.7820906582
 30
0.0
 10
456.783250461
 20
438.6435493837
 30
0.0
 10
456.6963075917
 20
438.5590560847
 30
0.0
  0
SPLINE
  5
2DC
100
AcDbEntity
  8
0
100
AcDbSpline
 62
7
  6
CONTINUOUS
 70
0
 71
3
 72
8
 73
4
 74
0
 42
0.0000001
 43
0.0000001
 44
0.0000000001
 40
0.0
 40
0.0
 40
0.0
 40
0.0
 40
1.0
 40
1.0
 40
1.0
 40
1.0
 10
456.6963075917
 20
438.5590560847
 30
0.0
 10
456.6684242954
 20
438.5319583859
 30
0.0
 10
456.6386953936
 20
438.5064964818
 30
0.0
 10
456.6067959107
 20
438.4842661764
 30
0.0
  0
SPLINE
  5
2DD
100
AcDbEntity
  8
0
100
AcDbSpline
 62
7
  6
CONTINUOUS
 70
0
 71
3
 72
9
 73
5
 74
0
 42
0.0000001
 43
0.0000001
 44
0.0000000001
 40
0.0
 40
0.0
 40
0.0
 40
0.0
 40
0.2741866243
 40
1.0
 40
1.0
 40
1.0
 40
1.0
 10
456.6067959107
 20
438.4842661764
 30
0.0
 10
456.5900115428
 20
438.4725693841
 30
0.0
 10
456.526876954
 20
438.4331103023
 30
0.0
 10
456.4517254271
 20
438.4100557591
 30
0.0
 10
456.3975700018
 20
438.4100643841
 30
0.0
  0
SPLINE
  5
2DE
100
AcDbEntity
  8
0
100
AcDbSpline
 62
7
  6
CONTINUOUS
 70
0
 71
3
 72
9
 73
5
 74
0
 42
0.0000001
 43
0.0000001
 44
0.0000000001
 40
0.0
 40
0.0
 40
0.0
 40
0.0
 40
0.222044995
 40
1.0
 40
1.0
 40
1.0
 40
1.0
 10
64.18107325
 20
438.4100643937
 30
0.0
 10
64.155982906
 20
438.4100602641
 30
0.0
 10
64.0425709611
 20
438.4255049358
 30
0.0
 10
63.9455036528
 20
438.4976906253
 30
0.0
 10
63.8824516385
 20
438.5589439117
 30
0.0
  0
SPLINE
  5
2DF
100
AcDbEntity
  8
0
100
AcDbSpline
 62
7
  6
CONTINUOUS
 70
0
 71
3
 72
9
 73
5
 74
0
 42
0.0000001
 43
0.0000001
 44
0.0000000001
 40
0.0
 40
0.0
 40
0.0
 40
0.0
 40
0.2175524365
 40
1.0
 40
1.0
 40
1.0
 40
1.0
 10
63.8824516385
 20
438.5589439117
 30
0.0
 10
63.8561057939
 20
438.5845381704
 30
0.0
 10
63.742195962
 20
438.7095799976
 30
0.0
 10
63.6501946655
 20
438.8525742935
 30
0.0
 10
63.5827265163
 20
438.9661533699
 30
0.0
  0
SPLINE
  5
2E0
100
AcDbEntity
  8
0
100
AcDbSpline
 62
7
  6
CONTINUOUS
 70
0
 71
3
 72
9
 73
5
 74
0
 42
0.0000001
 43
0.0000001
 44
0.0000000001
 40
0.0
 40
0.0
 40
0.0
 40
0.0
 40
0.2396538288
 40
1.0
 40
1.0
 40
1.0
 40
1.0
 10
63.5827265163
 20
438.9661533699
 30
0.0
 10
63.5619634117
 20
439.0011069631
 30
0.0
 10
63.4774024925
 20
439.1481944033
 30
0.0
 10
63.3987339305
 20
439.2985558623
 30
0.0
 10
63.3394191621
 20
439.4130955331
 30
0.0
  0
LINE
  5
2E1
100
AcDbEntity
  8
0
100
AcDbLine
 62
7
  6
CONTINUOUS
 10
63.3394191621
 20
439.4130955331
 11
63.2893216916
 21
439.51006429
  0
SPLINE
  5
2E2
100
AcDbEntity
  8
0
100
AcDbSpline
 62
7
  6
CONTINUOUS
 70
0
 71
3
 72
8
 73
4
 74
0
 42
0.0000001
 43
0.0000001
 44
0.0000000001
 40
0.0
 40
0.0
 40
0.0
 40
0.0
 40
1.0
 40
1.0
 40
1.0
 40
1.0
 10
64.2274535316
 20
451.5443088436
 30
0.0
 10
64.0256923779
 20
451.3954325411
 30
0.0
 10
63.8564443428
 20
451.2296309804
 30
0.0
 10
63.7197094264
 20
451.0469041614
 30
0.0
  0
SPLINE
  5
2E3
100
AcDbEntity
  8
0
100
AcDbSpline
 62
7
  6
CONTINUOUS
 70
0
 71
3
 72
8
 73
4
 74
0
 42
0.0000001
 43
0.0000001
 44
0.0000000001
 40
0.0
 40
0.0
 40
0.0
 40
0.0
 40
1.0
 40
1.0
 40
1.0
 40
1.0
 10
63.4055416994
 20
450.4433935728
 30
0.0
 10
63.3342885782
 20
450.2265790889
 30
0.0
 10
63.2955485756
 20
449.9928393467
 30
0.0
 10
63.2893216916
 20
449.7421743462
 30
0.0
  0
SPLINE
  5
2E4
100
AcDbEntity
  8
0
100
AcDbSpline
 62
7
  6
CONTINUOUS
 70
0
 71
3
 72
8
 73
4
 74
0
 42
0.0000001
 43
0.0000001
 44
0.0000000001
 40
0.0
 40
0.0
 40
0.0
 40
0.0
 40
1.0
 40
1.0
 40
1.0
 40
1.0
 10
457.2893216916
 20
449.7421743462
 30
0.0
 10
457.2830948076
 20
449.9928393467
 30
0.0
 10
457.244354805
 20
450.2265790889
 30
0.0
 10
457.1731016838
 20
450.4433935729
 30
0.0
  0
SPLINE
  5
2E5
100
AcDbEntity
  8
0
100
AcDbSpline
 62
7
  6
CONTINUOUS
 70
0
 71
3
 72
8
 73
4
 74
0
 42
0.0000001
 43
0.0000001
 44
0.0000000001
 40
0.0
 40
0.0
 40
0.0
 40
0.0
 40
1.0
 40
1.0
 40
1.0
 40
1.0
 10
456.8589339566
 20
451.0469041616
 30
0.0
 10
456.7221990402
 20
451.2296309805
 30
0.0
 10
456.5529510052
 20
451.3954325412
 30
0.0
 10
456.3511898516
 20
451.5443088436
 30
0.0
  0
SPLINE
  5
2E6
100
AcDbEntity
  8
0
100
AcDbSpline
 62
7
  6
CONTINUOUS
 70
0
 71
3
 72
9
 73
5
 74
0
 42
0.0000001
 43
0.0000001
 44
0.0000000001
 40
0.0
 40
0.0
 40
0.0
 40
0.0
 40
0.2630117649
 40
1.0
 40
1.0
 40
1.0
 40
1.0
 10
448.4944749224
 20
457.8313508317
 30
0.0
 10
448.4613412781
 20
457.8619491876
 30
0.0
 10
448.3333115621
 20
457.9759905322
 30
0.0
 10
448.1963204868
 20
458.0803947794
 30
0.0
 10
448.0897717905
 20
458.1483562427
 30
0.0
  0
SPLINE
  5
2E7
100
AcDbEntity
  8
0
100
AcDbSpline
 62
7
  6
CONTINUOUS
 70
0
 71
3
 72
9
 73
5
 74
0
 42
0.0000001
 43
0.0000001
 44
0.0000000001
 40
0.0
 40
0.0
 40
0.0
 40
0.0
 40
0.2708096536
 40
1.0
 40
1.0
 40
1.0
 40
1.0
 10
448.0897717905
 20
458.1483562427
 30
0.0
 10
448.0245547992
 20
458.1899545195
 30
0.0
 10
447.7768411206
 20
458.3314108802
 30
0.0
 10
447.4886518549
 20
458.41006429
 30
0.0
 10
447.2803655671
 20
458.41006429
 30
0.0
  0
SPLINE
  5
2E8
100
AcDbEntity
  8
0
100
AcDbSpline
 62
7
  6
CONTINUOUS
 70
0
 71
3
 72
9
 73
5
 74
0
 42
0.0000001
 43
0.0000001
 44
0.0000000001
 40
0.0
 40
0.0
 40
0.0
 40
0.0
 40
0.2590262309
 40
1.0
 40
1.0
 40
1.0
 40
1.0
 10
451.1159485176
 20
455.21006429
 30
0.0
 10
450.9707754705
 20
455.3801745625
 30
0.0
 10
450.4101990307
 20
456.0363668567
 30
0.0
 10
449.8344585735
 20
456.6829522008
 30
0.0
 10
449.3682405221
 20
457.1210162409
 30
0.0
  0
SPLINE
  5
2E9
100
AcDbEntity
  8
0
100
AcDbSpline
 62
7
  6
CONTINUOUS
 70
0
 71
3
 72
8
 73
4
 74
0
 42
0.0000001
 43
0.0000001
 44
0.0000000001
 40
0.0
 40
0.0
 40
0.0
 40
0.0
 40
1.0
 40
1.0
 40
1.0
 40
1.0
 10
449.3682405221
 20
457.1210162409
 30
0.0
 10
449.2246260069
 20
457.2559581517
 30
0.0
 10
449.0769509696
 20
457.3868212445
 30
0.0
 10
448.9241407276
 20
457.5112538696
 30
0.0
  0
SPLINE
  5
2EA
100
AcDbEntity
  8
0
100
AcDbSpline
 62
7
  6
CONTINUOUS
 70
0
 71
3
 72
8
 73
4
 74
0
 42
0.0000001
 43
0.0000001
 44
0.0000000001
 40
0.0
 40
0.0
 40
0.0
 40
0.0
 40
1.0
 40
1.0
 40
1.0
 40
1.0
 10
448.8682677283
 20
457.5562696396
 30
0.0
 10
448.7472903666
 20
457.652689454
 30
0.0
 10
448.6228706117
 20
457.7450557007
 30
0.0
 10
448.4944749224
 20
457.8313508317
 30
0.0
  0
SPLINE
  5
2EB
100
AcDbEntity
  8
0
100
AcDbSpline
 62
7
  6
CONTINUOUS
 70
0
 71
3
 72
8
 73
4
 74
0
 42
0.0000001
 43
0.0000001
 44
0.0000000001
 40
0.0
 40
0.0
 40
0.0
 40
0.0
 40
1.0
 40
1.0
 40
1.0
 40
1.0
 10
72.0841684609
 20
457.8313508318
 30
0.0
 10
71.9557728312
 20
457.7450557409
 30
0.0
 10
71.8313531309
 20
457.6526895419
 30
0.0
 10
71.7103758205
 20
457.5562697785
 30
0.0
  0
SPLINE
  5
2EC
100
AcDbEntity
  8
0
100
AcDbSpline
 62
7
  6
CONTINUOUS
 70
0
 71
3
 72
8
 73
4
 74
0
 42
0.0000001
 43
0.0000001
 44
0.0000000001
 40
0.0
 40
0.0
 40
0.0
 40
0.0
 40
1.0
 40
1.0
 40
1.0
 40
1.0
 10
71.6545026313
 20
457.5112538586
 30
0.0
 10
71.5016912985
 20
457.3868203493
 30
0.0
 10
71.3540152424
 20
457.2559562817
 30
0.0
 10
71.2103997613
 20
457.1210133484
 30
0.0
  0
SPLINE
  5
2ED
100
AcDbEntity
  8
0
100
AcDbSpline
 62
7
  6
CONTINUOUS
 70
0
 71
3
 72
9
 73
5
 74
0
 42
0.0000001
 43
0.0000001
 44
0.0000000001
 40
0.0
 40
0.0
 40
0.0
 40
0.0
 40
0.2375367639
 40
1.0
 40
1.0
 40
1.0
 40
1.0
 10
71.2103997613
 20
457.1210133484
 30
0.0
 10
71.0609145884
 20
456.9805551781
 30
0.0
 10
70.4497364043
 20
456.3698449949
 30
0.0
 10
69.8901025822
 20
455.710890336
 30
0.0
 10
69.4626948655
 20
455.21006429
 30
0.0
  0
SPLINE
  5
2EE
100
AcDbEntity
  8
0
100
AcDbSpline
 62
7
  6
CONTINUOUS
 70
0
 71
3
 72
9
 73
5
 74
0
 42
0.0000001
 43
0.0000001
 44
0.0000000001
 40
0.0
 40
0.0
 40
0.0
 40
0.0
 40
0.2366266786
 40
1.0
 40
1.0
 40
1.0
 40
1.0
 10
73.2982778159
 20
458.41006429
 30
0.0
 10
73.2306262688
 20
458.41006429
 30
0.0
 10
72.9444285825
 20
458.386517707
 30
0.0
 10
72.6728758416
 20
458.2657222778
 30
0.0
 10
72.4888715926
 20
458.1483562427
 30
0.0
  0
SPLINE
  5
2EF
100
AcDbEntity
  8
0
100
AcDbSpline
 62
7
  6
CONTINUOUS
 70
0
 71
3
 72
9
 73
5
 74
0
 42
0.0000001
 43
0.0000001
 44
0.0000000001
 40
0.0
 40
0.0
 40
0.0
 40
0.0
 40
0.2373824086
 40
1.0
 40
1.0
 40
1.0
 40
1.0
 10
72.4888715926
 20
458.1483562427
 30
0.0
 10
72.4545497793
 20
458.1264642746
 30
0.0
 10
72.3124895519
 20
458.0302855148
 30
0.0
 10
72.1802488951
 20
457.9200794756
 30
0.0
 10
72.0841684609
 20
457.8313508318
 30
0.0
  0
LINE
  5
2F0
100
AcDbEntity
  8
0
100
AcDbLine
 62
7
  6
CONTINUOUS
 10
80.0127688127
 20
434.3997546965
 11
79.9086467495
 21
434.2751713099
  0
SPLINE
  5
2F1
100
AcDbEntity
  8
0
100
AcDbSpline
 62
7
  6
CONTINUOUS
 70
0
 71
3
 72
9
 73
5
 74
0
 42
0.0000001
 43
0.0000001
 44
0.0000000001
 40
0.0
 40
0.0
 40
0.0
 40
0.0
 40
0.2596861376
 40
1.0
 40
1.0
 40
1.0
 40
1.0
 10
79.9086467495
 20
434.2751713099
 30
0.0
 10
79.8295310951
 20
434.1806341955
 30
0.0
 10
79.5240279351
 20
433.8174825384
 30
0.0
 10
79.2085549486
 20
433.461301333
 30
0.0
 10
78.9557749494
 20
433.2171583722
 30
0.0
  0
SPLINE
  5
2F2
100
AcDbEntity
  8
0
100
AcDbSpline
 62
7
  6
CONTINUOUS
 70
0
 71
3
 72
9
 73
5
 74
0
 42
0.0000001
 43
0.0000001
 44
0.0000000001
 40
0.0
 40
0.0
 40
0.0
 40
0.0
 40
0.2908493817
 40
1.0
 40
1.0
 40
1.0
 40
1.0
 10
78.9557749494
 20
433.2171583722
 30
0.0
 10
78.8310854111
 20
433.0967292515
 30
0.0
 10
78.3931942063
 20
432.702017346
 30
0.0
 10
77.8112499607
 20
432.3997676786
 30
0.0
 10
77.3885839686
 20
432.3997676786
 30
0.0
  0
SPLINE
  5
2F3
100
AcDbEntity
  8
0
100
AcDbSpline
 62
7
  6
CONTINUOUS
 70
0
 71
3
 72
8
 73
4
 74
0
 42
0.0000001
 43
0.0000001
 44
0.0000000001
 40
0.0
 40
0.0
 40
0.0
 40
0.0
 40
1.0
 40
1.0
 40
1.0
 40
1.0
 10
59.8147779767
 20
257.5997676786
 30
0.0
 10
59.9228749329
 20
257.4299693769
 30
0.0
 10
60.0309597737
 20
257.2601509279
 30
0.0
 10
60.1411625096
 20
257.0917117038
 30
0.0
  0
SPLINE
  5
2F4
100
AcDbEntity
  8
0
100
AcDbSpline
 62
7
  6
CONTINUOUS
 70
0
 71
3
 72
9
 73
5
 74
0
 42
0.0000001
 43
0.0000001
 44
0.0000000001
 40
0.0
 40
0.0
 40
0.0
 40
0.0
 40
0.2677336748
 40
1.0
 40
1.0
 40
1.0
 40
1.0
 10
60.1411625096
 20
257.0917117038
 30
0.0
 10
60.2048044467
 20
256.9944382703
 30
0.0
 10
60.4452910619
 20
256.6332217099
 30
0.0
 10
60.7018794183
 20
256.2806439353
 30
0.0
 10
60.9145851497
 20
256.0443469686
 30
0.0
  0
SPLINE
  5
2F5
100
AcDbEntity
  8
0
100
AcDbSpline
 62
7
  6
CONTINUOUS
 70
0
 71
3
 72
9
 73
5
 74
0
 42
0.0000001
 43
0.0000001
 44
0.0000000001
 40
0.0
 40
0.0
 40
0.0
 40
0.0
 40
0.3000098681
 40
1.0
 40
1.0
 40
1.0
 40
1.0
 10
60.9145851497
 20
256.0443469686
 30
0.0
 10
61.0010711369
 20
255.9482688034
 30
0.0
 10
61.2971211057
 20
255.6433269386
 30
0.0
 10
61.7131611854
 20
255.3997676786
 30
0.0
 10
62.0147779767
 20
255.3997676786
 30
0.0
  0
SPLINE
  5
2F6
100
AcDbEntity
  8
0
100
AcDbSpline
 62
7
  6
CONTINUOUS
 70
0
 71
3
 72
9
 73
5
 74
0
 42
0.0000001
 43
0.0000001
 44
0.0000000001
 40
0.0
 40
0.0
 40
0.0
 40
0.0
 40
0.2138284694
 40
1.0
 40
1.0
 40
1.0
 40
1.0
 10
457.6147779768
 20
255.3997676786
 30
0.0
 10
457.707377358
 20
255.3997676786
 30
0.0
 10
458.1425482582
 20
255.4726488242
 30
0.0
 10
458.4867792958
 20
255.7909158165
 30
0.0
 10
458.7145888646
 20
256.0439227122
 30
0.0
  0
SPLINE
  5
2F7
100
AcDbEntity
  8
0
100
AcDbSpline
 62
7
  6
CONTINUOUS
 70
0
 71
3
 72
9
 73
5
 74
0
 42
0.0000001
 43
0.0000001
 44
0.0000000001
 40
0.0
 40
0.0
 40
0.0
 40
0.0
 40
0.2297866523
 40
1.0
 40
1.0
 40
1.0
 40
1.0
 10
458.7145888646
 20
256.0439227122
 30
0.0
 10
458.7813880441
 20
256.1181103467
 30
0.0
 10
459.0604972711
 20
256.4514333178
 30
0.0
 10
459.3051701
 20
256.811665525
 30
0.0
 10
459.4883692369
 20
257.0916748265
 30
0.0
  0
SPLINE
  5
2F8
100
AcDbEntity
  8
0
100
AcDbSpline
 62
7
  6
CONTINUOUS
 70
0
 71
3
 72
8
 73
4
 74
0
 42
0.0000001
 43
0.0000001
 44
0.0000000001
 40
0.0
 40
0.0
 40
0.0
 40
0.0
 40
1.0
 40
1.0
 40
1.0
 40
1.0
 10
459.4883692369
 20
257.0916748265
 30
0.0
 10
459.5985803463
 20
257.260126143
 30
0.0
 10
459.7066731244
 20
257.4299569736
 30
0.0
 10
459.8147779768
 20
257.5997676786
 30
0.0
  0
SPLINE
  5
2F9
100
AcDbEntity
  8
0
100
AcDbSpline
 62
7
  6
CONTINUOUS
 70
0
 71
3
 72
9
 73
5
 74
0
 42
0.0000001
 43
0.0000001
 44
0.0000000001
 40
0.0
 40
0.0
 40
0.0
 40
0.0
 40
0.57716686
 40
1.0
 40
1.0
 40
1.0
 40
1.0
 10
459.4928733151
 20
429.7033041398
 30
0.0
 10
459.114113012
 20
430.2908490715
 30
0.0
 10
458.4605217504
 20
431.2888787043
 30
0.0
 10
457.5270460301
 20
432.1713881441
 30
0.0
 10
457.0400753562
 20
432.3299129547
 30
0.0
  0
SPLINE
  5
2FA
100
AcDbEntity
  8
0
100
AcDbSpline
 62
7
  6
CONTINUOUS
 70
0
 71
3
 72
8
 73
4
 74
0
 42
0.0000001
 43
0.0000001
 44
0.0000000001
 40
0.0
 40
0.0
 40
0.0
 40
0.0
 40
1.0
 40
1.0
 40
1.0
 40
1.0
 10
457.0400753562
 20
432.3299129547
 30
0.0
 10
456.9034661345
 20
432.3743837045
 30
0.0
 10
456.7584433067
 20
432.3997676786
 30
0.0
 10
456.6147779767
 20
432.3997676786
 30
0.0
  0
SPLINE
  5
2FB
100
AcDbEntity
  8
0
100
AcDbSpline
 62
7
  6
CONTINUOUS
 70
0
 71
3
 72
8
 73
4
 74
0
 42
0.0000001
 43
0.0000001
 44
0.0000000001
 40
0.0
 40
0.0
 40
0.0
 40
0.0
 40
1.0
 40
1.0
 40
1.0
 40
1.0
 10
63.0147779768
 20
432.3997676786
 30
0.0
 10
62.8711312958
 20
432.3997676786
 30
0.0
 10
62.7261274509
 20
432.3743911291
 30
0.0
 10
62.5895342755
 20
432.3299313339
 30
0.0
  0
SPLINE
  5
2FC
100
AcDbEntity
  8
0
100
AcDbSpline
 62
7
  6
CONTINUOUS
 70
0
 71
3
 72
9
 73
5
 74
0
 42
0.0000001
 43
0.0000001
 44
0.0000000001
 40
0.0
 40
0.0
 40
0.0
 40
0.0
 40
0.4228290354
 40
1.0
 40
1.0
 40
1.0
 40
1.0
 10
62.5895342755
 20
432.3299313339
 30
0.0
 10
62.1025602097
 20
432.1714258509
 30
0.0
 10
61.1690625147
 20
431.2889205442
 30
0.0
 10
60.5154691127
 20
430.290888421
 30
0.0
 10
60.1367039588
 20
429.7033371054
 30
0.0
  0
SPLINE
  5
2FD
100
AcDbEntity
  8
0
100
AcDbSpline
 62
7
  6
CONTINUOUS
 70
0
 71
3
 72
9
 73
5
 74
0
 42
0.0000001
 43
0.0000001
 44
0.0000000001
 40
0.0
 40
0.0
 40
0.0
 40
0.0
 40
0.2199093578
 40
1.0
 40
1.0
 40
1.0
 40
1.0
 10
442.240971985
 20
432.3997676786
 30
0.0
 10
442.1092324169
 20
432.3997676786
 30
0.0
 10
441.5075081773
 20
432.4904978445
 30
0.0
 10
441.0094431456
 20
432.8929010435
 30
0.0
 10
440.6733349759
 20
433.2175893928
 30
0.0
  0
SPLINE
  5
2FE
100
AcDbEntity
  8
0
100
AcDbSpline
 62
7
  6
CONTINUOUS
 70
0
 71
3
 72
9
 73
5
 74
0
 42
0.0000001
 43
0.0000001
 44
0.0000000001
 40
0.0
 40
0.0
 40
0.0
 40
0.0
 40
0.2378160315
 40
1.0
 40
1.0
 40
1.0
 40
1.0
 10
440.6733349759
 20
433.2175893928
 30
0.0
 10
440.5921662273
 20
433.2960003015
 30
0.0
 10
440.2596686962
 20
433.6348774946
 30
0.0
 10
439.9530645811
 20
433.9977637465
 30
0.0
 10
439.7209319758
 20
434.2751441105
 30
0.0
  0
LINE
  5
2FF
100
AcDbEntity
  8
0
100
AcDbLine
 62
7
  6
CONTINUOUS
 10
439.7209319758
 20
434.2751441105
 11
439.6167871461
 21
434.3997547021
  0
ENDSEC
  0
SECTION
  2
OBJECTS
  0
DICTIONARY
  5
C
100
AcDbDictionary
280
0
281
1
  3
ACAD_GROUP
350
D
  3
ACAD_MLINESTYLE
350
17
  3
ACAD_LAYOUT
350
1A
  3
ACAD_PLOTSETTINGS
350
19
  3
ACAD_PLOTSTYLENAME
350
E
  0
DICTIONARY
  5
D
102
{ACAD_REACTORS
330
C
102
}
100
AcDbDictionary
280
0
281
1
  0
ACDBDICTIONARYWDFLT
  5
E
102
{ACAD_REACTORS
330
C
102
}
100
AcDbDictionary
281
1
  3
Normal
350
F
100
AcDbDictionaryWithDefault
340
F
  0
DICTIONARY
  5
17
102
{ACAD_REACTORS
330
C
102
}
100
AcDbDictionary
280
0
281
1
  3
Standard
350
18
  0
DICTIONARY
  5
19
102
{ACAD_REACTORS
330
C
102
}
100
AcDbDictionary
281
1
  0
DICTIONARY
  5
1A
102
{ACAD_REACTORS
330
C
102
}
100
AcDbDictionary
281
1
  3
Model
350
300
  3
Layout1
350
301
  0
ACDBPLACEHOLDER
  5
F
102
{ACAD_REACTORS
330
E
102
}
  0
MLINESTYLE
  5
18
102
{ACAD_REACTORS
330
17
102
}
100
AcDbMlineStyle
  2
STANDARD
 70
0
  3

 62
256
 51
90.0
 52
90.0
 71
2
 49
0.5
 62
256
  6
BYLAYER
 49
-0.5
 62
256
  6
BYLAYER
  0
LAYOUT
  5
300
102
{ACAD_REACTORS
330
1A
102
}
100
AcDbPlotSettings
  1

  2
none_device
  4

  6

 40
0.0
 41
0.0
 42
0.0
 43
0.0
 44
210.0
 45
297.0
 46
0.0
 47
0.0
 48
0.0
 49
0.0
140
0.0
141
0.0
142
1.0
143
1.0
 70
1024
 72
1
 73
0
 74
0
  7

 75
0
147
1.0
148
0.0
149
0.0
100
AcDbLayout
  1
Model
 70
0
 71
0
 10
0.0
 20
0.0
 11
210.0
 21
297.0
 12
0.0
 22
0.0
 32
0.0
 14
0.0
 24
0.0
 34
0.0
 15
0.0
 25
0.0
 35
0.0
146
0.0
 13
0.0
 23
0.0
 33
0.0
 16
1.0
 26
0.0
 36
0.0
 17
0.0
 27
1.0
 37
0.0
 76
0
330
210
345
0
346
0
  0
LAYOUT
  5
301
102
{ACAD_REACTORS
330
1A
102
}
100
AcDbPlotSettings
  1

  2
none_device
  4

  6

 40
0.0
 41
0.0
 42
0.0
 43
0.0
 44
210.0
 45
297.0
 46
0.0
 47
0.0
 48
0.0
 49
0.0
140
0.0
141
0.0
142
1.0
143
1.0
 70
0
 72
1
 73
0
 74
0
  7

 75
0
147
1.0
148
0.0
149
0.0
100
AcDbLayout
  1
Layout1
 70
0
 71
1
 10
0.0
 20
0.0
 11
210.0
 21
297.0
 12
0.0
 22
0.0
 32
0.0
 14
0.0
 24
0.0
 34
0.0
 15
0.0
 25
0.0
 35
0.0
146
0.0
 13
0.0
 23
0.0
 33
0.0
 16
1.0
 26
0.0
 36
0.0
 17
0.0
 27
1.0
 37
0.0
 76
0
330
211
345
0
346
0
  0
ENDSEC
  0
EOF
